  0
SECTION
  2
HEADER
  9
$ACADVER
  1
AC1015
  9
$ACADMAINTVER
 70
     6
  9
$DWGCODEPAGE
  3
ANSI_1252
  9
$INSBASE
 10
0.0
 20
0.0
 30
0.0
  9
$EXTMIN
 10
-6.241877241633119
 20
-130.3918379965962
 30
-0.0000000000000152
  9
$EXTMAX
 10
150.9841464877063
 20
15.93323257167685
 30
0.0000000000000154
  9
$LIMMIN
 10
-2514.35
 20
-1863.85
  9
$LIMMAX
 10
1691.35
 20
579.35
  9
$ORTHOMODE
 70
     1
  9
$REGENMODE
 70
     1
  9
$FILLMODE
 70
     1
  9
$QTEXTMODE
 70
     0
  9
$MIRRTEXT
 70
     1
  9
$LTSCALE
 40
30.0
  9
$ATTMODE
 70
     1
  9
$TEXTSIZE
 40
0.0
  9
$TRACEWID
 40
0.05
  9
$TEXTSTYLE
  7
Standard
  9
$CLAYER
  8
0
  9
$CELTYPE
  6
ByBlock
  9
$CECOLOR
 62
     3
  9
$CELTSCALE
 40
1.0
  9
$DISPSILH
 70
     0
  9
$DIMSCALE
 40
1.0
  9
$DIMASZ
 40
1.25
  9
$DIMEXO
 40
0.0
  9
$DIMDLI
 40
0.38
  9
$DIMRND
 40
0.0
  9
$DIMDLE
 40
0.0
  9
$DIMEXE
 40
0.75
  9
$DIMTP
 40
0.0
  9
$DIMTM
 40
0.0
  9
$DIMTXT
 40
2.5
  9
$DIMCEN
 40
0.09
  9
$DIMTSZ
 40
0.0
  9
$DIMTOL
 70
     0
  9
$DIMLIM
 70
     0
  9
$DIMTIH
 70
     0
  9
$DIMTOH
 70
     0
  9
$DIMSE1
 70
     0
  9
$DIMSE2
 70
     0
  9
$DIMTAD
 70
     1
  9
$DIMZIN
 70
     0
  9
$DIMBLK
  1

  9
$DIMASO
 70
     1
  9
$DIMSHO
 70
     1
  9
$DIMPOST
  1

  9
$DIMAPOST
  1

  9
$DIMALT
 70
     0
  9
$DIMALTD
 70
     2
  9
$DIMALTF
 40
25.4
  9
$DIMLFAC
 40
1.0
  9
$DIMTOFL
 70
     0
  9
$DIMTVP
 40
0.0
  9
$DIMTIX
 70
     0
  9
$DIMSOXD
 70
     0
  9
$DIMSAH
 70
     0
  9
$DIMBLK1
  1

  9
$DIMBLK2
  1

  9
$DIMSTYLE
  2
Standard
  9
$DIMCLRD
 70
     7
  9
$DIMCLRE
 70
     7
  9
$DIMCLRT
 70
     7
  9
$DIMTFAC
 40
0.8
  9
$DIMGAP
 40
1.25
  9
$DIMJUST
 70
     0
  9
$DIMSD1
 70
     0
  9
$DIMSD2
 70
     0
  9
$DIMTOLJ
 70
     1
  9
$DIMTZIN
 70
     0
  9
$DIMALTZ
 70
     0
  9
$DIMALTTZ
 70
     0
  9
$DIMUPT
 70
     0
  9
$DIMDEC
 70
     2
  9
$DIMTDEC
 70
     4
  9
$DIMALTU
 70
     2
  9
$DIMALTTD
 70
     2
  9
$DIMTXSTY
  7
Standard
  9
$DIMAUNIT
 70
     0
  9
$DIMADEC
 70
     0
  9
$DIMALTRND
 40
0.0
  9
$DIMAZIN
 70
     0
  9
$DIMDSEP
 70
    46
  9
$DIMATFIT
 70
     3
  9
$DIMFRAC
 70
     0
  9
$DIMLDRBLK
  1

  9
$DIMLUNIT
 70
     2
  9
$DIMLWD
 70
     0
  9
$DIMLWE
 70
     0
  9
$DIMTMOVE
 70
     0
  9
$LUNITS
 70
     2
  9
$LUPREC
 70
     4
  9
$SKETCHINC
 40
0.1
  9
$FILLETRAD
 40
0.0
  9
$AUNITS
 70
     0
  9
$AUPREC
 70
     0
  9
$MENU
  1
acad
  9
$ELEVATION
 40
0.0
  9
$PELEVATION
 40
0.0
  9
$THICKNESS
 40
0.0
  9
$LIMCHECK
 70
     0
  9
$CHAMFERA
 40
0.0
  9
$CHAMFERB
 40
0.0
  9
$CHAMFERC
 40
0.0
  9
$CHAMFERD
 40
0.0
  9
$SKPOLY
 70
     0
  9
$TDCREATE
 40
2455313.599048831
  9
$TDUCREATE
 40
2455313.515715498
  9
$TDUPDATE
 40
2456183.402308785
  9
$TDUUPDATE
 40
2456183.318975451
  9
$TDINDWG
 40
0.0042496991
  9
$TDUSRTIMER
 40
2456183.318872801
  9
$USRTIMER
 70
     1
  9
$ANGBASE
 50
0.0
  9
$ANGDIR
 70
     0
  9
$PDMODE
 70
     0
  9
$PDSIZE
 40
0.0
  9
$PLINEWID
 40
0.0
  9
$SPLFRAME
 70
     0
  9
$SPLINETYPE
 70
     6
  9
$SPLINESEGS
 70
     8
  9
$HANDSEED
  5
2398
  9
$SURFTAB1
 70
     6
  9
$SURFTAB2
 70
     6
  9
$SURFTYPE
 70
     6
  9
$SURFU
 70
     6
  9
$SURFV
 70
     6
  9
$UCSBASE
  2

  9
$UCSNAME
  2

  9
$UCSORG
 10
0.0
 20
0.0
 30
0.0
  9
$UCSXDIR
 10
1.0
 20
0.0
 30
0.0
  9
$UCSYDIR
 10
0.0
 20
1.0
 30
0.0
  9
$UCSORTHOREF
  2

  9
$UCSORTHOVIEW
 70
     0
  9
$UCSORGTOP
 10
0.0
 20
0.0
 30
0.0
  9
$UCSORGBOTTOM
 10
0.0
 20
0.0
 30
0.0
  9
$UCSORGLEFT
 10
0.0
 20
0.0
 30
0.0
  9
$UCSORGRIGHT
 10
0.0
 20
0.0
 30
0.0
  9
$UCSORGFRONT
 10
0.0
 20
0.0
 30
0.0
  9
$UCSORGBACK
 10
0.0
 20
0.0
 30
0.0
  9
$PUCSBASE
  2

  9
$PUCSNAME
  2

  9
$PUCSORG
 10
0.0
 20
0.0
 30
0.0
  9
$PUCSXDIR
 10
1.0
 20
0.0
 30
0.0
  9
$PUCSYDIR
 10
0.0
 20
1.0
 30
0.0
  9
$PUCSORTHOREF
  2

  9
$PUCSORTHOVIEW
 70
     0
  9
$PUCSORGTOP
 10
0.0
 20
0.0
 30
0.0
  9
$PUCSORGBOTTOM
 10
0.0
 20
0.0
 30
0.0
  9
$PUCSORGLEFT
 10
0.0
 20
0.0
 30
0.0
  9
$PUCSORGRIGHT
 10
0.0
 20
0.0
 30
0.0
  9
$PUCSORGFRONT
 10
0.0
 20
0.0
 30
0.0
  9
$PUCSORGBACK
 10
0.0
 20
0.0
 30
0.0
  9
$USERI1
 70
     0
  9
$USERI2
 70
     0
  9
$USERI3
 70
     0
  9
$USERI4
 70
     0
  9
$USERI5
 70
     0
  9
$USERR1
 40
0.0
  9
$USERR2
 40
0.0
  9
$USERR3
 40
0.0
  9
$USERR4
 40
0.0
  9
$USERR5
 40
0.0
  9
$WORLDVIEW
 70
     1
  9
$SHADEDGE
 70
     3
  9
$SHADEDIF
 70
    70
  9
$TILEMODE
 70
     1
  9
$MAXACTVP
 70
    16
  9
$PINSBASE
 10
0.0
 20
0.0
 30
0.0
  9
$PLIMCHECK
 70
     0
  9
$PEXTMIN
 10
1.000000000000000E+20
 20
1.000000000000000E+20
 30
1.000000000000000E+20
  9
$PEXTMAX
 10
-1.000000000000000E+20
 20
-1.000000000000000E+20
 30
-1.000000000000000E+20
  9
$PLIMMIN
 10
0.0
 20
0.0
  9
$PLIMMAX
 10
0.0
 20
0.0
  9
$UNITMODE
 70
     0
  9
$VISRETAIN
 70
     0
  9
$PLINEGEN
 70
     1
  9
$PSLTSCALE
 70
     0
  9
$TREEDEPTH
 70
  3020
  9
$CMLSTYLE
  2
Standard
  9
$CMLJUST
 70
     0
  9
$CMLSCALE
 40
1.0
  9
$PROXYGRAPHICS
 70
     0
  9
$MEASUREMENT
 70
     1
  9
$CELWEIGHT
370
     0
  9
$ENDCAPS
280
     0
  9
$JOINSTYLE
280
     0
  9
$LWDISPLAY
290
     0
  9
$INSUNITS
 70
     0
  9
$HYPERLINKBASE
  1

  9
$STYLESHEET
  1

  9
$XEDIT
290
     1
  9
$CEPSNTYPE
380
     0
  9
$PSTYLEMODE
290
     1
  9
$FINGERPRINTGUID
  2

  9
$VERSIONGUID
  2
{0A897B20-AF30-4758-A4DE-DB64E3AABFC7}
  9
$EXTNAMES
290
     1
  9
$PSVPSCALE
 40
0.0
  9
$OLESTARTUP
290
     0
  0
ENDSEC
  0
SECTION
  2
CLASSES
  0
CLASS
  1
IMAGE
  2
AcDbRasterImage
  3
ISM
 90
      127
280
     0
281
     1
  0
CLASS
  1
DICTIONARYVAR
  2
AcDbDictionaryVar
  3
ObjectDBX Classes
 90
        0
280
     0
281
     0
  0
CLASS
  1
RASTERVARIABLES
  2
AcDbRasterVariables
  3
ISM
 90
        0
280
     0
281
     0
  0
CLASS
  1
IMAGEDEF
  2
AcDbRasterImageDef
  3
ISM
 90
        0
280
     0
281
     0
  0
CLASS
  1
IMAGEDEF_REACTOR
  2
AcDbRasterImageDefReactor
  3
ISM
 90
        1
280
     0
281
     0
  0
CLASS
  1
IDBUFFER
  2
AcDbIdBuffer
  3
ObjectDBX Classes
 90
        0
280
     0
281
     0
  0
CLASS
  1
SPATIAL_FILTER
  2
AcDbSpatialFilter
  3
ObjectDBX Classes
 90
        0
280
     0
281
     0
  0
CLASS
  1
SORTENTSTABLE
  2
AcDbSortentsTable
  3
ObjectDBX Classes
 90
        0
280
     0
281
     0
  0
CLASS
  1
LAYER_INDEX
  2
AcDbLayerIndex
  3
ObjectDBX Classes
 90
        0
280
     0
281
     0
  0
CLASS
  1
SPATIAL_INDEX
  2
AcDbSpatialIndex
  3
AutoCAD 2000
 90
        0
280
     0
281
     0
  0
CLASS
  1
OBJECT_PTR
  2
CAseDLPNTableRecord
  3
ASE-LPNTableRecord
 90
        1
280
     0
281
     0
  0
CLASS
  1
LAYOUT
  2
AcDbLayout
  3
ObjectDBX Classes
 90
        0
280
     0
281
     0
  0
CLASS
  1
PLOTSETTINGS
  2
AcDbPlotSettings
  3
ObjectDBX Classes
 90
        0
280
     0
281
     0
  0
CLASS
  1
ACDBDICTIONARYWDFLT
  2
AcDbDictionaryWithDefault
  3
ObjectDBX Classes
 90
        0
280
     0
281
     0
  0
CLASS
  1
ACDBPLACEHOLDER
  2
AcDbPlaceHolder
  3
ObjectDBX Classes
 90
        0
280
     0
281
     0
  0
CLASS
  1
VBA_PROJECT
  2
AcDbVbaProject
  3
ObjectDBX Classes
 90
        0
280
     0
281
     0
  0
CLASS
  1
WIPEOUT
  2
AcDbWipeout
  3
WipeOut|AutoCAD Express Tool|expresstools@autodesk.com
 90
      127
280
     0
281
     1
  0
CLASS
  1
WIPEOUTVARIABLES
  2
AcDbWipeoutVariables
  3
WipeOut|AutoCAD Express Tool|expresstools@autodesk.com
 90
        0
280
     0
281
     0
  0
CLASS
  1
RTEXT
  2
RText
  3
RText|AutoCAD Express Tool|expresstools@autodesk.com
 90
        0
280
     0
281
     1
  0
CLASS
  1
ARCALIGNEDTEXT
  2
AcDbArcAlignedText
  3
ATEXT|AutoCAD Express Tool|expresstools@autodesk.com
 90
        0
280
     0
281
     1
  0
CLASS
  1
MATERIAL
  2
AcDbMaterial
  3
ObjectDBX Classes
 90
     1153
280
     0
281
     0
  0
CLASS
  1
VISUALSTYLE
  2
AcDbVisualStyle
  3
ObjectDBX Classes
 90
     4095
280
     0
281
     0
  0
CLASS
  1
TABLESTYLE
  2
AcDbTableStyle
  3
ObjectDBX Classes
 90
     4095
280
     0
281
     0
  0
CLASS
  1
SCALE
  2
AcDbScale
  3
ObjectDBX Classes
 90
     1153
280
     0
281
     0
  0
CLASS
  1
MLEADERSTYLE
  2
AcDbMLeaderStyle
  3
ACDB_MLEADERSTYLE_CLASS
 90
     4095
280
     0
281
     0
  0
CLASS
  1
CELLSTYLEMAP
  2
AcDbCellStyleMap
  3
ObjectDBX Classes
 90
     1152
280
     0
281
     0
  0
ENDSEC
  0
SECTION
  2
TABLES
  0
TABLE
  2
VPORT
  5
7
330
0
100
AcDbSymbolTable
 70
     1
  0
VPORT
  5
15
330
7
100
AcDbSymbolTableRecord
100
AcDbViewportTableRecord
  2
*ACTIVE
 70
     0
 10
0.0
 20
0.0
 11
1.0
 21
1.0
 12
2323.828035470306
 22
1365.755035097456
 13
0.0
 23
0.0
 14
1.0
 24
1.0
 15
0.0
 25
0.0
 16
0.0
 26
0.0
 36
1.0
 17
0.0
 27
0.0
 37
0.0
 40
3536.892729583261
 41
2.274173806609547
 42
50.0
 43
0.0
 44
0.0
 50
0.0
 51
0.0
 71
    16
 72
   100
 73
     1
 74
     1
 75
     0
 76
     0
 77
     0
 78
     0
281
     0
 65
     0
110
0.0
120
0.0
130
0.0
111
1.0
121
0.0
131
0.0
112
0.0
122
1.0
132
0.0
 79
     0
146
0.0
  0
ENDTAB
  0
TABLE
  2
LTYPE
  5
4
330
0
100
AcDbSymbolTable
 70
     3
  0
LTYPE
  5
11
330
4
100
AcDbSymbolTableRecord
100
AcDbLinetypeTableRecord
  2
ByBlock
 70
     0
  3

 72
    65
 73
     0
 40
0.0
  0
LTYPE
  5
12
330
4
100
AcDbSymbolTableRecord
100
AcDbLinetypeTableRecord
  2
ByLayer
 70
     0
  3

 72
    65
 73
     0
 40
0.0
  0
LTYPE
  5
13
330
4
100
AcDbSymbolTableRecord
100
AcDbLinetypeTableRecord
  2
Continuous
 70
     0
  3
Solid line
 72
    65
 73
     0
 40
0.0
  0
LTYPE
  5
D45
330
4
100
AcDbSymbolTableRecord
100
AcDbLinetypeTableRecord
  2
HIDDEN
 70
     0
  3
Hidden __ __ __ __ __ __ __ __ __ __ __ __ __ __
 72
    65
 73
     2
 40
1.905
 49
1.27
 74
     0
 49
-0.635
 74
     0
  0
LTYPE
  5
D46
330
4
100
AcDbSymbolTableRecord
100
AcDbLinetypeTableRecord
  2
CENTER
 70
     0
  3
Center ____ _ ____ _ ____ _ ____ _ ____ _ ____
 72
    65
 73
     4
 40
10.16
 49
6.35
 74
     0
 49
-1.27
 74
     0
 49
1.27
 74
     0
 49
-1.27
 74
     0
  0
ENDTAB
  0
TABLE
  2
LAYER
  5
2
330
0
100
AcDbSymbolTable
 70
     2
  0
LAYER
  5
14
102
{ACAD_XDICTIONARY
360
546
102
}
330
2
100
AcDbSymbolTableRecord
100
AcDbLayerTableRecord
  2
0
 70
     0
 62
     7
  6
Continuous
370
    -3
390
1D
  0
LAYER
  5
CFE
330
2
100
AcDbSymbolTableRecord
100
AcDbLayerTableRecord
  2
Defpoints
 70
     0
 62
     7
  6
Continuous
290
     0
370
    -3
390
1D
  0
ENDTAB
  0
TABLE
  2
STYLE
  5
3
330
0
100
AcDbSymbolTable
 70
     1
  0
STYLE
  5
17
330
3
100
AcDbSymbolTableRecord
100
AcDbTextStyleTableRecord
  2
Standard
 70
     0
 40
0.0
 41
1.0
 50
0.0
 71
     0
 42
0.0
  3
I011000D.TTF
  4

1001
ACAD
1000
IsonormD
1071
        0
  0
ENDTAB
  0
TABLE
  2
VIEW
  5
5
330
0
100
AcDbSymbolTable
 70
     0
  0
ENDTAB
  0
TABLE
  2
UCS
  5
6
330
0
100
AcDbSymbolTable
 70
     0
  0
ENDTAB
  0
TABLE
  2
APPID
  5
8
330
0
100
AcDbSymbolTable
 70
     5
  0
APPID
  5
16
330
8
100
AcDbSymbolTableRecord
100
AcDbRegAppTableRecord
  2
ACAD
 70
     0
  0
APPID
  5
26
330
8
100
AcDbSymbolTableRecord
100
AcDbRegAppTableRecord
  2
TopSolid_Draft
 70
     0
  0
APPID
  5
53E
330
8
100
AcDbSymbolTableRecord
100
AcDbRegAppTableRecord
  2
ACAD_MLEADERVER
 70
     0
  0
APPID
  5
544
330
8
100
AcDbSymbolTableRecord
100
AcDbRegAppTableRecord
  2
DCO15
 70
     0
  0
APPID
  5
D31
330
8
100
AcDbSymbolTableRecord
100
AcDbRegAppTableRecord
  2
ACAD_EXEMPT_FROM_CAD_STANDARDS
 70
     0
  0
ENDTAB
  0
TABLE
  2
DIMSTYLE
  5
9
330
0
100
AcDbSymbolTable
 70
     2
100
AcDbDimStyleTable
  0
DIMSTYLE
105
18
330
9
100
AcDbSymbolTableRecord
100
AcDbDimStyleTableRecord
  2
Standard
 70
     0
 41
1.25
 42
0.0
 44
0.75
 73
     0
 74
     0
 77
     1
140
2.5
146
0.8
147
1.25
176
     7
177
     7
271
     2
178
     7
271
     2
340
17
  0
DIMSTYLE
105
D47
330
9
100
AcDbSymbolTableRecord
100
AcDbDimStyleTableRecord
  2
ISO-25
 70
     0
 41
2.5
 42
0.625
 43
3.75
 44
1.25
 73
     0
 74
     0
 77
     1
 78
     8
140
2.5
141
2.5
143
0.03937007874016
147
0.625
171
     3
172
     1
178
     0
271
     2
272
     2
274
     3
278
    44
283
     0
284
     8
340
17
  0
ENDTAB
  0
TABLE
  2
BLOCK_RECORD
  5
1
330
0
100
AcDbSymbolTable
 70
     2
  0
BLOCK_RECORD
  5
A
102
{ACAD_XDICTIONARY
360
90F
102
}
330
1
100
AcDbSymbolTableRecord
100
AcDbBlockTableRecord
  2
*MODEL_SPACE
340
20
  0
BLOCK_RECORD
  5
B
330
1
100
AcDbSymbolTableRecord
100
AcDbBlockTableRecord
  2
*PAPER_SPACE
340
21
  0
BLOCK_RECORD
  5
D6B
330
1
100
AcDbSymbolTableRecord
100
AcDbBlockTableRecord
  2
PORTA-FRO
340
0
102
{BLKREFS
331
2137
331
223F
102
}
  0
BLOCK_RECORD
  5
DB2
330
1
100
AcDbSymbolTableRecord
100
AcDbBlockTableRecord
  2
BF40-FRO
340
0
  0
ENDTAB
  0
ENDSEC
  0
SECTION
  2
BLOCKS
  0
BLOCK
  5
D
330
A
100
AcDbEntity
  8
0
100
AcDbBlockBegin
  2
*MODEL_SPACE
 70
     0
 10
0.0
 20
0.0
 30
0.0
  3
*MODEL_SPACE
  1

  0
ENDBLK
  5
E
330
A
100
AcDbEntity
  8
0
100
AcDbBlockEnd
  0
BLOCK
  5
F
330
B
100
AcDbEntity
 67
     1
  8
0
100
AcDbBlockBegin
  2
*PAPER_SPACE
 70
     0
 10
0.0
 20
0.0
 30
0.0
  3
*PAPER_SPACE
  1

  0
ENDBLK
  5
10
330
B
100
AcDbEntity
 67
     1
  8
0
100
AcDbBlockEnd
  0
BLOCK
  5
D6C
330
D6B
100
AcDbEntity
  8
0
100
AcDbBlockBegin
  2
PORTA-FRO
 70
     0
 10
0.0
 20
0.0
 30
0.0
  3
PORTA-FRO
  1

  0
LINE
  5
D6D
330
D6B
100
AcDbEntity
  8
0
  6
Continuous
 62
     7
370
    15
100
AcDbLine
 10
0.0
 20
-216.0000076517463
 30
0.0
 11
86.00000143051145
 21
-216.0000076517463
 31
0.0
  0
LINE
  5
D6F
330
D6B
100
AcDbEntity
  8
0
  6
Continuous
 62
     7
370
    15
100
AcDbLine
 10
63.50001096725472
 20
0.0
 30
0.0
 11
22.50000238418585
 21
0.0
 31
0.0
  0
LINE
  5
D70
330
D6B
100
AcDbEntity
  8
0
  6
Continuous
 62
     7
370
    15
100
AcDbLine
 10
7.500004768371639
 20
0.0
 30
0.0
 11
0.0
 21
0.0
 31
0.0
  0
LINE
  5
D71
330
D6B
100
AcDbEntity
  8
0
  6
Continuous
 62
     7
370
    15
100
AcDbLine
 10
0.0
 20
0.0
 30
0.0
 11
0.0
 21
-216.0000076517463
 31
0.0
  0
LINE
  5
D72
330
D6B
100
AcDbEntity
  8
0
  6
Continuous
 62
     7
370
    15
100
AcDbLine
 10
86.00000143051145
 20
-216.0000076517463
 30
0.0
 11
86.00000143051145
 21
0.0
 31
0.0
  0
LINE
  5
D73
330
D6B
100
AcDbEntity
  8
0
  6
Continuous
 62
     7
370
    15
100
AcDbLine
 10
86.00000143051145
 20
0.0
 30
0.0
 11
78.49999666213998
 21
0.0
 31
0.0
  0
LINE
  5
D75
330
D6B
100
AcDbEntity
  8
0
  6
Continuous
 62
     7
370
    15
100
AcDbLine
 10
63.50001096725472
 20
0.0
 30
0.0
 11
63.50001096725472
 21
-0.600004196167049
 31
0.0
  0
LINE
  5
D76
330
D6B
100
AcDbEntity
  8
0
  6
Continuous
 62
     7
370
    15
100
AcDbLine
 10
78.49999666213998
 20
-0.600004196167049
 30
0.0
 11
78.49999666213998
 21
0.0
 31
0.0
  0
LINE
  5
D77
330
D6B
100
AcDbEntity
  8
0
  6
Continuous
 62
     7
370
    15
100
AcDbLine
 10
78.49999666213998
 20
0.0
 30
0.0
 11
63.50001096725472
 21
0.0
 31
0.0
  0
LINE
  5
D78
330
D6B
100
AcDbEntity
  8
0
  6
Continuous
 62
     7
370
    15
100
AcDbLine
 10
63.50001096725472
 20
-0.600004196167049
 30
0.0
 11
63.50001096725472
 21
-2.900004386901855
 31
0.0
  0
LINE
  5
D79
330
D6B
100
AcDbEntity
  8
0
  6
Continuous
 62
     7
370
    15
100
AcDbLine
 10
78.49999666213998
 20
-2.900004386901855
 30
0.0
 11
78.49999666213998
 21
-0.600004196167049
 31
0.0
  0
LINE
  5
D7A
330
D6B
100
AcDbEntity
  8
0
  6
Continuous
 62
     7
370
    15
100
AcDbLine
 10
78.49999666213998
 20
-0.600004196167049
 30
0.0
 11
63.50001096725472
 21
-0.600004196167049
 31
0.0
  0
CIRCLE
  5
D7B
330
D6B
100
AcDbEntity
  8
0
  6
Continuous
 62
     7
370
    15
100
AcDbCircle
 10
67.65000429154824
 20
-1.750007629393735
 30
0.0
 40
0.3900000000040222
  0
LINE
  5
D7C
330
D6B
100
AcDbEntity
  8
0
  6
Continuous
 62
     7
370
    15
100
AcDbLine
 10
63.50001096725472
 20
-2.900004386901855
 30
0.0
 11
63.50001096725472
 21
-3.500008583068904
 31
0.0
  0
LINE
  5
D7D
330
D6B
100
AcDbEntity
  8
0
  6
Continuous
 62
     7
370
    15
100
AcDbLine
 10
63.50001096725472
 20
-3.500008583068904
 30
0.0
 11
64.02190923690804
 21
-3.500008583068904
 31
0.0
  0
ARC
  5
D7E
330
D6B
100
AcDbEntity
  8
0
  6
Continuous
 62
     7
370
    15
100
AcDbCircle
 10
64.10000429154829
 20
-3.80000762939369
 30
0.0
 40
0.3099999999999575
100
AcDbArc
 50
75.40744939797358
 51
104.5925506020264
  0
LINE
  5
D7F
330
D6B
100
AcDbEntity
  8
0
  6
Continuous
 62
     7
370
    15
100
AcDbLine
 10
64.17809724807736
 20
-3.500008583068904
 30
0.0
 11
68.66999864578256
 21
-3.500008583068904
 31
0.0
  0
LINE
  5
D80
330
D6B
100
AcDbEntity
  8
0
  6
Continuous
 62
     7
370
    15
100
AcDbLine
 10
68.66999864578256
 20
-3.18000316619873
 30
0.0
 11
68.66999864578256
 21
-3.500008583068904
 31
0.0
  0
LINE
  5
D81
330
D6B
100
AcDbEntity
  8
0
  6
Continuous
 62
     7
370
    15
100
AcDbLine
 10
70.06999254226693
 20
-3.18000316619873
 30
0.0
 11
68.66999864578256
 21
-3.18000316619873
 31
0.0
  0
LINE
  5
D82
330
D6B
100
AcDbEntity
  8
0
  6
Continuous
 62
     7
370
    15
100
AcDbLine
 10
70.06999254226693
 20
-3.500008583068904
 30
0.0
 11
70.06999254226693
 21
-3.18000316619873
 31
0.0
  0
LINE
  5
D83
330
D6B
100
AcDbEntity
  8
0
  6
Continuous
 62
     7
370
    15
100
AcDbLine
 10
70.06999254226693
 20
-3.500008583068904
 30
0.0
 11
77.82191038131711
 21
-3.500008583068904
 31
0.0
  0
ARC
  5
D84
330
D6B
100
AcDbEntity
  8
0
  6
Continuous
 62
     7
370
    15
100
AcDbCircle
 10
77.90000429154836
 20
-3.80000762939369
 30
0.0
 40
0.3099999999999982
100
AcDbArc
 50
75.40744939797622
 51
104.5925506020238
  0
LINE
  5
D85
330
D6B
100
AcDbEntity
  8
0
  6
Continuous
 62
     7
370
    15
100
AcDbLine
 10
77.97809839248666
 20
-3.500008583068904
 30
0.0
 11
78.49999666213998
 21
-3.500008583068904
 31
0.0
  0
LINE
  5
D86
330
D6B
100
AcDbEntity
  8
0
  6
Continuous
 62
     7
370
    15
100
AcDbLine
 10
78.49999666213998
 20
-3.500008583068904
 30
0.0
 11
78.49999666213998
 21
-2.900004386901855
 31
0.0
  0
LINE
  5
D87
330
D6B
100
AcDbEntity
  8
0
  6
Continuous
 62
     7
370
    15
100
AcDbLine
 10
78.49999666213998
 20
-2.900004386901855
 30
0.0
 11
63.50001096725472
 21
-2.900004386901855
 31
0.0
  0
LINE
  5
D88
330
D6B
100
AcDbEntity
  8
0
  6
Continuous
 62
     7
370
    15
100
AcDbLine
 10
7.500004768371639
 20
-2.900004386901855
 30
0.0
 11
7.500004768371639
 21
-3.500008583068904
 31
0.0
  0
LINE
  5
D89
330
D6B
100
AcDbEntity
  8
0
  6
Continuous
 62
     7
370
    15
100
AcDbLine
 10
7.500004768371639
 20
-3.500008583068904
 30
0.0
 11
8.02190303802496
 21
-3.500008583068904
 31
0.0
  0
ARC
  5
D8A
330
D6B
100
AcDbEntity
  8
0
  6
Continuous
 62
     7
370
    15
100
AcDbCircle
 10
8.10000429154843
 20
-3.800007629393747
 30
0.0
 40
0.3099999999999575
100
AcDbArc
 50
75.40744939797358
 51
104.5925506020366
  0
LINE
  5
D8B
330
D6B
100
AcDbEntity
  8
0
  6
Continuous
 62
     7
370
    15
100
AcDbLine
 10
8.178102970123291
 20
-3.500008583068904
 30
0.0
 11
12.67000436782843
 21
-3.500008583068904
 31
0.0
  0
LINE
  5
D8C
330
D6B
100
AcDbEntity
  8
0
  6
Continuous
 62
     7
370
    15
100
AcDbLine
 10
12.67000436782843
 20
-3.18000316619873
 30
0.0
 11
12.67000436782843
 21
-3.500008583068904
 31
0.0
  0
LINE
  5
D8D
330
D6B
100
AcDbEntity
  8
0
  6
Continuous
 62
     7
370
    15
100
AcDbLine
 10
14.0700101852417
 20
-3.18000316619873
 30
0.0
 11
12.67000436782843
 21
-3.18000316619873
 31
0.0
  0
LINE
  5
D8E
330
D6B
100
AcDbEntity
  8
0
  6
Continuous
 62
     7
370
    15
100
AcDbLine
 10
14.0700101852417
 20
-3.500008583068904
 30
0.0
 11
14.0700101852417
 21
-3.18000316619873
 31
0.0
  0
LINE
  5
D8F
330
D6B
100
AcDbEntity
  8
0
  6
Continuous
 62
     7
370
    15
100
AcDbLine
 10
14.0700101852417
 20
-3.500008583068904
 30
0.0
 11
21.82190418243408
 21
-3.500008583068904
 31
0.0
  0
ARC
  5
D90
330
D6B
100
AcDbEntity
  8
0
  6
Continuous
 62
     7
370
    15
100
AcDbCircle
 10
21.90000429154838
 20
-3.80000762939369
 30
0.0
 40
0.3099999999999718
100
AcDbArc
 50
75.40744939795323
 51
104.5925506020315
  0
LINE
  5
D91
330
D6B
100
AcDbEntity
  8
0
  6
Continuous
 62
     7
370
    15
100
AcDbLine
 10
21.97810411453253
 20
-3.500008583068904
 30
0.0
 11
22.50000238418585
 21
-3.500008583068904
 31
0.0
  0
LINE
  5
D92
330
D6B
100
AcDbEntity
  8
0
  6
Continuous
 62
     7
370
    15
100
AcDbLine
 10
22.50000238418585
 20
-3.500008583068904
 30
0.0
 11
22.50000238418585
 21
-2.900004386901855
 31
0.0
  0
LINE
  5
D93
330
D6B
100
AcDbEntity
  8
0
  6
Continuous
 62
     7
370
    15
100
AcDbLine
 10
7.500004768371639
 20
-0.600004196167049
 30
0.0
 11
7.500004768371639
 21
-2.900004386901855
 31
0.0
  0
LINE
  5
D94
330
D6B
100
AcDbEntity
  8
0
  6
Continuous
 62
     7
370
    15
100
AcDbLine
 10
22.50000238418585
 20
-2.900004386901855
 30
0.0
 11
22.50000238418585
 21
-0.600004196167049
 31
0.0
  0
LINE
  5
D95
330
D6B
100
AcDbEntity
  8
0
  6
Continuous
 62
     7
370
    15
100
AcDbLine
 10
22.50000238418585
 20
-2.900004386901855
 30
0.0
 11
7.500004768371639
 21
-2.900004386901855
 31
0.0
  0
CIRCLE
  5
D96
330
D6B
100
AcDbEntity
  8
0
  6
Continuous
 62
     7
370
    15
100
AcDbCircle
 10
11.65000429154838
 20
-1.750007629393792
 30
0.0
 40
0.3900000000040791
  0
LINE
  5
D97
330
D6B
100
AcDbEntity
  8
0
  6
Continuous
 62
     7
370
    15
100
AcDbLine
 10
7.500004768371639
 20
0.0
 30
0.0
 11
7.500004768371639
 21
-0.600004196167049
 31
0.0
  0
LINE
  5
D98
330
D6B
100
AcDbEntity
  8
0
  6
Continuous
 62
     7
370
    15
100
AcDbLine
 10
22.50000238418585
 20
-0.600004196167049
 30
0.0
 11
7.500004768371639
 21
-0.600004196167049
 31
0.0
  0
LINE
  5
D99
330
D6B
100
AcDbEntity
  8
0
  6
Continuous
 62
     7
370
    15
100
AcDbLine
 10
22.50000238418585
 20
-0.600004196167049
 30
0.0
 11
22.50000238418585
 21
0.0
 31
0.0
  0
LINE
  5
D9A
330
D6B
100
AcDbEntity
  8
0
  6
Continuous
 62
     7
370
    15
100
AcDbLine
 10
22.50000238418585
 20
0.0
 30
0.0
 11
7.500004768371639
 21
0.0
 31
0.0
  0
CIRCLE
  5
D9B
330
D6B
100
AcDbEntity
  8
0
  6
Continuous
 62
     7
370
    15
100
AcDbCircle
 10
76.50000429153326
 20
-1.500007629394474
 30
0.0
 40
0.3249999999980341
  0
CIRCLE
  5
D9C
330
D6B
100
AcDbEntity
  8
0
  6
Continuous
 62
     7
370
    15
100
AcDbCircle
 10
65.50000429153428
 20
-1.500007629394474
 30
0.0
 40
0.3249999999980341
  0
CIRCLE
  5
D9D
330
D6B
100
AcDbEntity
  8
0
  6
Continuous
 62
     7
370
    15
100
AcDbCircle
 10
9.500004291534424
 20
-1.500007629394531
 30
0.0
 40
0.3249999999979772
  0
CIRCLE
  5
D9E
330
D6B
100
AcDbEntity
  8
0
  6
Continuous
 62
     7
370
    15
100
AcDbCircle
 10
20.50000429153334
 20
-1.500007629394531
 30
0.0
 40
0.3249999999979772
  0
LINE
  5
D9F
330
D6B
100
AcDbEntity
  8
0
  6
Continuous
 62
     7
370
    15
100
AcDbLine
 10
14.0700101852417
 20
-3.400015830993652
 30
0.0
 11
12.67000436782843
 21
-3.400015830993652
 31
0.0
  0
LINE
  5
DA0
330
D6B
100
AcDbEntity
  8
0
  6
Continuous
 62
     7
370
    15
100
AcDbLine
 10
70.06999254226693
 20
-3.400015830993652
 30
0.0
 11
68.66999864578256
 21
-3.400015830993652
 31
0.0
  0
CIRCLE
  5
DA1
330
D6B
100
AcDbEntity
  8
0
  6
Continuous
 62
     7
370
    15
100
AcDbCircle
 10
67.65000429154858
 20
-1.750007629394304
 30
0.0
 40
0.3949999999974807
  0
CIRCLE
  5
DA2
330
D6B
100
AcDbEntity
  8
0
  6
Continuous
 62
     7
370
    15
100
AcDbCircle
 10
11.65000429154873
 20
-1.750007629394361
 30
0.0
 40
0.3949999999974807
  0
LINE
  5
DA3
330
D6B
100
AcDbEntity
  8
0
  6
Continuous
 62
     7
370
    15
100
AcDbLine
 10
21.60000801086426
 20
0.0999927520751385
 30
0.0
 11
21.60000801086426
 21
0.0
 31
0.0
  0
LINE
  5
DA4
330
D6B
100
AcDbEntity
  8
0
  6
Continuous
 62
     7
370
    15
100
AcDbLine
 10
22.20000028610235
 20
0.0
 30
0.0
 11
22.20000028610235
 21
0.0999927520751385
 31
0.0
  0
LINE
  5
DA5
330
D6B
100
AcDbEntity
  8
0
  6
Continuous
 62
     7
370
    15
100
AcDbLine
 10
7.800006866455135
 20
0.0999927520751385
 30
0.0
 11
7.800006866455135
 21
0.0
 31
0.0
  0
LINE
  5
DA6
330
D6B
100
AcDbEntity
  8
0
  6
Continuous
 62
     7
370
    15
100
AcDbLine
 10
8.399999141693115
 20
0.0
 30
0.0
 11
8.399999141693115
 21
0.0999927520751385
 31
0.0
  0
LINE
  5
DA7
330
D6B
100
AcDbEntity
  8
0
  6
Continuous
 62
     7
370
    15
100
AcDbLine
 10
63.80001306533811
 20
0.0999927520751385
 30
0.0
 11
63.80001306533811
 21
0.0
 31
0.0
  0
LINE
  5
DA8
330
D6B
100
AcDbEntity
  8
0
  6
Continuous
 62
     7
370
    15
100
AcDbLine
 10
64.39999341964719
 20
0.0
 30
0.0
 11
64.39999341964719
 21
0.0999927520751385
 31
0.0
  0
LINE
  5
DA9
330
D6B
100
AcDbEntity
  8
0
  6
Continuous
 62
     7
370
    15
100
AcDbLine
 10
77.6000142097474
 20
0.0999927520751385
 30
0.0
 11
77.6000142097474
 21
0.0
 31
0.0
  0
LINE
  5
DAA
330
D6B
100
AcDbEntity
  8
0
  6
Continuous
 62
     7
370
    15
100
AcDbLine
 10
78.19999456405648
 20
0.0
 30
0.0
 11
78.19999456405648
 21
0.0999927520751385
 31
0.0
  0
LWPOLYLINE
  5
22E1
330
D6B
100
AcDbEntity
  8
0
  6
Continuous
 62
     7
370
    15
100
AcDbPolyline
 90
        4
 70
   129
 43
0.0
 10
6.063986625873639
 20
-209.9749361667622
 10
6.063986625873639
 20
-89.62792591327013
 10
8.103766460678543
 20
-89.62792591327013
 10
8.103766460678543
 20
-209.9749361667622
  0
ENDBLK
  5
DAB
330
D6B
100
AcDbEntity
  8
0
100
AcDbBlockEnd
  0
BLOCK
  5
DB3
330
DB2
100
AcDbEntity
  8
0
100
AcDbBlockBegin
  2
BF40-FRO
 70
     0
 10
0.0
 20
0.0
 30
0.0
  3
BF40-FRO
  1

  0
CIRCLE
  5
DB4
330
DB2
100
AcDbEntity
  8
0
 62
     1
100
AcDbCircle
 10
169.9999952316284
 20
2.499988555908203
 30
0.0
 40
0.7
  0
LINE
  5
DB5
330
DB2
100
AcDbEntity
  8
0
 62
     1
100
AcDbLine
 10
0.0
 20
4.999995231628418
 30
0.0
 11
0.0
 21
0.0
 31
0.0
  0
LINE
  5
DB6
330
DB2
100
AcDbEntity
  8
0
 62
     1
100
AcDbLine
 10
177.7499866485597
 20
4.999995231628418
 30
0.0
 11
177.7499866485597
 21
0.0
 31
0.0
  0
CIRCLE
  5
DB7
330
DB2
100
AcDbEntity
  8
0
 62
     1
100
AcDbCircle
 10
109.9999952316284
 20
2.499988555908203
 30
0.0
 40
0.7
  0
CIRCLE
  5
DB8
330
DB2
100
AcDbEntity
  8
0
 62
     1
100
AcDbCircle
 10
30.0
 20
2.499988555908203
 30
0.0
 40
0.7
  0
CIRCLE
  5
DB9
330
DB2
100
AcDbEntity
  8
0
 62
     1
100
AcDbCircle
 10
10.0
 20
2.499988555908203
 30
0.0
 40
0.7
  0
LINE
  5
DBA
330
DB2
100
AcDbEntity
  8
0
  6
HIDDEN
 62
     1
100
AcDbLine
 10
102.9999923706054
 20
0.8999824523925781
 30
0.0
 11
16.99999094009399
 21
0.8999824523925781
 31
0.0
  0
LINE
  5
DBB
330
DB2
100
AcDbEntity
  8
0
  6
HIDDEN
 62
     1
100
AcDbLine
 10
16.99999094009399
 20
0.0
 30
0.0
 11
102.9999923706054
 21
0.0
 31
0.0
  0
LINE
  5
DBC
330
DB2
100
AcDbEntity
  8
0
  6
Continuous
 62
     1
370
    15
100
AcDbLine
 10
16.99999094009399
 20
0.0
 30
0.0
 11
0.0
 21
0.0
 31
0.0
  0
LINE
  5
DBD
330
DB2
100
AcDbEntity
  8
0
  6
Continuous
 62
     1
370
    15
100
AcDbLine
 10
177.7499866485597
 20
0.0
 30
0.0
 11
102.9999923706054
 21
0.0
 31
0.0
  0
LINE
  5
DBE
330
DB2
100
AcDbEntity
  8
0
  6
Continuous
 62
     1
370
    15
100
AcDbLine
 10
0.0
 20
4.999995231628418
 30
0.0
 11
177.7499866485597
 21
4.999995231628418
 31
0.0
  0
LINE
  5
DBF
330
DB2
100
AcDbEntity
  8
0
  6
Continuous
 62
     1
370
    15
100
AcDbLine
 10
177.7499866485597
 20
4.099988937377873
 30
0.0
 11
0.0
 21
4.099988937377873
 31
0.0
  0
LINE
  5
DC0
330
DB2
100
AcDbEntity
  8
0
  6
Continuous
 62
     1
370
    15
100
AcDbLine
 10
16.99999094009399
 20
0.8999824523925781
 30
0.0
 11
0.0
 21
0.8999824523925781
 31
0.0
  0
LINE
  5
DC1
330
DB2
100
AcDbEntity
  8
0
  6
Continuous
 62
     1
370
    15
100
AcDbLine
 10
177.7499866485597
 20
0.8999824523925781
 30
0.0
 11
102.9999923706054
 21
0.8999824523925781
 31
0.0
  0
ENDBLK
  5
DC2
330
DB2
100
AcDbEntity
  8
0
100
AcDbBlockEnd
  0
ENDSEC
  0
SECTION
  2
ENTITIES
  0
LINE
  5
2136
102
{ACAD_REACTORS
330
22A1
102
}
330
A
100
AcDbEntity
  8
0
  6
ByBlock
 62
     3
370
     0
100
AcDbLine
 10
1627.468835336849
 20
0.0
 30
0.0
 11
0.0
 21
0.0
 31
0.0
  0
INSERT
  5
2137
330
A
100
AcDbEntity
  8
0
  6
ByBlock
 62
     4
100
AcDbBlockReference
  2
PORTA-FRO
 10
2487.468849641971
 20
2170.000076517463
 30
0.0
 41
-10.0
 42
10.0
 43
10.0
  0
LINE
  5
2138
330
A
100
AcDbEntity
  8
0
  6
HIDDEN
 62
     4
100
AcDbLine
 10
1657.46880672662
 20
2120.191836201258
 30
0.0
 11
1657.46880672662
 21
19.66252757967641
 31
0.0
  0
LINE
  5
2139
330
A
100
AcDbEntity
  8
0
  6
ByBlock
 62
     4
100
AcDbLine
 10
1627.468835336849
 20
19.99999999999955
 30
0.0
 11
1657.46880672662
 21
19.99999999999955
 31
0.0
  0
MTEXT
  5
213B
330
A
100
AcDbEntity
  8
0
 62
     7
100
AcDbMText
 10
2272.64354536258
 20
2616.268942351309
 30
0.0
 40
157.5
 41
2449.61538675
 71
     7
 72
     1
  1
{BF08}
 73
     1
 44
1.0
  0
LINE
  5
213C
330
A
100
AcDbEntity
  8
0
  6
Continuous
 62
     7
370
    15
100
AcDbLine
 10
1617.46880672662
 20
0.0
 30
0.0
 11
1657.46880672662
 21
0.0
 31
0.0
  0
LINE
  5
213D
330
A
100
AcDbEntity
  8
0
  6
Continuous
 62
     7
370
    15
100
AcDbLine
 10
1617.46880672662
 20
0.0
 30
0.0
 11
1617.46880672662
 21
20.0
 31
0.0
  0
LINE
  5
213E
330
A
100
AcDbEntity
  8
0
  6
Continuous
 62
     7
370
    15
100
AcDbLine
 10
1617.46880672662
 20
20.0
 30
0.0
 11
1657.46880672662
 21
20.0
 31
0.0
  0
LINE
  5
213F
330
A
100
AcDbEntity
  8
0
  6
Continuous
 62
     7
370
    15
100
AcDbLine
 10
1657.46880672662
 20
0.0
 30
0.0
 11
1657.46880672662
 21
20.0
 31
0.0
  0
LINE
  5
2140
330
A
100
AcDbEntity
  8
0
  6
HIDDEN
 62
     4
100
AcDbLine
 10
1617.46880672662
 20
4.0
 30
0.0
 11
1657.46880672662
 21
4.0
 31
0.0
  0
LINE
  5
2141
330
A
100
AcDbEntity
  8
0
  6
ByBlock
 62
     3
370
     0
100
AcDbLine
 10
2487.468849641971
 20
0.0
 30
0.0
 11
3287.468801958252
 21
0.0
 31
0.0
  0
LINE
  5
2142
330
A
100
AcDbEntity
  8
0
 62
     1
100
AcDbLine
 10
879.96889255731
 20
2180.14281273276
 30
0.0
 11
879.96889255731
 21
2110.191836201258
 31
0.0
  0
LINE
  5
2143
330
A
100
AcDbEntity
  8
0
  6
HIDDEN
 62
     1
100
AcDbLine
 10
1627.468835336849
 20
2139.142684940402
 30
0.0
 11
2487.468849641971
 21
2139.142684940402
 31
0.0
  0
LINE
  5
2144
330
A
100
AcDbEntity
  8
0
  6
HIDDEN
 62
     1
100
AcDbLine
 10
2487.468849641971
 20
2130.142860416476
 30
0.0
 11
1627.468835336849
 21
2130.142860416476
 31
0.0
  0
LINE
  5
2145
330
A
100
AcDbEntity
  8
0
  6
Continuous
 62
     1
370
    15
100
AcDbLine
 10
879.96889255731
 20
2130.142860416476
 30
0.0
 11
1627.468835336849
 21
2130.142860416476
 31
0.0
  0
LINE
  5
2146
330
A
100
AcDbEntity
  8
0
  6
Continuous
 62
     1
370
    15
100
AcDbLine
 10
879.96889255731
 20
2139.142684940402
 30
0.0
 11
1627.468835336849
 21
2139.142684940402
 31
0.0
  0
LINE
  5
21C4
102
{ACAD_REACTORS
330
22A1
102
}
330
A
100
AcDbEntity
  8
0
  6
Continuous
 62
     1
370
    15
100
AcDbLine
 10
2487.468849641971
 20
2180.14281273276
 30
0.0
 11
879.96889255731
 21
2180.14281273276
 31
0.0
  0
LINE
  5
21C5
330
A
100
AcDbEntity
  8
0
  6
Continuous
 62
     1
370
    15
100
AcDbLine
 10
879.96889255731
 20
2171.142749790255
 30
0.0
 11
2487.468849641971
 21
2171.142749790255
 31
0.0
  0
LINE
  5
222E
330
A
100
AcDbEntity
  8
0
  6
ByBlock
 62
     4
100
AcDbLine
 10
879.96889255731
 20
-0.0490234684980351
 30
0.0
 11
879.96889255731
 21
2120.14281273276
 31
0.0
  0
LINE
  5
222F
330
A
100
AcDbEntity
  8
0
  6
ByBlock
 62
     4
100
AcDbLine
 10
2482.468854410339
 20
2180.191836201258
 30
0.0
 11
2482.468854410339
 21
2180.00006698072
 31
0.0
  0
LINE
  5
2230
330
A
100
AcDbEntity
  8
0
  6
ByBlock
 62
     4
100
AcDbLine
 10
1662.468921167541
 20
2180.00006698072
 30
0.0
 11
1662.468921167541
 21
2180.191836201258
 31
0.0
  0
LINE
  5
2231
102
{ACAD_REACTORS
330
22A1
102
}
330
A
100
AcDbEntity
  8
0
  6
ByBlock
 62
     4
100
AcDbLine
 10
1657.46880672662
 20
2180.191836201258
 30
0.0
 11
1657.46880672662
 21
2180.00006698072
 31
0.0
  0
LINE
  5
2233
102
{ACAD_REACTORS
330
22A1
102
}
330
A
100
AcDbEntity
  8
0
  6
ByBlock
 62
     3
370
     0
100
AcDbLine
 10
879.96889255731
 20
2180.191836201258
 30
0.0
 11
2487.468849641971
 21
2180.191836201258
 31
0.0
  0
LINE
  5
2234
330
A
100
AcDbEntity
  8
0
  6
ByBlock
 62
     3
370
     0
100
AcDbLine
 10
2487.468849641971
 20
2110.191836201258
 30
0.0
 11
2487.468849641971
 21
2180.191836201258
 31
0.0
  0
LINE
  5
2235
330
A
100
AcDbEntity
  8
0
  6
Continuous
 62
     1
370
    15
100
AcDbLine
 10
879.96889255731
 20
2110.191836201258
 30
0.0
 11
2487.468849641971
 21
2110.191836201258
 31
0.0
  0
LINE
  5
2236
330
A
100
AcDbEntity
  8
0
  6
ByBlock
 62
     4
100
AcDbLine
 10
879.96889255731
 20
2120.14281273276
 30
0.0
 11
1657.46880672662
 21
2120.191836201258
 31
0.0
  0
LINE
  5
2237
330
A
100
AcDbEntity
  8
0
  6
ByBlock
 62
     3
370
     0
100
AcDbLine
 10
2487.468849641971
 20
2180.14281273276
 30
0.0
 11
2487.468849641971
 21
0.0
 31
0.0
  0
LINE
  5
2238
102
{ACAD_REACTORS
330
22A1
102
}
330
A
100
AcDbEntity
  8
0
  6
ByBlock
 62
     3
370
     0
100
AcDbLine
 10
0.0
 20
2467.250105440491
 30
0.0
 11
4974.93769928393
 21
2467.250105440491
 31
0.0
  0
LINE
  5
2239
102
{ACAD_REACTORS
330
22A1
102
}
330
A
100
AcDbEntity
  8
0
  6
ByBlock
 62
     3
370
     0
100
AcDbLine
 10
879.96889255731
 20
-0.0490234684980351
 30
0.0
 11
879.96889255731
 21
2180.14281273276
 31
0.0
  0
LINE
  5
223A
102
{ACAD_REACTORS
330
22A1
102
}
330
A
100
AcDbEntity
  8
0
  6
ByBlock
 62
     3
370
     0
100
AcDbLine
 10
0.0
 20
2467.250105440491
 30
0.0
 11
0.0
 21
0.0
 31
0.0
  0
LWPOLYLINE
  5
223B
330
A
100
AcDbEntity
  8
0
100
AcDbPolyline
 90
        2
 70
     1
 43
13.59253620472736
 10
1027.863147356171
 20
2155.142745975558
 42
-1.0
 10
1007.074494707311
 20
2155.142745975558
 42
-1.0
  0
LWPOLYLINE
  5
223C
330
A
100
AcDbEntity
  8
0
100
AcDbPolyline
 90
        2
 70
     1
 43
13.59253620472736
 10
1447.863147356171
 20
2155.142745975558
 42
-1.0
 10
1427.074494707309
 20
2155.142745975558
 42
-1.0
  0
LWPOLYLINE
  5
223D
330
A
100
AcDbEntity
  8
0
100
AcDbPolyline
 90
        2
 70
     1
 43
13.59253620472736
 10
1867.863147356171
 20
2155.142745975558
 42
-1.0
 10
1847.074494707309
 20
2155.142745975558
 42
-1.0
  0
LWPOLYLINE
  5
223E
330
A
100
AcDbEntity
  8
0
100
AcDbPolyline
 90
        2
 70
     1
 43
13.59253620472736
 10
2287.863147356171
 20
2155.142745975558
 42
-1.0
 10
2267.074494707309
 20
2155.142745975558
 42
-1.0
  0
INSERT
  5
223F
330
A
100
AcDbEntity
  8
0
  6
ByBlock
 62
     4
100
AcDbBlockReference
  2
PORTA-FRO
 10
2487.468849641971
 20
2170.000076517463
 30
0.0
 41
10.0
 42
10.0
 43
10.0
  0
LINE
  5
2240
330
A
100
AcDbEntity
  8
0
  6
HIDDEN
 62
     4
100
AcDbLine
 10
3317.468892557312
 20
2120.191836201258
 30
0.0
 11
3317.468892557312
 21
19.66252757967641
 31
0.0
  0
LINE
  5
2241
330
A
100
AcDbEntity
  8
0
  6
ByBlock
 62
     4
100
AcDbLine
 10
3347.468863947082
 20
19.99999999999955
 30
0.0
 11
3317.468892557312
 21
19.99999999999955
 31
0.0
  0
LINE
  5
2243
330
A
100
AcDbEntity
  8
0
  6
Continuous
 62
     7
370
    15
100
AcDbLine
 10
3357.468892557312
 20
0.0
 30
0.0
 11
3317.468892557312
 21
0.0
 31
0.0
  0
LINE
  5
2244
330
A
100
AcDbEntity
  8
0
  6
Continuous
 62
     7
370
    15
100
AcDbLine
 10
3357.468892557312
 20
0.0
 30
0.0
 11
3357.468892557312
 21
20.0
 31
0.0
  0
LINE
  5
2245
330
A
100
AcDbEntity
  8
0
  6
Continuous
 62
     7
370
    15
100
AcDbLine
 10
3357.468892557312
 20
20.0
 30
0.0
 11
3317.468892557312
 21
20.0
 31
0.0
  0
LINE
  5
2246
330
A
100
AcDbEntity
  8
0
  6
Continuous
 62
     7
370
    15
100
AcDbLine
 10
3317.468892557312
 20
0.0
 30
0.0
 11
3317.468892557312
 21
20.0
 31
0.0
  0
LINE
  5
2247
330
A
100
AcDbEntity
  8
0
  6
HIDDEN
 62
     4
100
AcDbLine
 10
3357.468892557312
 20
4.0
 30
0.0
 11
3317.468892557312
 21
4.0
 31
0.0
  0
LINE
  5
2248
330
A
100
AcDbEntity
  8
0
  6
ByBlock
 62
     3
370
     0
100
AcDbLine
 10
2487.468849641971
 20
0.0
 30
0.0
 11
1687.46889732568
 21
0.0
 31
0.0
  0
LINE
  5
2249
330
A
100
AcDbEntity
  8
0
 62
     1
100
AcDbLine
 10
4094.96880672662
 20
2180.14281273276
 30
0.0
 11
4094.96880672662
 21
2110.191836201258
 31
0.0
  0
LINE
  5
224A
330
A
100
AcDbEntity
  8
0
  6
HIDDEN
 62
     1
100
AcDbLine
 10
3347.468863947082
 20
2139.142684940402
 30
0.0
 11
2487.468849641971
 21
2139.142684940402
 31
0.0
  0
LINE
  5
224B
330
A
100
AcDbEntity
  8
0
  6
HIDDEN
 62
     1
100
AcDbLine
 10
2487.468849641971
 20
2130.142860416476
 30
0.0
 11
3347.468863947082
 21
2130.142860416476
 31
0.0
  0
LINE
  5
224C
330
A
100
AcDbEntity
  8
0
  6
Continuous
 62
     1
370
    15
100
AcDbLine
 10
4094.96880672662
 20
2130.142860416476
 30
0.0
 11
3347.468863947082
 21
2130.142860416476
 31
0.0
  0
LINE
  5
224D
330
A
100
AcDbEntity
  8
0
  6
Continuous
 62
     1
370
    15
100
AcDbLine
 10
4094.96880672662
 20
2139.142684940402
 30
0.0
 11
3347.468863947082
 21
2139.142684940402
 31
0.0
  0
LINE
  5
224E
330
A
100
AcDbEntity
  8
0
  6
Continuous
 62
     1
370
    15
100
AcDbLine
 10
2487.468849641971
 20
2180.14281273276
 30
0.0
 11
4094.96880672662
 21
2180.14281273276
 31
0.0
  0
LINE
  5
224F
330
A
100
AcDbEntity
  8
0
  6
Continuous
 62
     1
370
    15
100
AcDbLine
 10
4094.96880672662
 20
2171.142749790255
 30
0.0
 11
2487.468849641971
 21
2171.142749790255
 31
0.0
  0
LINE
  5
2251
330
A
100
AcDbEntity
  8
0
  6
ByBlock
 62
     4
100
AcDbLine
 10
2492.4688448736
 20
2180.191836201258
 30
0.0
 11
2492.4688448736
 21
2180.00006698072
 31
0.0
  0
LINE
  5
2252
330
A
100
AcDbEntity
  8
0
  6
ByBlock
 62
     4
100
AcDbLine
 10
3312.46877811639
 20
2180.00006698072
 30
0.0
 11
3312.46877811639
 21
2180.191836201258
 31
0.0
  0
LINE
  5
2253
330
A
100
AcDbEntity
  8
0
  6
ByBlock
 62
     4
100
AcDbLine
 10
3317.468892557312
 20
2180.191836201258
 30
0.0
 11
3317.468892557312
 21
2180.00006698072
 31
0.0
  0
LINE
  5
2254
102
{ACAD_REACTORS
330
22A1
102
}
330
A
100
AcDbEntity
  8
0
  6
ByBlock
 62
     3
370
     0
100
AcDbLine
 10
4094.96880672662
 20
2180.14281273276
 30
0.0
 11
2487.468849641971
 21
2180.191836201258
 31
0.0
  0
LINE
  5
2255
330
A
100
AcDbEntity
  8
0
  6
ByBlock
 62
     3
370
     0
100
AcDbLine
 10
2487.468849641971
 20
2110.191836201258
 30
0.0
 11
2487.468849641971
 21
2180.191836201258
 31
0.0
  0
LINE
  5
2256
330
A
100
AcDbEntity
  8
0
  6
Continuous
 62
     1
370
    15
100
AcDbLine
 10
4094.96880672662
 20
2110.191836201258
 30
0.0
 11
2487.468849641971
 21
2110.191836201258
 31
0.0
  0
LINE
  5
2257
330
A
100
AcDbEntity
  8
0
  6
ByBlock
 62
     4
100
AcDbLine
 10
4094.96880672662
 20
2120.191836201259
 30
0.0
 11
3317.468892557312
 21
2120.191836201258
 31
0.0
  0
LINE
  5
2259
102
{ACAD_REACTORS
330
22A1
102
}
330
A
100
AcDbEntity
  8
0
  6
ByBlock
 62
     3
370
     0
100
AcDbLine
 10
4094.96880672662
 20
-0.0490234684980351
 30
0.0
 11
4094.96880672662
 21
2180.14281273276
 31
0.0
  0
LINE
  5
225E
102
{ACAD_REACTORS
330
22A1
102
}
330
A
100
AcDbEntity
  8
0
  6
ByBlock
 62
     3
370
     0
100
AcDbLine
 10
4974.93769928393
 20
2467.250105440491
 30
0.0
 11
4974.93769928393
 21
0.0
 31
0.0
  0
LINE
  5
225F
102
{ACAD_REACTORS
330
22A1
102
}
330
A
100
AcDbEntity
  8
0
  6
ByBlock
 62
     3
370
     0
100
AcDbLine
 10
3347.468863947082
 20
0.0
 30
0.0
 11
4974.93769928393
 21
0.0
 31
0.0
  0
LWPOLYLINE
  5
226D
330
A
100
AcDbEntity
  8
0
100
AcDbPolyline
 90
        2
 70
     1
 43
13.59253620472736
 10
2707.863147356171
 20
2155.142745975558
 42
-1.0
 10
2687.074494707309
 20
2155.142745975558
 42
-1.0
  0
LWPOLYLINE
  5
226E
330
A
100
AcDbEntity
  8
0
100
AcDbPolyline
 90
        2
 70
     1
 43
13.59253620472736
 10
3127.863147356171
 20
2155.142745975558
 42
-1.0
 10
3107.074494707309
 20
2155.142745975558
 42
-1.0
  0
LWPOLYLINE
  5
226F
330
A
100
AcDbEntity
  8
0
100
AcDbPolyline
 90
        2
 70
     1
 43
13.59253620472736
 10
3547.863147356171
 20
2155.142745975558
 42
-1.0
 10
3527.074494707309
 20
2155.142745975558
 42
-1.0
  0
LWPOLYLINE
  5
2270
330
A
100
AcDbEntity
  8
0
100
AcDbPolyline
 90
        2
 70
     1
 43
13.59253620472736
 10
3967.863147356171
 20
2155.142745975558
 42
-1.0
 10
3947.074494707309
 20
2155.142745975558
 42
-1.0
  0
HATCH
  5
22A1
330
A
100
AcDbEntity
  8
0
  6
ByBlock
 62
     3
370
     0
100
AcDbHatch
 10
0.0
 20
0.0
 30
0.0
210
0.0
220
0.0
230
1.0
  2
ANSI31
 70
     0
 71
     1
 91
        1
 92
        7
 72
     0
 73
     1
 93
       11
 10
879.96889255731
 20
0.0
 10
879.96889255731
 20
2180.14281273276
 10
1657.46880672662
 20
2180.14281273276
 10
1657.46880672662
 20
2180.191836201258
 10
2487.468849641971
 20
2180.191836201258
 10
4094.96880672662
 20
2180.14281273276
 10
4094.96880672662
 20
0.0
 10
4974.93769928393
 20
0.0
 10
4974.93769928393
 20
2467.250105440491
 10
0.0
 20
2467.250105440491
 10
0.0
 20
0.0
 97
       11
330
2239
330
21C4
330
2231
330
2233
330
2254
330
2259
330
225F
330
225E
330
2238
330
223A
330
2136
 75
     0
 76
     1
 52
0.0
 41
50.0
 77
     0
 78
     1
 53
45.0
 43
-15273.46968633967
 44
0.0
 45
-112.2532015133644
 46
112.2532015133644
 79
     0
 47
0.0
 98
        1
 10
325.4118097253013
 20
2147.29718228508
1001
ACAD
1010
0.0
1020
0.0
1030
0.0
  0
ENDSEC
  0
SECTION
  2
OBJECTS
  0
DICTIONARY
  5
19
330
0
100
AcDbDictionary
281
     1
  3
ACAD_GROUP
350
1A
  3
ACAD_IMAGE_VARS
350
D40
  3
ACAD_LAYOUT
350
1E
  3
ACAD_MLINESTYLE
350
1B
  3
ACAD_PLOTSETTINGS
350
22
  3
ACAD_PLOTSTYLENAME
350
1F
  3
ACAD_SCALELIST
350
51A
  3
ACAD_WIPEOUT_VARS
350
23
  3
AcDbVariableDictionary
350
54B
  3
APPDATA
350
D3F
  3
ASE_INDEX_DICTIONARY
350
543
  3
DWGPROPS
350
2396
  0
DICTIONARY
  5
546
330
14
100
AcDbDictionary
280
     1
281
     1
  3
ADSK_XREC_LAYER_RECONCILED
360
547
  0
DICTIONARY
  5
90F
330
A
100
AcDbDictionary
280
     1
281
     1
  3
ACAD_SORTENTS
360
910
  0
DICTIONARY
  5
1A
102
{ACAD_REACTORS
330
19
102
}
330
19
100
AcDbDictionary
281
     1
  0
RASTERVARIABLES
  5
D40
102
{ACAD_REACTORS
330
19
102
}
330
19
100
AcDbRasterVariables
 90
        0
 70
     1
 71
     1
 72
     0
  0
DICTIONARY
  5
1E
102
{ACAD_REACTORS
330
19
102
}
330
19
100
AcDbDictionary
281
     1
  3
Layout1
350
21
  3
Model
350
20
  0
DICTIONARY
  5
1B
102
{ACAD_REACTORS
330
19
102
}
330
19
100
AcDbDictionary
281
     1
  3
Standard
350
1C
  0
DICTIONARY
  5
22
102
{ACAD_REACTORS
330
19
102
}
330
19
100
AcDbDictionary
281
     1
  0
ACDBDICTIONARYWDFLT
  5
1F
102
{ACAD_REACTORS
330
19
102
}
330
19
100
AcDbDictionary
281
     1
  3
Normal
350
1D
100
AcDbDictionaryWithDefault
340
1D
  0
DICTIONARY
  5
51A
102
{ACAD_REACTORS
330
19
102
}
330
19
100
AcDbDictionary
281
     1
  3
A0
350
51B
  3
A1
350
51C
  3
A2
350
51D
  3
A3
350
51E
  3
A4
350
51F
  3
A5
350
520
  3
A6
350
521
  3
A7
350
522
  3
A8
350
523
  3
A9
350
524
  3
B0
350
525
  3
B1
350
526
  3
B2
350
527
  3
B3
350
528
  3
B4
350
529
  3
B5
350
52A
  3
B6
350
52B
  3
B7
350
52C
  3
B8
350
52D
  3
B9
350
52E
  3
C0
350
52F
  3
C1
350
530
  3
C2
350
531
  3
C3
350
532
  3
C4
350
533
  3
C5
350
534
  3
C6
350
535
  3
C7
350
536
  3
C8
350
537
  3
C9
350
538
  3
D0
350
539
  3
D1
350
53A
  3
D2
350
53B
  0
WIPEOUTVARIABLES
  5
23
330
19
100
AcDbWipeoutVariables
 70
     1
  0
DICTIONARY
  5
54B
102
{ACAD_REACTORS
330
19
102
}
330
19
100
AcDbDictionary
281
     1
  3
CANNOSCALE
350
2397
  3
DIMASSOC
350
CD4
  3
INDEXCTL
350
CD3
  3
SORTENTS
350
CD2
  0
DICTIONARY
  5
D3F
102
{ACAD_REACTORS
330
19
102
}
330
19
100
AcDbDictionary
281
     1
  0
DICTIONARY
  5
543
102
{ACAD_REACTORS
330
19
102
}
330
19
100
AcDbDictionary
281
     1
  3
ASEBlockHierarchyIndexRecord
350
545
1001
DCO15
1040
1685697460.757
  0
XRECORD
  5
2396
102
{ACAD_REACTORS
330
19
102
}
330
19
100
AcDbXrecord
280
     1
  1
DWGPROPS COOKIE
  2

  3

  4

  6

  7

  8
renzo.ceresoli
  9

300
=
301
=
302
=
303
=
304
=
305
=
306
=
307
=
308
=
309
=
 40
0.0
 41
2455313.515715498
 42
2456183.318975451
  1

 90
        0
  0
XRECORD
  5
547
102
{ACAD_REACTORS
330
546
102
}
330
546
100
AcDbXrecord
280
     1
290
     1
  0
SORTENTSTABLE
  5
910
102
{ACAD_REACTORS
330
90F
102
}
330
90F
100
AcDbSortentsTable
330
A
331
0
  5
B7E
  0
LAYOUT
  5
21
102
{ACAD_REACTORS
330
1E
102
}
330
1E
100
AcDbPlotSettings
  1

  2

  4

  6

 40
0.0
 41
0.0
 42
0.0
 43
0.0
 44
0.0
 45
0.0
 46
0.0
 47
0.0
 48
0.0
 49
0.0
140
0.0
141
0.0
142
1.0
143
1.0
 70
     0
 72
     0
 73
     0
 74
     0
  7

 75
     0
147
1.0
148
0.0
149
0.0
100
AcDbLayout
  1
Layout1
 70
     0
 71
     1
 10
0.0
 20
0.0
 11
12.0
 21
9.0
 12
0.0
 22
0.0
 32
0.0
 14
1.000000000000000E+20
 24
1.000000000000000E+20
 34
1.000000000000000E+20
 15
-1.000000000000000E+20
 25
-1.000000000000000E+20
 35
-1.000000000000000E+20
146
0.0
 13
0.0
 23
0.0
 33
0.0
 16
1.0
 26
0.0
 36
0.0
 17
0.0
 27
1.0
 37
0.0
 76
     0
330
B
  0
LAYOUT
  5
20
102
{ACAD_REACTORS
330
1E
102
}
330
1E
100
AcDbPlotSettings
  1

  2

  4

  6

 40
0.0
 41
0.0
 42
0.0
 43
0.0
 44
0.0
 45
0.0
 46
0.0
 47
0.0
 48
0.0
 49
0.0
140
0.0
141
0.0
142
1.0
143
1.0
 70
  1024
 72
     0
 73
     0
 74
     0
  7

 75
     0
147
1.0
148
0.0
149
0.0
100
AcDbLayout
  1
Model
 70
     0
 71
     0
 10
0.0
 20
0.0
 11
0.0
 21
0.0
 12
0.0
 22
0.0
 32
0.0
 14
0.0
 24
0.0
 34
0.0
 15
0.0
 25
0.0
 35
0.0
146
0.0
 13
0.0
 23
0.0
 33
0.0
 16
0.0
 26
0.0
 36
0.0
 17
0.0
 27
0.0
 37
0.0
 76
     0
330
A
331
15
  0
MLINESTYLE
  5
1C
102
{ACAD_REACTORS
330
1B
102
}
330
1B
100
AcDbMlineStyle
  2
STANDARD
 70
     0
  3

 62
     0
 51
90.0
 52
90.0
 71
     2
 49
0.5
 62
   256
  6
BYLAYER
 49
-0.5
 62
   256
  6
BYLAYER
  0
ACDBPLACEHOLDER
  5
1D
102
{ACAD_REACTORS
330
1F
102
}
330
1F
  0
SCALE
  5
51B
102
{ACAD_REACTORS
330
51A
102
}
330
51A
100
AcDbScale
 70
     0
300
1:1
140
1.0
141
1.0
290
     1
  0
SCALE
  5
51C
102
{ACAD_REACTORS
330
51A
102
}
330
51A
100
AcDbScale
 70
     0
300
1:2
140
1.0
141
2.0
290
     0
  0
SCALE
  5
51D
102
{ACAD_REACTORS
330
51A
102
}
330
51A
100
AcDbScale
 70
     0
300
1:4
140
1.0
141
4.0
290
     0
  0
SCALE
  5
51E
102
{ACAD_REACTORS
330
51A
102
}
330
51A
100
AcDbScale
 70
     0
300
1:5
140
1.0
141
5.0
290
     0
  0
SCALE
  5
51F
102
{ACAD_REACTORS
330
51A
102
}
330
51A
100
AcDbScale
 70
     0
300
1:8
140
1.0
141
8.0
290
     0
  0
SCALE
  5
520
102
{ACAD_REACTORS
330
51A
102
}
330
51A
100
AcDbScale
 70
     0
300
1:10
140
1.0
141
10.0
290
     0
  0
SCALE
  5
521
102
{ACAD_REACTORS
330
51A
102
}
330
51A
100
AcDbScale
 70
     0
300
1:16
140
1.0
141
16.0
290
     0
  0
SCALE
  5
522
102
{ACAD_REACTORS
330
51A
102
}
330
51A
100
AcDbScale
 70
     0
300
1:20
140
1.0
141
20.0
290
     0
  0
SCALE
  5
523
102
{ACAD_REACTORS
330
51A
102
}
330
51A
100
AcDbScale
 70
     0
300
1:30
140
1.0
141
30.0
290
     0
  0
SCALE
  5
524
102
{ACAD_REACTORS
330
51A
102
}
330
51A
100
AcDbScale
 70
     0
300
1:40
140
1.0
141
40.0
290
     0
  0
SCALE
  5
525
102
{ACAD_REACTORS
330
51A
102
}
330
51A
100
AcDbScale
 70
     0
300
1:50
140
1.0
141
50.0
290
     0
  0
SCALE
  5
526
102
{ACAD_REACTORS
330
51A
102
}
330
51A
100
AcDbScale
 70
     0
300
1:100
140
1.0
141
100.0
290
     0
  0
SCALE
  5
527
102
{ACAD_REACTORS
330
51A
102
}
330
51A
100
AcDbScale
 70
     0
300
2:1
140
2.0
141
1.0
290
     0
  0
SCALE
  5
528
102
{ACAD_REACTORS
330
51A
102
}
330
51A
100
AcDbScale
 70
     0
300
4:1
140
4.0
141
1.0
290
     0
  0
SCALE
  5
529
102
{ACAD_REACTORS
330
51A
102
}
330
51A
100
AcDbScale
 70
     0
300
8:1
140
8.0
141
1.0
290
     0
  0
SCALE
  5
52A
102
{ACAD_REACTORS
330
51A
102
}
330
51A
100
AcDbScale
 70
     0
300
10:1
140
10.0
141
1.0
290
     0
  0
SCALE
  5
52B
102
{ACAD_REACTORS
330
51A
102
}
330
51A
100
AcDbScale
 70
     0
300
100:1
140
100.0
141
1.0
290
     0
  0
SCALE
  5
52C
102
{ACAD_REACTORS
330
51A
102
}
330
51A
100
AcDbScale
 70
     0
300
1/128" = 1'-0"
140
0.0078125
141
12.0
290
     0
  0
SCALE
  5
52D
102
{ACAD_REACTORS
330
51A
102
}
330
51A
100
AcDbScale
 70
     0
300
1/64" = 1'-0"
140
0.015625
141
12.0
290
     0
  0
SCALE
  5
52E
102
{ACAD_REACTORS
330
51A
102
}
330
51A
100
AcDbScale
 70
     0
300
1/32" = 1'-0"
140
0.03125
141
12.0
290
     0
  0
SCALE
  5
52F
102
{ACAD_REACTORS
330
51A
102
}
330
51A
100
AcDbScale
 70
     0
300
1/16" = 1'-0"
140
0.0625
141
12.0
290
     0
  0
SCALE
  5
530
102
{ACAD_REACTORS
330
51A
102
}
330
51A
100
AcDbScale
 70
     0
300
3/32" = 1'-0"
140
0.09375
141
12.0
290
     0
  0
SCALE
  5
531
102
{ACAD_REACTORS
330
51A
102
}
330
51A
100
AcDbScale
 70
     0
300
1/8" = 1'-0"
140
0.125
141
12.0
290
     0
  0
SCALE
  5
532
102
{ACAD_REACTORS
330
51A
102
}
330
51A
100
AcDbScale
 70
     0
300
3/16" = 1'-0"
140
0.1875
141
12.0
290
     0
  0
SCALE
  5
533
102
{ACAD_REACTORS
330
51A
102
}
330
51A
100
AcDbScale
 70
     0
300
1/4" = 1'-0"
140
0.25
141
12.0
290
     0
  0
SCALE
  5
534
102
{ACAD_REACTORS
330
51A
102
}
330
51A
100
AcDbScale
 70
     0
300
3/8" = 1'-0"
140
0.375
141
12.0
290
     0
  0
SCALE
  5
535
102
{ACAD_REACTORS
330
51A
102
}
330
51A
100
AcDbScale
 70
     0
300
1/2" = 1'-0"
140
0.5
141
12.0
290
     0
  0
SCALE
  5
536
102
{ACAD_REACTORS
330
51A
102
}
330
51A
100
AcDbScale
 70
     0
300
3/4" = 1'-0"
140
0.75
141
12.0
290
     0
  0
SCALE
  5
537
102
{ACAD_REACTORS
330
51A
102
}
330
51A
100
AcDbScale
 70
     0
300
1" = 1'-0"
140
1.0
141
12.0
290
     0
  0
SCALE
  5
538
102
{ACAD_REACTORS
330
51A
102
}
330
51A
100
AcDbScale
 70
     0
300
1-1/2" = 1'-0"
140
1.5
141
12.0
290
     0
  0
SCALE
  5
539
102
{ACAD_REACTORS
330
51A
102
}
330
51A
100
AcDbScale
 70
     0
300
3" = 1'-0"
140
3.0
141
12.0
290
     0
  0
SCALE
  5
53A
102
{ACAD_REACTORS
330
51A
102
}
330
51A
100
AcDbScale
 70
     0
300
6" = 1'-0"
140
6.0
141
12.0
290
     0
  0
SCALE
  5
53B
102
{ACAD_REACTORS
330
51A
102
}
330
51A
100
AcDbScale
 70
     0
300
1'-0" = 1'-0"
140
12.0
141
12.0
290
     0
  0
DICTIONARYVAR
  5
2397
102
{ACAD_REACTORS
330
54B
102
}
330
54B
100
DictionaryVariables
280
     0
  1
1:1
  0
DICTIONARYVAR
  5
CD4
102
{ACAD_REACTORS
330
54B
102
}
330
54B
100
DictionaryVariables
280
     0
  1
1
  0
DICTIONARYVAR
  5
CD3
102
{ACAD_REACTORS
330
54B
102
}
330
54B
100
DictionaryVariables
280
     0
  1
0
  0
DICTIONARYVAR
  5
CD2
102
{ACAD_REACTORS
330
54B
102
}
330
54B
100
DictionaryVariables
280
     0
  1
127
  0
XRECORD
  5
545
102
{ACAD_REACTORS
330
543
102
}
330
543
100
AcDbXrecord
280
     1
330
0
330
0
330
0
330
0
330
0
330
0
330
0
330
0
330
0
330
0
330
0
330
0
330
0
330
0
330
0
330
0
330
0
330
0
330
0
330
0
330
0
330
0
330
0
330
0
330
0
330
0
330
0
330
0
330
0
330
0
330
0
330
0
330
0
330
0
330
0
330
0
330
0
330
0
330
0
330
0
330
0
330
0
330
0
330
0
330
0
330
0
330
0
330
0
330
0
330
0
330
0
330
0
330
0
330
0
330
0
330
0
  0
ENDSEC
  0
EOF
