  0
SECTION
  2
HEADER
  9
$ACADVER
  1
AC1015
  9
$ACADMAINTVER
 70
     6
  9
$DWGCODEPAGE
  3
ANSI_1252
  9
$INSBASE
 10
0.0
 20
0.0
 30
0.0
  9
$EXTMIN
 10
-6.241877241633119
 20
-130.3918379965962
 30
-0.0000000000000152
  9
$EXTMAX
 10
150.9841464877063
 20
15.93323257167685
 30
0.0000000000000154
  9
$LIMMIN
 10
-2514.35
 20
-1863.85
  9
$LIMMAX
 10
1691.35
 20
579.35
  9
$ORTHOMODE
 70
     1
  9
$REGENMODE
 70
     1
  9
$FILLMODE
 70
     1
  9
$QTEXTMODE
 70
     0
  9
$MIRRTEXT
 70
     1
  9
$LTSCALE
 40
30.0
  9
$ATTMODE
 70
     1
  9
$TEXTSIZE
 40
0.0
  9
$TRACEWID
 40
0.05
  9
$TEXTSTYLE
  7
Standard
  9
$CLAYER
  8
0
  9
$CELTYPE
  6
ByBlock
  9
$CECOLOR
 62
     3
  9
$CELTSCALE
 40
1.0
  9
$DISPSILH
 70
     0
  9
$DIMSCALE
 40
1.0
  9
$DIMASZ
 40
1.25
  9
$DIMEXO
 40
0.0
  9
$DIMDLI
 40
0.38
  9
$DIMRND
 40
0.0
  9
$DIMDLE
 40
0.0
  9
$DIMEXE
 40
0.75
  9
$DIMTP
 40
0.0
  9
$DIMTM
 40
0.0
  9
$DIMTXT
 40
2.5
  9
$DIMCEN
 40
0.09
  9
$DIMTSZ
 40
0.0
  9
$DIMTOL
 70
     0
  9
$DIMLIM
 70
     0
  9
$DIMTIH
 70
     0
  9
$DIMTOH
 70
     0
  9
$DIMSE1
 70
     0
  9
$DIMSE2
 70
     0
  9
$DIMTAD
 70
     1
  9
$DIMZIN
 70
     0
  9
$DIMBLK
  1

  9
$DIMASO
 70
     1
  9
$DIMSHO
 70
     1
  9
$DIMPOST
  1

  9
$DIMAPOST
  1

  9
$DIMALT
 70
     0
  9
$DIMALTD
 70
     2
  9
$DIMALTF
 40
25.4
  9
$DIMLFAC
 40
1.0
  9
$DIMTOFL
 70
     0
  9
$DIMTVP
 40
0.0
  9
$DIMTIX
 70
     0
  9
$DIMSOXD
 70
     0
  9
$DIMSAH
 70
     0
  9
$DIMBLK1
  1

  9
$DIMBLK2
  1

  9
$DIMSTYLE
  2
Standard
  9
$DIMCLRD
 70
     7
  9
$DIMCLRE
 70
     7
  9
$DIMCLRT
 70
     7
  9
$DIMTFAC
 40
0.8
  9
$DIMGAP
 40
1.25
  9
$DIMJUST
 70
     0
  9
$DIMSD1
 70
     0
  9
$DIMSD2
 70
     0
  9
$DIMTOLJ
 70
     1
  9
$DIMTZIN
 70
     0
  9
$DIMALTZ
 70
     0
  9
$DIMALTTZ
 70
     0
  9
$DIMUPT
 70
     0
  9
$DIMDEC
 70
     2
  9
$DIMTDEC
 70
     4
  9
$DIMALTU
 70
     2
  9
$DIMALTTD
 70
     2
  9
$DIMTXSTY
  7
Standard
  9
$DIMAUNIT
 70
     0
  9
$DIMADEC
 70
     0
  9
$DIMALTRND
 40
0.0
  9
$DIMAZIN
 70
     0
  9
$DIMDSEP
 70
    46
  9
$DIMATFIT
 70
     3
  9
$DIMFRAC
 70
     0
  9
$DIMLDRBLK
  1

  9
$DIMLUNIT
 70
     2
  9
$DIMLWD
 70
     0
  9
$DIMLWE
 70
     0
  9
$DIMTMOVE
 70
     0
  9
$LUNITS
 70
     2
  9
$LUPREC
 70
     4
  9
$SKETCHINC
 40
0.1
  9
$FILLETRAD
 40
0.0
  9
$AUNITS
 70
     0
  9
$AUPREC
 70
     0
  9
$MENU
  1
acad
  9
$ELEVATION
 40
0.0
  9
$PELEVATION
 40
0.0
  9
$THICKNESS
 40
0.0
  9
$LIMCHECK
 70
     0
  9
$CHAMFERA
 40
0.0
  9
$CHAMFERB
 40
0.0
  9
$CHAMFERC
 40
0.0
  9
$CHAMFERD
 40
0.0
  9
$SKPOLY
 70
     0
  9
$TDCREATE
 40
2455313.599048831
  9
$TDUCREATE
 40
2455313.515715498
  9
$TDUPDATE
 40
2456183.401071528
  9
$TDUUPDATE
 40
2456183.317738194
  9
$TDINDWG
 40
0.0042496991
  9
$TDUSRTIMER
 40
2456183.31756022
  9
$USRTIMER
 70
     1
  9
$ANGBASE
 50
0.0
  9
$ANGDIR
 70
     0
  9
$PDMODE
 70
     0
  9
$PDSIZE
 40
0.0
  9
$PLINEWID
 40
0.0
  9
$SPLFRAME
 70
     0
  9
$SPLINETYPE
 70
     6
  9
$SPLINESEGS
 70
     8
  9
$HANDSEED
  5
237F
  9
$SURFTAB1
 70
     6
  9
$SURFTAB2
 70
     6
  9
$SURFTYPE
 70
     6
  9
$SURFU
 70
     6
  9
$SURFV
 70
     6
  9
$UCSBASE
  2

  9
$UCSNAME
  2

  9
$UCSORG
 10
0.0
 20
0.0
 30
0.0
  9
$UCSXDIR
 10
1.0
 20
0.0
 30
0.0
  9
$UCSYDIR
 10
0.0
 20
1.0
 30
0.0
  9
$UCSORTHOREF
  2

  9
$UCSORTHOVIEW
 70
     0
  9
$UCSORGTOP
 10
0.0
 20
0.0
 30
0.0
  9
$UCSORGBOTTOM
 10
0.0
 20
0.0
 30
0.0
  9
$UCSORGLEFT
 10
0.0
 20
0.0
 30
0.0
  9
$UCSORGRIGHT
 10
0.0
 20
0.0
 30
0.0
  9
$UCSORGFRONT
 10
0.0
 20
0.0
 30
0.0
  9
$UCSORGBACK
 10
0.0
 20
0.0
 30
0.0
  9
$PUCSBASE
  2

  9
$PUCSNAME
  2

  9
$PUCSORG
 10
0.0
 20
0.0
 30
0.0
  9
$PUCSXDIR
 10
1.0
 20
0.0
 30
0.0
  9
$PUCSYDIR
 10
0.0
 20
1.0
 30
0.0
  9
$PUCSORTHOREF
  2

  9
$PUCSORTHOVIEW
 70
     0
  9
$PUCSORGTOP
 10
0.0
 20
0.0
 30
0.0
  9
$PUCSORGBOTTOM
 10
0.0
 20
0.0
 30
0.0
  9
$PUCSORGLEFT
 10
0.0
 20
0.0
 30
0.0
  9
$PUCSORGRIGHT
 10
0.0
 20
0.0
 30
0.0
  9
$PUCSORGFRONT
 10
0.0
 20
0.0
 30
0.0
  9
$PUCSORGBACK
 10
0.0
 20
0.0
 30
0.0
  9
$USERI1
 70
     0
  9
$USERI2
 70
     0
  9
$USERI3
 70
     0
  9
$USERI4
 70
     0
  9
$USERI5
 70
     0
  9
$USERR1
 40
0.0
  9
$USERR2
 40
0.0
  9
$USERR3
 40
0.0
  9
$USERR4
 40
0.0
  9
$USERR5
 40
0.0
  9
$WORLDVIEW
 70
     1
  9
$SHADEDGE
 70
     3
  9
$SHADEDIF
 70
    70
  9
$TILEMODE
 70
     1
  9
$MAXACTVP
 70
    16
  9
$PINSBASE
 10
0.0
 20
0.0
 30
0.0
  9
$PLIMCHECK
 70
     0
  9
$PEXTMIN
 10
1.000000000000000E+20
 20
1.000000000000000E+20
 30
1.000000000000000E+20
  9
$PEXTMAX
 10
-1.000000000000000E+20
 20
-1.000000000000000E+20
 30
-1.000000000000000E+20
  9
$PLIMMIN
 10
0.0
 20
0.0
  9
$PLIMMAX
 10
0.0
 20
0.0
  9
$UNITMODE
 70
     0
  9
$VISRETAIN
 70
     0
  9
$PLINEGEN
 70
     1
  9
$PSLTSCALE
 70
     0
  9
$TREEDEPTH
 70
  3020
  9
$CMLSTYLE
  2
Standard
  9
$CMLJUST
 70
     0
  9
$CMLSCALE
 40
1.0
  9
$PROXYGRAPHICS
 70
     0
  9
$MEASUREMENT
 70
     1
  9
$CELWEIGHT
370
     0
  9
$ENDCAPS
280
     0
  9
$JOINSTYLE
280
     0
  9
$LWDISPLAY
290
     0
  9
$INSUNITS
 70
     0
  9
$HYPERLINKBASE
  1

  9
$STYLESHEET
  1

  9
$XEDIT
290
     1
  9
$CEPSNTYPE
380
     0
  9
$PSTYLEMODE
290
     1
  9
$FINGERPRINTGUID
  2

  9
$VERSIONGUID
  2
{0A897B20-AF30-4758-A4DE-DB64E3AABFC7}
  9
$EXTNAMES
290
     1
  9
$PSVPSCALE
 40
0.0
  9
$OLESTARTUP
290
     0
  0
ENDSEC
  0
SECTION
  2
CLASSES
  0
CLASS
  1
IMAGE
  2
AcDbRasterImage
  3
ISM
 90
      127
280
     0
281
     1
  0
CLASS
  1
DICTIONARYVAR
  2
AcDbDictionaryVar
  3
ObjectDBX Classes
 90
        0
280
     0
281
     0
  0
CLASS
  1
RASTERVARIABLES
  2
AcDbRasterVariables
  3
ISM
 90
        0
280
     0
281
     0
  0
CLASS
  1
IMAGEDEF
  2
AcDbRasterImageDef
  3
ISM
 90
        0
280
     0
281
     0
  0
CLASS
  1
IMAGEDEF_REACTOR
  2
AcDbRasterImageDefReactor
  3
ISM
 90
        1
280
     0
281
     0
  0
CLASS
  1
IDBUFFER
  2
AcDbIdBuffer
  3
ObjectDBX Classes
 90
        0
280
     0
281
     0
  0
CLASS
  1
SPATIAL_FILTER
  2
AcDbSpatialFilter
  3
ObjectDBX Classes
 90
        0
280
     0
281
     0
  0
CLASS
  1
SORTENTSTABLE
  2
AcDbSortentsTable
  3
ObjectDBX Classes
 90
        0
280
     0
281
     0
  0
CLASS
  1
LAYER_INDEX
  2
AcDbLayerIndex
  3
ObjectDBX Classes
 90
        0
280
     0
281
     0
  0
CLASS
  1
SPATIAL_INDEX
  2
AcDbSpatialIndex
  3
AutoCAD 2000
 90
        0
280
     0
281
     0
  0
CLASS
  1
OBJECT_PTR
  2
CAseDLPNTableRecord
  3
ASE-LPNTableRecord
 90
        1
280
     0
281
     0
  0
CLASS
  1
LAYOUT
  2
AcDbLayout
  3
ObjectDBX Classes
 90
        0
280
     0
281
     0
  0
CLASS
  1
PLOTSETTINGS
  2
AcDbPlotSettings
  3
ObjectDBX Classes
 90
        0
280
     0
281
     0
  0
CLASS
  1
ACDBDICTIONARYWDFLT
  2
AcDbDictionaryWithDefault
  3
ObjectDBX Classes
 90
        0
280
     0
281
     0
  0
CLASS
  1
ACDBPLACEHOLDER
  2
AcDbPlaceHolder
  3
ObjectDBX Classes
 90
        0
280
     0
281
     0
  0
CLASS
  1
VBA_PROJECT
  2
AcDbVbaProject
  3
ObjectDBX Classes
 90
        0
280
     0
281
     0
  0
CLASS
  1
WIPEOUT
  2
AcDbWipeout
  3
WipeOut|AutoCAD Express Tool|expresstools@autodesk.com
 90
      127
280
     0
281
     1
  0
CLASS
  1
WIPEOUTVARIABLES
  2
AcDbWipeoutVariables
  3
WipeOut|AutoCAD Express Tool|expresstools@autodesk.com
 90
        0
280
     0
281
     0
  0
CLASS
  1
RTEXT
  2
RText
  3
RText|AutoCAD Express Tool|expresstools@autodesk.com
 90
        0
280
     0
281
     1
  0
CLASS
  1
ARCALIGNEDTEXT
  2
AcDbArcAlignedText
  3
ATEXT|AutoCAD Express Tool|expresstools@autodesk.com
 90
        0
280
     0
281
     1
  0
CLASS
  1
MATERIAL
  2
AcDbMaterial
  3
ObjectDBX Classes
 90
     1153
280
     0
281
     0
  0
CLASS
  1
VISUALSTYLE
  2
AcDbVisualStyle
  3
ObjectDBX Classes
 90
     4095
280
     0
281
     0
  0
CLASS
  1
TABLESTYLE
  2
AcDbTableStyle
  3
ObjectDBX Classes
 90
     4095
280
     0
281
     0
  0
CLASS
  1
SCALE
  2
AcDbScale
  3
ObjectDBX Classes
 90
     1153
280
     0
281
     0
  0
CLASS
  1
MLEADERSTYLE
  2
AcDbMLeaderStyle
  3
ACDB_MLEADERSTYLE_CLASS
 90
     4095
280
     0
281
     0
  0
CLASS
  1
CELLSTYLEMAP
  2
AcDbCellStyleMap
  3
ObjectDBX Classes
 90
     1152
280
     0
281
     0
  0
ENDSEC
  0
SECTION
  2
TABLES
  0
TABLE
  2
VPORT
  5
7
330
0
100
AcDbSymbolTable
 70
     1
  0
VPORT
  5
15
330
7
100
AcDbSymbolTableRecord
100
AcDbViewportTableRecord
  2
*ACTIVE
 70
     0
 10
0.0
 20
0.0
 11
1.0
 21
1.0
 12
1368.208023730258
 22
1388.290958633855
 13
0.0
 23
0.0
 14
1.0
 24
1.0
 15
0.0
 25
0.0
 16
0.0
 26
0.0
 36
1.0
 17
0.0
 27
0.0
 37
0.0
 40
3536.830224660927
 41
2.274173806609547
 42
50.0
 43
0.0
 44
0.0
 50
0.0
 51
0.0
 71
    16
 72
   100
 73
     1
 74
     1
 75
     0
 76
     0
 77
     0
 78
     0
281
     0
 65
     0
110
0.0
120
0.0
130
0.0
111
1.0
121
0.0
131
0.0
112
0.0
122
1.0
132
0.0
 79
     0
146
0.0
  0
ENDTAB
  0
TABLE
  2
LTYPE
  5
4
330
0
100
AcDbSymbolTable
 70
     3
  0
LTYPE
  5
11
330
4
100
AcDbSymbolTableRecord
100
AcDbLinetypeTableRecord
  2
ByBlock
 70
     0
  3

 72
    65
 73
     0
 40
0.0
  0
LTYPE
  5
12
330
4
100
AcDbSymbolTableRecord
100
AcDbLinetypeTableRecord
  2
ByLayer
 70
     0
  3

 72
    65
 73
     0
 40
0.0
  0
LTYPE
  5
13
330
4
100
AcDbSymbolTableRecord
100
AcDbLinetypeTableRecord
  2
Continuous
 70
     0
  3
Solid line
 72
    65
 73
     0
 40
0.0
  0
LTYPE
  5
D45
330
4
100
AcDbSymbolTableRecord
100
AcDbLinetypeTableRecord
  2
HIDDEN
 70
     0
  3
Hidden __ __ __ __ __ __ __ __ __ __ __ __ __ __
 72
    65
 73
     2
 40
1.905
 49
1.27
 74
     0
 49
-0.635
 74
     0
  0
LTYPE
  5
D46
330
4
100
AcDbSymbolTableRecord
100
AcDbLinetypeTableRecord
  2
CENTER
 70
     0
  3
Center ____ _ ____ _ ____ _ ____ _ ____ _ ____
 72
    65
 73
     4
 40
10.16
 49
6.35
 74
     0
 49
-1.27
 74
     0
 49
1.27
 74
     0
 49
-1.27
 74
     0
  0
ENDTAB
  0
TABLE
  2
LAYER
  5
2
330
0
100
AcDbSymbolTable
 70
     2
  0
LAYER
  5
14
102
{ACAD_XDICTIONARY
360
546
102
}
330
2
100
AcDbSymbolTableRecord
100
AcDbLayerTableRecord
  2
0
 70
     0
 62
     7
  6
Continuous
370
    -3
390
1D
  0
LAYER
  5
CFE
330
2
100
AcDbSymbolTableRecord
100
AcDbLayerTableRecord
  2
Defpoints
 70
     0
 62
     7
  6
Continuous
290
     0
370
    -3
390
1D
  0
ENDTAB
  0
TABLE
  2
STYLE
  5
3
330
0
100
AcDbSymbolTable
 70
     1
  0
STYLE
  5
17
330
3
100
AcDbSymbolTableRecord
100
AcDbTextStyleTableRecord
  2
Standard
 70
     0
 40
0.0
 41
1.0
 50
0.0
 71
     0
 42
0.0
  3
I011000D.TTF
  4

1001
ACAD
1000
IsonormD
1071
        0
  0
ENDTAB
  0
TABLE
  2
VIEW
  5
5
330
0
100
AcDbSymbolTable
 70
     0
  0
ENDTAB
  0
TABLE
  2
UCS
  5
6
330
0
100
AcDbSymbolTable
 70
     0
  0
ENDTAB
  0
TABLE
  2
APPID
  5
8
330
0
100
AcDbSymbolTable
 70
     5
  0
APPID
  5
16
330
8
100
AcDbSymbolTableRecord
100
AcDbRegAppTableRecord
  2
ACAD
 70
     0
  0
APPID
  5
26
330
8
100
AcDbSymbolTableRecord
100
AcDbRegAppTableRecord
  2
TopSolid_Draft
 70
     0
  0
APPID
  5
53E
330
8
100
AcDbSymbolTableRecord
100
AcDbRegAppTableRecord
  2
ACAD_MLEADERVER
 70
     0
  0
APPID
  5
544
330
8
100
AcDbSymbolTableRecord
100
AcDbRegAppTableRecord
  2
DCO15
 70
     0
  0
APPID
  5
D31
330
8
100
AcDbSymbolTableRecord
100
AcDbRegAppTableRecord
  2
ACAD_EXEMPT_FROM_CAD_STANDARDS
 70
     0
  0
ENDTAB
  0
TABLE
  2
DIMSTYLE
  5
9
330
0
100
AcDbSymbolTable
 70
     2
100
AcDbDimStyleTable
  0
DIMSTYLE
105
18
330
9
100
AcDbSymbolTableRecord
100
AcDbDimStyleTableRecord
  2
Standard
 70
     0
 41
1.25
 42
0.0
 44
0.75
 73
     0
 74
     0
 77
     1
140
2.5
146
0.8
147
1.25
176
     7
177
     7
271
     2
178
     7
271
     2
340
17
  0
DIMSTYLE
105
D47
330
9
100
AcDbSymbolTableRecord
100
AcDbDimStyleTableRecord
  2
ISO-25
 70
     0
 41
2.5
 42
0.625
 43
3.75
 44
1.25
 73
     0
 74
     0
 77
     1
 78
     8
140
2.5
141
2.5
143
0.03937007874016
147
0.625
171
     3
172
     1
178
     0
271
     2
272
     2
274
     3
278
    44
283
     0
284
     8
340
17
  0
ENDTAB
  0
TABLE
  2
BLOCK_RECORD
  5
1
330
0
100
AcDbSymbolTable
 70
     2
  0
BLOCK_RECORD
  5
A
102
{ACAD_XDICTIONARY
360
90F
102
}
330
1
100
AcDbSymbolTableRecord
100
AcDbBlockTableRecord
  2
*MODEL_SPACE
340
20
  0
BLOCK_RECORD
  5
B
330
1
100
AcDbSymbolTableRecord
100
AcDbBlockTableRecord
  2
*PAPER_SPACE
340
21
  0
BLOCK_RECORD
  5
D6B
330
1
100
AcDbSymbolTableRecord
100
AcDbBlockTableRecord
  2
PORTA-FRO
340
0
102
{BLKREFS
331
1B72
102
}
  0
BLOCK_RECORD
  5
DB2
330
1
100
AcDbSymbolTableRecord
100
AcDbBlockTableRecord
  2
BF40-FRO
340
0
  0
ENDTAB
  0
ENDSEC
  0
SECTION
  2
BLOCKS
  0
BLOCK
  5
D
330
A
100
AcDbEntity
  8
0
100
AcDbBlockBegin
  2
*MODEL_SPACE
 70
     0
 10
0.0
 20
0.0
 30
0.0
  3
*MODEL_SPACE
  1

  0
ENDBLK
  5
E
330
A
100
AcDbEntity
  8
0
100
AcDbBlockEnd
  0
BLOCK
  5
F
330
B
100
AcDbEntity
 67
     1
  8
0
100
AcDbBlockBegin
  2
*PAPER_SPACE
 70
     0
 10
0.0
 20
0.0
 30
0.0
  3
*PAPER_SPACE
  1

  0
ENDBLK
  5
10
330
B
100
AcDbEntity
 67
     1
  8
0
100
AcDbBlockEnd
  0
BLOCK
  5
D6C
330
D6B
100
AcDbEntity
  8
0
100
AcDbBlockBegin
  2
PORTA-FRO
 70
     0
 10
0.0
 20
0.0
 30
0.0
  3
PORTA-FRO
  1

  0
LINE
  5
D6D
330
D6B
100
AcDbEntity
  8
0
  6
Continuous
 62
     7
370
    15
100
AcDbLine
 10
0.0
 20
-216.0000076517463
 30
0.0
 11
86.00000143051145
 21
-216.0000076517463
 31
0.0
  0
LINE
  5
D6F
330
D6B
100
AcDbEntity
  8
0
  6
Continuous
 62
     7
370
    15
100
AcDbLine
 10
63.50001096725472
 20
0.0
 30
0.0
 11
22.50000238418585
 21
0.0
 31
0.0
  0
LINE
  5
D70
330
D6B
100
AcDbEntity
  8
0
  6
Continuous
 62
     7
370
    15
100
AcDbLine
 10
7.500004768371639
 20
0.0
 30
0.0
 11
0.0
 21
0.0
 31
0.0
  0
LINE
  5
D71
330
D6B
100
AcDbEntity
  8
0
  6
Continuous
 62
     7
370
    15
100
AcDbLine
 10
0.0
 20
0.0
 30
0.0
 11
0.0
 21
-216.0000076517463
 31
0.0
  0
LINE
  5
D72
330
D6B
100
AcDbEntity
  8
0
  6
Continuous
 62
     7
370
    15
100
AcDbLine
 10
86.00000143051145
 20
-216.0000076517463
 30
0.0
 11
86.00000143051145
 21
0.0
 31
0.0
  0
LINE
  5
D73
330
D6B
100
AcDbEntity
  8
0
  6
Continuous
 62
     7
370
    15
100
AcDbLine
 10
86.00000143051145
 20
0.0
 30
0.0
 11
78.49999666213998
 21
0.0
 31
0.0
  0
LINE
  5
D75
330
D6B
100
AcDbEntity
  8
0
  6
Continuous
 62
     7
370
    15
100
AcDbLine
 10
63.50001096725472
 20
0.0
 30
0.0
 11
63.50001096725472
 21
-0.600004196167049
 31
0.0
  0
LINE
  5
D76
330
D6B
100
AcDbEntity
  8
0
  6
Continuous
 62
     7
370
    15
100
AcDbLine
 10
78.49999666213998
 20
-0.600004196167049
 30
0.0
 11
78.49999666213998
 21
0.0
 31
0.0
  0
LINE
  5
D77
330
D6B
100
AcDbEntity
  8
0
  6
Continuous
 62
     7
370
    15
100
AcDbLine
 10
78.49999666213998
 20
0.0
 30
0.0
 11
63.50001096725472
 21
0.0
 31
0.0
  0
LINE
  5
D78
330
D6B
100
AcDbEntity
  8
0
  6
Continuous
 62
     7
370
    15
100
AcDbLine
 10
63.50001096725472
 20
-0.600004196167049
 30
0.0
 11
63.50001096725472
 21
-2.900004386901855
 31
0.0
  0
LINE
  5
D79
330
D6B
100
AcDbEntity
  8
0
  6
Continuous
 62
     7
370
    15
100
AcDbLine
 10
78.49999666213998
 20
-2.900004386901855
 30
0.0
 11
78.49999666213998
 21
-0.600004196167049
 31
0.0
  0
LINE
  5
D7A
330
D6B
100
AcDbEntity
  8
0
  6
Continuous
 62
     7
370
    15
100
AcDbLine
 10
78.49999666213998
 20
-0.600004196167049
 30
0.0
 11
63.50001096725472
 21
-0.600004196167049
 31
0.0
  0
CIRCLE
  5
D7B
330
D6B
100
AcDbEntity
  8
0
  6
Continuous
 62
     7
370
    15
100
AcDbCircle
 10
67.65000429154824
 20
-1.750007629393735
 30
0.0
 40
0.3900000000040222
  0
LINE
  5
D7C
330
D6B
100
AcDbEntity
  8
0
  6
Continuous
 62
     7
370
    15
100
AcDbLine
 10
63.50001096725472
 20
-2.900004386901855
 30
0.0
 11
63.50001096725472
 21
-3.500008583068904
 31
0.0
  0
LINE
  5
D7D
330
D6B
100
AcDbEntity
  8
0
  6
Continuous
 62
     7
370
    15
100
AcDbLine
 10
63.50001096725472
 20
-3.500008583068904
 30
0.0
 11
64.02190923690804
 21
-3.500008583068904
 31
0.0
  0
ARC
  5
D7E
330
D6B
100
AcDbEntity
  8
0
  6
Continuous
 62
     7
370
    15
100
AcDbCircle
 10
64.10000429154829
 20
-3.80000762939369
 30
0.0
 40
0.3099999999999575
100
AcDbArc
 50
75.40744939797358
 51
104.5925506020264
  0
LINE
  5
D7F
330
D6B
100
AcDbEntity
  8
0
  6
Continuous
 62
     7
370
    15
100
AcDbLine
 10
64.17809724807736
 20
-3.500008583068904
 30
0.0
 11
68.66999864578256
 21
-3.500008583068904
 31
0.0
  0
LINE
  5
D80
330
D6B
100
AcDbEntity
  8
0
  6
Continuous
 62
     7
370
    15
100
AcDbLine
 10
68.66999864578256
 20
-3.18000316619873
 30
0.0
 11
68.66999864578256
 21
-3.500008583068904
 31
0.0
  0
LINE
  5
D81
330
D6B
100
AcDbEntity
  8
0
  6
Continuous
 62
     7
370
    15
100
AcDbLine
 10
70.06999254226693
 20
-3.18000316619873
 30
0.0
 11
68.66999864578256
 21
-3.18000316619873
 31
0.0
  0
LINE
  5
D82
330
D6B
100
AcDbEntity
  8
0
  6
Continuous
 62
     7
370
    15
100
AcDbLine
 10
70.06999254226693
 20
-3.500008583068904
 30
0.0
 11
70.06999254226693
 21
-3.18000316619873
 31
0.0
  0
LINE
  5
D83
330
D6B
100
AcDbEntity
  8
0
  6
Continuous
 62
     7
370
    15
100
AcDbLine
 10
70.06999254226693
 20
-3.500008583068904
 30
0.0
 11
77.82191038131711
 21
-3.500008583068904
 31
0.0
  0
ARC
  5
D84
330
D6B
100
AcDbEntity
  8
0
  6
Continuous
 62
     7
370
    15
100
AcDbCircle
 10
77.90000429154836
 20
-3.80000762939369
 30
0.0
 40
0.3099999999999982
100
AcDbArc
 50
75.40744939797622
 51
104.5925506020238
  0
LINE
  5
D85
330
D6B
100
AcDbEntity
  8
0
  6
Continuous
 62
     7
370
    15
100
AcDbLine
 10
77.97809839248666
 20
-3.500008583068904
 30
0.0
 11
78.49999666213998
 21
-3.500008583068904
 31
0.0
  0
LINE
  5
D86
330
D6B
100
AcDbEntity
  8
0
  6
Continuous
 62
     7
370
    15
100
AcDbLine
 10
78.49999666213998
 20
-3.500008583068904
 30
0.0
 11
78.49999666213998
 21
-2.900004386901855
 31
0.0
  0
LINE
  5
D87
330
D6B
100
AcDbEntity
  8
0
  6
Continuous
 62
     7
370
    15
100
AcDbLine
 10
78.49999666213998
 20
-2.900004386901855
 30
0.0
 11
63.50001096725472
 21
-2.900004386901855
 31
0.0
  0
LINE
  5
D88
330
D6B
100
AcDbEntity
  8
0
  6
Continuous
 62
     7
370
    15
100
AcDbLine
 10
7.500004768371639
 20
-2.900004386901855
 30
0.0
 11
7.500004768371639
 21
-3.500008583068904
 31
0.0
  0
LINE
  5
D89
330
D6B
100
AcDbEntity
  8
0
  6
Continuous
 62
     7
370
    15
100
AcDbLine
 10
7.500004768371639
 20
-3.500008583068904
 30
0.0
 11
8.02190303802496
 21
-3.500008583068904
 31
0.0
  0
ARC
  5
D8A
330
D6B
100
AcDbEntity
  8
0
  6
Continuous
 62
     7
370
    15
100
AcDbCircle
 10
8.10000429154843
 20
-3.800007629393747
 30
0.0
 40
0.3099999999999575
100
AcDbArc
 50
75.40744939797358
 51
104.5925506020366
  0
LINE
  5
D8B
330
D6B
100
AcDbEntity
  8
0
  6
Continuous
 62
     7
370
    15
100
AcDbLine
 10
8.178102970123291
 20
-3.500008583068904
 30
0.0
 11
12.67000436782843
 21
-3.500008583068904
 31
0.0
  0
LINE
  5
D8C
330
D6B
100
AcDbEntity
  8
0
  6
Continuous
 62
     7
370
    15
100
AcDbLine
 10
12.67000436782843
 20
-3.18000316619873
 30
0.0
 11
12.67000436782843
 21
-3.500008583068904
 31
0.0
  0
LINE
  5
D8D
330
D6B
100
AcDbEntity
  8
0
  6
Continuous
 62
     7
370
    15
100
AcDbLine
 10
14.0700101852417
 20
-3.18000316619873
 30
0.0
 11
12.67000436782843
 21
-3.18000316619873
 31
0.0
  0
LINE
  5
D8E
330
D6B
100
AcDbEntity
  8
0
  6
Continuous
 62
     7
370
    15
100
AcDbLine
 10
14.0700101852417
 20
-3.500008583068904
 30
0.0
 11
14.0700101852417
 21
-3.18000316619873
 31
0.0
  0
LINE
  5
D8F
330
D6B
100
AcDbEntity
  8
0
  6
Continuous
 62
     7
370
    15
100
AcDbLine
 10
14.0700101852417
 20
-3.500008583068904
 30
0.0
 11
21.82190418243408
 21
-3.500008583068904
 31
0.0
  0
ARC
  5
D90
330
D6B
100
AcDbEntity
  8
0
  6
Continuous
 62
     7
370
    15
100
AcDbCircle
 10
21.90000429154838
 20
-3.80000762939369
 30
0.0
 40
0.3099999999999718
100
AcDbArc
 50
75.40744939795323
 51
104.5925506020315
  0
LINE
  5
D91
330
D6B
100
AcDbEntity
  8
0
  6
Continuous
 62
     7
370
    15
100
AcDbLine
 10
21.97810411453253
 20
-3.500008583068904
 30
0.0
 11
22.50000238418585
 21
-3.500008583068904
 31
0.0
  0
LINE
  5
D92
330
D6B
100
AcDbEntity
  8
0
  6
Continuous
 62
     7
370
    15
100
AcDbLine
 10
22.50000238418585
 20
-3.500008583068904
 30
0.0
 11
22.50000238418585
 21
-2.900004386901855
 31
0.0
  0
LINE
  5
D93
330
D6B
100
AcDbEntity
  8
0
  6
Continuous
 62
     7
370
    15
100
AcDbLine
 10
7.500004768371639
 20
-0.600004196167049
 30
0.0
 11
7.500004768371639
 21
-2.900004386901855
 31
0.0
  0
LINE
  5
D94
330
D6B
100
AcDbEntity
  8
0
  6
Continuous
 62
     7
370
    15
100
AcDbLine
 10
22.50000238418585
 20
-2.900004386901855
 30
0.0
 11
22.50000238418585
 21
-0.600004196167049
 31
0.0
  0
LINE
  5
D95
330
D6B
100
AcDbEntity
  8
0
  6
Continuous
 62
     7
370
    15
100
AcDbLine
 10
22.50000238418585
 20
-2.900004386901855
 30
0.0
 11
7.500004768371639
 21
-2.900004386901855
 31
0.0
  0
CIRCLE
  5
D96
330
D6B
100
AcDbEntity
  8
0
  6
Continuous
 62
     7
370
    15
100
AcDbCircle
 10
11.65000429154838
 20
-1.750007629393792
 30
0.0
 40
0.3900000000040791
  0
LINE
  5
D97
330
D6B
100
AcDbEntity
  8
0
  6
Continuous
 62
     7
370
    15
100
AcDbLine
 10
7.500004768371639
 20
0.0
 30
0.0
 11
7.500004768371639
 21
-0.600004196167049
 31
0.0
  0
LINE
  5
D98
330
D6B
100
AcDbEntity
  8
0
  6
Continuous
 62
     7
370
    15
100
AcDbLine
 10
22.50000238418585
 20
-0.600004196167049
 30
0.0
 11
7.500004768371639
 21
-0.600004196167049
 31
0.0
  0
LINE
  5
D99
330
D6B
100
AcDbEntity
  8
0
  6
Continuous
 62
     7
370
    15
100
AcDbLine
 10
22.50000238418585
 20
-0.600004196167049
 30
0.0
 11
22.50000238418585
 21
0.0
 31
0.0
  0
LINE
  5
D9A
330
D6B
100
AcDbEntity
  8
0
  6
Continuous
 62
     7
370
    15
100
AcDbLine
 10
22.50000238418585
 20
0.0
 30
0.0
 11
7.500004768371639
 21
0.0
 31
0.0
  0
CIRCLE
  5
D9B
330
D6B
100
AcDbEntity
  8
0
  6
Continuous
 62
     7
370
    15
100
AcDbCircle
 10
76.50000429153326
 20
-1.500007629394474
 30
0.0
 40
0.3249999999980341
  0
CIRCLE
  5
D9C
330
D6B
100
AcDbEntity
  8
0
  6
Continuous
 62
     7
370
    15
100
AcDbCircle
 10
65.50000429153428
 20
-1.500007629394474
 30
0.0
 40
0.3249999999980341
  0
CIRCLE
  5
D9D
330
D6B
100
AcDbEntity
  8
0
  6
Continuous
 62
     7
370
    15
100
AcDbCircle
 10
9.500004291534424
 20
-1.500007629394531
 30
0.0
 40
0.3249999999979772
  0
CIRCLE
  5
D9E
330
D6B
100
AcDbEntity
  8
0
  6
Continuous
 62
     7
370
    15
100
AcDbCircle
 10
20.50000429153334
 20
-1.500007629394531
 30
0.0
 40
0.3249999999979772
  0
LINE
  5
D9F
330
D6B
100
AcDbEntity
  8
0
  6
Continuous
 62
     7
370
    15
100
AcDbLine
 10
14.0700101852417
 20
-3.400015830993652
 30
0.0
 11
12.67000436782843
 21
-3.400015830993652
 31
0.0
  0
LINE
  5
DA0
330
D6B
100
AcDbEntity
  8
0
  6
Continuous
 62
     7
370
    15
100
AcDbLine
 10
70.06999254226693
 20
-3.400015830993652
 30
0.0
 11
68.66999864578256
 21
-3.400015830993652
 31
0.0
  0
CIRCLE
  5
DA1
330
D6B
100
AcDbEntity
  8
0
  6
Continuous
 62
     7
370
    15
100
AcDbCircle
 10
67.65000429154858
 20
-1.750007629394304
 30
0.0
 40
0.3949999999974807
  0
CIRCLE
  5
DA2
330
D6B
100
AcDbEntity
  8
0
  6
Continuous
 62
     7
370
    15
100
AcDbCircle
 10
11.65000429154873
 20
-1.750007629394361
 30
0.0
 40
0.3949999999974807
  0
LINE
  5
DA3
330
D6B
100
AcDbEntity
  8
0
  6
Continuous
 62
     7
370
    15
100
AcDbLine
 10
21.60000801086426
 20
0.0999927520751385
 30
0.0
 11
21.60000801086426
 21
0.0
 31
0.0
  0
LINE
  5
DA4
330
D6B
100
AcDbEntity
  8
0
  6
Continuous
 62
     7
370
    15
100
AcDbLine
 10
22.20000028610235
 20
0.0
 30
0.0
 11
22.20000028610235
 21
0.0999927520751385
 31
0.0
  0
LINE
  5
DA5
330
D6B
100
AcDbEntity
  8
0
  6
Continuous
 62
     7
370
    15
100
AcDbLine
 10
7.800006866455135
 20
0.0999927520751385
 30
0.0
 11
7.800006866455135
 21
0.0
 31
0.0
  0
LINE
  5
DA6
330
D6B
100
AcDbEntity
  8
0
  6
Continuous
 62
     7
370
    15
100
AcDbLine
 10
8.399999141693115
 20
0.0
 30
0.0
 11
8.399999141693115
 21
0.0999927520751385
 31
0.0
  0
LINE
  5
DA7
330
D6B
100
AcDbEntity
  8
0
  6
Continuous
 62
     7
370
    15
100
AcDbLine
 10
63.80001306533811
 20
0.0999927520751385
 30
0.0
 11
63.80001306533811
 21
0.0
 31
0.0
  0
LINE
  5
DA8
330
D6B
100
AcDbEntity
  8
0
  6
Continuous
 62
     7
370
    15
100
AcDbLine
 10
64.39999341964719
 20
0.0
 30
0.0
 11
64.39999341964719
 21
0.0999927520751385
 31
0.0
  0
LINE
  5
DA9
330
D6B
100
AcDbEntity
  8
0
  6
Continuous
 62
     7
370
    15
100
AcDbLine
 10
77.6000142097474
 20
0.0999927520751385
 30
0.0
 11
77.6000142097474
 21
0.0
 31
0.0
  0
LINE
  5
DAA
330
D6B
100
AcDbEntity
  8
0
  6
Continuous
 62
     7
370
    15
100
AcDbLine
 10
78.19999456405648
 20
0.0
 30
0.0
 11
78.19999456405648
 21
0.0999927520751385
 31
0.0
  0
LWPOLYLINE
  5
22E1
330
D6B
100
AcDbEntity
  8
0
  6
Continuous
 62
     7
370
    15
100
AcDbPolyline
 90
        4
 70
   129
 43
0.0
 10
6.063986625873639
 20
-209.9749361667622
 10
6.063986625873639
 20
-89.62792591327013
 10
8.103766460678543
 20
-89.62792591327013
 10
8.103766460678543
 20
-209.9749361667622
  0
ENDBLK
  5
DAB
330
D6B
100
AcDbEntity
  8
0
100
AcDbBlockEnd
  0
BLOCK
  5
DB3
330
DB2
100
AcDbEntity
  8
0
100
AcDbBlockBegin
  2
BF40-FRO
 70
     0
 10
0.0
 20
0.0
 30
0.0
  3
BF40-FRO
  1

  0
CIRCLE
  5
DB4
330
DB2
100
AcDbEntity
  8
0
 62
     1
100
AcDbCircle
 10
169.9999952316284
 20
2.499988555908203
 30
0.0
 40
0.7
  0
LINE
  5
DB5
330
DB2
100
AcDbEntity
  8
0
 62
     1
100
AcDbLine
 10
0.0
 20
4.999995231628418
 30
0.0
 11
0.0
 21
0.0
 31
0.0
  0
LINE
  5
DB6
330
DB2
100
AcDbEntity
  8
0
 62
     1
100
AcDbLine
 10
177.7499866485597
 20
4.999995231628418
 30
0.0
 11
177.7499866485597
 21
0.0
 31
0.0
  0
CIRCLE
  5
DB7
330
DB2
100
AcDbEntity
  8
0
 62
     1
100
AcDbCircle
 10
109.9999952316284
 20
2.499988555908203
 30
0.0
 40
0.7
  0
CIRCLE
  5
DB8
330
DB2
100
AcDbEntity
  8
0
 62
     1
100
AcDbCircle
 10
30.0
 20
2.499988555908203
 30
0.0
 40
0.7
  0
CIRCLE
  5
DB9
330
DB2
100
AcDbEntity
  8
0
 62
     1
100
AcDbCircle
 10
10.0
 20
2.499988555908203
 30
0.0
 40
0.7
  0
LINE
  5
DBA
330
DB2
100
AcDbEntity
  8
0
  6
HIDDEN
 62
     1
100
AcDbLine
 10
102.9999923706054
 20
0.8999824523925781
 30
0.0
 11
16.99999094009399
 21
0.8999824523925781
 31
0.0
  0
LINE
  5
DBB
330
DB2
100
AcDbEntity
  8
0
  6
HIDDEN
 62
     1
100
AcDbLine
 10
16.99999094009399
 20
0.0
 30
0.0
 11
102.9999923706054
 21
0.0
 31
0.0
  0
LINE
  5
DBC
330
DB2
100
AcDbEntity
  8
0
  6
Continuous
 62
     1
370
    15
100
AcDbLine
 10
16.99999094009399
 20
0.0
 30
0.0
 11
0.0
 21
0.0
 31
0.0
  0
LINE
  5
DBD
330
DB2
100
AcDbEntity
  8
0
  6
Continuous
 62
     1
370
    15
100
AcDbLine
 10
177.7499866485597
 20
0.0
 30
0.0
 11
102.9999923706054
 21
0.0
 31
0.0
  0
LINE
  5
DBE
330
DB2
100
AcDbEntity
  8
0
  6
Continuous
 62
     1
370
    15
100
AcDbLine
 10
0.0
 20
4.999995231628418
 30
0.0
 11
177.7499866485597
 21
4.999995231628418
 31
0.0
  0
LINE
  5
DBF
330
DB2
100
AcDbEntity
  8
0
  6
Continuous
 62
     1
370
    15
100
AcDbLine
 10
177.7499866485597
 20
4.099988937377873
 30
0.0
 11
0.0
 21
4.099988937377873
 31
0.0
  0
LINE
  5
DC0
330
DB2
100
AcDbEntity
  8
0
  6
Continuous
 62
     1
370
    15
100
AcDbLine
 10
16.99999094009399
 20
0.8999824523925781
 30
0.0
 11
0.0
 21
0.8999824523925781
 31
0.0
  0
LINE
  5
DC1
330
DB2
100
AcDbEntity
  8
0
  6
Continuous
 62
     1
370
    15
100
AcDbLine
 10
177.7499866485597
 20
0.8999824523925781
 30
0.0
 11
102.9999923706054
 21
0.8999824523925781
 31
0.0
  0
ENDBLK
  5
DC2
330
DB2
100
AcDbEntity
  8
0
100
AcDbBlockEnd
  0
ENDSEC
  0
SECTION
  2
ENTITIES
  0
LINE
  5
1B6A
330
A
100
AcDbEntity
  8
0
  6
ByBlock
 62
     4
100
AcDbLine
 10
2482.46885441033
 20
2180.191836201258
 30
0.0
 11
2482.46885441033
 21
2180.00006698072
 31
0.0
  0
LINE
  5
1B6B
330
A
100
AcDbEntity
  8
0
  6
ByBlock
 62
     4
100
AcDbLine
 10
1662.46892116754
 20
2180.00006698072
 30
0.0
 11
1662.46892116754
 21
2180.191836201258
 31
0.0
  0
LINE
  5
1B6D
330
A
100
AcDbEntity
  8
0
  6
ByBlock
 62
     4
100
AcDbLine
 10
879.96889255731
 20
0.0
 30
0.0
 11
879.96889255731
 21
2120.191836201258
 31
0.0
  0
LINE
  5
1B6E
330
A
100
AcDbEntity
  8
0
  6
ByBlock
 62
     4
100
AcDbLine
 10
1657.46880672662
 20
2180.191836201258
 30
0.0
 11
1657.46880672662
 21
2180.00006698072
 31
0.0
  0
LINE
  5
1B6F
102
{ACAD_REACTORS
330
22A0
102
}
330
A
100
AcDbEntity
  8
0
  6
ByBlock
 62
     3
370
     0
100
AcDbLine
 10
1627.468835336849
 20
0.0
 30
0.0
 11
0.0
 21
0.0
 31
0.0
  0
LINE
  5
1B71
102
{ACAD_REACTORS
330
22A0
102
}
330
A
100
AcDbEntity
  8
0
  6
ByBlock
 62
     3
370
     0
100
AcDbLine
 10
3287.46880195825
 20
2467.250105440491
 30
0.0
 11
3287.46880195825
 21
0.0
 31
0.0
  0
INSERT
  5
1B72
330
A
100
AcDbEntity
  8
0
  6
ByBlock
 62
     4
100
AcDbBlockReference
  2
PORTA-FRO
 10
2487.46884964196
 20
2170.000076517463
 30
0.0
 41
-10.0
 42
10.0
 43
10.0
  0
LINE
  5
1B73
330
A
100
AcDbEntity
  8
0
  6
HIDDEN
 62
     4
100
AcDbLine
 10
1657.46880672662
 20
2120.191836201258
 30
0.0
 11
1657.46880672662
 21
19.66252757967641
 31
0.0
  0
LINE
  5
1B74
330
A
100
AcDbEntity
  8
0
  6
ByBlock
 62
     4
100
AcDbLine
 10
1627.468835336849
 20
19.99999999999955
 30
0.0
 11
1657.46880672662
 21
19.99999999999955
 31
0.0
  0
LINE
  5
1B77
330
A
100
AcDbEntity
  8
0
  6
HIDDEN
 62
     4
100
AcDbLine
 10
1662.46892116754
 20
2180.14281273276
 30
0.0
 11
1662.46892116754
 21
2100.14281273276
 31
0.0
  0
MTEXT
  5
1B78
330
A
100
AcDbEntity
  8
0
 62
     7
100
AcDbMText
 10
1450.903669055429
 20
2616.268942351309
 30
0.0
 40
157.5
 41
2449.61538675
 71
     7
 72
     1
  1
{BF07}
 73
     1
 44
1.0
  0
LINE
  5
1B79
330
A
100
AcDbEntity
  8
0
  6
Continuous
 62
     7
370
    15
100
AcDbLine
 10
1617.46880672662
 20
0.0
 30
0.0
 11
1657.46880672662
 21
0.0
 31
0.0
  0
LINE
  5
1B7A
330
A
100
AcDbEntity
  8
0
  6
Continuous
 62
     7
370
    15
100
AcDbLine
 10
1617.46880672662
 20
0.0
 30
0.0
 11
1617.46880672662
 21
20.0
 31
0.0
  0
LINE
  5
1B7B
330
A
100
AcDbEntity
  8
0
  6
Continuous
 62
     7
370
    15
100
AcDbLine
 10
1617.46880672662
 20
20.0
 30
0.0
 11
1657.46880672662
 21
20.0
 31
0.0
  0
LINE
  5
1B7C
330
A
100
AcDbEntity
  8
0
  6
Continuous
 62
     7
370
    15
100
AcDbLine
 10
1657.46880672662
 20
0.0
 30
0.0
 11
1657.46880672662
 21
20.0
 31
0.0
  0
LINE
  5
1B7D
330
A
100
AcDbEntity
  8
0
  6
HIDDEN
 62
     4
100
AcDbLine
 10
1617.46880672662
 20
4.0
 30
0.0
 11
1657.46880672662
 21
4.0
 31
0.0
  0
LINE
  5
1B7E
102
{ACAD_REACTORS
330
22A0
102
}
330
A
100
AcDbEntity
  8
0
  6
ByBlock
 62
     3
370
     0
100
AcDbLine
 10
2487.46884964196
 20
0.0
 30
0.0
 11
3287.46880195825
 21
0.0
 31
0.0
  0
LINE
  5
1B82
330
A
100
AcDbEntity
  8
0
 62
     1
100
AcDbLine
 10
879.96889255731
 20
2180.14281273276
 30
0.0
 11
879.96889255731
 21
2110.191836201258
 31
0.0
  0
LINE
  5
1B83
330
A
100
AcDbEntity
  8
0
  6
HIDDEN
 62
     1
100
AcDbLine
 10
1627.468835336849
 20
2139.142684940402
 30
0.0
 11
2487.46884964196
 21
2139.142684940402
 31
0.0
  0
LINE
  5
1B84
330
A
100
AcDbEntity
  8
0
  6
HIDDEN
 62
     1
100
AcDbLine
 10
2487.46884964196
 20
2130.142860416476
 30
0.0
 11
1627.468835336849
 21
2130.142860416476
 31
0.0
  0
LINE
  5
1B85
330
A
100
AcDbEntity
  8
0
  6
Continuous
 62
     1
370
    15
100
AcDbLine
 10
879.96889255731
 20
2130.142860416476
 30
0.0
 11
1627.468835336849
 21
2130.142860416476
 31
0.0
  0
LINE
  5
1B86
330
A
100
AcDbEntity
  8
0
  6
Continuous
 62
     1
370
    15
100
AcDbLine
 10
879.96889255731
 20
2139.142684940402
 30
0.0
 11
1627.468835336849
 21
2139.142684940402
 31
0.0
  0
LINE
  5
1B89
330
A
100
AcDbEntity
  8
0
  6
Continuous
 62
     7
370
    15
100
AcDbLine
 10
-482.5212560560976
 20
20.0
 30
0.0
 11
-482.5212560560976
 21
2.0
 31
0.0
  0
LINE
  5
1B8A
330
A
100
AcDbEntity
  8
0
  6
Continuous
 62
     7
370
    15
100
AcDbLine
 10
-482.5212560560976
 20
2.0
 30
0.0
 11
-498.2212560560984
 21
2.0
 31
0.0
  0
LINE
  5
1B8B
330
A
100
AcDbEntity
  8
0
  6
Continuous
 62
     7
370
    15
100
AcDbLine
 10
-495.871256056098
 20
20.0
 30
0.0
 11
-495.871256056098
 21
4.0
 31
0.0
  0
LINE
  5
1B8C
330
A
100
AcDbEntity
  8
0
  6
Continuous
 62
     7
370
    15
100
AcDbLine
 10
-495.871256056098
 20
4.0
 30
0.0
 11
-484.871256056098
 21
4.0
 31
0.0
  0
LINE
  5
1B8D
330
A
100
AcDbEntity
  8
0
  6
Continuous
 62
     7
370
    15
100
AcDbLine
 10
-484.871256056098
 20
4.0
 30
0.0
 11
-484.871256056098
 21
20.0
 31
0.0
  0
LINE
  5
1B8E
330
A
100
AcDbEntity
  8
0
  6
Continuous
 62
     7
370
    15
100
AcDbLine
 10
-484.871256056098
 20
20.0
 30
0.0
 11
-482.5212560560976
 21
20.0
 31
0.0
  0
LINE
  5
1B8F
330
A
100
AcDbEntity
  8
0
  6
Continuous
 62
     7
370
    15
100
AcDbLine
 10
-498.2212560560965
 20
20.0
 30
0.0
 11
-495.871256056098
 21
20.0
 31
0.0
  0
LINE
  5
1B90
330
A
100
AcDbEntity
  8
0
  6
Continuous
 62
     7
370
    15
100
AcDbLine
 10
-498.2212560560984
 20
2.0
 30
0.0
 11
-498.2212560560965
 21
20.0
 31
0.0
  0
LINE
  5
1B91
330
A
100
AcDbEntity
  8
0
  6
Continuous
 62
     7
370
    15
100
AcDbLine
 10
-480.371256056098
 20
20.0
 30
0.0
 11
-480.371256056098
 21
0.0
 31
0.0
  0
LINE
  5
1B92
330
A
100
AcDbEntity
  8
0
  6
Continuous
 62
     7
370
    15
100
AcDbLine
 10
-500.371256056098
 20
0.0
 30
0.0
 11
-500.371256056098
 21
20.0
 31
0.0
  0
LINE
  5
1B93
330
A
100
AcDbEntity
  8
0
  6
Continuous
 62
     7
370
    15
100
AcDbLine
 10
-498.371256056098
 20
20.0
 30
0.0
 11
-498.371256056098
 21
2.0
 31
0.0
  0
LINE
  5
1B94
330
A
100
AcDbEntity
  8
0
  6
Continuous
 62
     7
370
    15
100
AcDbLine
 10
-498.371256056098
 20
2.0
 30
0.0
 11
-498.2212560560984
 21
2.0
 31
0.0
  0
LINE
  5
1B95
330
A
100
AcDbEntity
  8
0
  6
Continuous
 62
     7
370
    15
100
AcDbLine
 10
-498.2212560560984
 20
2.0
 30
0.0
 11
-482.5212560560976
 21
2.0
 31
0.0
  0
LINE
  5
1B96
330
A
100
AcDbEntity
  8
0
  6
Continuous
 62
     7
370
    15
100
AcDbLine
 10
-482.5212560560976
 20
2.0
 30
0.0
 11
-482.371256056098
 21
2.0
 31
0.0
  0
LINE
  5
1B97
330
A
100
AcDbEntity
  8
0
  6
Continuous
 62
     7
370
    15
100
AcDbLine
 10
-482.371256056098
 20
2.0
 30
0.0
 11
-482.371256056098
 21
20.0
 31
0.0
  0
LINE
  5
1B98
330
A
100
AcDbEntity
  8
0
  6
Continuous
 62
     7
370
    15
100
AcDbLine
 10
-482.371256056098
 20
20.0
 30
0.0
 11
-480.371256056098
 21
20.0
 31
0.0
  0
LINE
  5
1B99
330
A
100
AcDbEntity
  8
0
  6
Continuous
 62
     7
370
    15
100
AcDbLine
 10
-500.371256056098
 20
20.0
 30
0.0
 11
-498.371256056098
 21
20.0
 31
0.0
  0
LINE
  5
1B9A
330
A
100
AcDbEntity
  8
0
  6
ByBlock
 62
     3
370
     0
100
AcDbLine
 10
-600.371256056098
 20
0.0
 30
0.0
 11
-380.371256056098
 21
0.0
 31
0.0
  0
LINE
  5
1BCE
330
A
100
AcDbEntity
  8
0
  6
Continuous
 62
     7
370
    15
100
AcDbLine
 10
-509.8212558477371
 20
2175.64281273276
 30
0.0
 11
-509.3212558477371
 21
2175.64281273276
 31
0.0
  0
HATCH
  5
1BD2
330
A
100
AcDbEntity
  8
0
100
AcDbHatch
 10
0.0
 20
0.0
 30
0.0
210
0.0
220
0.0
230
1.0
  2
SOLID
 70
     1
 71
     0
 91
        1
 92
        7
 72
     1
 73
     1
 93
       17
 10
-506.2604299619215
 20
2175.653835655181
 42
3.846939472614007
 10
-506.0312558477362
 20
2177.342812732759
 42
0.0
 10
-512.9312558477377
 20
2177.342812732759
 42
0.0
 10
-512.9312558477377
 20
2129.64281273276
 42
0.0
 10
-497.4312558477377
 20
2129.64281273276
 42
0.0
 10
-497.4312558477377
 20
2129.75351391382
 42
0.3443276132893184
 10
-497.8102948999385
 20
2130.238661776959
 42
0.0
 10
-499.4312558477377
 20
2130.64281273276
 42
0.0
 10
-503.1618978167662
 20
2130.64281273276
 42
0.0
 10
-505.7599740281203
 20
2132.14281273276
 42
0.0
 10
-511.4312558477377
 20
2131.14281273276
 42
0.0
 10
-511.4312558477377
 20
2174.542812732761
 42
-0.4142135623735312
 10
-510.4312558477377
 20
2175.54281273276
 42
0.0
 10
-508.9312558477377
 20
2175.54281273276
 42
0.0
 10
-508.9312558477377
 20
2174.54281273276
 42
0.0
 10
-508.737455422086
 20
2174.54281273276
 42
0.1900083030333328
 10
-508.6009697280697
 20
2174.596622256569
 42
-0.1648781946422868
 97
        0
 75
     0
 76
     1
 47
0.0
 98
        1
 10
-511.7831867696659
 20
2176.302767499943
1001
ACAD
1010
0.0
1020
0.0
1030
0.0
  0
LINE
  5
1BD3
330
A
100
AcDbEntity
  8
0
  6
Continuous
 62
     7
370
    15
100
AcDbLine
 10
-503.1618978167662
 20
2130.64281273276
 30
0.0
 11
-505.7599740281203
 21
2132.14281273276
 31
0.0
  0
LINE
  5
1BD4
330
A
100
AcDbEntity
  8
0
  6
Continuous
 62
     7
370
    15
100
AcDbLine
 10
-505.7599740281203
 20
2132.14281273276
 30
0.0
 11
-511.4312558477377
 21
2131.14281273276
 31
0.0
  0
ARC
  5
1BD5
330
A
100
AcDbEntity
  8
0
  6
Continuous
 62
     7
370
    15
100
AcDbCircle
 10
-510.4312558477377
 20
2174.542812732761
 30
0.0
 40
1.000000000000085
100
AcDbArc
 50
90.0
 51
180.0
  0
LINE
  5
1BD6
330
A
100
AcDbEntity
  8
0
  6
Continuous
 62
     7
370
    15
100
AcDbLine
 10
-510.4312558477377
 20
2175.54281273276
 30
0.0
 11
-508.9312558477377
 21
2175.54281273276
 31
0.0
  0
LINE
  5
1BD7
330
A
100
AcDbEntity
  8
0
  6
Continuous
 62
     7
370
    15
100
AcDbLine
 10
-508.9312558477377
 20
2175.54281273276
 30
0.0
 11
-508.9312558477377
 21
2174.542812732761
 31
0.0
  0
LINE
  5
1BD8
330
A
100
AcDbEntity
  8
0
  6
Continuous
 62
     7
370
    15
100
AcDbLine
 10
-508.9312558477377
 20
2174.542812732761
 30
0.0
 11
-508.737455422086
 21
2174.542812732761
 31
0.0
  0
ARC
  5
1BD9
330
A
100
AcDbEntity
  8
0
  6
Continuous
 62
     7
370
    15
100
AcDbCircle
 10
-508.737455422086
 20
2174.74281273276
 30
0.0
 40
0.1999999999997367
100
AcDbArc
 50
270.0
 51
313.0337049656671
  0
ARC
  5
1BDA
330
A
100
AcDbEntity
  8
0
  6
Continuous
 62
     7
370
    15
100
AcDbCircle
 10
-505.8712558477364
 20
2171.672812732761
 30
0.0
 40
3.999999999999961
100
AcDbArc
 50
95.58334098004872
 51
133.0337049657433
  0
ARC
  5
1BDB
330
A
100
AcDbEntity
  8
0
  6
Continuous
 62
     7
370
    15
100
AcDbCircle
 10
-504.6312558477366
 20
2176.29281273276
 30
0.0
 40
1.749999999999964
100
AcDbArc
 50
201.4155684870225
 51
143.1301023541322
  0
LINE
  5
1BDC
330
A
100
AcDbEntity
  8
0
  6
Continuous
 62
     7
370
    15
100
AcDbLine
 10
-506.0312558477362
 20
2177.342812732761
 30
0.0
 11
-512.9312558477377
 21
2177.342812732761
 31
0.0
  0
LINE
  5
1BDD
330
A
100
AcDbEntity
  8
0
  6
Continuous
 62
     7
370
    15
100
AcDbLine
 10
-512.9312558477377
 20
2177.342812732761
 30
0.0
 11
-512.9312558477377
 21
2129.64281273276
 31
0.0
  0
LINE
  5
1BDE
330
A
100
AcDbEntity
  8
0
  6
Continuous
 62
     7
370
    15
100
AcDbLine
 10
-512.9312558477377
 20
2129.64281273276
 30
0.0
 11
-497.4312558477377
 21
2129.64281273276
 31
0.0
  0
LINE
  5
1BDF
330
A
100
AcDbEntity
  8
0
  6
Continuous
 62
     7
370
    15
100
AcDbLine
 10
-497.4312558477377
 20
2129.64281273276
 30
0.0
 11
-497.4312558477377
 21
2129.75351391382
 31
0.0
  0
ARC
  5
1BE0
330
A
100
AcDbEntity
  8
0
  6
Continuous
 62
     7
370
    15
100
AcDbCircle
 10
-497.9312558477377
 20
2129.75351391382
 30
0.0
 40
0.4999999999999716
100
AcDbArc
 50
0.0
 51
75.99999999986058
  0
LINE
  5
1BE1
330
A
100
AcDbEntity
  8
0
  6
Continuous
 62
     7
370
    15
100
AcDbLine
 10
-497.8102948999385
 20
2130.238661776959
 30
0.0
 11
-499.4312558477377
 21
2130.64281273276
 31
0.0
  0
LINE
  5
1BE2
330
A
100
AcDbEntity
  8
0
  6
Continuous
 62
     7
370
    15
100
AcDbLine
 10
-499.4312558477377
 20
2130.64281273276
 30
0.0
 11
-503.1618978167662
 21
2130.64281273276
 31
0.0
  0
LINE
  5
1BE3
330
A
100
AcDbEntity
  8
0
  6
Continuous
 62
     7
370
    15
100
AcDbLine
 10
-511.4312558477377
 20
2131.14281273276
 30
0.0
 11
-511.4312558477377
 21
2174.542812732761
 31
0.0
  0
HATCH
  5
1C0C
330
A
100
AcDbEntity
  8
0
100
AcDbHatch
 10
0.0
 20
0.0
 30
0.0
210
0.0
220
0.0
230
1.0
  2
ANSI31
 70
     0
 71
     0
 91
        2
 92
        7
 72
     0
 73
     1
 93
        5
 10
-502.8712553110399
 20
2145.099816069007
 10
-502.8712553110399
 20
2170.100033506751
 10
-508.8712562945166
 20
2164.099991545081
 10
-508.8712562945166
 20
2141.099989637733
 10
-502.8712553110399
 20
2135.099947676063
 97
        0
 92
        7
 72
     0
 73
     1
 93
        5
 10
-495.8712560262957
 20
2135.099947676063
 10
-495.8712560262957
 20
2170.100033506751
 10
-496.8712561902084
 20
2170.100033506751
 10
-496.8712561902084
 20
2145.099816069007
 10
-496.8712561902084
 20
2135.099947676063
 97
        0
 75
     0
 76
     1
 52
0.0
 41
0.1
 77
     0
 78
     1
 53
45.0
 43
-1393.950247177949
 44
-1107.552472190858
 45
-0.2245064030267288
 46
0.2245064030267288
 79
     0
 47
0.0
 98
        2
 10
-504.7918754357815
 20
2149.628918334853
 10
-496.6973340064233
 20
2141.07183168096
1001
ACAD
1010
0.0
1020
0.0
1030
0.0
  0
LINE
  5
1C0D
330
A
100
AcDbEntity
  8
0
100
AcDbLine
 10
-496.8712561902084
 20
2145.099816069007
 30
0.0
 11
-496.8712561902084
 21
2135.099947676063
 31
0.0
  0
LINE
  5
1C0E
330
A
100
AcDbEntity
  8
0
100
AcDbLine
 10
-502.8712553110399
 20
2145.099816069007
 30
0.0
 11
-502.8712553110399
 21
2135.099947676063
 31
0.0
  0
LINE
  5
1C0F
330
A
100
AcDbEntity
  8
0
  6
HIDDEN
 62
     7
370
    15
100
AcDbLine
 10
-496.8712561902084
 20
2145.099816069007
 30
0.0
 11
-497.8712563541212
 21
2144.099888548255
 31
0.0
  0
LINE
  5
1C10
330
A
100
AcDbEntity
  8
0
  6
HIDDEN
 62
     7
370
    15
100
AcDbLine
 10
-497.8712563541212
 20
2144.099888548255
 30
0.0
 11
-501.8712570097723
 21
2144.099888548255
 31
0.0
  0
LINE
  5
1C11
330
A
100
AcDbEntity
  8
0
  6
HIDDEN
 62
     7
370
    15
100
AcDbLine
 10
-496.8712561902084
 20
2145.099816069007
 30
0.0
 11
-502.8712553110399
 21
2145.099816069007
 31
0.0
  0
LINE
  5
1C12
330
A
100
AcDbEntity
  8
0
  6
HIDDEN
 62
     7
370
    15
100
AcDbLine
 10
-501.8712570097723
 20
2144.099888548255
 30
0.0
 11
-502.8712553110399
 21
2145.099816069007
 31
0.0
  0
HATCH
  5
1C13
330
A
100
AcDbEntity
  8
0
100
AcDbHatch
 10
0.0
 20
0.0
 30
0.0
210
0.0
220
0.0
230
1.0
  2
SOLID
 70
     1
 71
     0
 91
        1
 92
        7
 72
     0
 73
     1
 93
        5
 10
-484.8712560859003
 20
2143.600046858191
 10
-484.8712560859003
 20
2166.60004876554
 10
-485.3712552365341
 20
2166.60004876554
 10
-485.3712552365341
 20
2155.099928602576
 10
-485.3712552365341
 20
2143.600046858191
 97
        0
 75
     0
 76
     1
 47
0.0
 98
        1
 10
-485.015270614671
 20
2148.028409467161
1001
ACAD
1010
0.0
1020
0.0
1030
0.0
  0
HATCH
  5
1C14
330
A
100
AcDbEntity
  8
0
100
AcDbHatch
 10
0.0
 20
0.0
 30
0.0
210
0.0
220
0.0
230
1.0
  2
SOLID
 70
     1
 71
     0
 91
        1
 92
        7
 72
     0
 73
     1
 93
        6
 10
-495.3712550130167
 20
2137.100041136146
 10
-495.3712550130167
 20
2168.099940046668
 10
-495.3712550130167
 20
2169.09986756742
 10
-495.8712560262957
 20
2169.09986756742
 10
-495.8712560262957
 20
2136.099875196815
 10
-495.3712550130167
 20
2136.099875196815
 97
        0
 75
     0
 76
     1
 47
0.0
 98
        1
 10
-495.61680716101
 20
2152.922137942738
1001
ACAD
1010
0.0
1020
0.0
1030
0.0
  0
LINE
  5
1C15
330
A
100
AcDbEntity
  8
0
  6
Continuous
 62
     7
370
    15
100
AcDbLine
 10
-495.8712560262957
 20
2135.099947676063
 30
0.0
 11
-495.8712560262957
 21
2170.100033506751
 31
0.0
  0
LINE
  5
1C16
330
A
100
AcDbEntity
  8
0
  6
Continuous
 62
     7
370
    15
100
AcDbLine
 10
-502.8712553110399
 20
2135.099947676063
 30
0.0
 11
-508.8712562945166
 21
2141.099989637733
 31
0.0
  0
LINE
  5
1C17
330
A
100
AcDbEntity
  8
0
  6
Continuous
 62
     7
370
    15
100
AcDbLine
 10
-495.8712560262957
 20
2135.099947676063
 30
0.0
 11
-502.8712553110399
 21
2135.099947676063
 31
0.0
  0
LINE
  5
1C18
330
A
100
AcDbEntity
  8
0
  6
Continuous
 62
     7
370
    15
100
AcDbLine
 10
-495.8712560262957
 20
2170.100033506751
 30
0.0
 11
-496.8712561902084
 21
2170.100033506751
 31
0.0
  0
LINE
  5
1C19
330
A
100
AcDbEntity
  8
0
  6
Continuous
 62
     7
370
    15
100
AcDbLine
 10
-508.8712562945166
 20
2164.099991545081
 30
0.0
 11
-502.8712553110399
 21
2170.100033506751
 31
0.0
  0
LINE
  5
1C1A
330
A
100
AcDbEntity
  8
0
  6
Continuous
 62
     7
370
    15
100
AcDbLine
 10
-508.8712562945166
 20
2141.099989637733
 30
0.0
 11
-508.8712562945166
 21
2164.099991545081
 31
0.0
  0
LINE
  5
1C1B
330
A
100
AcDbEntity
  8
0
  6
Continuous
 62
     7
370
    15
100
AcDbLine
 10
-509.4712552752771
 20
2158.350050672889
 30
0.0
 11
-509.4712552752771
 21
2151.850044950843
 31
0.0
  0
LINE
  5
1C1C
330
A
100
AcDbEntity
  8
0
  6
Continuous
 62
     7
370
    15
100
AcDbLine
 10
-495.3712550130167
 20
2169.09986756742
 30
0.0
 11
-495.3712550130167
 21
2168.099940046668
 31
0.0
  0
LINE
  5
1C1D
330
A
100
AcDbEntity
  8
0
  6
Continuous
 62
     7
370
    15
100
AcDbLine
 10
-495.8712560262957
 20
2169.09986756742
 30
0.0
 11
-495.3712550130167
 21
2169.09986756742
 31
0.0
  0
LINE
  5
1C1E
330
A
100
AcDbEntity
  8
0
  6
Continuous
 62
     7
370
    15
100
AcDbLine
 10
-495.3712550130167
 20
2168.099940046668
 30
0.0
 11
-495.3712550130167
 21
2137.100041136146
 31
0.0
  0
LINE
  5
1C1F
330
A
100
AcDbEntity
  8
0
  6
Continuous
 62
     7
370
    15
100
AcDbLine
 10
-495.3712550130167
 20
2137.100041136146
 30
0.0
 11
-495.3712550130167
 21
2136.099875196815
 31
0.0
  0
LINE
  5
1C20
330
A
100
AcDbEntity
  8
0
  6
Continuous
 62
     7
370
    15
100
AcDbLine
 10
-495.8712560262957
 20
2136.099875196815
 30
0.0
 11
-495.3712550130167
 21
2136.099875196815
 31
0.0
  0
LINE
  5
1C21
330
A
100
AcDbEntity
  8
0
  6
Continuous
 62
     7
370
    15
100
AcDbLine
 10
-486.8712564137259
 20
2161.799967512488
 30
0.0
 11
-486.8712564137259
 21
2155.099928602576
 31
0.0
  0
LINE
  5
1C22
330
A
100
AcDbEntity
  8
0
  6
Continuous
 62
     7
370
    15
100
AcDbLine
 10
-486.8712564137259
 20
2155.099928602576
 30
0.0
 11
-486.8712564137259
 21
2148.399889692664
 31
0.0
  0
LINE
  5
1C23
330
A
100
AcDbEntity
  8
0
  6
Continuous
 62
     7
370
    15
100
AcDbLine
 10
-487.0712560739794
 20
2148.199856504798
 30
0.0
 11
-487.0712560739794
 21
2155.099928602576
 31
0.0
  0
LINE
  5
1C24
330
A
100
AcDbEntity
  8
0
  6
Continuous
 62
     7
370
    15
100
AcDbLine
 10
-487.0712560739794
 20
2155.099928602576
 30
0.0
 11
-487.0712560739794
 21
2162.000000700355
 31
0.0
  0
LINE
  5
1C25
330
A
100
AcDbEntity
  8
0
  6
Continuous
 62
     7
370
    15
100
AcDbLine
 10
-478.8712560337462
 20
2146.600067839026
 30
0.0
 11
-478.8712560337462
 21
2155.099928602576
 31
0.0
  0
LINE
  5
1C26
330
A
100
AcDbEntity
  8
0
  6
Continuous
 62
     7
370
    15
100
AcDbLine
 10
-478.8712560337462
 20
2155.099928602576
 30
0.0
 11
-478.8712560337462
 21
2163.600027784705
 31
0.0
  0
LINE
  5
1C27
330
A
100
AcDbEntity
  8
0
  6
Continuous
 62
     7
370
    15
100
AcDbLine
 10
-484.8712560859003
 20
2167.100012525916
 30
0.0
 11
-484.8712560859003
 21
2143.099844679236
 31
0.0
  0
LINE
  5
1C28
330
A
100
AcDbEntity
  8
0
  6
Continuous
 62
     7
370
    15
100
AcDbLine
 10
-483.8712559219875
 20
2143.099844679236
 30
0.0
 11
-483.8712559219875
 21
2167.100012525916
 31
0.0
  0
LINE
  5
1C29
330
A
100
AcDbEntity
  8
0
  6
Continuous
 62
     7
370
    15
100
AcDbLine
 10
-485.3712552365341
 20
2166.60004876554
 30
0.0
 11
-485.3712552365341
 21
2155.099928602576
 31
0.0
  0
LINE
  5
1C2A
330
A
100
AcDbEntity
  8
0
  6
Continuous
 62
     7
370
    15
100
AcDbLine
 10
-485.3712552365341
 20
2155.099928602576
 30
0.0
 11
-485.3712552365341
 21
2143.600046858191
 31
0.0
  0
SPLINE
  5
1C2B
330
A
100
AcDbEntity
  8
0
  6
Continuous
 62
     7
370
    15
100
AcDbSpline
210
0.0
220
0.0
230
1.0
 70
    24
 71
     3
 72
    23
 73
    19
 74
     0
 42
0.00000001
 43
0.00000001
 40
0.0
 40
0.0
 40
0.0
 40
0.0
 40
0.058616717027869
 40
0.120744638030352
 40
0.1854558698299173
 40
0.2515409855438046
 40
0.317627089833924
 40
0.3823373938258889
 40
0.4444651118837844
 40
0.5030815207832184
 40
0.5616982378110875
 40
0.6238285628720187
 40
0.6885397946715839
 40
0.7546213649324705
 40
0.8207074692225899
 40
0.8854188872569834
 40
0.9475459568963662
 40
0.9999999999999999
 40
0.9999999999999999
 40
0.9999999999999999
 40
0.9999999999999999
 10
-473.0712556418457
 20
2167.840063795447
 30
0.0
 10
-473.0712556418457
 20
2167.772865305575
 30
0.0
 10
-473.0712556418457
 20
2167.634443064491
 30
0.0
 10
-473.0712556418457
 20
2166.734344396995
 30
0.0
 10
-473.0712556418457
 20
2165.279760210493
 30
0.0
 10
-473.0712556418457
 20
2163.25614152305
 30
0.0
 10
-473.0712556418457
 20
2160.788337548089
 30
0.0
 10
-473.0712556418457
 20
2158.037344667038
 30
0.0
 10
-473.0712556418457
 20
2155.189350773533
 30
0.0
 10
-473.0712556418457
 20
2152.348122962288
 30
0.0
 10
-473.0712556418457
 20
2149.516905515571
 30
0.0
 10
-473.0712556418457
 20
2146.700232991639
 30
0.0
 10
-473.0712556418457
 20
2144.003651248187
 30
0.0
 10
-473.0712556418457
 20
2141.612179224972
 30
0.0
 10
-473.0712556418457
 20
2139.681710087019
 30
0.0
 10
-473.0712556418457
 20
2138.334467218017
 30
0.0
 10
-473.0712556418457
 20
2137.561661792084
 30
0.0
 10
-473.0712556418457
 20
2137.496540679598
 30
0.0
 10
-473.0712556418457
 20
2137.466728910804
 30
0.0
  0
SPLINE
  5
1C2C
330
A
100
AcDbEntity
  8
0
  6
Continuous
 62
     7
370
    15
100
AcDbSpline
210
0.0
220
0.0
230
1.0
 70
    24
 71
     3
 72
    10
 73
     6
 74
     0
 42
0.00000001
 43
0.00000001
 40
0.0
 40
0.0
 40
0.0
 40
0.0
 40
0.1482891128892584
 40
0.5865282560474782
 40
1.0
 40
1.0
 40
1.0
 40
1.0
 10
-482.5712562676945
 20
2166.189968809485
 30
0.0
 10
-482.5712562676945
 20
2166.354618885045
 30
0.0
 10
-482.5712562676945
 20
2167.005859692921
 30
0.0
 10
-482.5712562676945
 20
2167.615220646507
 30
0.0
 10
-482.5712562676945
 20
2167.76658326653
 30
0.0
 10
-482.5712562676945
 20
2167.840063795447
 30
0.0
  0
SPLINE
  5
1C2D
330
A
100
AcDbEntity
  8
0
  6
Continuous
 62
     7
370
    15
100
AcDbSpline
210
0.0
220
0.0
230
1.0
 70
    24
 71
     3
 72
    12
 73
     8
 74
     0
 42
0.00000001
 43
0.00000001
 40
0.0
 40
0.0
 40
0.0
 40
0.0
 40
0.1694887444359892
 40
0.3702328321293323
 40
0.5793274289300508
 40
0.7928638920520374
 40
1.0
 40
1.0
 40
1.0
 40
1.0
 10
-482.5712562676945
 20
2137.466728910804
 30
0.0
 10
-482.5712562676945
 20
2137.496616211742
 30
0.0
 10
-482.5712562676945
 20
2137.561902317364
 30
0.0
 10
-482.5712562676945
 20
2138.333274035678
 30
0.0
 10
-482.5712562676945
 20
2139.686407732945
 30
0.0
 10
-482.5712562676945
 20
2141.575107552542
 30
0.0
 10
-482.5712562676945
 20
2143.206568778711
 30
0.0
 10
-482.5712562676945
 20
2144.009888395667
 30
0.0
  0
LINE
  5
1C2E
330
A
100
AcDbEntity
  8
0
  6
Continuous
 62
     7
370
    15
100
AcDbLine
 10
-472.3212559845724
 20
2160.142719969153
 30
0.0
 11
-472.3212559845724
 21
2145.142853483558
 31
0.0
  0
LINE
  5
1C2F
330
A
100
AcDbEntity
  8
0
  6
Continuous
 62
     7
370
    15
100
AcDbLine
 10
-508.9212571409025
 20
2151.300013288856
 30
0.0
 11
-508.9212571409025
 21
2148.649990782142
 31
0.0
  0
LINE
  5
1C30
330
A
100
AcDbEntity
  8
0
  6
Continuous
 62
     7
370
    15
100
AcDbLine
 10
-497.8712563541212
 20
2172.099888548255
 30
0.0
 11
-501.8712570097723
 21
2172.099888548255
 31
0.0
  0
LINE
  5
1C31
330
A
100
AcDbEntity
  8
0
  6
Continuous
 62
     7
370
    15
100
AcDbLine
 10
-496.8712561902084
 20
2171.099961027503
 30
0.0
 11
-502.0070401158609
 21
2171.099961027503
 31
0.0
  0
LINE
  5
1C32
330
A
100
AcDbEntity
  8
0
  6
Continuous
 62
     7
370
    15
100
AcDbLine
 10
-502.0070401158609
 20
2171.099961027503
 30
0.0
 11
-502.8712553110399
 21
2171.099961027503
 31
0.0
  0
LINE
  5
1C33
330
A
100
AcDbEntity
  8
0
  6
Continuous
 62
     7
370
    15
100
AcDbLine
 10
-486.8712564137259
 20
2151.099980100989
 30
0.0
 11
-485.3712552365341
 21
2151.099980100989
 31
0.0
  0
LINE
  5
1C34
330
A
100
AcDbEntity
  8
0
  6
Continuous
 62
     7
370
    15
100
AcDbLine
 10
-485.3712552365341
 20
2159.099877104163
 30
0.0
 11
-486.8712564137259
 21
2159.099877104163
 31
0.0
  0
LINE
  5
1C35
330
A
100
AcDbEntity
  8
0
  6
Continuous
 62
     7
370
    15
100
AcDbLine
 10
-509.4712552752771
 20
2151.850044950843
 30
0.0
 11
-508.8712562945166
 21
2151.249945387244
 31
0.0
  0
LINE
  5
1C36
330
A
100
AcDbEntity
  8
0
  6
Continuous
 62
     7
370
    15
100
AcDbLine
 10
-508.8712562945166
 20
2158.949911817908
 30
0.0
 11
-509.4712552752771
 21
2158.350050672889
 31
0.0
  0
LINE
  5
1C37
330
A
100
AcDbEntity
  8
0
  6
Continuous
 62
     7
370
    15
100
AcDbLine
 10
-486.8712564137259
 20
2161.799967512488
 30
0.0
 11
-487.0712560739794
 21
2162.000000700355
 31
0.0
  0
LINE
  5
1C38
330
A
100
AcDbEntity
  8
0
  6
Continuous
 62
     7
370
    15
100
AcDbLine
 10
-487.0712560739794
 20
2148.199856504798
 30
0.0
 11
-486.8712564137259
 21
2148.399889692664
 31
0.0
  0
LINE
  5
1C39
330
A
100
AcDbEntity
  8
0
  6
Continuous
 62
     7
370
    15
100
AcDbLine
 10
-495.3712550130167
 20
2148.199856504798
 30
0.0
 11
-487.0712560739794
 21
2148.199856504798
 31
0.0
  0
LINE
  5
1C3A
330
A
100
AcDbEntity
  8
0
  6
Continuous
 62
     7
370
    15
100
AcDbLine
 10
-487.0712560739794
 20
2162.000000700355
 30
0.0
 11
-495.3712550130167
 21
2162.000000700355
 31
0.0
  0
LINE
  5
1C3B
330
A
100
AcDbEntity
  8
0
  6
Continuous
 62
     7
370
    15
100
AcDbLine
 10
-478.8712560337462
 20
2163.600027784705
 30
0.0
 11
-483.8712559219875
 21
2167.100012525916
 31
0.0
  0
LINE
  5
1C3C
330
A
100
AcDbEntity
  8
0
  6
Continuous
 62
     7
370
    15
100
AcDbLine
 10
-483.8712559219875
 20
2143.099844679236
 30
0.0
 11
-478.8712560337462
 21
2146.600067839026
 31
0.0
  0
LINE
  5
1C3D
330
A
100
AcDbEntity
  8
0
  6
Continuous
 62
     7
370
    15
100
AcDbLine
 10
-484.8712560859003
 20
2143.099844679236
 30
0.0
 11
-483.8712559219875
 21
2143.099844679236
 31
0.0
  0
LINE
  5
1C3E
330
A
100
AcDbEntity
  8
0
  6
Continuous
 62
     7
370
    15
100
AcDbLine
 10
-483.8712559219875
 20
2167.100012525916
 30
0.0
 11
-484.8712560859003
 21
2167.100012525916
 31
0.0
  0
LINE
  5
1C3F
330
A
100
AcDbEntity
  8
0
  6
Continuous
 62
     7
370
    15
100
AcDbLine
 10
-485.3712552365341
 20
2143.600046858191
 30
0.0
 11
-484.8712560859003
 21
2143.600046858191
 31
0.0
  0
LINE
  5
1C40
330
A
100
AcDbEntity
  8
0
  6
Continuous
 62
     7
370
    15
100
AcDbLine
 10
-484.8712560859003
 20
2166.60004876554
 30
0.0
 11
-485.3712552365341
 21
2166.60004876554
 31
0.0
  0
LINE
  5
1C41
330
A
100
AcDbEntity
  8
0
  6
Continuous
 62
     7
370
    15
100
AcDbLine
 10
-495.3712550130167
 20
2144.616186842322
 30
0.0
 11
-485.3712552365341
 21
2144.616186842322
 31
0.0
  0
LINE
  5
1C42
330
A
100
AcDbEntity
  8
0
  6
Continuous
 62
     7
370
    15
100
AcDbLine
 10
-485.3712552365341
 20
2160.616219267249
 30
0.0
 11
-486.8712564137259
 21
2160.616219267249
 31
0.0
  0
ARC
  5
1C43
330
A
100
AcDbEntity
  8
0
  6
Continuous
 62
     7
370
    15
100
AcDbCircle
 10
-477.8212558477371
 20
2168.89281273276
 30
0.0
 40
2.750000000000288
100
AcDbArc
 50
197.2039944550917
 51
342.7960055449083
  0
ARC
  5
1C44
330
A
100
AcDbEntity
  8
0
  6
Continuous
 62
     7
370
    15
100
AcDbCircle
 10
-477.8212558477371
 20
2136.39281273276
 30
0.0
 40
2.750000000000456
100
AcDbArc
 50
17.20399445512794
 51
162.7960055448721
  0
ARC
  5
1C45
330
A
100
AcDbEntity
  8
0
  6
Continuous
 62
     7
370
    15
100
AcDbCircle
 10
-474.4300908561745
 20
2137.442812732761
 30
0.0
 40
0.7999999999996865
100
AcDbArc
 50
197.2039944550617
 51
270.0
  0
ARC
  5
1C46
330
A
100
AcDbEntity
  8
0
  6
Continuous
 62
     7
370
    15
100
AcDbCircle
 10
-474.4300908561745
 20
2167.842812732761
 30
0.0
 40
0.7999999999998547
100
AcDbArc
 50
90.0
 51
162.7960055449383
  0
LINE
  5
1C47
330
A
100
AcDbEntity
  8
0
  6
Continuous
 62
     7
370
    15
100
AcDbLine
 10
-481.2124212410727
 20
2168.642819151282
 30
0.0
 11
-481.7712557640352
 21
2168.642819151282
 31
0.0
  0
LINE
  5
1C48
330
A
100
AcDbEntity
  8
0
  6
Continuous
 62
     7
370
    15
100
AcDbLine
 10
-481.7712557640352
 20
2136.642754301429
 30
0.0
 11
-481.2124212410727
 21
2136.642754301429
 31
0.0
  0
LINE
  5
1C49
330
A
100
AcDbEntity
  8
0
  6
Continuous
 62
     7
370
    15
100
AcDbLine
 10
-473.8712556798437
 20
2168.642819151282
 30
0.0
 11
-474.4300906684675
 21
2168.642819151282
 31
0.0
  0
LINE
  5
1C4A
330
A
100
AcDbEntity
  8
0
  6
Continuous
 62
     7
370
    15
100
AcDbLine
 10
-474.4300906684675
 20
2136.642754301429
 30
0.0
 11
-473.8712556798437
 21
2136.642754301429
 31
0.0
  0
ARC
  5
1C4B
330
A
100
AcDbEntity
  8
0
  6
Continuous
 62
     7
370
    15
100
AcDbCircle
 10
-481.2124208392997
 20
2167.842812732761
 30
0.0
 40
0.7999999999998547
100
AcDbArc
 50
17.20399445506173
 51
90.0
  0
ARC
  5
1C4C
330
A
100
AcDbEntity
  8
0
  6
Continuous
 62
     7
370
    15
100
AcDbCircle
 10
-481.2124208392997
 20
2137.442812732761
 30
0.0
 40
0.7999999999996865
100
AcDbArc
 50
270.0
 51
342.7960055449383
  0
ARC
  5
1C4D
330
A
100
AcDbEntity
  8
0
  6
Continuous
 62
     7
370
    15
100
AcDbCircle
 10
-473.8712558477364
 20
2137.442812732761
 30
0.0
 40
0.8000000000001251
100
AcDbArc
 50
270.0
 51
0.0
  0
ARC
  5
1C4E
330
A
100
AcDbEntity
  8
0
  6
Continuous
 62
     7
370
    15
100
AcDbCircle
 10
-473.8712558477364
 20
2167.842812732761
 30
0.0
 40
0.8000000000001251
100
AcDbArc
 50
0.0
 51
90.0
  0
ARC
  5
1C4F
330
A
100
AcDbEntity
  8
0
  6
Continuous
 62
     7
370
    15
100
AcDbCircle
 10
-481.7712558477378
 20
2167.842812732761
 30
0.0
 40
0.8000000000001251
100
AcDbArc
 50
90.0
 51
180.0
  0
ARC
  5
1C50
330
A
100
AcDbEntity
  8
0
  6
Continuous
 62
     7
370
    15
100
AcDbCircle
 10
-481.7712558477378
 20
2137.442812732761
 30
0.0
 40
0.8000000000001251
100
AcDbArc
 50
180.0
 51
270.0
  0
LINE
  5
1C51
330
A
100
AcDbEntity
  8
0
  6
Continuous
 62
     7
370
    15
100
AcDbLine
 10
-472.8212560665288
 20
2160.642922148108
 30
0.0
 11
-473.0712556418457
 21
2160.642922148108
 31
0.0
  0
LINE
  5
1C52
330
A
100
AcDbEntity
  8
0
  6
Continuous
 62
     7
370
    15
100
AcDbLine
 10
-473.0712556418457
 20
2144.642889723182
 30
0.0
 11
-472.8212560665288
 21
2144.642889723182
 31
0.0
  0
ARC
  5
1C53
330
A
100
AcDbEntity
  8
0
  6
Continuous
 62
     7
370
    15
100
AcDbCircle
 10
-472.8212558480172
 20
2160.142812732667
 30
0.0
 40
0.5000000000001137
100
AcDbArc
 50
0.0000000020844083
 51
90.00000000208442
  0
ARC
  5
1C54
330
A
100
AcDbEntity
  8
0
  6
Continuous
 62
     7
370
    15
100
AcDbCircle
 10
-472.821255847457
 20
2145.142812732667
 30
0.0
 40
0.4999999999998295
100
AcDbArc
 50
270.0000000020844
 51
0.0000000020844083
  0
LINE
  5
1C55
330
A
100
AcDbEntity
  8
0
  6
Continuous
 62
     7
370
    15
100
AcDbLine
 10
-508.9212571409025
 20
2148.649990782142
 30
0.0
 11
-508.8712562945166
 21
2148.700058683753
 31
0.0
  0
LINE
  5
1C56
330
A
100
AcDbEntity
  8
0
  6
Continuous
 62
     7
370
    15
100
AcDbLine
 10
-501.8712570097723
 20
2172.099888548255
 30
0.0
 11
-502.8712553110399
 21
2171.099961027503
 31
0.0
  0
LINE
  5
1C57
330
A
100
AcDbEntity
  8
0
  6
Continuous
 62
     7
370
    15
100
AcDbLine
 10
-496.8712561902084
 20
2171.099961027503
 30
0.0
 11
-497.8712563541212
 21
2172.099888548255
 31
0.0
  0
LINE
  5
1C58
330
A
100
AcDbEntity
  8
0
  6
HIDDEN
 62
     7
370
    15
100
AcDbLine
 10
-502.8712553110399
 20
2171.099961027503
 30
0.0
 11
-502.8712553110399
 21
2145.099816069007
 31
0.0
  0
LINE
  5
1C59
330
A
100
AcDbEntity
  8
0
  6
HIDDEN
 62
     7
370
    15
100
AcDbLine
 10
-496.8712561902084
 20
2145.099816069007
 30
0.0
 11
-496.8712561902084
 21
2171.099961027503
 31
0.0
  0
LINE
  5
1C64
330
A
100
AcDbEntity
  8
0
  6
ByBlock
 62
     4
100
AcDbLine
 10
-485.3712570991793
 20
2162.000000700355
 30
0.0
 11
-485.3712570991793
 21
2169.999897703528
 31
0.0
  0
LINE
  5
1C65
330
A
100
AcDbEntity
  8
0
  6
ByBlock
 62
     4
100
AcDbLine
 10
-495.3712550130167
 20
2162.000000700355
 30
0.0
 11
-495.3712550130167
 21
2169.999897703528
 31
0.0
  0
LINE
  5
1C66
330
A
100
AcDbEntity
  8
0
  6
ByBlock
 62
     4
100
AcDbLine
 10
-485.3712570991793
 20
2169.999897703528
 30
0.0
 11
-495.3712550130167
 21
2169.999897703528
 31
0.0
  0
LINE
  5
1C67
330
A
100
AcDbEntity
  8
0
  6
ByBlock
 62
     4
100
AcDbLine
 10
-485.3712570991793
 20
10.0
 30
0.0
 11
-485.3712570991793
 21
2148.000061735511
 31
0.0
  0
LINE
  5
1C68
330
A
100
AcDbEntity
  8
0
  6
ByBlock
 62
     4
100
AcDbLine
 10
-495.3712550130167
 20
10.0
 30
0.0
 11
-495.3712550130167
 21
2148.000061735511
 31
0.0
  0
LINE
  5
1C69
330
A
100
AcDbEntity
  8
0
  6
ByBlock
 62
     4
100
AcDbLine
 10
-495.3712550130167
 20
10.0
 30
0.0
 11
-485.3712570991793
 21
10.0
 31
0.0
  0
LINE
  5
1C6A
330
A
100
AcDbEntity
  8
0
  6
Continuous
 62
     7
370
    15
100
AcDbLine
 10
-485.3712570991793
 20
2162.000000700355
 30
0.0
 11
-485.3712570991793
 21
2148.000061735511
 31
0.0
  0
LINE
  5
1C6B
330
A
100
AcDbEntity
  8
0
  6
Continuous
 62
     7
370
    15
100
AcDbLine
 10
-495.3712550130167
 20
2162.000000700355
 30
0.0
 11
-485.3712570991793
 21
2162.000000700355
 31
0.0
  0
LINE
  5
1C6C
330
A
100
AcDbEntity
  8
0
  6
Continuous
 62
     7
370
    15
100
AcDbLine
 10
-495.3712550130167
 20
2162.000000700355
 30
0.0
 11
-495.3712550130167
 21
2148.000061735511
 31
0.0
  0
LINE
  5
1C6D
330
A
100
AcDbEntity
  8
0
  6
Continuous
 62
     7
370
    15
100
AcDbLine
 10
-485.3712570991793
 20
2148.000061735511
 30
0.0
 11
-495.3712550130167
 21
2148.000061735511
 31
0.0
  0
LINE
  5
1C6E
102
{ACAD_REACTORS
330
22A0
102
}
330
A
100
AcDbEntity
  8
0
  6
ByBlock
 62
     3
370
     0
100
AcDbLine
 10
2487.46884964196
 20
2110.191836201258
 30
0.0
 11
2487.46884964196
 21
2180.191836201258
 31
0.0
  0
LINE
  5
1C6F
330
A
100
AcDbEntity
  8
0
  6
Continuous
 62
     1
370
    15
100
AcDbLine
 10
2487.46884964196
 20
2180.14281273276
 30
0.0
 11
879.96889255731
 21
2180.14281273276
 31
0.0
  0
LINE
  5
1C70
330
A
100
AcDbEntity
  8
0
  6
Continuous
 62
     1
370
    15
100
AcDbLine
 10
879.96889255731
 20
2171.142749790255
 30
0.0
 11
2487.46884964196
 21
2171.142749790255
 31
0.0
  0
LINE
  5
1CF3
330
A
100
AcDbEntity
  8
0
  6
Continuous
 62
     7
370
    15
100
AcDbLine
 10
-474.8633887216256
 20
2106.142234666558
 30
0.0
 11
-478.1734051919248
 21
2109.452254154458
 31
0.0
  0
ARC
  5
1CF4
330
A
100
AcDbEntity
  8
0
  6
Continuous
 62
     7
370
    15
100
AcDbCircle
 10
-475.1462315630251
 20
2105.859392083058
 30
0.0
 40
0.3999999999994379
100
AcDbArc
 50
224.9998571120998
 51
44.99997388342639
  0
LINE
  5
1CF5
330
A
100
AcDbEntity
  8
0
  6
Continuous
 62
     7
370
    15
100
AcDbLine
 10
-478.775357102726
 20
2108.922862528058
 30
0.0
 11
-475.429074980826
 21
2105.576550075958
 31
0.0
  0
ARC
  5
1CF6
330
A
100
AcDbEntity
  8
0
  6
Continuous
 62
     7
370
    15
100
AcDbCircle
 10
-478.8814236006256
 20
2108.816796991658
 30
0.0
 40
0.1500007025120774
100
AcDbArc
 50
44.99974034020828
 51
89.99998738383036
  0
LINE
  5
1CF7
330
A
100
AcDbEntity
  8
0
  6
Continuous
 62
     7
370
    15
100
AcDbLine
 10
-481.9536449564257
 20
2108.966798394358
 30
0.0
 11
-478.8814235676255
 21
2108.966798394358
 31
0.0
  0
ARC
  5
1CF8
330
A
100
AcDbEntity
  8
0
  6
Continuous
 62
     7
370
    15
100
AcDbCircle
 10
-481.953644819725
 20
2109.566798394358
 30
0.0
 40
0.5999999999999965
100
AcDbArc
 50
179.7134573457922
 51
269.9999804126414
  0
LINE
  5
1CF9
330
A
100
AcDbEntity
  8
0
  6
Continuous
 62
     7
370
    15
100
AcDbLine
 10
-482.5501490473252
 20
2109.569781604058
 30
0.0
 11
-482.2524407873261
 21
2115.249505914358
 31
0.0
  0
ARC
  5
1CFA
330
A
100
AcDbEntity
  8
0
  6
Continuous
 62
     7
370
    15
100
AcDbCircle
 10
-481.852989144425
 20
2115.228568268958
 30
0.0
 40
0.4000000000001389
100
AcDbArc
 50
26.99997397296065
 51
176.9995319819043
  0
LINE
  5
1CFB
330
A
100
AcDbEntity
  8
0
  6
Continuous
 62
     7
370
    15
100
AcDbLine
 10
-481.3966315136258
 20
2115.213991474058
 30
0.0
 11
-481.4965864522255
 21
2115.410164306958
 31
0.0
  0
LINE
  5
1CFC
330
A
100
AcDbEntity
  8
0
  6
Continuous
 62
     7
370
    15
100
AcDbLine
 10
-481.3966315136258
 20
2113.670515845458
 30
0.0
 11
-481.4338680690253
 21
2113.672467347558
 31
0.0
  0
ARC
  5
1CFD
330
A
100
AcDbEntity
  8
0
  6
Continuous
 62
     7
370
    15
100
AcDbCircle
 10
-481.4391017100261
 20
2113.572604396458
 30
0.0
 40
0.0999999999999953
100
AcDbArc
 50
86.9999739727867
 51
176.9995319820344
  0
LINE
  5
1CFE
330
A
100
AcDbEntity
  8
0
  6
Continuous
 62
     7
370
    15
100
AcDbLine
 10
-481.7003818638259
 20
2110.498295635558
 30
0.0
 11
-481.5389646207259
 21
2113.577838807858
 31
0.0
  0
ARC
  5
1CFF
330
A
100
AcDbEntity
  8
0
  6
Continuous
 62
     7
370
    15
100
AcDbCircle
 10
-481.8501762299256
 20
2110.506147252558
 30
0.0
 40
0.1499999999999923
100
AcDbArc
 50
321.9027307543622
 51
356.9995319817057
  0
ARC
  5
1D00
330
A
100
AcDbEntity
  8
0
  6
Continuous
 62
     7
370
    15
100
AcDbCircle
 10
-481.417345793725
 20
2110.166798149858
 30
0.0
 40
0.4000000000011373
100
AcDbArc
 50
141.9027307543304
 51
344.1733537519088
  0
ARC
  5
1D01
330
A
100
AcDbEntity
  8
0
  6
Continuous
 62
     7
370
    15
100
AcDbCircle
 10
-480.8881955998258
 20
2110.016797908658
 30
0.0
 40
0.1500000000005328
100
AcDbArc
 50
89.99997388305862
 51
164.1733537518128
  0
LINE
  5
1D02
330
A
100
AcDbEntity
  8
0
  6
Continuous
 62
     7
370
    15
100
AcDbLine
 10
-480.8881955315246
 20
2110.166797908658
 30
0.0
 11
-479.4173442508254
 21
2110.166797238258
 31
0.0
  0
ARC
  5
1D03
330
A
100
AcDbEntity
  8
0
  6
Continuous
 62
     7
370
    15
100
AcDbCircle
 10
-479.4173441596249
 20
2110.366797238258
 30
0.0
 40
0.2000000000000413
100
AcDbArc
 50
269.999973883406
 51
359.9995318925694
  0
LINE
  5
1D04
330
A
100
AcDbEntity
  8
0
  6
Continuous
 62
     7
370
    15
100
AcDbLine
 10
-479.2173178754256
 20
2113.583956071058
 30
0.0
 11
-479.217344159626
 21
2110.366795604258
 31
0.0
  0
ARC
  5
1D05
330
A
100
AcDbEntity
  8
0
  6
Continuous
 62
     7
370
    15
100
AcDbCircle
 10
-479.3173178754259
 20
2113.583956888058
 30
0.0
 40
0.1000000000000251
100
AcDbArc
 50
359.9995318921786
 51
70.5273736500232
  0
ARC
  5
1D06
330
A
100
AcDbEntity
  8
0
  6
Continuous
 62
     7
370
    15
100
AcDbCircle
 10
-479.2173109360247
 20
2113.866797147058
 30
0.0
 40
0.1999999999999942
100
AcDbArc
 50
206.2849363069315
 51
250.5273736505579
  0
ARC
  5
1D07
330
A
100
AcDbEntity
  8
0
  6
Continuous
 62
     7
370
    15
100
AcDbCircle
 10
-479.2173106626251
 20
2114.466797147058
 30
0.0
 40
0.2000000000000083
100
AcDbArc
 50
89.999973883406
 51
153.7152406199253
  0
LINE
  5
1D08
330
A
100
AcDbEntity
  8
0
  6
Continuous
 62
     7
370
    15
100
AcDbLine
 10
-479.2173105714246
 20
2114.666797147058
 30
0.0
 11
-478.4173178465244
 21
2114.666796782358
 31
0.0
  0
ARC
  5
1D09
330
A
100
AcDbEntity
  8
0
  6
Continuous
 62
     7
370
    15
100
AcDbCircle
 10
-478.4173179376248
 20
2114.466796782358
 30
0.0
 40
0.2000000000000094
100
AcDbArc
 50
359.9997526671056
 51
89.99997388392711
  0
LINE
  5
1D0A
330
A
100
AcDbEntity
  8
0
  6
Continuous
 62
     7
370
    15
100
AcDbLine
 10
-478.2173390966254
 20
2109.565217635758
 30
0.0
 11
-478.2173179376259
 21
2114.466795919058
 31
0.0
  0
ARC
  5
1D0B
330
A
100
AcDbEntity
  8
0
  6
Continuous
 62
     7
370
    15
100
AcDbCircle
 10
-478.0673391264245
 20
2109.558320123258
 30
0.0
 40
0.1500000000012186
100
AcDbArc
 50
180.0000000050373
 51
224.999973882628
  0
ARC
  5
1D0C
330
A
100
AcDbEntity
  8
0
  6
Continuous
 62
     7
370
    15
100
AcDbCircle
 10
-467.2221526512258
 20
2108.843059486758
 30
0.0
 40
0.150000702512025
100
AcDbArc
 50
89.99976528282684
 51
135.0000123264074
  0
LINE
  5
1D0D
330
A
100
AcDbEntity
  8
0
  6
Continuous
 62
     7
370
    15
100
AcDbLine
 10
-467.3282186912256
 20
2108.949125481158
 30
0.0
 11
-470.6745152584244
 21
2105.602827474158
 31
0.0
  0
ARC
  5
1D0E
330
A
100
AcDbEntity
  8
0
  6
Continuous
 62
     7
370
    15
100
AcDbCircle
 10
-470.9573574552251
 20
2105.885670702258
 30
0.0
 40
0.3999999999993732
100
AcDbArc
 50
134.9997787837966
 51
314.999895554985
  0
LINE
  5
1D0F
330
A
100
AcDbEntity
  8
0
  6
Continuous
 62
     7
370
    15
100
AcDbLine
 10
-471.2401990757244
 20
2106.168514506758
 30
0.0
 11
-467.930168316725
 21
2109.478519705958
 31
0.0
  0
ARC
  5
1D10
330
A
100
AcDbEntity
  8
0
  6
Continuous
 62
     7
370
    15
100
AcDbCircle
 10
-467.6862339244253
 20
2114.493061280958
 30
0.0
 40
0.2000000000000298
100
AcDbArc
 50
89.99977878330873
 51
179.9999999953101
  0
LINE
  5
1D11
330
A
100
AcDbEntity
  8
0
  6
Continuous
 62
     7
370
    15
100
AcDbLine
 10
-467.6862331522261
 20
2114.693061280958
 30
0.0
 11
-466.8862404273259
 21
2114.693058192158
 31
0.0
  0
ARC
  5
1D12
330
A
100
AcDbEntity
  8
0
  6
Continuous
 62
     7
370
    15
100
AcDbCircle
 10
-466.8862411995251
 20
2114.493058192158
 30
0.0
 40
0.2000000000000038
100
AcDbArc
 50
18.54963332725727
 51
89.99977878382983
  0
ARC
  5
1D13
330
A
100
AcDbEntity
  8
0
  6
Continuous
 62
     7
370
    15
100
AcDbCircle
 10
-466.8862435161245
 20
2113.893058192258
 30
0.0
 40
0.2000000000000174
100
AcDbArc
 50
289.4723790164971
 51
341.4524529064888
  0
ARC
  5
1D14
330
A
100
AcDbEntity
  8
0
  6
Continuous
 62
     7
370
    15
100
AcDbCircle
 10
-466.7862377977253
 20
2113.610217501558
 30
0.0
 40
0.0999999999999847
100
AcDbArc
 50
109.4723790170319
 51
180.0002207747967
  0
LINE
  5
1D15
330
A
100
AcDbEntity
  8
0
  6
Continuous
 62
     7
370
    15
100
AcDbLine
 10
-466.8862377977257
 20
2113.610217116258
 30
0.0
 11
-466.8862254012256
 21
2110.393056649258
 31
0.0
  0
ARC
  5
1D16
330
A
100
AcDbEntity
  8
0
  6
Continuous
 62
     7
370
    15
100
AcDbCircle
 10
-466.6862254012249
 20
2110.393057419958
 30
0.0
 40
0.1999999999999906
100
AcDbArc
 50
180.0002207746664
 51
267.0175216724745
  0
ARC
  5
1D17
330
A
100
AcDbEntity
  8
0
  6
Continuous
 62
     7
370
    15
100
AcDbCircle
 10
-465.2153754719257
 20
2110.043051741058
 30
0.0
 40
0.1500000000000506
100
AcDbArc
 50
15.82639891512888
 51
82.7008834912462
  0
ARC
  5
1D18
330
A
100
AcDbEntity
  8
0
  6
Continuous
 62
     7
370
    15
100
AcDbCircle
 10
-464.6862246305245
 20
2110.193049698058
 30
0.0
 40
0.4000000000005292
100
AcDbArc
 50
195.8263989152458
 51
38.09702191328499
  0
ARC
  5
1D19
330
A
100
AcDbEntity
  8
0
  6
Continuous
 62
     7
370
    15
100
AcDbCircle
 10
-464.2533927294244
 20
2110.532396932358
 30
0.0
 40
0.1500000000005864
100
AcDbArc
 50
183.0002206853982
 51
218.0970219127607
  0
LINE
  5
1D1A
330
A
100
AcDbEntity
  8
0
  6
Continuous
 62
     7
370
    15
100
AcDbLine
 10
-464.4031871294246
 20
2110.524545961958
 30
0.0
 11
-464.5645910788244
 21
2113.604089830958
 31
0.0
  0
ARC
  5
1D1B
330
A
100
AcDbEntity
  8
0
  6
Continuous
 62
     7
370
    15
100
AcDbCircle
 10
-464.6644540121251
 20
2113.598855850658
 30
0.0
 40
0.0999999999999953
100
AcDbArc
 50
3.000220685119832
 51
92.99977869421642
  0
LINE
  5
1D1C
330
A
100
AcDbEntity
  8
0
  6
Continuous
 62
     7
370
    15
100
AcDbLine
 10
-464.6696872220255
 20
2113.698718824358
 30
0.0
 11
-464.6966315136251
 21
2113.697306838258
 31
0.0
  0
LINE
  5
1D1D
330
A
100
AcDbEntity
  8
0
  6
Continuous
 62
     7
370
    15
100
AcDbLine
 10
-464.6966315136251
 20
2115.260429563958
 30
0.0
 11
-464.6069613376258
 21
2115.436415513058
 31
0.0
  0
ARC
  5
1D1E
330
A
100
AcDbEntity
  8
0
  6
Continuous
 62
     7
370
    15
100
AcDbCircle
 10
-464.2505594293252
 20
2115.254817936558
 30
0.0
 40
0.4000000000000629
100
AcDbArc
 50
3.000220685328614
 51
152.9997786942857
  0
LINE
  5
1D1F
330
A
100
AcDbEntity
  8
0
  6
Continuous
 62
     7
370
    15
100
AcDbLine
 10
-464.1499306479254
 20
2108.993047627358
 30
0.0
 11
-467.2221520367257
 21
2108.993060189258
 31
0.0
  0
LINE
  5
1D20
330
A
100
AcDbEntity
  8
0
  6
Continuous
 62
     7
370
    15
100
AcDbLine
 10
-463.5534239541248
 20
2109.596028262158
 30
0.0
 11
-463.549935684925
 21
2109.596045692558
 31
0.0
  0
LINE
  5
1D21
330
A
100
AcDbEntity
  8
0
  6
Continuous
 62
     7
370
    15
100
AcDbLine
 10
-463.8511076960258
 20
2115.275753857558
 30
0.0
 11
-463.5534239541248
 21
2109.596028262158
 31
0.0
  0
ARC
  5
1D22
330
A
100
AcDbEntity
  8
0
  6
Continuous
 62
     7
370
    15
100
AcDbCircle
 10
-464.1499281946253
 20
2109.593047627358
 30
0.0
 40
0.6000000000000373
100
AcDbArc
 50
269.9997657255328
 51
0.2862953213930155
  0
LINE
  5
1D23
330
A
100
AcDbEntity
  8
0
  6
Continuous
 62
     7
370
    15
100
AcDbLine
 10
-467.8862339244261
 20
2109.584586132658
 30
0.0
 11
-467.8862339244261
 21
2114.493061280958
 31
0.0
  0
ARC
  5
1D24
330
A
100
AcDbEntity
  8
0
  6
Continuous
 62
     7
370
    15
100
AcDbCircle
 10
-468.0362339244257
 20
2109.584586132658
 30
0.0
 40
0.150000000001276
100
AcDbArc
 50
314.9997787838118
 51
0.0000000046899187
  0
LINE
  5
1D25
330
A
100
AcDbEntity
  8
0
  6
Continuous
 62
     7
370
    15
100
AcDbLine
 10
-479.3966315136258
 20
2127.691836201258
 30
0.0
 11
-466.6966315136251
 21
2127.691836201258
 31
0.0
  0
LINE
  5
1D26
330
A
100
AcDbEntity
  8
0
  6
Continuous
 62
     7
370
    15
100
AcDbLine
 10
-479.3966315136258
 20
2110.191836201258
 30
0.0
 11
-479.3966315136258
 21
2127.691836201258
 31
0.0
  0
LINE
  5
1D27
330
A
100
AcDbEntity
  8
0
  6
Continuous
 62
     7
370
    15
100
AcDbLine
 10
-481.3966315136258
 20
2110.191836201258
 30
0.0
 11
-479.3966315136258
 21
2110.191836201258
 31
0.0
  0
LINE
  5
1D28
330
A
100
AcDbEntity
  8
0
  6
Continuous
 62
     7
370
    15
100
AcDbLine
 10
-481.3966315136258
 20
2130.571836201258
 30
0.0
 11
-481.3966315136258
 21
2110.191836201258
 31
0.0
  0
LINE
  5
1D29
330
A
100
AcDbEntity
  8
0
  6
Continuous
 62
     7
370
    15
100
AcDbLine
 10
-480.365376775826
 20
2137.082922363858
 30
0.0
 11
-481.3966315136258
 21
2130.571836201258
 31
0.0
  0
ARC
  5
1D2A
330
A
100
AcDbEntity
  8
0
  6
Continuous
 62
     7
370
    15
100
AcDbCircle
 10
-477.8961559243253
 20
2136.691836201258
 30
0.0
 40
2.5
100
AcDbArc
 50
0.0000000036998248
 51
171.0000000000032
  0
LINE
  5
1D2B
330
A
100
AcDbEntity
  8
0
  6
Continuous
 62
     7
370
    15
100
AcDbLine
 10
-475.3961559243253
 20
2136.691836201258
 30
0.0
 11
-475.3961559243253
 21
2136.191836201258
 31
0.0
  0
ARC
  5
1D2C
330
A
100
AcDbEntity
  8
0
  6
Continuous
 62
     7
370
    15
100
AcDbCircle
 10
-474.8961559243253
 20
2136.191836201258
 30
0.0
 40
0.5
100
AcDbArc
 50
179.9999999963002
 51
270.0
  0
LINE
  5
1D2D
330
A
100
AcDbEntity
  8
0
  6
Continuous
 62
     7
370
    15
100
AcDbLine
 10
-472.8961559243253
 20
2135.691836201258
 30
0.0
 11
-474.8961559243253
 21
2135.691836201258
 31
0.0
  0
ARC
  5
1D2E
330
A
100
AcDbEntity
  8
0
  6
Continuous
 62
     7
370
    15
100
AcDbCircle
 10
-472.8961559243253
 20
2136.691836201258
 30
0.0
 40
1.0
100
AcDbArc
 50
270.0
 51
0.0000000035956043
  0
LINE
  5
1D2F
330
A
100
AcDbEntity
  8
0
  6
Continuous
 62
     7
370
    15
100
AcDbLine
 10
-471.8961559243253
 20
2154.691836201258
 30
0.0
 11
-471.8961559243253
 21
2136.691836201258
 31
0.0
  0
LINE
  5
1D30
330
A
100
AcDbEntity
  8
0
  6
Continuous
 62
     7
370
    15
100
AcDbLine
 10
-471.8961559243253
 20
2154.691836201258
 30
0.0
 11
-471.3961559243253
 21
2155.191836201258
 31
0.0
  0
LINE
  5
1D31
330
A
100
AcDbEntity
  8
0
  6
Continuous
 62
     7
370
    15
100
AcDbLine
 10
-471.3961559243253
 20
2155.191836201258
 30
0.0
 11
-471.8961559243253
 21
2155.691836201258
 31
0.0
  0
LINE
  5
1D32
330
A
100
AcDbEntity
  8
0
  6
Continuous
 62
     7
370
    15
100
AcDbLine
 10
-471.8961559243253
 20
2173.191836201258
 30
0.0
 11
-471.8961559243253
 21
2155.691836201258
 31
0.0
  0
ARC
  5
1D33
330
A
100
AcDbEntity
  8
0
  6
Continuous
 62
     7
370
    15
100
AcDbCircle
 10
-472.8961559243253
 20
2173.191836201258
 30
0.0
 40
1.0
100
AcDbArc
 50
0.0000000035956043
 51
90.0
  0
LINE
  5
1D34
330
A
100
AcDbEntity
  8
0
  6
Continuous
 62
     7
370
    15
100
AcDbLine
 10
-474.8961559243253
 20
2174.191836201258
 30
0.0
 11
-472.8961559243253
 21
2174.191836201258
 31
0.0
  0
ARC
  5
1D35
330
A
100
AcDbEntity
  8
0
  6
Continuous
 62
     7
370
    15
100
AcDbCircle
 10
-474.8961559243253
 20
2173.691836201258
 30
0.0
 40
0.5
100
AcDbArc
 50
90.0
 51
179.9999999963002
  0
LINE
  5
1D36
330
A
100
AcDbEntity
  8
0
  6
Continuous
 62
     7
370
    15
100
AcDbLine
 10
-475.3961559243253
 20
2171.391836201258
 30
0.0
 11
-475.3961559243253
 21
2173.691836201258
 31
0.0
  0
ARC
  5
1D37
330
A
100
AcDbEntity
  8
0
  6
Continuous
 62
     7
370
    15
100
AcDbCircle
 10
-475.596155924326
 20
2171.391836201258
 30
0.0
 40
0.2000000000000171
100
AcDbArc
 50
270.0
 51
0.000000003517439
  0
LINE
  5
1D38
330
A
100
AcDbEntity
  8
0
  6
Continuous
 62
     7
370
    15
100
AcDbLine
 10
-475.596155924326
 20
2171.191836201258
 30
0.0
 11
-475.8961559243253
 21
2171.191836201258
 31
0.0
  0
LINE
  5
1D39
330
A
100
AcDbEntity
  8
0
  6
Continuous
 62
     7
370
    15
100
AcDbLine
 10
-478.6032627055247
 20
2173.898942982458
 30
0.0
 11
-475.8961559243253
 21
2171.191836201258
 31
0.0
  0
ARC
  5
1D3A
330
A
100
AcDbEntity
  8
0
  6
Continuous
 62
     7
370
    15
100
AcDbCircle
 10
-479.3103694867259
 20
2173.191836201258
 30
0.0
 40
1.000000000000018
100
AcDbArc
 50
44.99999999998158
 51
90.0
  0
LINE
  5
1D3B
330
A
100
AcDbEntity
  8
0
  6
Continuous
 62
     7
370
    15
100
AcDbLine
 10
-487.3961559243253
 20
2174.191836201258
 30
0.0
 11
-479.3103694867259
 21
2174.191836201258
 31
0.0
  0
LINE
  5
1D3C
330
A
100
AcDbEntity
  8
0
  6
Continuous
 62
     7
370
    15
100
AcDbLine
 10
-487.3961559243253
 20
2174.191836201258
 30
0.0
 11
-487.8961559243253
 21
2174.691836201258
 31
0.0
  0
LINE
  5
1D3D
330
A
100
AcDbEntity
  8
0
  6
Continuous
 62
     7
370
    15
100
AcDbLine
 10
-487.8961559243253
 20
2174.691836201258
 30
0.0
 11
-488.3961559243253
 21
2174.191836201258
 31
0.0
  0
LINE
  5
1D3E
330
A
100
AcDbEntity
  8
0
  6
Continuous
 62
     7
370
    15
100
AcDbLine
 10
-502.291942362026
 20
2174.191836201258
 30
0.0
 11
-488.3961559243253
 21
2174.191836201258
 31
0.0
  0
ARC
  5
1D3F
330
A
100
AcDbEntity
  8
0
  6
Continuous
 62
     7
370
    15
100
AcDbCircle
 10
-502.291942362026
 20
2173.191836201258
 30
0.0
 40
1.000000000000018
100
AcDbArc
 50
90.0
 51
135.0000000000184
  0
LINE
  5
1D40
330
A
100
AcDbEntity
  8
0
  6
Continuous
 62
     7
370
    15
100
AcDbLine
 10
-503.913262705526
 20
2172.984729420158
 30
0.0
 11
-502.9990491431254
 21
2173.898942982458
 31
0.0
  0
ARC
  5
1D41
330
A
100
AcDbEntity
  8
0
  6
Continuous
 62
     7
370
    15
100
AcDbCircle
 10
-504.6203694867254
 20
2173.691836201258
 30
0.0
 40
1.000000000000018
100
AcDbArc
 50
270.0
 51
315.0
  0
LINE
  5
1D42
330
A
100
AcDbEntity
  8
0
  6
Continuous
 62
     7
370
    15
100
AcDbLine
 10
-508.3961559243253
 20
2172.691836201258
 30
0.0
 11
-504.6203694867254
 21
2172.691836201258
 31
0.0
  0
LINE
  5
1D43
330
A
100
AcDbEntity
  8
0
  6
Continuous
 62
     7
370
    15
100
AcDbLine
 10
-508.3961559243253
 20
2172.691836201258
 30
0.0
 11
-508.3961559243253
 21
2171.191836201258
 31
0.0
  0
LINE
  5
1D44
330
A
100
AcDbEntity
  8
0
  6
Continuous
 62
     7
370
    15
100
AcDbLine
 10
-511.3961559243253
 20
2171.191836201258
 30
0.0
 11
-508.3961559243253
 21
2171.191836201258
 31
0.0
  0
LINE
  5
1D45
330
A
100
AcDbEntity
  8
0
  6
Continuous
 62
     7
370
    15
100
AcDbLine
 10
-511.3961559243253
 20
2173.777622638958
 30
0.0
 11
-511.3961559243253
 21
2171.191836201258
 31
0.0
  0
ARC
  5
1D46
330
A
100
AcDbEntity
  8
0
  6
Continuous
 62
     7
370
    15
100
AcDbCircle
 10
-510.3961559243253
 20
2173.777622638958
 30
0.0
 40
1.0
100
AcDbArc
 50
135.0
 51
179.9999999964044
  0
LINE
  5
1D47
330
A
100
AcDbEntity
  8
0
  6
Continuous
 62
     7
370
    15
100
AcDbLine
 10
-509.8961559243253
 20
2175.691836201258
 30
0.0
 11
-511.1032627055247
 21
2174.484729420158
 31
0.0
  0
LINE
  5
1D48
330
A
100
AcDbEntity
  8
0
  6
Continuous
 62
     7
370
    15
100
AcDbLine
 10
-509.8961559243253
 20
2175.691836201258
 30
0.0
 11
-509.3961559243253
 21
2175.691836201258
 31
0.0
  0
LINE
  5
1D49
330
A
100
AcDbEntity
  8
0
  6
Continuous
 62
     7
370
    15
100
AcDbLine
 10
-509.3961559243253
 20
2175.691836201258
 30
0.0
 11
-509.3961559243253
 21
2174.491836201258
 31
0.0
  0
LINE
  5
1D4A
330
A
100
AcDbEntity
  8
0
  6
Continuous
 62
     7
370
    15
100
AcDbLine
 10
-504.7061559243248
 20
2174.491836201258
 30
0.0
 11
-509.3961559243253
 21
2174.491836201258
 31
0.0
  0
ARC
  5
1D4B
330
A
100
AcDbEntity
  8
0
  6
Continuous
 62
     7
370
    15
100
AcDbCircle
 10
-504.7061559243248
 20
2176.341836201258
 30
0.0
 40
1.849999999999994
100
AcDbArc
 50
270.0
 51
90.0
  0
LINE
  5
1D4C
330
A
100
AcDbEntity
  8
0
  6
Continuous
 62
     7
370
    15
100
AcDbLine
 10
-504.7061559243248
 20
2178.191836201258
 30
0.0
 11
-505.1961559243246
 21
2178.191836201258
 31
0.0
  0
LINE
  5
1D4D
330
A
100
AcDbEntity
  8
0
  6
Continuous
 62
     7
370
    15
100
AcDbLine
 10
-506.1961559243246
 20
2178.555806435558
 30
0.0
 11
-505.1961559243246
 21
2178.191836201258
 31
0.0
  0
LINE
  5
1D4E
330
A
100
AcDbEntity
  8
0
  6
Continuous
 62
     7
370
    15
100
AcDbLine
 10
-506.6961559243246
 20
2178.555806435558
 30
0.0
 11
-506.1961559243246
 21
2178.555806435558
 31
0.0
  0
ARC
  5
1D4F
330
A
100
AcDbEntity
  8
0
  6
Continuous
 62
     7
370
    15
100
AcDbCircle
 10
-506.6961559243246
 20
2180.055806435558
 30
0.0
 40
1.5
100
AcDbArc
 50
179.9999999963002
 51
270.0
  0
LINE
  5
1D50
330
A
100
AcDbEntity
  8
0
  6
Continuous
 62
     7
370
    15
100
AcDbLine
 10
-508.1961559243246
 20
2180.191836201258
 30
0.0
 11
-508.1961559243246
 21
2180.055806435558
 31
0.0
  0
LINE
  5
1D51
330
A
100
AcDbEntity
  8
0
  6
ByBlock
 62
     3
370
     0
100
AcDbLine
 10
-608.1961559243246
 20
2180.191836201258
 30
0.0
 11
-364.6966315136251
 21
2180.191836201258
 31
0.0
  0
LINE
  5
1D52
330
A
100
AcDbEntity
  8
0
  6
Continuous
 62
     7
370
    15
100
AcDbLine
 10
-464.6966315136251
 20
2180.191836201258
 30
0.0
 11
-464.6966315136251
 21
2129.691836201258
 31
0.0
  0
ARC
  5
1D53
330
A
100
AcDbEntity
  8
0
  6
Continuous
 62
     7
370
    15
100
AcDbCircle
 10
-463.9466315136251
 20
2128.691836201258
 30
0.0
 40
1.250000000000017
100
AcDbArc
 50
126.869897645844
 51
233.130102354156
  0
LINE
  5
1D54
330
A
100
AcDbEntity
  8
0
  6
Continuous
 62
     7
370
    15
100
AcDbLine
 10
-464.6966315136251
 20
2110.191836201258
 30
0.0
 11
-464.6966315136251
 21
2127.691836201258
 31
0.0
  0
LINE
  5
1D55
330
A
100
AcDbEntity
  8
0
  6
Continuous
 62
     7
370
    15
100
AcDbLine
 10
-466.6966315136251
 20
2110.191836201258
 30
0.0
 11
-464.6966315136251
 21
2110.191836201258
 31
0.0
  0
LINE
  5
1D56
330
A
100
AcDbEntity
  8
0
  6
Continuous
 62
     7
370
    15
100
AcDbLine
 10
-466.6966315136251
 20
2127.691836201258
 30
0.0
 11
-466.6966315136251
 21
2110.191836201258
 31
0.0
  0
HATCH
  5
1D80
330
A
100
AcDbEntity
  8
0
 62
     1
100
AcDbHatch
 10
0.0
 20
0.0
 30
0.0
210
0.0
220
0.0
230
1.0
  2
LINE
 70
     0
 71
     0
 91
        1
 92
        7
 72
     1
 73
     1
 93
       50
 10
-464.6966315136251
 20
2129.691836201258
 42
0.0
 10
-464.6966315136251
 20
2180.191836201258
 42
0.0
 10
-508.1961559243264
 20
2180.191836201258
 42
0.0
 10
-508.1961559243246
 20
2180.055806435631
 42
0.414213562387489
 10
-506.6961559243264
 20
2178.555806435558
 42
0.0
 10
-506.1961559243246
 20
2178.555806435558
 42
0.0
 10
-505.1961559243264
 20
2178.191836201258
 42
0.0
 10
-504.7061559243248
 20
2178.191836201258
 42
-1.000000000000246
 10
-504.7061559243248
 20
2174.491836201258
 42
0.0
 10
-509.3961559243253
 20
2174.491836201258
 42
0.0
 10
-509.3961559243253
 20
2175.691836201258
 42
0.0
 10
-509.8961559243253
 20
2175.691836201258
 42
0.0
 10
-511.1032627055156
 20
2174.484729420148
 42
0.1989123673725353
 10
-511.3961559243253
 20
2173.777622638965
 42
0.0
 10
-511.3961559243253
 20
2171.191836201258
 42
0.0
 10
-508.3961559243253
 20
2171.191836201258
 42
0.0
 10
-508.3961559243253
 20
2172.691836201258
 42
0.0
 10
-504.6203694867254
 20
2172.691836201258
 42
0.1989123674012426
 10
-503.9132627055351
 20
2172.984729420093
 42
0.0
 10
-502.9990491431909
 20
2173.898942982447
 42
-0.198912367393676
 10
-502.291942362026
 20
2174.191836201258
 42
0.0
 10
-488.3961559243253
 20
2174.191836201258
 42
0.0
 10
-487.8961559243253
 20
2174.691836201258
 42
0.0
 10
-487.3961559243253
 20
2174.191836201258
 42
0.0
 10
-479.3103694867259
 20
2174.191836201258
 42
-0.1989123673744195
 10
-478.6032627055356
 20
2173.898942982447
 42
0.0
 10
-475.8961559243253
 20
2171.191836201258
 42
0.0
 10
-475.5961559243278
 20
2171.191836201258
 42
0.4142135623869328
 10
-475.3961559243253
 20
2171.391836201267
 42
0.0
 10
-475.3961559243253
 20
2173.691836201263
 42
-0.4142135623694941
 10
-474.8961559243253
 20
2174.191836201258
 42
0.0
 10
-472.8961559243253
 20
2174.191836201258
 42
-0.4142135623710467
 10
-471.8961559243253
 20
2173.191836201269
 42
0.0
 10
-471.8961559243253
 20
2155.691836201258
 42
0.0
 10
-471.3961559243253
 20
2155.191836201258
 42
0.0
 10
-471.8961559243253
 20
2154.691836201258
 42
0.0
 10
-471.8961559243253
 20
2136.691836201269
 42
-0.4142135623760757
 10
-472.8961559243253
 20
2135.691836201258
 42
0.0
 10
-474.8961559243253
 20
2135.691836201258
 42
-0.4142135623787261
 10
-475.3961559243253
 20
2136.191836201263
 42
0.0
 10
-475.3961559243253
 20
2136.691836201285
 42
0.9243904916527252
 10
-480.3653767758169
 20
2137.082922363858
 42
0.0
 10
-481.3966315136258
 20
2130.571836201258
 42
0.0
 10
-481.3966315136258
 20
2110.191836201258
 42
0.0
 10
-479.3966315136258
 20
2110.191836201258
 42
0.0
 10
-479.3966315136258
 20
2127.691836201258
 42
0.0
 10
-466.6966315136251
 20
2127.691836201258
 42
0.0
 10
-466.6966315136251
 20
2110.191836201258
 42
0.0
 10
-464.6966315136251
 20
2110.191836201258
 42
0.0
 10
-464.6966315136251
 20
2127.691836201258
 42
-0.5
 97
        0
 75
     0
 76
     1
 52
45.0
 41
0.2
 77
     0
 78
     1
 53
45.0
 43
-10060.5292781908
 44
0.0490234684980351
 45
-0.4490128060534576
 46
0.4490128060534577
 79
     0
 47
0.0
 98
        1
 10
-493.8935360679516
 20
2177.96289207056
1001
ACAD
1010
0.0
1020
0.0
1030
0.0
  0
LINE
  5
1D8E
330
A
100
AcDbEntity
  8
0
  6
ByBlock
 62
     4
100
AcDbLine
 10
-478.0466315136255
 20
2120.191836201258
 30
0.0
 11
-468.0466315136255
 21
2120.191836201258
 31
0.0
  0
LINE
  5
1D91
330
A
100
AcDbEntity
  8
0
  6
ByBlock
 62
     4
100
AcDbLine
 10
-478.0466315136255
 20
2120.191836201258
 30
0.0
 11
-478.0466315136255
 21
-0.0000000000009095
 31
0.0
  0
LINE
  5
1D92
330
A
100
AcDbEntity
  8
0
  6
ByBlock
 62
     4
100
AcDbLine
 10
-468.0466315136255
 20
2120.191836201258
 30
0.0
 11
-468.0466315136255
 21
-0.0000000000009095
 31
0.0
  0
LINE
  5
2123
102
{ACAD_REACTORS
330
22A0
102
}
330
A
100
AcDbEntity
  8
0
  6
ByBlock
 62
     3
370
     0
100
AcDbLine
 10
879.96889255731
 20
2180.191836201258
 30
0.0
 11
2487.46884964196
 21
2180.191836201258
 31
0.0
  0
LINE
  5
2124
330
A
100
AcDbEntity
  8
0
  6
Continuous
 62
     1
370
    15
100
AcDbLine
 10
879.96889255731
 20
2110.191836201258
 30
0.0
 11
2487.46884964196
 21
2110.191836201258
 31
0.0
  0
LINE
  5
2125
330
A
100
AcDbEntity
  8
0
  6
ByBlock
 62
     4
100
AcDbLine
 10
879.96889255731
 20
2120.191836201259
 30
0.0
 11
1657.46880672662
 21
2120.191836201258
 31
0.0
  0
LINE
  5
2127
102
{ACAD_REACTORS
330
22A0
102
}
330
A
100
AcDbEntity
  8
0
  6
ByBlock
 62
     3
370
     0
100
AcDbLine
 10
2487.46884964196
 20
2180.14281273276
 30
0.0
 11
2487.46884964196
 21
0.0
 31
0.0
  0
LINE
  5
2128
102
{ACAD_REACTORS
330
22A0
102
}
330
A
100
AcDbEntity
  8
0
  6
ByBlock
 62
     3
370
     0
100
AcDbLine
 10
0.0
 20
2467.250105440491
 30
0.0
 11
3287.46880195825
 21
2467.250105440491
 31
0.0
  0
LINE
  5
212B
102
{ACAD_REACTORS
330
22A0
102
}
330
A
100
AcDbEntity
  8
0
  6
ByBlock
 62
     3
370
     0
100
AcDbLine
 10
879.96889255731
 20
0.0
 30
0.0
 11
879.96889255731
 21
2180.191836201258
 31
0.0
  0
LINE
  5
212D
102
{ACAD_REACTORS
330
22A0
102
}
330
A
100
AcDbEntity
  8
0
  6
ByBlock
 62
     3
370
     0
100
AcDbLine
 10
0.0
 20
2467.250105440491
 30
0.0
 11
0.0
 21
0.0
 31
0.0
  0
LWPOLYLINE
  5
212F
330
A
100
AcDbEntity
  8
0
100
AcDbPolyline
 90
        2
 70
     1
 43
13.59253620472736
 10
1022.86314735616
 20
2155.142745975558
 42
-1.0
 10
1002.074494707311
 20
2155.142745975558
 42
-1.0
  0
LWPOLYLINE
  5
2130
330
A
100
AcDbEntity
  8
0
100
AcDbPolyline
 90
        2
 70
     1
 43
13.59253620472736
 10
1442.86314735616
 20
2155.142745975558
 42
-1.0
 10
1422.074494707311
 20
2155.142745975558
 42
-1.0
  0
LWPOLYLINE
  5
2131
330
A
100
AcDbEntity
  8
0
100
AcDbPolyline
 90
        2
 70
     1
 43
13.59253620472736
 10
1862.86314735616
 20
2155.142745975558
 42
-1.0
 10
1842.074494707311
 20
2155.142745975558
 42
-1.0
  0
LWPOLYLINE
  5
2132
330
A
100
AcDbEntity
  8
0
100
AcDbPolyline
 90
        2
 70
     1
 43
13.59253620472736
 10
2282.86314735616
 20
2155.142745975558
 42
-1.0
 10
2262.074494707311
 20
2155.142745975558
 42
-1.0
  0
HATCH
  5
22A0
330
A
100
AcDbEntity
  8
0
  6
ByBlock
 62
     3
370
     0
100
AcDbHatch
 10
0.0
 20
0.0
 30
0.0
210
0.0
220
0.0
230
1.0
  2
ANSI31
 70
     0
 71
     1
 91
        1
 92
        7
 72
     0
 73
     1
 93
       10
 10
879.96889255731
 20
0.0
 10
879.96889255731
 20
2180.191836201258
 10
2487.46884964196
 20
2180.191836201258
 10
2487.46884964196
 20
2180.14281273276
 10
2487.46884964196
 20
2110.191836201258
 10
2487.46884964196
 20
0.0
 10
3287.46880195825
 20
0.0
 10
3287.46880195825
 20
2467.250105440491
 10
0.0
 20
2467.250105440491
 10
0.0
 20
0.0
 97
        9
330
212B
330
2123
330
1C6E
330
2127
330
1B7E
330
1B71
330
2128
330
212D
330
1B6F
 75
     0
 76
     1
 52
0.0
 41
50.0
 77
     0
 78
     1
 53
45.0
 43
-10072.10990989948
 44
0.0
 45
-112.2532015133644
 46
112.2532015133644
 79
     0
 47
0.0
 98
        1
 10
355.2019235555508
 20
1574.605089993651
1001
ACAD
1010
0.0
1020
0.0
1030
0.0
  0
ENDSEC
  0
SECTION
  2
OBJECTS
  0
DICTIONARY
  5
19
330
0
100
AcDbDictionary
281
     1
  3
ACAD_GROUP
350
1A
  3
ACAD_IMAGE_VARS
350
D40
  3
ACAD_LAYOUT
350
1E
  3
ACAD_MLINESTYLE
350
1B
  3
ACAD_PLOTSETTINGS
350
22
  3
ACAD_PLOTSTYLENAME
350
1F
  3
ACAD_SCALELIST
350
51A
  3
ACAD_WIPEOUT_VARS
350
23
  3
AcDbVariableDictionary
350
54B
  3
APPDATA
350
D3F
  3
ASE_INDEX_DICTIONARY
350
543
  3
DWGPROPS
350
237D
  0
DICTIONARY
  5
546
330
14
100
AcDbDictionary
280
     1
281
     1
  3
ADSK_XREC_LAYER_RECONCILED
360
547
  0
DICTIONARY
  5
90F
330
A
100
AcDbDictionary
280
     1
281
     1
  3
ACAD_SORTENTS
360
910
  0
DICTIONARY
  5
1A
102
{ACAD_REACTORS
330
19
102
}
330
19
100
AcDbDictionary
281
     1
  0
RASTERVARIABLES
  5
D40
102
{ACAD_REACTORS
330
19
102
}
330
19
100
AcDbRasterVariables
 90
        0
 70
     1
 71
     1
 72
     0
  0
DICTIONARY
  5
1E
102
{ACAD_REACTORS
330
19
102
}
330
19
100
AcDbDictionary
281
     1
  3
Layout1
350
21
  3
Model
350
20
  0
DICTIONARY
  5
1B
102
{ACAD_REACTORS
330
19
102
}
330
19
100
AcDbDictionary
281
     1
  3
Standard
350
1C
  0
DICTIONARY
  5
22
102
{ACAD_REACTORS
330
19
102
}
330
19
100
AcDbDictionary
281
     1
  0
ACDBDICTIONARYWDFLT
  5
1F
102
{ACAD_REACTORS
330
19
102
}
330
19
100
AcDbDictionary
281
     1
  3
Normal
350
1D
100
AcDbDictionaryWithDefault
340
1D
  0
DICTIONARY
  5
51A
102
{ACAD_REACTORS
330
19
102
}
330
19
100
AcDbDictionary
281
     1
  3
A0
350
51B
  3
A1
350
51C
  3
A2
350
51D
  3
A3
350
51E
  3
A4
350
51F
  3
A5
350
520
  3
A6
350
521
  3
A7
350
522
  3
A8
350
523
  3
A9
350
524
  3
B0
350
525
  3
B1
350
526
  3
B2
350
527
  3
B3
350
528
  3
B4
350
529
  3
B5
350
52A
  3
B6
350
52B
  3
B7
350
52C
  3
B8
350
52D
  3
B9
350
52E
  3
C0
350
52F
  3
C1
350
530
  3
C2
350
531
  3
C3
350
532
  3
C4
350
533
  3
C5
350
534
  3
C6
350
535
  3
C7
350
536
  3
C8
350
537
  3
C9
350
538
  3
D0
350
539
  3
D1
350
53A
  3
D2
350
53B
  0
WIPEOUTVARIABLES
  5
23
330
19
100
AcDbWipeoutVariables
 70
     1
  0
DICTIONARY
  5
54B
102
{ACAD_REACTORS
330
19
102
}
330
19
100
AcDbDictionary
281
     1
  3
CANNOSCALE
350
237E
  3
DIMASSOC
350
CD4
  3
INDEXCTL
350
CD3
  3
SORTENTS
350
CD2
  0
DICTIONARY
  5
D3F
102
{ACAD_REACTORS
330
19
102
}
330
19
100
AcDbDictionary
281
     1
  0
DICTIONARY
  5
543
102
{ACAD_REACTORS
330
19
102
}
330
19
100
AcDbDictionary
281
     1
  3
ASEBlockHierarchyIndexRecord
350
545
1001
DCO15
1040
1685697460.757
  0
XRECORD
  5
237D
102
{ACAD_REACTORS
330
19
102
}
330
19
100
AcDbXrecord
280
     1
  1
DWGPROPS COOKIE
  2

  3

  4

  6

  7

  8
renzo.ceresoli
  9

300
=
301
=
302
=
303
=
304
=
305
=
306
=
307
=
308
=
309
=
 40
0.0
 41
2455313.515715498
 42
2456183.317738194
  1

 90
        0
  0
XRECORD
  5
547
102
{ACAD_REACTORS
330
546
102
}
330
546
100
AcDbXrecord
280
     1
290
     1
  0
SORTENTSTABLE
  5
910
102
{ACAD_REACTORS
330
90F
102
}
330
90F
100
AcDbSortentsTable
330
A
331
0
  5
B7E
  0
LAYOUT
  5
21
102
{ACAD_REACTORS
330
1E
102
}
330
1E
100
AcDbPlotSettings
  1

  2

  4

  6

 40
0.0
 41
0.0
 42
0.0
 43
0.0
 44
0.0
 45
0.0
 46
0.0
 47
0.0
 48
0.0
 49
0.0
140
0.0
141
0.0
142
1.0
143
1.0
 70
     0
 72
     0
 73
     0
 74
     0
  7

 75
     0
147
1.0
148
0.0
149
0.0
100
AcDbLayout
  1
Layout1
 70
     0
 71
     1
 10
0.0
 20
0.0
 11
12.0
 21
9.0
 12
0.0
 22
0.0
 32
0.0
 14
1.000000000000000E+20
 24
1.000000000000000E+20
 34
1.000000000000000E+20
 15
-1.000000000000000E+20
 25
-1.000000000000000E+20
 35
-1.000000000000000E+20
146
0.0
 13
0.0
 23
0.0
 33
0.0
 16
1.0
 26
0.0
 36
0.0
 17
0.0
 27
1.0
 37
0.0
 76
     0
330
B
  0
LAYOUT
  5
20
102
{ACAD_REACTORS
330
1E
102
}
330
1E
100
AcDbPlotSettings
  1

  2

  4

  6

 40
0.0
 41
0.0
 42
0.0
 43
0.0
 44
0.0
 45
0.0
 46
0.0
 47
0.0
 48
0.0
 49
0.0
140
0.0
141
0.0
142
1.0
143
1.0
 70
  1024
 72
     0
 73
     0
 74
     0
  7

 75
     0
147
1.0
148
0.0
149
0.0
100
AcDbLayout
  1
Model
 70
     0
 71
     0
 10
0.0
 20
0.0
 11
0.0
 21
0.0
 12
0.0
 22
0.0
 32
0.0
 14
0.0
 24
0.0
 34
0.0
 15
0.0
 25
0.0
 35
0.0
146
0.0
 13
0.0
 23
0.0
 33
0.0
 16
0.0
 26
0.0
 36
0.0
 17
0.0
 27
0.0
 37
0.0
 76
     0
330
A
331
15
  0
MLINESTYLE
  5
1C
102
{ACAD_REACTORS
330
1B
102
}
330
1B
100
AcDbMlineStyle
  2
STANDARD
 70
     0
  3

 62
     0
 51
90.0
 52
90.0
 71
     2
 49
0.5
 62
   256
  6
BYLAYER
 49
-0.5
 62
   256
  6
BYLAYER
  0
ACDBPLACEHOLDER
  5
1D
102
{ACAD_REACTORS
330
1F
102
}
330
1F
  0
SCALE
  5
51B
102
{ACAD_REACTORS
330
51A
102
}
330
51A
100
AcDbScale
 70
     0
300
1:1
140
1.0
141
1.0
290
     1
  0
SCALE
  5
51C
102
{ACAD_REACTORS
330
51A
102
}
330
51A
100
AcDbScale
 70
     0
300
1:2
140
1.0
141
2.0
290
     0
  0
SCALE
  5
51D
102
{ACAD_REACTORS
330
51A
102
}
330
51A
100
AcDbScale
 70
     0
300
1:4
140
1.0
141
4.0
290
     0
  0
SCALE
  5
51E
102
{ACAD_REACTORS
330
51A
102
}
330
51A
100
AcDbScale
 70
     0
300
1:5
140
1.0
141
5.0
290
     0
  0
SCALE
  5
51F
102
{ACAD_REACTORS
330
51A
102
}
330
51A
100
AcDbScale
 70
     0
300
1:8
140
1.0
141
8.0
290
     0
  0
SCALE
  5
520
102
{ACAD_REACTORS
330
51A
102
}
330
51A
100
AcDbScale
 70
     0
300
1:10
140
1.0
141
10.0
290
     0
  0
SCALE
  5
521
102
{ACAD_REACTORS
330
51A
102
}
330
51A
100
AcDbScale
 70
     0
300
1:16
140
1.0
141
16.0
290
     0
  0
SCALE
  5
522
102
{ACAD_REACTORS
330
51A
102
}
330
51A
100
AcDbScale
 70
     0
300
1:20
140
1.0
141
20.0
290
     0
  0
SCALE
  5
523
102
{ACAD_REACTORS
330
51A
102
}
330
51A
100
AcDbScale
 70
     0
300
1:30
140
1.0
141
30.0
290
     0
  0
SCALE
  5
524
102
{ACAD_REACTORS
330
51A
102
}
330
51A
100
AcDbScale
 70
     0
300
1:40
140
1.0
141
40.0
290
     0
  0
SCALE
  5
525
102
{ACAD_REACTORS
330
51A
102
}
330
51A
100
AcDbScale
 70
     0
300
1:50
140
1.0
141
50.0
290
     0
  0
SCALE
  5
526
102
{ACAD_REACTORS
330
51A
102
}
330
51A
100
AcDbScale
 70
     0
300
1:100
140
1.0
141
100.0
290
     0
  0
SCALE
  5
527
102
{ACAD_REACTORS
330
51A
102
}
330
51A
100
AcDbScale
 70
     0
300
2:1
140
2.0
141
1.0
290
     0
  0
SCALE
  5
528
102
{ACAD_REACTORS
330
51A
102
}
330
51A
100
AcDbScale
 70
     0
300
4:1
140
4.0
141
1.0
290
     0
  0
SCALE
  5
529
102
{ACAD_REACTORS
330
51A
102
}
330
51A
100
AcDbScale
 70
     0
300
8:1
140
8.0
141
1.0
290
     0
  0
SCALE
  5
52A
102
{ACAD_REACTORS
330
51A
102
}
330
51A
100
AcDbScale
 70
     0
300
10:1
140
10.0
141
1.0
290
     0
  0
SCALE
  5
52B
102
{ACAD_REACTORS
330
51A
102
}
330
51A
100
AcDbScale
 70
     0
300
100:1
140
100.0
141
1.0
290
     0
  0
SCALE
  5
52C
102
{ACAD_REACTORS
330
51A
102
}
330
51A
100
AcDbScale
 70
     0
300
1/128" = 1'-0"
140
0.0078125
141
12.0
290
     0
  0
SCALE
  5
52D
102
{ACAD_REACTORS
330
51A
102
}
330
51A
100
AcDbScale
 70
     0
300
1/64" = 1'-0"
140
0.015625
141
12.0
290
     0
  0
SCALE
  5
52E
102
{ACAD_REACTORS
330
51A
102
}
330
51A
100
AcDbScale
 70
     0
300
1/32" = 1'-0"
140
0.03125
141
12.0
290
     0
  0
SCALE
  5
52F
102
{ACAD_REACTORS
330
51A
102
}
330
51A
100
AcDbScale
 70
     0
300
1/16" = 1'-0"
140
0.0625
141
12.0
290
     0
  0
SCALE
  5
530
102
{ACAD_REACTORS
330
51A
102
}
330
51A
100
AcDbScale
 70
     0
300
3/32" = 1'-0"
140
0.09375
141
12.0
290
     0
  0
SCALE
  5
531
102
{ACAD_REACTORS
330
51A
102
}
330
51A
100
AcDbScale
 70
     0
300
1/8" = 1'-0"
140
0.125
141
12.0
290
     0
  0
SCALE
  5
532
102
{ACAD_REACTORS
330
51A
102
}
330
51A
100
AcDbScale
 70
     0
300
3/16" = 1'-0"
140
0.1875
141
12.0
290
     0
  0
SCALE
  5
533
102
{ACAD_REACTORS
330
51A
102
}
330
51A
100
AcDbScale
 70
     0
300
1/4" = 1'-0"
140
0.25
141
12.0
290
     0
  0
SCALE
  5
534
102
{ACAD_REACTORS
330
51A
102
}
330
51A
100
AcDbScale
 70
     0
300
3/8" = 1'-0"
140
0.375
141
12.0
290
     0
  0
SCALE
  5
535
102
{ACAD_REACTORS
330
51A
102
}
330
51A
100
AcDbScale
 70
     0
300
1/2" = 1'-0"
140
0.5
141
12.0
290
     0
  0
SCALE
  5
536
102
{ACAD_REACTORS
330
51A
102
}
330
51A
100
AcDbScale
 70
     0
300
3/4" = 1'-0"
140
0.75
141
12.0
290
     0
  0
SCALE
  5
537
102
{ACAD_REACTORS
330
51A
102
}
330
51A
100
AcDbScale
 70
     0
300
1" = 1'-0"
140
1.0
141
12.0
290
     0
  0
SCALE
  5
538
102
{ACAD_REACTORS
330
51A
102
}
330
51A
100
AcDbScale
 70
     0
300
1-1/2" = 1'-0"
140
1.5
141
12.0
290
     0
  0
SCALE
  5
539
102
{ACAD_REACTORS
330
51A
102
}
330
51A
100
AcDbScale
 70
     0
300
3" = 1'-0"
140
3.0
141
12.0
290
     0
  0
SCALE
  5
53A
102
{ACAD_REACTORS
330
51A
102
}
330
51A
100
AcDbScale
 70
     0
300
6" = 1'-0"
140
6.0
141
12.0
290
     0
  0
SCALE
  5
53B
102
{ACAD_REACTORS
330
51A
102
}
330
51A
100
AcDbScale
 70
     0
300
1'-0" = 1'-0"
140
12.0
141
12.0
290
     0
  0
DICTIONARYVAR
  5
237E
102
{ACAD_REACTORS
330
54B
102
}
330
54B
100
DictionaryVariables
280
     0
  1
1:1
  0
DICTIONARYVAR
  5
CD4
102
{ACAD_REACTORS
330
54B
102
}
330
54B
100
DictionaryVariables
280
     0
  1
1
  0
DICTIONARYVAR
  5
CD3
102
{ACAD_REACTORS
330
54B
102
}
330
54B
100
DictionaryVariables
280
     0
  1
0
  0
DICTIONARYVAR
  5
CD2
102
{ACAD_REACTORS
330
54B
102
}
330
54B
100
DictionaryVariables
280
     0
  1
127
  0
XRECORD
  5
545
102
{ACAD_REACTORS
330
543
102
}
330
543
100
AcDbXrecord
280
     1
330
0
330
0
330
0
330
0
330
0
330
0
330
0
330
0
330
0
330
0
330
0
330
0
330
0
330
0
330
0
330
0
330
0
330
0
330
0
330
0
330
0
330
0
330
0
330
0
330
0
330
0
330
0
330
0
330
0
330
0
330
0
330
0
330
0
330
0
330
0
330
0
330
0
330
0
330
0
330
0
330
0
330
0
330
0
330
0
330
0
330
0
330
0
330
0
330
0
330
0
330
0
330
0
330
0
330
0
330
0
330
0
  0
ENDSEC
  0
EOF
