  0
SECTION
  2
HEADER
  9
$ACADVER
  1
AC1015
  9
$ACADMAINTVER
 70
     6
  9
$DWGCODEPAGE
  3
ANSI_1252
  9
$INSBASE
 10
0.0
 20
0.0
 30
0.0
  9
$EXTMIN
 10
-6.241877241633119
 20
-130.3918379965962
 30
-0.0000000000000152
  9
$EXTMAX
 10
150.9841464877063
 20
15.93323257167685
 30
0.0000000000000154
  9
$LIMMIN
 10
-2514.35
 20
-1863.85
  9
$LIMMAX
 10
1691.35
 20
579.35
  9
$ORTHOMODE
 70
     1
  9
$REGENMODE
 70
     1
  9
$FILLMODE
 70
     1
  9
$QTEXTMODE
 70
     0
  9
$MIRRTEXT
 70
     1
  9
$LTSCALE
 40
30.0
  9
$ATTMODE
 70
     1
  9
$TEXTSIZE
 40
0.0
  9
$TRACEWID
 40
0.05
  9
$TEXTSTYLE
  7
Standard
  9
$CLAYER
  8
0
  9
$CELTYPE
  6
ByBlock
  9
$CECOLOR
 62
     3
  9
$CELTSCALE
 40
1.0
  9
$DISPSILH
 70
     0
  9
$DIMSCALE
 40
1.0
  9
$DIMASZ
 40
1.25
  9
$DIMEXO
 40
0.0
  9
$DIMDLI
 40
0.38
  9
$DIMRND
 40
0.0
  9
$DIMDLE
 40
0.0
  9
$DIMEXE
 40
0.75
  9
$DIMTP
 40
0.0
  9
$DIMTM
 40
0.0
  9
$DIMTXT
 40
2.5
  9
$DIMCEN
 40
0.09
  9
$DIMTSZ
 40
0.0
  9
$DIMTOL
 70
     0
  9
$DIMLIM
 70
     0
  9
$DIMTIH
 70
     0
  9
$DIMTOH
 70
     0
  9
$DIMSE1
 70
     0
  9
$DIMSE2
 70
     0
  9
$DIMTAD
 70
     1
  9
$DIMZIN
 70
     0
  9
$DIMBLK
  1

  9
$DIMASO
 70
     1
  9
$DIMSHO
 70
     1
  9
$DIMPOST
  1

  9
$DIMAPOST
  1

  9
$DIMALT
 70
     0
  9
$DIMALTD
 70
     2
  9
$DIMALTF
 40
25.4
  9
$DIMLFAC
 40
1.0
  9
$DIMTOFL
 70
     0
  9
$DIMTVP
 40
0.0
  9
$DIMTIX
 70
     0
  9
$DIMSOXD
 70
     0
  9
$DIMSAH
 70
     0
  9
$DIMBLK1
  1

  9
$DIMBLK2
  1

  9
$DIMSTYLE
  2
Standard
  9
$DIMCLRD
 70
     7
  9
$DIMCLRE
 70
     7
  9
$DIMCLRT
 70
     7
  9
$DIMTFAC
 40
0.8
  9
$DIMGAP
 40
1.25
  9
$DIMJUST
 70
     0
  9
$DIMSD1
 70
     0
  9
$DIMSD2
 70
     0
  9
$DIMTOLJ
 70
     1
  9
$DIMTZIN
 70
     0
  9
$DIMALTZ
 70
     0
  9
$DIMALTTZ
 70
     0
  9
$DIMUPT
 70
     0
  9
$DIMDEC
 70
     2
  9
$DIMTDEC
 70
     4
  9
$DIMALTU
 70
     2
  9
$DIMALTTD
 70
     2
  9
$DIMTXSTY
  7
Standard
  9
$DIMAUNIT
 70
     0
  9
$DIMADEC
 70
     0
  9
$DIMALTRND
 40
0.0
  9
$DIMAZIN
 70
     0
  9
$DIMDSEP
 70
    46
  9
$DIMATFIT
 70
     3
  9
$DIMFRAC
 70
     0
  9
$DIMLDRBLK
  1

  9
$DIMLUNIT
 70
     2
  9
$DIMLWD
 70
     0
  9
$DIMLWE
 70
     0
  9
$DIMTMOVE
 70
     0
  9
$LUNITS
 70
     2
  9
$LUPREC
 70
     4
  9
$SKETCHINC
 40
0.1
  9
$FILLETRAD
 40
0.0
  9
$AUNITS
 70
     0
  9
$AUPREC
 70
     0
  9
$MENU
  1
acad
  9
$ELEVATION
 40
0.0
  9
$PELEVATION
 40
0.0
  9
$THICKNESS
 40
0.0
  9
$LIMCHECK
 70
     0
  9
$CHAMFERA
 40
0.0
  9
$CHAMFERB
 40
0.0
  9
$CHAMFERC
 40
0.0
  9
$CHAMFERD
 40
0.0
  9
$SKPOLY
 70
     0
  9
$TDCREATE
 40
2455313.599048831
  9
$TDUCREATE
 40
2455313.515715498
  9
$TDUPDATE
 40
2456183.40133809
  9
$TDUUPDATE
 40
2456183.318004757
  9
$TDINDWG
 40
0.0042496991
  9
$TDUSRTIMER
 40
2456183.317913114
  9
$USRTIMER
 70
     1
  9
$ANGBASE
 50
0.0
  9
$ANGDIR
 70
     0
  9
$PDMODE
 70
     0
  9
$PDSIZE
 40
0.0
  9
$PLINEWID
 40
0.0
  9
$SPLFRAME
 70
     0
  9
$SPLINETYPE
 70
     6
  9
$SPLINESEGS
 70
     8
  9
$HANDSEED
  5
237F
  9
$SURFTAB1
 70
     6
  9
$SURFTAB2
 70
     6
  9
$SURFTYPE
 70
     6
  9
$SURFU
 70
     6
  9
$SURFV
 70
     6
  9
$UCSBASE
  2

  9
$UCSNAME
  2

  9
$UCSORG
 10
0.0
 20
0.0
 30
0.0
  9
$UCSXDIR
 10
1.0
 20
0.0
 30
0.0
  9
$UCSYDIR
 10
0.0
 20
1.0
 30
0.0
  9
$UCSORTHOREF
  2

  9
$UCSORTHOVIEW
 70
     0
  9
$UCSORGTOP
 10
0.0
 20
0.0
 30
0.0
  9
$UCSORGBOTTOM
 10
0.0
 20
0.0
 30
0.0
  9
$UCSORGLEFT
 10
0.0
 20
0.0
 30
0.0
  9
$UCSORGRIGHT
 10
0.0
 20
0.0
 30
0.0
  9
$UCSORGFRONT
 10
0.0
 20
0.0
 30
0.0
  9
$UCSORGBACK
 10
0.0
 20
0.0
 30
0.0
  9
$PUCSBASE
  2

  9
$PUCSNAME
  2

  9
$PUCSORG
 10
0.0
 20
0.0
 30
0.0
  9
$PUCSXDIR
 10
1.0
 20
0.0
 30
0.0
  9
$PUCSYDIR
 10
0.0
 20
1.0
 30
0.0
  9
$PUCSORTHOREF
  2

  9
$PUCSORTHOVIEW
 70
     0
  9
$PUCSORGTOP
 10
0.0
 20
0.0
 30
0.0
  9
$PUCSORGBOTTOM
 10
0.0
 20
0.0
 30
0.0
  9
$PUCSORGLEFT
 10
0.0
 20
0.0
 30
0.0
  9
$PUCSORGRIGHT
 10
0.0
 20
0.0
 30
0.0
  9
$PUCSORGFRONT
 10
0.0
 20
0.0
 30
0.0
  9
$PUCSORGBACK
 10
0.0
 20
0.0
 30
0.0
  9
$USERI1
 70
     0
  9
$USERI2
 70
     0
  9
$USERI3
 70
     0
  9
$USERI4
 70
     0
  9
$USERI5
 70
     0
  9
$USERR1
 40
0.0
  9
$USERR2
 40
0.0
  9
$USERR3
 40
0.0
  9
$USERR4
 40
0.0
  9
$USERR5
 40
0.0
  9
$WORLDVIEW
 70
     1
  9
$SHADEDGE
 70
     3
  9
$SHADEDIF
 70
    70
  9
$TILEMODE
 70
     1
  9
$MAXACTVP
 70
    16
  9
$PINSBASE
 10
0.0
 20
0.0
 30
0.0
  9
$PLIMCHECK
 70
     0
  9
$PEXTMIN
 10
1.000000000000000E+20
 20
1.000000000000000E+20
 30
1.000000000000000E+20
  9
$PEXTMAX
 10
-1.000000000000000E+20
 20
-1.000000000000000E+20
 30
-1.000000000000000E+20
  9
$PLIMMIN
 10
0.0
 20
0.0
  9
$PLIMMAX
 10
0.0
 20
0.0
  9
$UNITMODE
 70
     0
  9
$VISRETAIN
 70
     0
  9
$PLINEGEN
 70
     1
  9
$PSLTSCALE
 70
     0
  9
$TREEDEPTH
 70
  3020
  9
$CMLSTYLE
  2
Standard
  9
$CMLJUST
 70
     0
  9
$CMLSCALE
 40
1.0
  9
$PROXYGRAPHICS
 70
     0
  9
$MEASUREMENT
 70
     1
  9
$CELWEIGHT
370
     0
  9
$ENDCAPS
280
     0
  9
$JOINSTYLE
280
     0
  9
$LWDISPLAY
290
     0
  9
$INSUNITS
 70
     0
  9
$HYPERLINKBASE
  1

  9
$STYLESHEET
  1

  9
$XEDIT
290
     1
  9
$CEPSNTYPE
380
     0
  9
$PSTYLEMODE
290
     1
  9
$FINGERPRINTGUID
  2

  9
$VERSIONGUID
  2
{0A897B20-AF30-4758-A4DE-DB64E3AABFC7}
  9
$EXTNAMES
290
     1
  9
$PSVPSCALE
 40
0.0
  9
$OLESTARTUP
290
     0
  0
ENDSEC
  0
SECTION
  2
CLASSES
  0
CLASS
  1
IMAGE
  2
AcDbRasterImage
  3
ISM
 90
      127
280
     0
281
     1
  0
CLASS
  1
DICTIONARYVAR
  2
AcDbDictionaryVar
  3
ObjectDBX Classes
 90
        0
280
     0
281
     0
  0
CLASS
  1
RASTERVARIABLES
  2
AcDbRasterVariables
  3
ISM
 90
        0
280
     0
281
     0
  0
CLASS
  1
IMAGEDEF
  2
AcDbRasterImageDef
  3
ISM
 90
        0
280
     0
281
     0
  0
CLASS
  1
IMAGEDEF_REACTOR
  2
AcDbRasterImageDefReactor
  3
ISM
 90
        1
280
     0
281
     0
  0
CLASS
  1
IDBUFFER
  2
AcDbIdBuffer
  3
ObjectDBX Classes
 90
        0
280
     0
281
     0
  0
CLASS
  1
SPATIAL_FILTER
  2
AcDbSpatialFilter
  3
ObjectDBX Classes
 90
        0
280
     0
281
     0
  0
CLASS
  1
SORTENTSTABLE
  2
AcDbSortentsTable
  3
ObjectDBX Classes
 90
        0
280
     0
281
     0
  0
CLASS
  1
LAYER_INDEX
  2
AcDbLayerIndex
  3
ObjectDBX Classes
 90
        0
280
     0
281
     0
  0
CLASS
  1
SPATIAL_INDEX
  2
AcDbSpatialIndex
  3
AutoCAD 2000
 90
        0
280
     0
281
     0
  0
CLASS
  1
OBJECT_PTR
  2
CAseDLPNTableRecord
  3
ASE-LPNTableRecord
 90
        1
280
     0
281
     0
  0
CLASS
  1
LAYOUT
  2
AcDbLayout
  3
ObjectDBX Classes
 90
        0
280
     0
281
     0
  0
CLASS
  1
PLOTSETTINGS
  2
AcDbPlotSettings
  3
ObjectDBX Classes
 90
        0
280
     0
281
     0
  0
CLASS
  1
ACDBDICTIONARYWDFLT
  2
AcDbDictionaryWithDefault
  3
ObjectDBX Classes
 90
        0
280
     0
281
     0
  0
CLASS
  1
ACDBPLACEHOLDER
  2
AcDbPlaceHolder
  3
ObjectDBX Classes
 90
        0
280
     0
281
     0
  0
CLASS
  1
VBA_PROJECT
  2
AcDbVbaProject
  3
ObjectDBX Classes
 90
        0
280
     0
281
     0
  0
CLASS
  1
WIPEOUT
  2
AcDbWipeout
  3
WipeOut|AutoCAD Express Tool|expresstools@autodesk.com
 90
      127
280
     0
281
     1
  0
CLASS
  1
WIPEOUTVARIABLES
  2
AcDbWipeoutVariables
  3
WipeOut|AutoCAD Express Tool|expresstools@autodesk.com
 90
        0
280
     0
281
     0
  0
CLASS
  1
RTEXT
  2
RText
  3
RText|AutoCAD Express Tool|expresstools@autodesk.com
 90
        0
280
     0
281
     1
  0
CLASS
  1
ARCALIGNEDTEXT
  2
AcDbArcAlignedText
  3
ATEXT|AutoCAD Express Tool|expresstools@autodesk.com
 90
        0
280
     0
281
     1
  0
CLASS
  1
MATERIAL
  2
AcDbMaterial
  3
ObjectDBX Classes
 90
     1153
280
     0
281
     0
  0
CLASS
  1
VISUALSTYLE
  2
AcDbVisualStyle
  3
ObjectDBX Classes
 90
     4095
280
     0
281
     0
  0
CLASS
  1
TABLESTYLE
  2
AcDbTableStyle
  3
ObjectDBX Classes
 90
     4095
280
     0
281
     0
  0
CLASS
  1
SCALE
  2
AcDbScale
  3
ObjectDBX Classes
 90
     1153
280
     0
281
     0
  0
CLASS
  1
MLEADERSTYLE
  2
AcDbMLeaderStyle
  3
ACDB_MLEADERSTYLE_CLASS
 90
     4095
280
     0
281
     0
  0
CLASS
  1
CELLSTYLEMAP
  2
AcDbCellStyleMap
  3
ObjectDBX Classes
 90
     1152
280
     0
281
     0
  0
ENDSEC
  0
SECTION
  2
TABLES
  0
TABLE
  2
VPORT
  5
7
330
0
100
AcDbSymbolTable
 70
     1
  0
VPORT
  5
15
330
7
100
AcDbSymbolTableRecord
100
AcDbViewportTableRecord
  2
*ACTIVE
 70
     0
 10
0.0
 20
0.0
 11
1.0
 21
1.0
 12
1030.248188493589
 22
1324.221084307073
 13
0.0
 23
0.0
 14
1.0
 24
1.0
 15
0.0
 25
0.0
 16
0.0
 26
0.0
 36
1.0
 17
0.0
 27
0.0
 37
0.0
 40
3536.830224660927
 41
2.274173806609547
 42
50.0
 43
0.0
 44
0.0
 50
0.0
 51
0.0
 71
    16
 72
   100
 73
     1
 74
     1
 75
     0
 76
     0
 77
     0
 78
     0
281
     0
 65
     0
110
0.0
120
0.0
130
0.0
111
1.0
121
0.0
131
0.0
112
0.0
122
1.0
132
0.0
 79
     0
146
0.0
  0
ENDTAB
  0
TABLE
  2
LTYPE
  5
4
330
0
100
AcDbSymbolTable
 70
     3
  0
LTYPE
  5
11
330
4
100
AcDbSymbolTableRecord
100
AcDbLinetypeTableRecord
  2
ByBlock
 70
     0
  3

 72
    65
 73
     0
 40
0.0
  0
LTYPE
  5
12
330
4
100
AcDbSymbolTableRecord
100
AcDbLinetypeTableRecord
  2
ByLayer
 70
     0
  3

 72
    65
 73
     0
 40
0.0
  0
LTYPE
  5
13
330
4
100
AcDbSymbolTableRecord
100
AcDbLinetypeTableRecord
  2
Continuous
 70
     0
  3
Solid line
 72
    65
 73
     0
 40
0.0
  0
LTYPE
  5
D45
330
4
100
AcDbSymbolTableRecord
100
AcDbLinetypeTableRecord
  2
HIDDEN
 70
     0
  3
Hidden __ __ __ __ __ __ __ __ __ __ __ __ __ __
 72
    65
 73
     2
 40
1.905
 49
1.27
 74
     0
 49
-0.635
 74
     0
  0
LTYPE
  5
D46
330
4
100
AcDbSymbolTableRecord
100
AcDbLinetypeTableRecord
  2
CENTER
 70
     0
  3
Center ____ _ ____ _ ____ _ ____ _ ____ _ ____
 72
    65
 73
     4
 40
10.16
 49
6.35
 74
     0
 49
-1.27
 74
     0
 49
1.27
 74
     0
 49
-1.27
 74
     0
  0
ENDTAB
  0
TABLE
  2
LAYER
  5
2
330
0
100
AcDbSymbolTable
 70
     2
  0
LAYER
  5
14
102
{ACAD_XDICTIONARY
360
546
102
}
330
2
100
AcDbSymbolTableRecord
100
AcDbLayerTableRecord
  2
0
 70
     0
 62
     7
  6
Continuous
370
    -3
390
1D
  0
LAYER
  5
CFE
330
2
100
AcDbSymbolTableRecord
100
AcDbLayerTableRecord
  2
Defpoints
 70
     0
 62
     7
  6
Continuous
290
     0
370
    -3
390
1D
  0
ENDTAB
  0
TABLE
  2
STYLE
  5
3
330
0
100
AcDbSymbolTable
 70
     1
  0
STYLE
  5
17
330
3
100
AcDbSymbolTableRecord
100
AcDbTextStyleTableRecord
  2
Standard
 70
     0
 40
0.0
 41
1.0
 50
0.0
 71
     0
 42
0.0
  3
I011000D.TTF
  4

1001
ACAD
1000
IsonormD
1071
        0
  0
ENDTAB
  0
TABLE
  2
VIEW
  5
5
330
0
100
AcDbSymbolTable
 70
     0
  0
ENDTAB
  0
TABLE
  2
UCS
  5
6
330
0
100
AcDbSymbolTable
 70
     0
  0
ENDTAB
  0
TABLE
  2
APPID
  5
8
330
0
100
AcDbSymbolTable
 70
     5
  0
APPID
  5
16
330
8
100
AcDbSymbolTableRecord
100
AcDbRegAppTableRecord
  2
ACAD
 70
     0
  0
APPID
  5
26
330
8
100
AcDbSymbolTableRecord
100
AcDbRegAppTableRecord
  2
TopSolid_Draft
 70
     0
  0
APPID
  5
53E
330
8
100
AcDbSymbolTableRecord
100
AcDbRegAppTableRecord
  2
ACAD_MLEADERVER
 70
     0
  0
APPID
  5
544
330
8
100
AcDbSymbolTableRecord
100
AcDbRegAppTableRecord
  2
DCO15
 70
     0
  0
APPID
  5
D31
330
8
100
AcDbSymbolTableRecord
100
AcDbRegAppTableRecord
  2
ACAD_EXEMPT_FROM_CAD_STANDARDS
 70
     0
  0
ENDTAB
  0
TABLE
  2
DIMSTYLE
  5
9
330
0
100
AcDbSymbolTable
 70
     2
100
AcDbDimStyleTable
  0
DIMSTYLE
105
18
330
9
100
AcDbSymbolTableRecord
100
AcDbDimStyleTableRecord
  2
Standard
 70
     0
 41
1.25
 42
0.0
 44
0.75
 73
     0
 74
     0
 77
     1
140
2.5
146
0.8
147
1.25
176
     7
177
     7
271
     2
178
     7
271
     2
340
17
  0
DIMSTYLE
105
D47
330
9
100
AcDbSymbolTableRecord
100
AcDbDimStyleTableRecord
  2
ISO-25
 70
     0
 41
2.5
 42
0.625
 43
3.75
 44
1.25
 73
     0
 74
     0
 77
     1
 78
     8
140
2.5
141
2.5
143
0.03937007874016
147
0.625
171
     3
172
     1
178
     0
271
     2
272
     2
274
     3
278
    44
283
     0
284
     8
340
17
  0
ENDTAB
  0
TABLE
  2
BLOCK_RECORD
  5
1
330
0
100
AcDbSymbolTable
 70
     2
  0
BLOCK_RECORD
  5
A
102
{ACAD_XDICTIONARY
360
90F
102
}
330
1
100
AcDbSymbolTableRecord
100
AcDbBlockTableRecord
  2
*MODEL_SPACE
340
20
  0
BLOCK_RECORD
  5
B
330
1
100
AcDbSymbolTableRecord
100
AcDbBlockTableRecord
  2
*PAPER_SPACE
340
21
  0
BLOCK_RECORD
  5
D6B
330
1
100
AcDbSymbolTableRecord
100
AcDbBlockTableRecord
  2
PORTA-FRO
340
0
102
{BLKREFS
331
189D
102
}
  0
BLOCK_RECORD
  5
DB2
330
1
100
AcDbSymbolTableRecord
100
AcDbBlockTableRecord
  2
BF40-FRO
340
0
  0
ENDTAB
  0
ENDSEC
  0
SECTION
  2
BLOCKS
  0
BLOCK
  5
D
330
A
100
AcDbEntity
  8
0
100
AcDbBlockBegin
  2
*MODEL_SPACE
 70
     0
 10
0.0
 20
0.0
 30
0.0
  3
*MODEL_SPACE
  1

  0
ENDBLK
  5
E
330
A
100
AcDbEntity
  8
0
100
AcDbBlockEnd
  0
BLOCK
  5
F
330
B
100
AcDbEntity
 67
     1
  8
0
100
AcDbBlockBegin
  2
*PAPER_SPACE
 70
     0
 10
0.0
 20
0.0
 30
0.0
  3
*PAPER_SPACE
  1

  0
ENDBLK
  5
10
330
B
100
AcDbEntity
 67
     1
  8
0
100
AcDbBlockEnd
  0
BLOCK
  5
D6C
330
D6B
100
AcDbEntity
  8
0
100
AcDbBlockBegin
  2
PORTA-FRO
 70
     0
 10
0.0
 20
0.0
 30
0.0
  3
PORTA-FRO
  1

  0
LINE
  5
D6D
330
D6B
100
AcDbEntity
  8
0
  6
Continuous
 62
     7
370
    15
100
AcDbLine
 10
0.0
 20
-216.0000076517463
 30
0.0
 11
86.00000143051145
 21
-216.0000076517463
 31
0.0
  0
LINE
  5
D6F
330
D6B
100
AcDbEntity
  8
0
  6
Continuous
 62
     7
370
    15
100
AcDbLine
 10
63.50001096725472
 20
0.0
 30
0.0
 11
22.50000238418585
 21
0.0
 31
0.0
  0
LINE
  5
D70
330
D6B
100
AcDbEntity
  8
0
  6
Continuous
 62
     7
370
    15
100
AcDbLine
 10
7.500004768371639
 20
0.0
 30
0.0
 11
0.0
 21
0.0
 31
0.0
  0
LINE
  5
D71
330
D6B
100
AcDbEntity
  8
0
  6
Continuous
 62
     7
370
    15
100
AcDbLine
 10
0.0
 20
0.0
 30
0.0
 11
0.0
 21
-216.0000076517463
 31
0.0
  0
LINE
  5
D72
330
D6B
100
AcDbEntity
  8
0
  6
Continuous
 62
     7
370
    15
100
AcDbLine
 10
86.00000143051145
 20
-216.0000076517463
 30
0.0
 11
86.00000143051145
 21
0.0
 31
0.0
  0
LINE
  5
D73
330
D6B
100
AcDbEntity
  8
0
  6
Continuous
 62
     7
370
    15
100
AcDbLine
 10
86.00000143051145
 20
0.0
 30
0.0
 11
78.49999666213998
 21
0.0
 31
0.0
  0
LINE
  5
D75
330
D6B
100
AcDbEntity
  8
0
  6
Continuous
 62
     7
370
    15
100
AcDbLine
 10
63.50001096725472
 20
0.0
 30
0.0
 11
63.50001096725472
 21
-0.600004196167049
 31
0.0
  0
LINE
  5
D76
330
D6B
100
AcDbEntity
  8
0
  6
Continuous
 62
     7
370
    15
100
AcDbLine
 10
78.49999666213998
 20
-0.600004196167049
 30
0.0
 11
78.49999666213998
 21
0.0
 31
0.0
  0
LINE
  5
D77
330
D6B
100
AcDbEntity
  8
0
  6
Continuous
 62
     7
370
    15
100
AcDbLine
 10
78.49999666213998
 20
0.0
 30
0.0
 11
63.50001096725472
 21
0.0
 31
0.0
  0
LINE
  5
D78
330
D6B
100
AcDbEntity
  8
0
  6
Continuous
 62
     7
370
    15
100
AcDbLine
 10
63.50001096725472
 20
-0.600004196167049
 30
0.0
 11
63.50001096725472
 21
-2.900004386901855
 31
0.0
  0
LINE
  5
D79
330
D6B
100
AcDbEntity
  8
0
  6
Continuous
 62
     7
370
    15
100
AcDbLine
 10
78.49999666213998
 20
-2.900004386901855
 30
0.0
 11
78.49999666213998
 21
-0.600004196167049
 31
0.0
  0
LINE
  5
D7A
330
D6B
100
AcDbEntity
  8
0
  6
Continuous
 62
     7
370
    15
100
AcDbLine
 10
78.49999666213998
 20
-0.600004196167049
 30
0.0
 11
63.50001096725472
 21
-0.600004196167049
 31
0.0
  0
CIRCLE
  5
D7B
330
D6B
100
AcDbEntity
  8
0
  6
Continuous
 62
     7
370
    15
100
AcDbCircle
 10
67.65000429154824
 20
-1.750007629393735
 30
0.0
 40
0.3900000000040222
  0
LINE
  5
D7C
330
D6B
100
AcDbEntity
  8
0
  6
Continuous
 62
     7
370
    15
100
AcDbLine
 10
63.50001096725472
 20
-2.900004386901855
 30
0.0
 11
63.50001096725472
 21
-3.500008583068904
 31
0.0
  0
LINE
  5
D7D
330
D6B
100
AcDbEntity
  8
0
  6
Continuous
 62
     7
370
    15
100
AcDbLine
 10
63.50001096725472
 20
-3.500008583068904
 30
0.0
 11
64.02190923690804
 21
-3.500008583068904
 31
0.0
  0
ARC
  5
D7E
330
D6B
100
AcDbEntity
  8
0
  6
Continuous
 62
     7
370
    15
100
AcDbCircle
 10
64.10000429154829
 20
-3.80000762939369
 30
0.0
 40
0.3099999999999575
100
AcDbArc
 50
75.40744939797358
 51
104.5925506020264
  0
LINE
  5
D7F
330
D6B
100
AcDbEntity
  8
0
  6
Continuous
 62
     7
370
    15
100
AcDbLine
 10
64.17809724807736
 20
-3.500008583068904
 30
0.0
 11
68.66999864578256
 21
-3.500008583068904
 31
0.0
  0
LINE
  5
D80
330
D6B
100
AcDbEntity
  8
0
  6
Continuous
 62
     7
370
    15
100
AcDbLine
 10
68.66999864578256
 20
-3.18000316619873
 30
0.0
 11
68.66999864578256
 21
-3.500008583068904
 31
0.0
  0
LINE
  5
D81
330
D6B
100
AcDbEntity
  8
0
  6
Continuous
 62
     7
370
    15
100
AcDbLine
 10
70.06999254226693
 20
-3.18000316619873
 30
0.0
 11
68.66999864578256
 21
-3.18000316619873
 31
0.0
  0
LINE
  5
D82
330
D6B
100
AcDbEntity
  8
0
  6
Continuous
 62
     7
370
    15
100
AcDbLine
 10
70.06999254226693
 20
-3.500008583068904
 30
0.0
 11
70.06999254226693
 21
-3.18000316619873
 31
0.0
  0
LINE
  5
D83
330
D6B
100
AcDbEntity
  8
0
  6
Continuous
 62
     7
370
    15
100
AcDbLine
 10
70.06999254226693
 20
-3.500008583068904
 30
0.0
 11
77.82191038131711
 21
-3.500008583068904
 31
0.0
  0
ARC
  5
D84
330
D6B
100
AcDbEntity
  8
0
  6
Continuous
 62
     7
370
    15
100
AcDbCircle
 10
77.90000429154836
 20
-3.80000762939369
 30
0.0
 40
0.3099999999999982
100
AcDbArc
 50
75.40744939797622
 51
104.5925506020238
  0
LINE
  5
D85
330
D6B
100
AcDbEntity
  8
0
  6
Continuous
 62
     7
370
    15
100
AcDbLine
 10
77.97809839248666
 20
-3.500008583068904
 30
0.0
 11
78.49999666213998
 21
-3.500008583068904
 31
0.0
  0
LINE
  5
D86
330
D6B
100
AcDbEntity
  8
0
  6
Continuous
 62
     7
370
    15
100
AcDbLine
 10
78.49999666213998
 20
-3.500008583068904
 30
0.0
 11
78.49999666213998
 21
-2.900004386901855
 31
0.0
  0
LINE
  5
D87
330
D6B
100
AcDbEntity
  8
0
  6
Continuous
 62
     7
370
    15
100
AcDbLine
 10
78.49999666213998
 20
-2.900004386901855
 30
0.0
 11
63.50001096725472
 21
-2.900004386901855
 31
0.0
  0
LINE
  5
D88
330
D6B
100
AcDbEntity
  8
0
  6
Continuous
 62
     7
370
    15
100
AcDbLine
 10
7.500004768371639
 20
-2.900004386901855
 30
0.0
 11
7.500004768371639
 21
-3.500008583068904
 31
0.0
  0
LINE
  5
D89
330
D6B
100
AcDbEntity
  8
0
  6
Continuous
 62
     7
370
    15
100
AcDbLine
 10
7.500004768371639
 20
-3.500008583068904
 30
0.0
 11
8.02190303802496
 21
-3.500008583068904
 31
0.0
  0
ARC
  5
D8A
330
D6B
100
AcDbEntity
  8
0
  6
Continuous
 62
     7
370
    15
100
AcDbCircle
 10
8.10000429154843
 20
-3.800007629393747
 30
0.0
 40
0.3099999999999575
100
AcDbArc
 50
75.40744939797358
 51
104.5925506020366
  0
LINE
  5
D8B
330
D6B
100
AcDbEntity
  8
0
  6
Continuous
 62
     7
370
    15
100
AcDbLine
 10
8.178102970123291
 20
-3.500008583068904
 30
0.0
 11
12.67000436782843
 21
-3.500008583068904
 31
0.0
  0
LINE
  5
D8C
330
D6B
100
AcDbEntity
  8
0
  6
Continuous
 62
     7
370
    15
100
AcDbLine
 10
12.67000436782843
 20
-3.18000316619873
 30
0.0
 11
12.67000436782843
 21
-3.500008583068904
 31
0.0
  0
LINE
  5
D8D
330
D6B
100
AcDbEntity
  8
0
  6
Continuous
 62
     7
370
    15
100
AcDbLine
 10
14.0700101852417
 20
-3.18000316619873
 30
0.0
 11
12.67000436782843
 21
-3.18000316619873
 31
0.0
  0
LINE
  5
D8E
330
D6B
100
AcDbEntity
  8
0
  6
Continuous
 62
     7
370
    15
100
AcDbLine
 10
14.0700101852417
 20
-3.500008583068904
 30
0.0
 11
14.0700101852417
 21
-3.18000316619873
 31
0.0
  0
LINE
  5
D8F
330
D6B
100
AcDbEntity
  8
0
  6
Continuous
 62
     7
370
    15
100
AcDbLine
 10
14.0700101852417
 20
-3.500008583068904
 30
0.0
 11
21.82190418243408
 21
-3.500008583068904
 31
0.0
  0
ARC
  5
D90
330
D6B
100
AcDbEntity
  8
0
  6
Continuous
 62
     7
370
    15
100
AcDbCircle
 10
21.90000429154838
 20
-3.80000762939369
 30
0.0
 40
0.3099999999999718
100
AcDbArc
 50
75.40744939795323
 51
104.5925506020315
  0
LINE
  5
D91
330
D6B
100
AcDbEntity
  8
0
  6
Continuous
 62
     7
370
    15
100
AcDbLine
 10
21.97810411453253
 20
-3.500008583068904
 30
0.0
 11
22.50000238418585
 21
-3.500008583068904
 31
0.0
  0
LINE
  5
D92
330
D6B
100
AcDbEntity
  8
0
  6
Continuous
 62
     7
370
    15
100
AcDbLine
 10
22.50000238418585
 20
-3.500008583068904
 30
0.0
 11
22.50000238418585
 21
-2.900004386901855
 31
0.0
  0
LINE
  5
D93
330
D6B
100
AcDbEntity
  8
0
  6
Continuous
 62
     7
370
    15
100
AcDbLine
 10
7.500004768371639
 20
-0.600004196167049
 30
0.0
 11
7.500004768371639
 21
-2.900004386901855
 31
0.0
  0
LINE
  5
D94
330
D6B
100
AcDbEntity
  8
0
  6
Continuous
 62
     7
370
    15
100
AcDbLine
 10
22.50000238418585
 20
-2.900004386901855
 30
0.0
 11
22.50000238418585
 21
-0.600004196167049
 31
0.0
  0
LINE
  5
D95
330
D6B
100
AcDbEntity
  8
0
  6
Continuous
 62
     7
370
    15
100
AcDbLine
 10
22.50000238418585
 20
-2.900004386901855
 30
0.0
 11
7.500004768371639
 21
-2.900004386901855
 31
0.0
  0
CIRCLE
  5
D96
330
D6B
100
AcDbEntity
  8
0
  6
Continuous
 62
     7
370
    15
100
AcDbCircle
 10
11.65000429154838
 20
-1.750007629393792
 30
0.0
 40
0.3900000000040791
  0
LINE
  5
D97
330
D6B
100
AcDbEntity
  8
0
  6
Continuous
 62
     7
370
    15
100
AcDbLine
 10
7.500004768371639
 20
0.0
 30
0.0
 11
7.500004768371639
 21
-0.600004196167049
 31
0.0
  0
LINE
  5
D98
330
D6B
100
AcDbEntity
  8
0
  6
Continuous
 62
     7
370
    15
100
AcDbLine
 10
22.50000238418585
 20
-0.600004196167049
 30
0.0
 11
7.500004768371639
 21
-0.600004196167049
 31
0.0
  0
LINE
  5
D99
330
D6B
100
AcDbEntity
  8
0
  6
Continuous
 62
     7
370
    15
100
AcDbLine
 10
22.50000238418585
 20
-0.600004196167049
 30
0.0
 11
22.50000238418585
 21
0.0
 31
0.0
  0
LINE
  5
D9A
330
D6B
100
AcDbEntity
  8
0
  6
Continuous
 62
     7
370
    15
100
AcDbLine
 10
22.50000238418585
 20
0.0
 30
0.0
 11
7.500004768371639
 21
0.0
 31
0.0
  0
CIRCLE
  5
D9B
330
D6B
100
AcDbEntity
  8
0
  6
Continuous
 62
     7
370
    15
100
AcDbCircle
 10
76.50000429153326
 20
-1.500007629394474
 30
0.0
 40
0.3249999999980341
  0
CIRCLE
  5
D9C
330
D6B
100
AcDbEntity
  8
0
  6
Continuous
 62
     7
370
    15
100
AcDbCircle
 10
65.50000429153428
 20
-1.500007629394474
 30
0.0
 40
0.3249999999980341
  0
CIRCLE
  5
D9D
330
D6B
100
AcDbEntity
  8
0
  6
Continuous
 62
     7
370
    15
100
AcDbCircle
 10
9.500004291534424
 20
-1.500007629394531
 30
0.0
 40
0.3249999999979772
  0
CIRCLE
  5
D9E
330
D6B
100
AcDbEntity
  8
0
  6
Continuous
 62
     7
370
    15
100
AcDbCircle
 10
20.50000429153334
 20
-1.500007629394531
 30
0.0
 40
0.3249999999979772
  0
LINE
  5
D9F
330
D6B
100
AcDbEntity
  8
0
  6
Continuous
 62
     7
370
    15
100
AcDbLine
 10
14.0700101852417
 20
-3.400015830993652
 30
0.0
 11
12.67000436782843
 21
-3.400015830993652
 31
0.0
  0
LINE
  5
DA0
330
D6B
100
AcDbEntity
  8
0
  6
Continuous
 62
     7
370
    15
100
AcDbLine
 10
70.06999254226693
 20
-3.400015830993652
 30
0.0
 11
68.66999864578256
 21
-3.400015830993652
 31
0.0
  0
CIRCLE
  5
DA1
330
D6B
100
AcDbEntity
  8
0
  6
Continuous
 62
     7
370
    15
100
AcDbCircle
 10
67.65000429154858
 20
-1.750007629394304
 30
0.0
 40
0.3949999999974807
  0
CIRCLE
  5
DA2
330
D6B
100
AcDbEntity
  8
0
  6
Continuous
 62
     7
370
    15
100
AcDbCircle
 10
11.65000429154873
 20
-1.750007629394361
 30
0.0
 40
0.3949999999974807
  0
LINE
  5
DA3
330
D6B
100
AcDbEntity
  8
0
  6
Continuous
 62
     7
370
    15
100
AcDbLine
 10
21.60000801086426
 20
0.0999927520751385
 30
0.0
 11
21.60000801086426
 21
0.0
 31
0.0
  0
LINE
  5
DA4
330
D6B
100
AcDbEntity
  8
0
  6
Continuous
 62
     7
370
    15
100
AcDbLine
 10
22.20000028610235
 20
0.0
 30
0.0
 11
22.20000028610235
 21
0.0999927520751385
 31
0.0
  0
LINE
  5
DA5
330
D6B
100
AcDbEntity
  8
0
  6
Continuous
 62
     7
370
    15
100
AcDbLine
 10
7.800006866455135
 20
0.0999927520751385
 30
0.0
 11
7.800006866455135
 21
0.0
 31
0.0
  0
LINE
  5
DA6
330
D6B
100
AcDbEntity
  8
0
  6
Continuous
 62
     7
370
    15
100
AcDbLine
 10
8.399999141693115
 20
0.0
 30
0.0
 11
8.399999141693115
 21
0.0999927520751385
 31
0.0
  0
LINE
  5
DA7
330
D6B
100
AcDbEntity
  8
0
  6
Continuous
 62
     7
370
    15
100
AcDbLine
 10
63.80001306533811
 20
0.0999927520751385
 30
0.0
 11
63.80001306533811
 21
0.0
 31
0.0
  0
LINE
  5
DA8
330
D6B
100
AcDbEntity
  8
0
  6
Continuous
 62
     7
370
    15
100
AcDbLine
 10
64.39999341964719
 20
0.0
 30
0.0
 11
64.39999341964719
 21
0.0999927520751385
 31
0.0
  0
LINE
  5
DA9
330
D6B
100
AcDbEntity
  8
0
  6
Continuous
 62
     7
370
    15
100
AcDbLine
 10
77.6000142097474
 20
0.0999927520751385
 30
0.0
 11
77.6000142097474
 21
0.0
 31
0.0
  0
LINE
  5
DAA
330
D6B
100
AcDbEntity
  8
0
  6
Continuous
 62
     7
370
    15
100
AcDbLine
 10
78.19999456405648
 20
0.0
 30
0.0
 11
78.19999456405648
 21
0.0999927520751385
 31
0.0
  0
LWPOLYLINE
  5
22E1
330
D6B
100
AcDbEntity
  8
0
  6
Continuous
 62
     7
370
    15
100
AcDbPolyline
 90
        4
 70
   129
 43
0.0
 10
6.063986625873639
 20
-209.9749361667622
 10
6.063986625873639
 20
-89.62792591327013
 10
8.103766460678543
 20
-89.62792591327013
 10
8.103766460678543
 20
-209.9749361667622
  0
ENDBLK
  5
DAB
330
D6B
100
AcDbEntity
  8
0
100
AcDbBlockEnd
  0
BLOCK
  5
DB3
330
DB2
100
AcDbEntity
  8
0
100
AcDbBlockBegin
  2
BF40-FRO
 70
     0
 10
0.0
 20
0.0
 30
0.0
  3
BF40-FRO
  1

  0
CIRCLE
  5
DB4
330
DB2
100
AcDbEntity
  8
0
 62
     1
100
AcDbCircle
 10
169.9999952316284
 20
2.499988555908203
 30
0.0
 40
0.7
  0
LINE
  5
DB5
330
DB2
100
AcDbEntity
  8
0
 62
     1
100
AcDbLine
 10
0.0
 20
4.999995231628418
 30
0.0
 11
0.0
 21
0.0
 31
0.0
  0
LINE
  5
DB6
330
DB2
100
AcDbEntity
  8
0
 62
     1
100
AcDbLine
 10
177.7499866485597
 20
4.999995231628418
 30
0.0
 11
177.7499866485597
 21
0.0
 31
0.0
  0
CIRCLE
  5
DB7
330
DB2
100
AcDbEntity
  8
0
 62
     1
100
AcDbCircle
 10
109.9999952316284
 20
2.499988555908203
 30
0.0
 40
0.7
  0
CIRCLE
  5
DB8
330
DB2
100
AcDbEntity
  8
0
 62
     1
100
AcDbCircle
 10
30.0
 20
2.499988555908203
 30
0.0
 40
0.7
  0
CIRCLE
  5
DB9
330
DB2
100
AcDbEntity
  8
0
 62
     1
100
AcDbCircle
 10
10.0
 20
2.499988555908203
 30
0.0
 40
0.7
  0
LINE
  5
DBA
330
DB2
100
AcDbEntity
  8
0
  6
HIDDEN
 62
     1
100
AcDbLine
 10
102.9999923706054
 20
0.8999824523925781
 30
0.0
 11
16.99999094009399
 21
0.8999824523925781
 31
0.0
  0
LINE
  5
DBB
330
DB2
100
AcDbEntity
  8
0
  6
HIDDEN
 62
     1
100
AcDbLine
 10
16.99999094009399
 20
0.0
 30
0.0
 11
102.9999923706054
 21
0.0
 31
0.0
  0
LINE
  5
DBC
330
DB2
100
AcDbEntity
  8
0
  6
Continuous
 62
     1
370
    15
100
AcDbLine
 10
16.99999094009399
 20
0.0
 30
0.0
 11
0.0
 21
0.0
 31
0.0
  0
LINE
  5
DBD
330
DB2
100
AcDbEntity
  8
0
  6
Continuous
 62
     1
370
    15
100
AcDbLine
 10
177.7499866485597
 20
0.0
 30
0.0
 11
102.9999923706054
 21
0.0
 31
0.0
  0
LINE
  5
DBE
330
DB2
100
AcDbEntity
  8
0
  6
Continuous
 62
     1
370
    15
100
AcDbLine
 10
0.0
 20
4.999995231628418
 30
0.0
 11
177.7499866485597
 21
4.999995231628418
 31
0.0
  0
LINE
  5
DBF
330
DB2
100
AcDbEntity
  8
0
  6
Continuous
 62
     1
370
    15
100
AcDbLine
 10
177.7499866485597
 20
4.099988937377873
 30
0.0
 11
0.0
 21
4.099988937377873
 31
0.0
  0
LINE
  5
DC0
330
DB2
100
AcDbEntity
  8
0
  6
Continuous
 62
     1
370
    15
100
AcDbLine
 10
16.99999094009399
 20
0.8999824523925781
 30
0.0
 11
0.0
 21
0.8999824523925781
 31
0.0
  0
LINE
  5
DC1
330
DB2
100
AcDbEntity
  8
0
  6
Continuous
 62
     1
370
    15
100
AcDbLine
 10
177.7499866485597
 20
0.8999824523925781
 30
0.0
 11
102.9999923706054
 21
0.8999824523925781
 31
0.0
  0
ENDBLK
  5
DC2
330
DB2
100
AcDbEntity
  8
0
100
AcDbBlockEnd
  0
ENDSEC
  0
SECTION
  2
ENTITIES
  0
LINE
  5
1896
102
{ACAD_REACTORS
330
229E
102
}
330
A
100
AcDbEntity
  8
0
  6
ByBlock
 62
     3
370
     0
100
AcDbLine
 10
0.0
 20
2479.662527579676
 30
0.0
 11
2459.999918937683
 21
2479.662527579676
 31
0.0
  0
LINE
  5
1897
102
{ACAD_REACTORS
330
229E
102
}
330
A
100
AcDbEntity
  8
0
  6
ByBlock
 62
     3
370
     0
100
AcDbLine
 10
0.0
 20
0.0
 30
0.0
 11
0.0
 21
2479.662527579676
 31
0.0
  0
LINE
  5
1899
102
{ACAD_REACTORS
330
229E
102
}
330
A
100
AcDbEntity
  8
0
  6
ByBlock
 62
     3
370
     0
100
AcDbLine
 10
799.9999523162837
 20
0.0
 30
0.0
 11
0.0
 21
0.0
 31
0.0
  0
LINE
  5
189C
102
{ACAD_REACTORS
330
229E
102
}
330
A
100
AcDbEntity
  8
0
  6
ByBlock
 62
     3
370
     0
100
AcDbLine
 10
2459.999918937683
 20
2479.662527579676
 30
0.0
 11
2459.999918937683
 21
0.0
 31
0.0
  0
INSERT
  5
189D
102
{ACAD_REACTORS
330
229E
102
}
330
A
100
AcDbEntity
  8
0
  6
ByBlock
 62
     4
100
AcDbBlockReference
  2
PORTA-FRO
 10
1659.999966621399
 20
2170.000076517462
 30
0.0
 41
-10.0
 42
10.0
 43
10.0
  0
LINE
  5
189E
102
{ACAD_REACTORS
330
229E
102
}
330
A
100
AcDbEntity
  8
0
  6
HIDDEN
 62
     3
370
     0
100
AcDbLine
 10
1629.999876022339
 20
2100.14281273276
 30
0.0
 11
1629.999876022339
 21
0.0
 31
0.0
  0
LINE
  5
189F
330
A
100
AcDbEntity
  8
0
  6
HIDDEN
 62
     3
370
     0
100
AcDbLine
 10
829.9999237060547
 20
2100.14281273276
 30
0.0
 11
829.9999237060547
 21
19.66252757967641
 31
0.0
  0
LINE
  5
18A0
330
A
100
AcDbEntity
  8
0
  6
ByBlock
 62
     4
100
AcDbLine
 10
799.9999523162837
 20
19.99999999999955
 30
0.0
 11
829.9999237060547
 21
19.99999999999955
 31
0.0
  0
LINE
  5
18A1
330
A
100
AcDbEntity
  8
0
  6
HIDDEN
 62
     3
370
     0
100
AcDbLine
 10
1629.999876022339
 20
2100.14281273276
 30
0.0
 11
829.9999237060547
 21
2100.14281273276
 31
0.0
  0
MTEXT
  5
18A4
330
A
100
AcDbEntity
  8
0
 62
     7
100
AcDbMText
 10
995.3790633564277
 20
2616.26894235131
 30
0.0
 40
157.5
 41
2449.61538675
 71
     7
 72
     1
  1
{BF05}
 73
     1
 44
1.0
  0
LINE
  5
18A5
330
A
100
AcDbEntity
  8
0
  6
Continuous
 62
     7
370
    15
100
AcDbLine
 10
789.9999237060547
 20
0.0
 30
0.0
 11
829.9999237060547
 21
0.0
 31
0.0
  0
LINE
  5
18A6
102
{ACAD_REACTORS
330
229E
102
}
330
A
100
AcDbEntity
  8
0
  6
Continuous
 62
     7
370
    15
100
AcDbLine
 10
789.9999237060547
 20
20.0
 30
0.0
 11
829.9999237060547
 21
20.0
 31
0.0
  0
LINE
  5
18A7
330
A
100
AcDbEntity
  8
0
  6
Continuous
 62
     7
370
    15
100
AcDbLine
 10
829.9999237060547
 20
0.0
 30
0.0
 11
829.9999237060547
 21
20.0
 31
0.0
  0
LINE
  5
18A8
102
{ACAD_REACTORS
330
229E
102
}
330
A
100
AcDbEntity
  8
0
  6
Continuous
 62
     7
370
    15
100
AcDbLine
 10
789.9999237060547
 20
0.0
 30
0.0
 11
789.9999237060547
 21
20.0
 31
0.0
  0
LINE
  5
18A9
330
A
100
AcDbEntity
  8
0
  6
HIDDEN
 62
     4
100
AcDbLine
 10
789.9999237060547
 20
4.0
 30
0.0
 11
829.9999237060547
 21
4.0
 31
0.0
  0
LINE
  5
18AA
102
{ACAD_REACTORS
330
229E
102
}
330
A
100
AcDbEntity
  8
0
  6
ByBlock
 62
     3
370
     0
100
AcDbLine
 10
1629.999876022339
 20
0.0
 30
0.0
 11
2459.999918937683
 21
0.0
 31
0.0
  0
LWPOLYLINE
  5
18AB
330
A
100
AcDbEntity
  8
0
100
AcDbPolyline
 90
        2
 70
     1
 43
13.59253620472736
 10
111.6442691039697
 20
2155.142745975558
 42
-1.0
 10
90.85561645511143
 20
2155.142745975558
 42
-1.0
  0
LINE
  5
18AE
102
{ACAD_REACTORS
330
229E
102
}
330
A
100
AcDbEntity
  8
0
 62
     1
100
AcDbLine
 10
1829.999876022339
 20
2180.14281273276
 30
0.0
 11
1829.999876022339
 21
2130.142860416476
 31
0.0
  0
LINE
  5
18AF
102
{ACAD_REACTORS
330
229E
102
}
330
A
100
AcDbEntity
  8
0
 62
     1
100
AcDbLine
 10
52.50000953674225
 20
2180.14281273276
 30
0.0
 11
52.50000953674225
 21
2130.142860416476
 31
0.0
  0
LINE
  5
18B0
330
A
100
AcDbEntity
  8
0
  6
HIDDEN
 62
     1
100
AcDbLine
 10
799.9999523162846
 20
2139.142684940402
 30
0.0
 11
1659.999966621399
 21
2139.142684940402
 31
0.0
  0
LINE
  5
18B1
330
A
100
AcDbEntity
  8
0
  6
HIDDEN
 62
     1
100
AcDbLine
 10
1659.999966621399
 20
2130.142860416476
 30
0.0
 11
799.9999523162846
 21
2130.142860416476
 31
0.0
  0
LINE
  5
18B2
102
{ACAD_REACTORS
330
229E
102
}
330
A
100
AcDbEntity
  8
0
  6
Continuous
 62
     1
370
    15
100
AcDbLine
 10
1659.999966621399
 20
2130.142860416476
 30
0.0
 11
1829.999876022339
 21
2130.142860416476
 31
0.0
  0
LINE
  5
18B3
102
{ACAD_REACTORS
330
229E
102
}
330
A
100
AcDbEntity
  8
0
  6
Continuous
 62
     1
370
    15
100
AcDbLine
 10
52.50000953674225
 20
2130.142860416476
 30
0.0
 11
799.9999523162846
 21
2130.142860416476
 31
0.0
  0
LINE
  5
18B4
102
{ACAD_REACTORS
330
229E
102
}
330
A
100
AcDbEntity
  8
0
  6
Continuous
 62
     1
370
    15
100
AcDbLine
 10
1829.999876022339
 20
2180.14281273276
 30
0.0
 11
52.50000953674225
 21
2180.14281273276
 31
0.0
  0
LINE
  5
18B5
330
A
100
AcDbEntity
  8
0
  6
Continuous
 62
     1
370
    15
100
AcDbLine
 10
52.50000953674225
 20
2171.142749790255
 30
0.0
 11
1829.999876022339
 21
2171.142749790255
 31
0.0
  0
LINE
  5
18B6
330
A
100
AcDbEntity
  8
0
  6
Continuous
 62
     1
370
    15
100
AcDbLine
 10
1659.999966621399
 20
2139.142684940402
 30
0.0
 11
1829.999876022339
 21
2139.142684940402
 31
0.0
  0
LINE
  5
18B7
330
A
100
AcDbEntity
  8
0
  6
Continuous
 62
     1
370
    15
100
AcDbLine
 10
52.50000953674225
 20
2139.142684940402
 30
0.0
 11
799.9999523162846
 21
2139.142684940402
 31
0.0
  0
LWPOLYLINE
  5
1B36
330
A
100
AcDbEntity
  8
0
100
AcDbPolyline
 90
        2
 70
     1
 43
13.59253620472736
 10
531.6442691039697
 20
2155.142745975558
 42
-1.0
 10
510.8556164551117
 20
2155.142745975558
 42
-1.0
  0
LWPOLYLINE
  5
1B37
330
A
100
AcDbEntity
  8
0
100
AcDbPolyline
 90
        2
 70
     1
 43
13.59253620472736
 10
951.6442691039697
 20
2155.142745975558
 42
-1.0
 10
930.8556164551117
 20
2155.142745975558
 42
-1.0
  0
LWPOLYLINE
  5
1B38
330
A
100
AcDbEntity
  8
0
100
AcDbPolyline
 90
        2
 70
     1
 43
13.59253620472736
 10
1371.64426910397
 20
2155.142745975558
 42
-1.0
 10
1350.855616455112
 20
2155.142745975558
 42
-1.0
  0
LWPOLYLINE
  5
1B39
330
A
100
AcDbEntity
  8
0
100
AcDbPolyline
 90
        2
 70
     1
 43
13.59253620472736
 10
1791.644269103969
 20
2155.142745975558
 42
-1.0
 10
1770.855616455111
 20
2155.142745975558
 42
-1.0
  0
LINE
  5
203F
330
A
100
AcDbEntity
  8
0
  6
Continuous
 62
     7
370
    15
100
AcDbLine
 10
-482.5212560560948
 20
20.0
 30
0.0
 11
-482.5212560560948
 21
2.0
 31
0.0
  0
LINE
  5
2040
330
A
100
AcDbEntity
  8
0
  6
Continuous
 62
     7
370
    15
100
AcDbLine
 10
-482.5212560560948
 20
2.0
 30
0.0
 11
-498.2212560560957
 21
2.0
 31
0.0
  0
LINE
  5
2041
330
A
100
AcDbEntity
  8
0
  6
Continuous
 62
     7
370
    15
100
AcDbLine
 10
-495.8712560560953
 20
20.0
 30
0.0
 11
-495.8712560560953
 21
4.0
 31
0.0
  0
LINE
  5
2042
330
A
100
AcDbEntity
  8
0
  6
Continuous
 62
     7
370
    15
100
AcDbLine
 10
-495.8712560560953
 20
4.0
 30
0.0
 11
-484.8712560560953
 21
4.0
 31
0.0
  0
LINE
  5
2043
330
A
100
AcDbEntity
  8
0
  6
Continuous
 62
     7
370
    15
100
AcDbLine
 10
-484.8712560560953
 20
4.0
 30
0.0
 11
-484.8712560560953
 21
20.0
 31
0.0
  0
LINE
  5
2044
330
A
100
AcDbEntity
  8
0
  6
Continuous
 62
     7
370
    15
100
AcDbLine
 10
-484.8712560560953
 20
20.0
 30
0.0
 11
-482.5212560560948
 21
20.0
 31
0.0
  0
LINE
  5
2045
330
A
100
AcDbEntity
  8
0
  6
Continuous
 62
     7
370
    15
100
AcDbLine
 10
-498.2212560560948
 20
20.0
 30
0.0
 11
-495.8712560560953
 21
20.0
 31
0.0
  0
LINE
  5
2046
330
A
100
AcDbEntity
  8
0
  6
Continuous
 62
     7
370
    15
100
AcDbLine
 10
-498.2212560560957
 20
2.0
 30
0.0
 11
-498.2212560560948
 21
20.0
 31
0.0
  0
LINE
  5
2047
330
A
100
AcDbEntity
  8
0
  6
Continuous
 62
     7
370
    15
100
AcDbLine
 10
-480.3712560560953
 20
20.0
 30
0.0
 11
-480.3712560560953
 21
0.0
 31
0.0
  0
LINE
  5
2048
330
A
100
AcDbEntity
  8
0
  6
Continuous
 62
     7
370
    15
100
AcDbLine
 10
-500.3712560560953
 20
0.0
 30
0.0
 11
-500.3712560560953
 21
20.0
 31
0.0
  0
LINE
  5
2049
330
A
100
AcDbEntity
  8
0
  6
Continuous
 62
     7
370
    15
100
AcDbLine
 10
-498.3712560560953
 20
20.0
 30
0.0
 11
-498.3712560560953
 21
2.0
 31
0.0
  0
LINE
  5
204A
330
A
100
AcDbEntity
  8
0
  6
Continuous
 62
     7
370
    15
100
AcDbLine
 10
-498.3712560560953
 20
2.0
 30
0.0
 11
-498.2212560560957
 21
2.0
 31
0.0
  0
LINE
  5
204B
330
A
100
AcDbEntity
  8
0
  6
Continuous
 62
     7
370
    15
100
AcDbLine
 10
-498.2212560560957
 20
2.0
 30
0.0
 11
-482.5212560560948
 21
2.0
 31
0.0
  0
LINE
  5
204C
330
A
100
AcDbEntity
  8
0
  6
Continuous
 62
     7
370
    15
100
AcDbLine
 10
-482.5212560560948
 20
2.0
 30
0.0
 11
-482.3712560560953
 21
2.0
 31
0.0
  0
LINE
  5
204D
330
A
100
AcDbEntity
  8
0
  6
Continuous
 62
     7
370
    15
100
AcDbLine
 10
-482.3712560560953
 20
2.0
 30
0.0
 11
-482.3712560560953
 21
20.0
 31
0.0
  0
LINE
  5
204E
330
A
100
AcDbEntity
  8
0
  6
Continuous
 62
     7
370
    15
100
AcDbLine
 10
-482.3712560560953
 20
20.0
 30
0.0
 11
-480.3712560560953
 21
20.0
 31
0.0
  0
LINE
  5
204F
330
A
100
AcDbEntity
  8
0
  6
Continuous
 62
     7
370
    15
100
AcDbLine
 10
-500.3712560560953
 20
20.0
 30
0.0
 11
-498.3712560560953
 21
20.0
 31
0.0
  0
LINE
  5
2050
330
A
100
AcDbEntity
  8
0
  6
ByBlock
 62
     3
370
     0
100
AcDbLine
 10
-600.3712560560953
 20
0.0
 30
0.0
 11
-380.3712560560953
 21
0.0
 31
0.0
  0
LINE
  5
2051
330
A
100
AcDbEntity
  8
0
  6
CENTER
 62
     1
370
     0
100
AcDbLine
 10
-448.7641458369735
 20
2154.662527579676
 30
0.0
 11
-510.588250677838
 21
2154.662527579676
 31
0.0
  0
HATCH
  5
2053
330
A
100
AcDbEntity
  8
0
 62
     1
100
AcDbHatch
 10
0.0
 20
0.0
 30
0.0
210
0.0
220
0.0
230
1.0
  2
LINE
 70
     0
 71
     0
 91
        2
 92
        7
 72
     1
 73
     1
 93
       35
 10
-466.8212558477344
 20
2158.39281273276
 42
0.0
 10
-466.8212558477344
 20
2180.14281273276
 42
0.0
 10
-508.1212558477346
 20
2180.14281273276
 42
0.0
 10
-508.1212558477346
 20
2180.006782967026
 42
0.4142135623728246
 10
-506.6212558477346
 20
2178.506782967026
 42
0.0
 10
-506.1212558477346
 20
2178.506782967026
 42
0.0
 10
-505.1212558477346
 20
2178.14281273276
 42
0.0
 10
-504.6312558477339
 20
2178.14281273276
 42
-1.00000000000002
 10
-504.6312558477339
 20
2174.442812732761
 42
0.0
 10
-509.3212558477344
 20
2174.442812732761
 42
0.0
 10
-509.3212558477344
 20
2175.64281273276
 42
0.0
 10
-509.8212558477344
 20
2175.64281273276
 42
0.0
 10
-511.0283626289211
 20
2174.435705951573
 42
0.1989123673801932
 10
-511.3212558477344
 20
2173.728599170387
 42
0.0
 10
-511.3212558477344
 20
2171.14281273276
 42
0.0
 10
-508.3212558477344
 20
2171.14281273276
 42
0.0
 10
-508.3212558477344
 20
2172.64281273276
 42
0.0
 10
-504.5454694101072
 20
2172.64281273276
 42
0.1989123673797978
 10
-503.8383626289205
 20
2172.935705951573
 42
0.0
 10
-502.9241490665481
 20
2173.849919513947
 42
-0.1989123673801301
 10
-502.2170422853615
 20
2174.14281273276
 42
0.0
 10
-488.3212558477344
 20
2174.14281273276
 42
0.0
 10
-487.8212558477344
 20
2174.64281273276
 42
0.0
 10
-487.3212558477344
 20
2174.14281273276
 42
0.0
 10
-479.2354694101078
 20
2174.14281273276
 42
-0.1989123673796915
 10
-478.5283626289211
 20
2173.849919513947
 42
0.0
 10
-475.8212558477344
 20
2171.14281273276
 42
0.0
 10
-475.5212558477342
 20
2171.14281273276
 42
0.4142135623773189
 10
-475.3212558477344
 20
2171.342812732761
 42
0.0
 10
-475.3212558477344
 20
2173.64281273276
 42
-0.4142135623744146
 10
-474.8212558477344
 20
2174.14281273276
 42
0.0
 10
-472.8212558477344
 20
2174.14281273276
 42
-0.4142135623733628
 10
-471.8212558477344
 20
2173.14281273276
 42
0.0
 10
-471.8212558477344
 20
2162.14281273276
 42
0.0
 10
-468.0712558477344
 20
2158.39281273276
 42
0.0
 97
        0
 92
        7
 72
     1
 73
     1
 93
       11
 10
-466.8212558477344
 20
2130.14281273276
 42
0.0
 10
-466.8212558477344
 20
2151.89281273276
 42
0.0
 10
-468.0712558477344
 20
2151.89281273276
 42
0.0
 10
-471.8212558477344
 20
2148.14281273276
 42
0.0
 10
-471.8212558477344
 20
2136.64281273276
 42
-0.4142135623732787
 10
-472.8212558477344
 20
2135.64281273276
 42
0.0
 10
-474.8212558477344
 20
2135.64281273276
 42
-0.4142135623741599
 10
-475.3212558477344
 20
2136.14281273276
 42
0.0
 10
-475.3212558477344
 20
2136.64281273276
 42
1.000000000000091
 10
-480.3212558477344
 20
2136.642812732762
 42
0.0
 10
-480.3212558477344
 20
2130.14281273276
 42
0.0
 97
        0
 75
     0
 76
     1
 52
45.0
 41
0.2
 77
     0
 78
     1
 53
45.0
 43
-1389.49314109846
 44
-1194.376057260018
 45
-0.4490128060534576
 46
0.4490128060534577
 79
     0
 47
0.0
 98
        2
 10
-488.9220158765066
 20
2178.141576893446
 10
-470.1010025083915
 20
2144.263752830837
1001
ACAD
1010
0.0
1020
0.0
1030
0.0
  0
LINE
  5
2054
330
A
100
AcDbEntity
  8
0
  6
Continuous
 62
     7
370
    15
100
AcDbLine
 10
-466.8212558477344
 20
2158.39281273276
 30
0.0
 11
-466.8212558477344
 21
2151.89281273276
 31
0.0
  0
LINE
  5
2055
330
A
100
AcDbEntity
  8
0
  6
Continuous
 62
     7
370
    15
100
AcDbLine
 10
-471.8212558477344
 20
2154.64281273276
 30
0.0
 11
-471.8212558477344
 21
2148.14281273276
 31
0.0
  0
LINE
  5
2056
330
A
100
AcDbEntity
  8
0
  6
Continuous
 62
     7
370
    15
100
AcDbLine
 10
-471.8212558477344
 20
2162.14281273276
 30
0.0
 11
-471.8212558477344
 21
2155.64281273276
 31
0.0
  0
LINE
  5
2057
330
A
100
AcDbEntity
  8
0
  6
Continuous
 62
     7
370
    15
100
AcDbLine
 10
-471.8212558477344
 20
2155.64281273276
 30
0.0
 11
-471.3212558477335
 21
2155.142812732762
 31
0.0
  0
LINE
  5
2058
330
A
100
AcDbEntity
  8
0
  6
Continuous
 62
     7
370
    15
100
AcDbLine
 10
-471.3212558477335
 20
2155.142812732762
 30
0.0
 11
-471.8212558477344
 21
2154.64281273276
 31
0.0
  0
LINE
  5
2059
330
A
100
AcDbEntity
  8
0
  6
Continuous
 62
     7
370
    15
100
AcDbLine
 10
-468.0712558477344
 20
2158.39281273276
 30
0.0
 11
-468.0712558477344
 21
2151.89281273276
 31
0.0
  0
LINE
  5
205A
330
A
100
AcDbEntity
  8
0
  6
Continuous
 62
     7
370
    15
100
AcDbLine
 10
-471.8212558477344
 20
2136.642812732762
 30
0.0
 11
-471.8212558477344
 21
2148.14281273276
 31
0.0
  0
ARC
  5
205B
330
A
100
AcDbEntity
  8
0
  6
Continuous
 62
     7
370
    15
100
AcDbCircle
 10
-474.8212558477344
 20
2136.14281273276
 30
0.0
 40
0.5000000000006821
100
AcDbArc
 50
180.0
 51
270.0
  0
LINE
  5
205C
330
A
100
AcDbEntity
  8
0
  6
Continuous
 62
     7
370
    15
100
AcDbLine
 10
-475.3212558477344
 20
2136.642812732762
 30
0.0
 11
-475.3212558477344
 21
2136.14281273276
 31
0.0
  0
LINE
  5
205D
330
A
100
AcDbEntity
  8
0
  6
Continuous
 62
     7
370
    15
100
AcDbLine
 10
-474.8212558477344
 20
2135.64281273276
 30
0.0
 11
-472.8212558477344
 21
2135.64281273276
 31
0.0
  0
ARC
  5
205E
330
A
100
AcDbEntity
  8
0
  6
Continuous
 62
     7
370
    15
100
AcDbCircle
 10
-477.8212558477344
 20
2136.642812732762
 30
0.0
 40
2.5
100
AcDbArc
 50
0.0
 51
180.0
  0
LINE
  5
205F
330
A
100
AcDbEntity
  8
0
  6
Continuous
 62
     7
370
    15
100
AcDbLine
 10
-480.3212558477344
 20
2130.14281273276
 30
0.0
 11
-480.3212558477344
 21
2136.642812732762
 31
0.0
  0
LINE
  5
2060
330
A
100
AcDbEntity
  8
0
  6
Continuous
 62
     7
370
    15
100
AcDbLine
 10
-466.8212558477344
 20
2130.14281273276
 30
0.0
 11
-480.3212558477344
 21
2130.14281273276
 31
0.0
  0
LINE
  5
2061
330
A
100
AcDbEntity
  8
0
  6
Continuous
 62
     7
370
    15
100
AcDbLine
 10
-466.8212558477344
 20
2151.89281273276
 30
0.0
 11
-466.8212558477344
 21
2130.14281273276
 31
0.0
  0
LINE
  5
2062
330
A
100
AcDbEntity
  8
0
  6
Continuous
 62
     7
370
    15
100
AcDbLine
 10
-466.8212558477344
 20
2151.89281273276
 30
0.0
 11
-468.0712558477344
 21
2151.89281273276
 31
0.0
  0
LINE
  5
2063
330
A
100
AcDbEntity
  8
0
  6
Continuous
 62
     7
370
    15
100
AcDbLine
 10
-468.0712558477344
 20
2151.89281273276
 30
0.0
 11
-471.8212558477344
 21
2148.14281273276
 31
0.0
  0
ARC
  5
2064
330
A
100
AcDbEntity
  8
0
  6
Continuous
 62
     7
370
    15
100
AcDbCircle
 10
-472.8212558477344
 20
2136.642812732762
 30
0.0
 40
1.000000000000796
100
AcDbArc
 50
270.0
 51
0.0
  0
LINE
  5
2065
330
A
100
AcDbEntity
  8
0
  6
Continuous
 62
     7
370
    15
100
AcDbLine
 10
-508.3212558477344
 20
2171.14281273276
 30
0.0
 11
-511.3212558477344
 21
2171.14281273276
 31
0.0
  0
LINE
  5
2066
330
A
100
AcDbEntity
  8
0
  6
Continuous
 62
     7
370
    15
100
AcDbLine
 10
-508.3212558477344
 20
2172.64281273276
 30
0.0
 11
-508.3212558477344
 21
2171.14281273276
 31
0.0
  0
LINE
  5
2067
330
A
100
AcDbEntity
  8
0
  6
Continuous
 62
     7
370
    15
100
AcDbLine
 10
-504.5454694101072
 20
2172.64281273276
 30
0.0
 11
-508.3212558477344
 21
2172.64281273276
 31
0.0
  0
ARC
  5
2068
330
A
100
AcDbEntity
  8
0
  6
Continuous
 62
     7
370
    15
100
AcDbCircle
 10
-504.5454694101072
 20
2173.64281273276
 30
0.0
 40
0.9999999999999477
100
AcDbArc
 50
270.0
 51
314.9999999999862
  0
LINE
  5
2069
330
A
100
AcDbEntity
  8
0
  6
Continuous
 62
     7
370
    15
100
AcDbLine
 10
-503.8383626289205
 20
2172.935705951573
 30
0.0
 11
-502.9241490665481
 21
2173.849919513947
 31
0.0
  0
ARC
  5
206A
330
A
100
AcDbEntity
  8
0
  6
Continuous
 62
     7
370
    15
100
AcDbCircle
 10
-502.2170422853615
 20
2173.14281273276
 30
0.0
 40
1.000000000000227
100
AcDbArc
 50
90.0
 51
135.0000000000046
  0
LINE
  5
206B
330
A
100
AcDbEntity
  8
0
  6
Continuous
 62
     7
370
    15
100
AcDbLine
 10
-488.3212558477344
 20
2174.14281273276
 30
0.0
 11
-502.2170422853615
 21
2174.142812732762
 31
0.0
  0
LINE
  5
206C
330
A
100
AcDbEntity
  8
0
  6
Continuous
 62
     7
370
    15
100
AcDbLine
 10
-487.8212558477344
 20
2174.64281273276
 30
0.0
 11
-488.3212558477344
 21
2174.14281273276
 31
0.0
  0
LINE
  5
206D
330
A
100
AcDbEntity
  8
0
  6
Continuous
 62
     7
370
    15
100
AcDbLine
 10
-487.3212558477344
 20
2174.14281273276
 30
0.0
 11
-487.8212558477344
 21
2174.64281273276
 31
0.0
  0
LINE
  5
206E
330
A
100
AcDbEntity
  8
0
  6
Continuous
 62
     7
370
    15
100
AcDbLine
 10
-479.2354694101078
 20
2174.14281273276
 30
0.0
 11
-487.3212558477344
 21
2174.14281273276
 31
0.0
  0
ARC
  5
206F
330
A
100
AcDbEntity
  8
0
  6
Continuous
 62
     7
370
    15
100
AcDbCircle
 10
-479.2354694101078
 20
2173.14281273276
 30
0.0
 40
0.9999999999999477
100
AcDbArc
 50
45.00000000001151
 51
90.0
  0
LINE
  5
2070
330
A
100
AcDbEntity
  8
0
  6
Continuous
 62
     7
370
    15
100
AcDbLine
 10
-478.5283626289211
 20
2173.849919513947
 30
0.0
 11
-475.8212558477344
 21
2171.14281273276
 31
0.0
  0
LINE
  5
2071
330
A
100
AcDbEntity
  8
0
  6
Continuous
 62
     7
370
    15
100
AcDbLine
 10
-475.5212558477342
 20
2171.14281273276
 30
0.0
 11
-475.8212558477344
 21
2171.14281273276
 31
0.0
  0
ARC
  5
2072
330
A
100
AcDbEntity
  8
0
  6
Continuous
 62
     7
370
    15
100
AcDbCircle
 10
-475.5212558477342
 20
2171.342812732761
 30
0.0
 40
0.2000000000001023
100
AcDbArc
 50
270.0
 51
0.0
  0
LINE
  5
2073
330
A
100
AcDbEntity
  8
0
  6
Continuous
 62
     7
370
    15
100
AcDbLine
 10
-475.3212558477344
 20
2173.64281273276
 30
0.0
 11
-475.3212558477344
 21
2171.342812732761
 31
0.0
  0
ARC
  5
2074
330
A
100
AcDbEntity
  8
0
  6
Continuous
 62
     7
370
    15
100
AcDbCircle
 10
-474.8212558477344
 20
2173.64281273276
 30
0.0
 40
0.5000000000006821
100
AcDbArc
 50
90.0
 51
180.0
  0
LINE
  5
2075
330
A
100
AcDbEntity
  8
0
  6
Continuous
 62
     7
370
    15
100
AcDbLine
 10
-472.8212558477344
 20
2174.142812732762
 30
0.0
 11
-474.8212558477344
 21
2174.142812732762
 31
0.0
  0
ARC
  5
2076
330
A
100
AcDbEntity
  8
0
  6
Continuous
 62
     7
370
    15
100
AcDbCircle
 10
-472.8212558477344
 20
2173.14281273276
 30
0.0
 40
1.000000000000227
100
AcDbArc
 50
0.0
 51
90.0
  0
LINE
  5
2077
330
A
100
AcDbEntity
  8
0
  6
Continuous
 62
     7
370
    15
100
AcDbLine
 10
-471.8212558477344
 20
2162.14281273276
 30
0.0
 11
-471.8212558477344
 21
2173.14281273276
 31
0.0
  0
LINE
  5
2078
330
A
100
AcDbEntity
  8
0
  6
Continuous
 62
     7
370
    15
100
AcDbLine
 10
-471.8212558477344
 20
2162.14281273276
 30
0.0
 11
-468.0712558477344
 21
2158.39281273276
 31
0.0
  0
LINE
  5
2079
330
A
100
AcDbEntity
  8
0
  6
Continuous
 62
     7
370
    15
100
AcDbLine
 10
-468.0712558477344
 20
2158.39281273276
 30
0.0
 11
-466.8212558477344
 21
2158.39281273276
 31
0.0
  0
LINE
  5
207A
330
A
100
AcDbEntity
  8
0
  6
Continuous
 62
     7
370
    15
100
AcDbLine
 10
-466.8212558477344
 20
2180.14281273276
 30
0.0
 11
-466.8212558477344
 21
2158.39281273276
 31
0.0
  0
LINE
  5
207B
330
A
100
AcDbEntity
  8
0
  6
Continuous
 62
     7
370
    15
100
AcDbLine
 10
-508.1212558477346
 20
2180.14281273276
 30
0.0
 11
-466.8212558477344
 21
2180.14281273276
 31
0.0
  0
LINE
  5
207C
330
A
100
AcDbEntity
  8
0
  6
Continuous
 62
     7
370
    15
100
AcDbLine
 10
-508.1212558477346
 20
2180.14281273276
 30
0.0
 11
-508.1212558477346
 21
2180.006782967026
 31
0.0
  0
ARC
  5
207D
330
A
100
AcDbEntity
  8
0
  6
Continuous
 62
     7
370
    15
100
AcDbCircle
 10
-506.6212558477346
 20
2180.006782967026
 30
0.0
 40
1.499999999999915
100
AcDbArc
 50
180.0
 51
270.0
  0
LINE
  5
207E
330
A
100
AcDbEntity
  8
0
  6
Continuous
 62
     7
370
    15
100
AcDbLine
 10
-506.6212558477346
 20
2178.506782967026
 30
0.0
 11
-506.1212558477346
 21
2178.506782967026
 31
0.0
  0
LINE
  5
207F
330
A
100
AcDbEntity
  8
0
  6
Continuous
 62
     7
370
    15
100
AcDbLine
 10
-506.1212558477346
 20
2178.506782967026
 30
0.0
 11
-505.1212558477346
 21
2178.14281273276
 31
0.0
  0
LINE
  5
2080
330
A
100
AcDbEntity
  8
0
  6
Continuous
 62
     7
370
    15
100
AcDbLine
 10
-504.6312558477339
 20
2178.14281273276
 30
0.0
 11
-505.1212558477346
 21
2178.14281273276
 31
0.0
  0
ARC
  5
2081
330
A
100
AcDbEntity
  8
0
  6
Continuous
 62
     7
370
    15
100
AcDbCircle
 10
-504.6312558477339
 20
2176.292812732761
 30
0.0
 40
1.850000000000023
100
AcDbArc
 50
270.0
 51
90.0
  0
LINE
  5
2082
330
A
100
AcDbEntity
  8
0
  6
Continuous
 62
     7
370
    15
100
AcDbLine
 10
-509.3212558477344
 20
2174.442812732761
 30
0.0
 11
-504.6312558477339
 21
2174.442812732761
 31
0.0
  0
LINE
  5
2083
330
A
100
AcDbEntity
  8
0
  6
Continuous
 62
     7
370
    15
100
AcDbLine
 10
-509.3212558477344
 20
2175.64281273276
 30
0.0
 11
-509.3212558477344
 21
2174.442812732761
 31
0.0
  0
LINE
  5
2084
330
A
100
AcDbEntity
  8
0
  6
Continuous
 62
     7
370
    15
100
AcDbLine
 10
-509.8212558477344
 20
2175.64281273276
 30
0.0
 11
-509.3212558477344
 21
2175.64281273276
 31
0.0
  0
LINE
  5
2085
330
A
100
AcDbEntity
  8
0
  6
Continuous
 62
     7
370
    15
100
AcDbLine
 10
-509.8212558477344
 20
2175.64281273276
 30
0.0
 11
-511.0283626289211
 21
2174.435705951573
 31
0.0
  0
ARC
  5
2086
330
A
100
AcDbEntity
  8
0
  6
Continuous
 62
     7
370
    15
100
AcDbCircle
 10
-510.3212558477344
 20
2173.728599170387
 30
0.0
 40
1.00000000000035
100
AcDbArc
 50
135.0000000000092
 51
180.0
  0
LINE
  5
2087
330
A
100
AcDbEntity
  8
0
  6
Continuous
 62
     7
370
    15
100
AcDbLine
 10
-511.3212558477344
 20
2171.14281273276
 30
0.0
 11
-511.3212558477344
 21
2173.728599170387
 31
0.0
  0
HATCH
  5
2088
330
A
100
AcDbEntity
  8
0
100
AcDbHatch
 10
0.0
 20
0.0
 30
0.0
210
0.0
220
0.0
230
1.0
  2
SOLID
 70
     1
 71
     0
 91
        1
 92
        7
 72
     1
 73
     1
 93
       17
 10
-506.2604299619188
 20
2175.653835655181
 42
3.846939472614007
 10
-506.0312558477344
 20
2177.342812732759
 42
0.0
 10
-512.9312558477341
 20
2177.342812732759
 42
0.0
 10
-512.9312558477341
 20
2129.64281273276
 42
0.0
 10
-497.4312558477341
 20
2129.64281273276
 42
0.0
 10
-497.4312558477341
 20
2129.75351391382
 42
0.3443276132893184
 10
-497.8102948999349
 20
2130.238661776959
 42
0.0
 10
-499.4312558477341
 20
2130.64281273276
 42
0.0
 10
-503.1618978167635
 20
2130.64281273276
 42
0.0
 10
-505.7599740281166
 20
2132.14281273276
 42
0.0
 10
-511.4312558477341
 20
2131.14281273276
 42
0.0
 10
-511.4312558477341
 20
2174.542812732761
 42
-0.4142135623735312
 10
-510.4312558477341
 20
2175.54281273276
 42
0.0
 10
-508.9312558477341
 20
2175.54281273276
 42
0.0
 10
-508.9312558477341
 20
2174.54281273276
 42
0.0
 10
-508.7374554220842
 20
2174.54281273276
 42
0.1900083030333328
 10
-508.600969728067
 20
2174.596622256569
 42
-0.1648781946422868
 97
        0
 75
     0
 76
     1
 47
0.0
 98
        1
 10
-511.7831867696632
 20
2176.302767499943
1001
ACAD
1010
0.0
1020
0.0
1030
0.0
  0
LINE
  5
2089
330
A
100
AcDbEntity
  8
0
  6
Continuous
 62
     7
370
    15
100
AcDbLine
 10
-503.1618978167635
 20
2130.64281273276
 30
0.0
 11
-505.7599740281166
 21
2132.14281273276
 31
0.0
  0
LINE
  5
208A
330
A
100
AcDbEntity
  8
0
  6
Continuous
 62
     7
370
    15
100
AcDbLine
 10
-505.7599740281166
 20
2132.14281273276
 30
0.0
 11
-511.4312558477341
 21
2131.14281273276
 31
0.0
  0
ARC
  5
208B
330
A
100
AcDbEntity
  8
0
  6
Continuous
 62
     7
370
    15
100
AcDbCircle
 10
-510.4312558477341
 20
2174.542812732761
 30
0.0
 40
1.000000000000085
100
AcDbArc
 50
90.0
 51
180.0
  0
LINE
  5
208C
330
A
100
AcDbEntity
  8
0
  6
Continuous
 62
     7
370
    15
100
AcDbLine
 10
-510.4312558477341
 20
2175.54281273276
 30
0.0
 11
-508.9312558477341
 21
2175.54281273276
 31
0.0
  0
LINE
  5
208D
330
A
100
AcDbEntity
  8
0
  6
Continuous
 62
     7
370
    15
100
AcDbLine
 10
-508.9312558477341
 20
2175.54281273276
 30
0.0
 11
-508.9312558477341
 21
2174.542812732761
 31
0.0
  0
LINE
  5
208E
330
A
100
AcDbEntity
  8
0
  6
Continuous
 62
     7
370
    15
100
AcDbLine
 10
-508.9312558477341
 20
2174.542812732761
 30
0.0
 11
-508.7374554220833
 21
2174.542812732761
 31
0.0
  0
ARC
  5
208F
330
A
100
AcDbEntity
  8
0
  6
Continuous
 62
     7
370
    15
100
AcDbCircle
 10
-508.7374554220833
 20
2174.74281273276
 30
0.0
 40
0.1999999999997367
100
AcDbArc
 50
270.0
 51
313.033704965483
  0
ARC
  5
2090
330
A
100
AcDbEntity
  8
0
  6
Continuous
 62
     7
370
    15
100
AcDbCircle
 10
-505.8712558477346
 20
2171.672812732761
 30
0.0
 40
3.999999999999961
100
AcDbArc
 50
95.58334098003655
 51
133.0337049657255
  0
ARC
  5
2091
330
A
100
AcDbEntity
  8
0
  6
Continuous
 62
     7
370
    15
100
AcDbCircle
 10
-504.6312558477339
 20
2176.29281273276
 30
0.0
 40
1.749999999999964
100
AcDbArc
 50
201.4155684870184
 51
143.1301023541113
  0
LINE
  5
2092
330
A
100
AcDbEntity
  8
0
  6
Continuous
 62
     7
370
    15
100
AcDbLine
 10
-506.0312558477344
 20
2177.342812732761
 30
0.0
 11
-512.9312558477341
 21
2177.342812732761
 31
0.0
  0
LINE
  5
2093
330
A
100
AcDbEntity
  8
0
  6
Continuous
 62
     7
370
    15
100
AcDbLine
 10
-512.9312558477341
 20
2177.342812732761
 30
0.0
 11
-512.9312558477341
 21
2129.64281273276
 31
0.0
  0
LINE
  5
2094
330
A
100
AcDbEntity
  8
0
  6
Continuous
 62
     7
370
    15
100
AcDbLine
 10
-512.9312558477341
 20
2129.64281273276
 30
0.0
 11
-497.4312558477341
 21
2129.64281273276
 31
0.0
  0
LINE
  5
2095
330
A
100
AcDbEntity
  8
0
  6
Continuous
 62
     7
370
    15
100
AcDbLine
 10
-497.4312558477341
 20
2129.64281273276
 30
0.0
 11
-497.4312558477341
 21
2129.75351391382
 31
0.0
  0
ARC
  5
2096
330
A
100
AcDbEntity
  8
0
  6
Continuous
 62
     7
370
    15
100
AcDbCircle
 10
-497.9312558477341
 20
2129.75351391382
 30
0.0
 40
0.4999999999999716
100
AcDbArc
 50
0.0
 51
76.00000000008806
  0
LINE
  5
2097
330
A
100
AcDbEntity
  8
0
  6
Continuous
 62
     7
370
    15
100
AcDbLine
 10
-497.8102948999349
 20
2130.238661776959
 30
0.0
 11
-499.4312558477341
 21
2130.64281273276
 31
0.0
  0
LINE
  5
2098
330
A
100
AcDbEntity
  8
0
  6
Continuous
 62
     7
370
    15
100
AcDbLine
 10
-499.4312558477341
 20
2130.64281273276
 30
0.0
 11
-503.1618978167635
 21
2130.64281273276
 31
0.0
  0
LINE
  5
2099
330
A
100
AcDbEntity
  8
0
  6
Continuous
 62
     7
370
    15
100
AcDbLine
 10
-511.4312558477341
 20
2131.14281273276
 30
0.0
 11
-511.4312558477341
 21
2174.542812732761
 31
0.0
  0
LINE
  5
209F
330
A
100
AcDbEntity
  8
0
  6
Continuous
 62
     7
370
    15
100
AcDbLine
 10
-468.0212556719007
 20
2158.142952922884
 30
0.0
 11
-468.0212556719007
 21
2152.142910961215
 31
0.0
  0
LINE
  5
20A0
330
A
100
AcDbEntity
  8
0
  6
Continuous
 62
     7
370
    15
100
AcDbLine
 10
-471.3212556540193
 20
2161.142973903719
 30
0.0
 11
-471.3212556540193
 21
2155.223279003207
 31
0.0
  0
LINE
  5
20A1
330
A
100
AcDbEntity
  8
0
  6
Continuous
 62
     7
370
    15
100
AcDbLine
 10
-471.3212556540193
 20
2155.223279003207
 30
0.0
 11
-471.3212556540193
 21
2149.14288998038
 31
0.0
  0
LINE
  5
20A2
330
A
100
AcDbEntity
  8
0
  6
Continuous
 62
     7
370
    15
100
AcDbLine
 10
-471.021256163639
 20
2161.142973903719
 30
0.0
 11
-471.021256163639
 21
2149.14288998038
 31
0.0
  0
LINE
  5
20A6
330
A
100
AcDbEntity
  8
0
  6
Continuous
 62
     7
370
    15
100
AcDbLine
 10
-466.8212558477344
 20
2140.142827037875
 30
0.0
 11
-466.8212558477344
 21
2170.142798427645
 31
0.0
  0
LINE
  5
20B3
330
A
100
AcDbEntity
  8
0
  6
Continuous
 62
     7
370
    15
100
AcDbLine
 10
-466.8212558477344
 20
2158.142952922884
 30
0.0
 11
-468.0212556719007
 21
2158.142952922884
 31
0.0
  0
LINE
  5
20B6
330
A
100
AcDbEntity
  8
0
  6
Continuous
 62
     7
370
    15
100
AcDbLine
 10
-468.0212556719007
 20
2152.142910961215
 30
0.0
 11
-466.8212558477344
 21
2152.142910961215
 31
0.0
  0
LINE
  5
20B7
330
A
100
AcDbEntity
  8
0
  6
Continuous
 62
     7
370
    15
100
AcDbLine
 10
-468.0212556719007
 20
2158.142952922884
 30
0.0
 11
-471.021256163639
 21
2161.142973903719
 31
0.0
  0
LINE
  5
20B8
330
A
100
AcDbEntity
  8
0
  6
Continuous
 62
     7
370
    15
100
AcDbLine
 10
-471.021256163639
 20
2149.14288998038
 30
0.0
 11
-468.0212556719007
 21
2152.142910961215
 31
0.0
  0
LINE
  5
20B9
330
A
100
AcDbEntity
  8
0
  6
Continuous
 62
     7
370
    15
100
AcDbLine
 10
-471.021256163639
 20
2161.142973903719
 30
0.0
 11
-471.3212556540193
 21
2161.142973903719
 31
0.0
  0
LINE
  5
20BA
330
A
100
AcDbEntity
  8
0
  6
Continuous
 62
     7
370
    15
100
AcDbLine
 10
-471.3212556540193
 20
2149.14288998038
 30
0.0
 11
-471.021256163639
 21
2149.14288998038
 31
0.0
  0
HATCH
  5
20C2
330
A
100
AcDbEntity
  8
0
100
AcDbHatch
 10
0.0
 20
0.0
 30
0.0
210
0.0
220
0.0
230
1.0
  2
ANSI31
 70
     0
 71
     0
 91
        2
 92
        7
 72
     0
 73
     1
 93
        5
 10
-502.8712553110372
 20
2145.099816069007
 10
-502.8712553110372
 20
2170.100033506751
 10
-508.8712562945138
 20
2164.099991545081
 10
-508.8712562945138
 20
2141.099989637733
 10
-502.8712553110372
 20
2135.099947676063
 97
        0
 92
        7
 72
     0
 73
     1
 93
        5
 10
-495.8712560262929
 20
2135.099947676063
 10
-495.8712560262929
 20
2170.100033506751
 10
-496.8712561902058
 20
2170.100033506751
 10
-496.8712561902058
 20
2145.099816069007
 10
-496.8712561902058
 20
2135.099947676063
 97
        0
 75
     0
 76
     1
 52
0.0
 41
0.1
 77
     0
 78
     1
 53
45.0
 43
-1393.950247177946
 44
-1107.552472190858
 45
-0.2245064030267288
 46
0.2245064030267288
 79
     0
 47
0.0
 98
        2
 10
-504.7918754357788
 20
2149.628918334853
 10
-496.6973340064197
 20
2141.07183168096
1001
ACAD
1010
0.0
1020
0.0
1030
0.0
  0
LINE
  5
20C3
330
A
100
AcDbEntity
  8
0
100
AcDbLine
 10
-496.8712561902058
 20
2145.099816069007
 30
0.0
 11
-496.8712561902058
 21
2135.099947676063
 31
0.0
  0
LINE
  5
20C4
330
A
100
AcDbEntity
  8
0
100
AcDbLine
 10
-502.8712553110372
 20
2145.099816069007
 30
0.0
 11
-502.8712553110372
 21
2135.099947676063
 31
0.0
  0
LINE
  5
20C5
330
A
100
AcDbEntity
  8
0
  6
HIDDEN
 62
     7
370
    15
100
AcDbLine
 10
-496.8712561902058
 20
2145.099816069007
 30
0.0
 11
-497.8712563541185
 21
2144.099888548255
 31
0.0
  0
LINE
  5
20C6
330
A
100
AcDbEntity
  8
0
  6
HIDDEN
 62
     7
370
    15
100
AcDbLine
 10
-497.8712563541185
 20
2144.099888548255
 30
0.0
 11
-501.8712570097696
 21
2144.099888548255
 31
0.0
  0
LINE
  5
20C7
330
A
100
AcDbEntity
  8
0
  6
HIDDEN
 62
     7
370
    15
100
AcDbLine
 10
-496.8712561902058
 20
2145.099816069007
 30
0.0
 11
-502.8712553110372
 21
2145.099816069007
 31
0.0
  0
LINE
  5
20C8
330
A
100
AcDbEntity
  8
0
  6
HIDDEN
 62
     7
370
    15
100
AcDbLine
 10
-501.8712570097696
 20
2144.099888548255
 30
0.0
 11
-502.8712553110372
 21
2145.099816069007
 31
0.0
  0
HATCH
  5
20C9
330
A
100
AcDbEntity
  8
0
100
AcDbHatch
 10
0.0
 20
0.0
 30
0.0
210
0.0
220
0.0
230
1.0
  2
SOLID
 70
     1
 71
     0
 91
        1
 92
        7
 72
     0
 73
     1
 93
        5
 10
-484.8712560858976
 20
2143.600046858191
 10
-484.8712560858976
 20
2166.60004876554
 10
-485.3712552365314
 20
2166.60004876554
 10
-485.3712552365314
 20
2155.099928602576
 10
-485.3712552365314
 20
2143.600046858191
 97
        0
 75
     0
 76
     1
 47
0.0
 98
        1
 10
-485.0152706146691
 20
2148.028409467161
1001
ACAD
1010
0.0
1020
0.0
1030
0.0
  0
HATCH
  5
20CA
330
A
100
AcDbEntity
  8
0
100
AcDbHatch
 10
0.0
 20
0.0
 30
0.0
210
0.0
220
0.0
230
1.0
  2
SOLID
 70
     1
 71
     0
 91
        1
 92
        7
 72
     0
 73
     1
 93
        6
 10
-495.371255013014
 20
2137.100041136146
 10
-495.371255013014
 20
2168.099940046668
 10
-495.371255013014
 20
2169.09986756742
 10
-495.8712560262929
 20
2169.09986756742
 10
-495.8712560262929
 20
2136.099875196815
 10
-495.371255013014
 20
2136.099875196815
 97
        0
 75
     0
 76
     1
 47
0.0
 98
        1
 10
-495.6168071610073
 20
2152.922137942738
1001
ACAD
1010
0.0
1020
0.0
1030
0.0
  0
LINE
  5
20CB
330
A
100
AcDbEntity
  8
0
  6
Continuous
 62
     7
370
    15
100
AcDbLine
 10
-495.8712560262929
 20
2135.099947676063
 30
0.0
 11
-495.8712560262929
 21
2170.100033506751
 31
0.0
  0
LINE
  5
20CC
330
A
100
AcDbEntity
  8
0
  6
Continuous
 62
     7
370
    15
100
AcDbLine
 10
-502.8712553110372
 20
2135.099947676063
 30
0.0
 11
-508.8712562945138
 21
2141.099989637733
 31
0.0
  0
LINE
  5
20CD
330
A
100
AcDbEntity
  8
0
  6
Continuous
 62
     7
370
    15
100
AcDbLine
 10
-495.8712560262929
 20
2135.099947676063
 30
0.0
 11
-502.8712553110372
 21
2135.099947676063
 31
0.0
  0
LINE
  5
20CE
330
A
100
AcDbEntity
  8
0
  6
Continuous
 62
     7
370
    15
100
AcDbLine
 10
-495.8712560262929
 20
2170.100033506751
 30
0.0
 11
-496.8712561902058
 21
2170.100033506751
 31
0.0
  0
LINE
  5
20CF
330
A
100
AcDbEntity
  8
0
  6
Continuous
 62
     7
370
    15
100
AcDbLine
 10
-508.8712562945138
 20
2164.099991545081
 30
0.0
 11
-502.8712553110372
 21
2170.100033506751
 31
0.0
  0
LINE
  5
20D0
330
A
100
AcDbEntity
  8
0
  6
Continuous
 62
     7
370
    15
100
AcDbLine
 10
-508.8712562945138
 20
2141.099989637733
 30
0.0
 11
-508.8712562945138
 21
2164.099991545081
 31
0.0
  0
LINE
  5
20D1
330
A
100
AcDbEntity
  8
0
  6
Continuous
 62
     7
370
    15
100
AcDbLine
 10
-509.4712552752744
 20
2158.350050672889
 30
0.0
 11
-509.4712552752744
 21
2151.850044950843
 31
0.0
  0
LINE
  5
20D2
330
A
100
AcDbEntity
  8
0
  6
Continuous
 62
     7
370
    15
100
AcDbLine
 10
-495.371255013014
 20
2169.09986756742
 30
0.0
 11
-495.371255013014
 21
2168.099940046668
 31
0.0
  0
LINE
  5
20D3
330
A
100
AcDbEntity
  8
0
  6
Continuous
 62
     7
370
    15
100
AcDbLine
 10
-495.8712560262929
 20
2169.09986756742
 30
0.0
 11
-495.371255013014
 21
2169.09986756742
 31
0.0
  0
LINE
  5
20D4
330
A
100
AcDbEntity
  8
0
  6
Continuous
 62
     7
370
    15
100
AcDbLine
 10
-495.371255013014
 20
2168.099940046668
 30
0.0
 11
-495.371255013014
 21
2137.100041136146
 31
0.0
  0
LINE
  5
20D5
330
A
100
AcDbEntity
  8
0
  6
Continuous
 62
     7
370
    15
100
AcDbLine
 10
-495.371255013014
 20
2137.100041136146
 30
0.0
 11
-495.371255013014
 21
2136.099875196815
 31
0.0
  0
LINE
  5
20D6
330
A
100
AcDbEntity
  8
0
  6
Continuous
 62
     7
370
    15
100
AcDbLine
 10
-495.8712560262929
 20
2136.099875196815
 30
0.0
 11
-495.371255013014
 21
2136.099875196815
 31
0.0
  0
LINE
  5
20D7
330
A
100
AcDbEntity
  8
0
  6
Continuous
 62
     7
370
    15
100
AcDbLine
 10
-486.8712564137231
 20
2161.799967512488
 30
0.0
 11
-486.8712564137231
 21
2155.099928602576
 31
0.0
  0
LINE
  5
20D8
330
A
100
AcDbEntity
  8
0
  6
Continuous
 62
     7
370
    15
100
AcDbLine
 10
-486.8712564137231
 20
2155.099928602576
 30
0.0
 11
-486.8712564137231
 21
2148.399889692664
 31
0.0
  0
LINE
  5
20D9
330
A
100
AcDbEntity
  8
0
  6
Continuous
 62
     7
370
    15
100
AcDbLine
 10
-487.0712560739767
 20
2148.199856504798
 30
0.0
 11
-487.0712560739767
 21
2155.099928602576
 31
0.0
  0
LINE
  5
20DA
330
A
100
AcDbEntity
  8
0
  6
Continuous
 62
     7
370
    15
100
AcDbLine
 10
-487.0712560739767
 20
2155.099928602576
 30
0.0
 11
-487.0712560739767
 21
2162.000000700355
 31
0.0
  0
LINE
  5
20DB
330
A
100
AcDbEntity
  8
0
  6
Continuous
 62
     7
370
    15
100
AcDbLine
 10
-478.8712560337436
 20
2146.600067839026
 30
0.0
 11
-478.8712560337436
 21
2155.099928602576
 31
0.0
  0
LINE
  5
20DC
330
A
100
AcDbEntity
  8
0
  6
Continuous
 62
     7
370
    15
100
AcDbLine
 10
-478.8712560337436
 20
2155.099928602576
 30
0.0
 11
-478.8712560337436
 21
2163.600027784705
 31
0.0
  0
LINE
  5
20DD
330
A
100
AcDbEntity
  8
0
  6
Continuous
 62
     7
370
    15
100
AcDbLine
 10
-484.8712560858976
 20
2167.100012525916
 30
0.0
 11
-484.8712560858976
 21
2143.099844679236
 31
0.0
  0
LINE
  5
20DE
330
A
100
AcDbEntity
  8
0
  6
Continuous
 62
     7
370
    15
100
AcDbLine
 10
-483.8712559219848
 20
2143.099844679236
 30
0.0
 11
-483.8712559219848
 21
2167.100012525916
 31
0.0
  0
LINE
  5
20DF
330
A
100
AcDbEntity
  8
0
  6
Continuous
 62
     7
370
    15
100
AcDbLine
 10
-485.3712552365314
 20
2166.60004876554
 30
0.0
 11
-485.3712552365314
 21
2155.099928602576
 31
0.0
  0
LINE
  5
20E0
330
A
100
AcDbEntity
  8
0
  6
Continuous
 62
     7
370
    15
100
AcDbLine
 10
-485.3712552365314
 20
2155.099928602576
 30
0.0
 11
-485.3712552365314
 21
2143.600046858191
 31
0.0
  0
SPLINE
  5
20E1
330
A
100
AcDbEntity
  8
0
  6
Continuous
 62
     7
370
    15
100
AcDbSpline
210
0.0
220
0.0
230
1.0
 70
    24
 71
     3
 72
    23
 73
    19
 74
     0
 42
0.00000001
 43
0.00000001
 40
0.0
 40
0.0
 40
0.0
 40
0.0
 40
0.058616717027869
 40
0.120744638030352
 40
0.1854558698299173
 40
0.2515409855438046
 40
0.317627089833924
 40
0.3823373938258889
 40
0.4444651118837844
 40
0.5030815207832184
 40
0.5616982378110875
 40
0.6238285628720187
 40
0.6885397946715839
 40
0.7546213649324705
 40
0.8207074692225899
 40
0.8854188872569834
 40
0.9475459568963662
 40
0.9999999999999999
 40
0.9999999999999999
 40
0.9999999999999999
 40
0.9999999999999999
 10
-473.071255641843
 20
2167.840063795447
 30
0.0
 10
-473.071255641843
 20
2167.772865305575
 30
0.0
 10
-473.071255641843
 20
2167.634443064491
 30
0.0
 10
-473.071255641843
 20
2166.734344396995
 30
0.0
 10
-473.071255641843
 20
2165.279760210493
 30
0.0
 10
-473.071255641843
 20
2163.25614152305
 30
0.0
 10
-473.071255641843
 20
2160.788337548089
 30
0.0
 10
-473.071255641843
 20
2158.037344667038
 30
0.0
 10
-473.071255641843
 20
2155.189350773533
 30
0.0
 10
-473.071255641843
 20
2152.348122962288
 30
0.0
 10
-473.071255641843
 20
2149.516905515571
 30
0.0
 10
-473.071255641843
 20
2146.700232991639
 30
0.0
 10
-473.071255641843
 20
2144.003651248187
 30
0.0
 10
-473.071255641843
 20
2141.612179224972
 30
0.0
 10
-473.071255641843
 20
2139.681710087019
 30
0.0
 10
-473.071255641843
 20
2138.334467218017
 30
0.0
 10
-473.071255641843
 20
2137.561661792084
 30
0.0
 10
-473.071255641843
 20
2137.496540679598
 30
0.0
 10
-473.071255641843
 20
2137.466728910804
 30
0.0
  0
SPLINE
  5
20E2
330
A
100
AcDbEntity
  8
0
  6
Continuous
 62
     7
370
    15
100
AcDbSpline
210
0.0
220
0.0
230
1.0
 70
    24
 71
     3
 72
    10
 73
     6
 74
     0
 42
0.00000001
 43
0.00000001
 40
0.0
 40
0.0
 40
0.0
 40
0.0
 40
0.1482891128892584
 40
0.5865282560474782
 40
1.0
 40
1.0
 40
1.0
 40
1.0
 10
-482.5712562676918
 20
2166.189968809485
 30
0.0
 10
-482.5712562676918
 20
2166.354618885045
 30
0.0
 10
-482.5712562676918
 20
2167.005859692921
 30
0.0
 10
-482.5712562676918
 20
2167.615220646507
 30
0.0
 10
-482.5712562676918
 20
2167.76658326653
 30
0.0
 10
-482.5712562676918
 20
2167.840063795447
 30
0.0
  0
SPLINE
  5
20E3
330
A
100
AcDbEntity
  8
0
  6
Continuous
 62
     7
370
    15
100
AcDbSpline
210
0.0
220
0.0
230
1.0
 70
    24
 71
     3
 72
    12
 73
     8
 74
     0
 42
0.00000001
 43
0.00000001
 40
0.0
 40
0.0
 40
0.0
 40
0.0
 40
0.1694887444359892
 40
0.3702328321293323
 40
0.5793274289300508
 40
0.7928638920520374
 40
1.0
 40
1.0
 40
1.0
 40
1.0
 10
-482.5712562676918
 20
2137.466728910804
 30
0.0
 10
-482.5712562676918
 20
2137.496616211742
 30
0.0
 10
-482.5712562676918
 20
2137.561902317364
 30
0.0
 10
-482.5712562676918
 20
2138.333274035678
 30
0.0
 10
-482.5712562676918
 20
2139.686407732945
 30
0.0
 10
-482.5712562676918
 20
2141.575107552542
 30
0.0
 10
-482.5712562676918
 20
2143.206568778711
 30
0.0
 10
-482.5712562676918
 20
2144.009888395667
 30
0.0
  0
LINE
  5
20E4
330
A
100
AcDbEntity
  8
0
  6
Continuous
 62
     7
370
    15
100
AcDbLine
 10
-472.3212559845697
 20
2160.142719969153
 30
0.0
 11
-472.3212559845697
 21
2145.142853483558
 31
0.0
  0
LINE
  5
20E5
330
A
100
AcDbEntity
  8
0
  6
Continuous
 62
     7
370
    15
100
AcDbLine
 10
-508.9212571408998
 20
2151.300013288856
 30
0.0
 11
-508.9212571408998
 21
2148.649990782142
 31
0.0
  0
LINE
  5
20E6
330
A
100
AcDbEntity
  8
0
  6
Continuous
 62
     7
370
    15
100
AcDbLine
 10
-497.8712563541185
 20
2172.099888548255
 30
0.0
 11
-501.8712570097696
 21
2172.099888548255
 31
0.0
  0
LINE
  5
20E7
330
A
100
AcDbEntity
  8
0
  6
Continuous
 62
     7
370
    15
100
AcDbLine
 10
-496.8712561902058
 20
2171.099961027503
 30
0.0
 11
-502.0070401158582
 21
2171.099961027503
 31
0.0
  0
LINE
  5
20E8
330
A
100
AcDbEntity
  8
0
  6
Continuous
 62
     7
370
    15
100
AcDbLine
 10
-502.0070401158582
 20
2171.099961027503
 30
0.0
 11
-502.8712553110372
 21
2171.099961027503
 31
0.0
  0
LINE
  5
20E9
330
A
100
AcDbEntity
  8
0
  6
Continuous
 62
     7
370
    15
100
AcDbLine
 10
-486.8712564137231
 20
2151.099980100989
 30
0.0
 11
-485.3712552365314
 21
2151.099980100989
 31
0.0
  0
LINE
  5
20EA
330
A
100
AcDbEntity
  8
0
  6
Continuous
 62
     7
370
    15
100
AcDbLine
 10
-485.3712552365314
 20
2159.099877104163
 30
0.0
 11
-486.8712564137231
 21
2159.099877104163
 31
0.0
  0
LINE
  5
20EB
330
A
100
AcDbEntity
  8
0
  6
Continuous
 62
     7
370
    15
100
AcDbLine
 10
-509.4712552752744
 20
2151.850044950843
 30
0.0
 11
-508.8712562945138
 21
2151.249945387244
 31
0.0
  0
LINE
  5
20EC
330
A
100
AcDbEntity
  8
0
  6
Continuous
 62
     7
370
    15
100
AcDbLine
 10
-508.8712562945138
 20
2158.949911817908
 30
0.0
 11
-509.4712552752744
 21
2158.350050672889
 31
0.0
  0
LINE
  5
20ED
330
A
100
AcDbEntity
  8
0
  6
Continuous
 62
     7
370
    15
100
AcDbLine
 10
-486.8712564137231
 20
2161.799967512488
 30
0.0
 11
-487.0712560739767
 21
2162.000000700355
 31
0.0
  0
LINE
  5
20EE
330
A
100
AcDbEntity
  8
0
  6
Continuous
 62
     7
370
    15
100
AcDbLine
 10
-487.0712560739767
 20
2148.199856504798
 30
0.0
 11
-486.8712564137231
 21
2148.399889692664
 31
0.0
  0
LINE
  5
20EF
330
A
100
AcDbEntity
  8
0
  6
Continuous
 62
     7
370
    15
100
AcDbLine
 10
-495.371255013014
 20
2148.199856504798
 30
0.0
 11
-487.0712560739767
 21
2148.199856504798
 31
0.0
  0
LINE
  5
20F0
330
A
100
AcDbEntity
  8
0
  6
Continuous
 62
     7
370
    15
100
AcDbLine
 10
-487.0712560739767
 20
2162.000000700355
 30
0.0
 11
-495.371255013014
 21
2162.000000700355
 31
0.0
  0
LINE
  5
20F1
330
A
100
AcDbEntity
  8
0
  6
Continuous
 62
     7
370
    15
100
AcDbLine
 10
-478.8712560337436
 20
2163.600027784705
 30
0.0
 11
-483.8712559219848
 21
2167.100012525916
 31
0.0
  0
LINE
  5
20F2
330
A
100
AcDbEntity
  8
0
  6
Continuous
 62
     7
370
    15
100
AcDbLine
 10
-483.8712559219848
 20
2143.099844679236
 30
0.0
 11
-478.8712560337436
 21
2146.600067839026
 31
0.0
  0
LINE
  5
20F3
330
A
100
AcDbEntity
  8
0
  6
Continuous
 62
     7
370
    15
100
AcDbLine
 10
-484.8712560858976
 20
2143.099844679236
 30
0.0
 11
-483.8712559219848
 21
2143.099844679236
 31
0.0
  0
LINE
  5
20F4
330
A
100
AcDbEntity
  8
0
  6
Continuous
 62
     7
370
    15
100
AcDbLine
 10
-483.8712559219848
 20
2167.100012525916
 30
0.0
 11
-484.8712560858976
 21
2167.100012525916
 31
0.0
  0
LINE
  5
20F5
330
A
100
AcDbEntity
  8
0
  6
Continuous
 62
     7
370
    15
100
AcDbLine
 10
-485.3712552365314
 20
2143.600046858191
 30
0.0
 11
-484.8712560858976
 21
2143.600046858191
 31
0.0
  0
LINE
  5
20F6
330
A
100
AcDbEntity
  8
0
  6
Continuous
 62
     7
370
    15
100
AcDbLine
 10
-484.8712560858976
 20
2166.60004876554
 30
0.0
 11
-485.3712552365314
 21
2166.60004876554
 31
0.0
  0
LINE
  5
20F7
330
A
100
AcDbEntity
  8
0
  6
Continuous
 62
     7
370
    15
100
AcDbLine
 10
-495.371255013014
 20
2144.616186842322
 30
0.0
 11
-485.3712552365314
 21
2144.616186842322
 31
0.0
  0
LINE
  5
20F8
330
A
100
AcDbEntity
  8
0
  6
Continuous
 62
     7
370
    15
100
AcDbLine
 10
-485.3712552365314
 20
2160.616219267249
 30
0.0
 11
-486.8712564137231
 21
2160.616219267249
 31
0.0
  0
ARC
  5
20F9
330
A
100
AcDbEntity
  8
0
  6
Continuous
 62
     7
370
    15
100
AcDbCircle
 10
-477.8212558477344
 20
2168.89281273276
 30
0.0
 40
2.750000000000288
100
AcDbArc
 50
197.2039944550938
 51
342.7960055449066
  0
ARC
  5
20FA
330
A
100
AcDbEntity
  8
0
  6
Continuous
 62
     7
370
    15
100
AcDbCircle
 10
-477.8212558477344
 20
2136.39281273276
 30
0.0
 40
2.750000000000456
100
AcDbArc
 50
17.20399445513214
 51
162.7960055448675
  0
ARC
  5
20FB
330
A
100
AcDbEntity
  8
0
  6
Continuous
 62
     7
370
    15
100
AcDbCircle
 10
-474.4300908561718
 20
2137.442812732761
 30
0.0
 40
0.7999999999996865
100
AcDbArc
 50
197.2039944550509
 51
270.0
  0
ARC
  5
20FC
330
A
100
AcDbEntity
  8
0
  6
Continuous
 62
     7
370
    15
100
AcDbCircle
 10
-474.4300908561718
 20
2167.842812732761
 30
0.0
 40
0.7999999999998547
100
AcDbArc
 50
90.0
 51
162.7960055449527
  0
LINE
  5
20FD
330
A
100
AcDbEntity
  8
0
  6
Continuous
 62
     7
370
    15
100
AcDbLine
 10
-481.2124212410699
 20
2168.642819151282
 30
0.0
 11
-481.7712557640324
 21
2168.642819151282
 31
0.0
  0
LINE
  5
20FE
330
A
100
AcDbEntity
  8
0
  6
Continuous
 62
     7
370
    15
100
AcDbLine
 10
-481.7712557640324
 20
2136.642754301429
 30
0.0
 11
-481.2124212410699
 21
2136.642754301429
 31
0.0
  0
LINE
  5
20FF
330
A
100
AcDbEntity
  8
0
  6
Continuous
 62
     7
370
    15
100
AcDbLine
 10
-473.8712556798409
 20
2168.642819151282
 30
0.0
 11
-474.4300906684647
 21
2168.642819151282
 31
0.0
  0
LINE
  5
2100
330
A
100
AcDbEntity
  8
0
  6
Continuous
 62
     7
370
    15
100
AcDbLine
 10
-474.4300906684647
 20
2136.642754301429
 30
0.0
 11
-473.8712556798409
 21
2136.642754301429
 31
0.0
  0
ARC
  5
2101
330
A
100
AcDbEntity
  8
0
  6
Continuous
 62
     7
370
    15
100
AcDbCircle
 10
-481.212420839297
 20
2167.842812732761
 30
0.0
 40
0.7999999999998547
100
AcDbArc
 50
17.20399445504729
 51
90.0
  0
ARC
  5
2102
330
A
100
AcDbEntity
  8
0
  6
Continuous
 62
     7
370
    15
100
AcDbCircle
 10
-481.212420839297
 20
2137.442812732761
 30
0.0
 40
0.7999999999996865
100
AcDbArc
 50
270.0
 51
342.7960055449491
  0
ARC
  5
2103
330
A
100
AcDbEntity
  8
0
  6
Continuous
 62
     7
370
    15
100
AcDbCircle
 10
-473.8712558477346
 20
2137.442812732761
 30
0.0
 40
0.8000000000001251
100
AcDbArc
 50
270.0
 51
0.0
  0
ARC
  5
2104
330
A
100
AcDbEntity
  8
0
  6
Continuous
 62
     7
370
    15
100
AcDbCircle
 10
-473.8712558477346
 20
2167.842812732761
 30
0.0
 40
0.8000000000001251
100
AcDbArc
 50
0.0
 51
90.0
  0
ARC
  5
2105
330
A
100
AcDbEntity
  8
0
  6
Continuous
 62
     7
370
    15
100
AcDbCircle
 10
-481.7712558477342
 20
2167.842812732761
 30
0.0
 40
0.8000000000001251
100
AcDbArc
 50
90.0
 51
180.0
  0
ARC
  5
2106
330
A
100
AcDbEntity
  8
0
  6
Continuous
 62
     7
370
    15
100
AcDbCircle
 10
-481.7712558477342
 20
2137.442812732761
 30
0.0
 40
0.8000000000001251
100
AcDbArc
 50
180.0
 51
270.0
  0
LINE
  5
2107
330
A
100
AcDbEntity
  8
0
  6
Continuous
 62
     7
370
    15
100
AcDbLine
 10
-472.8212560665261
 20
2160.642922148108
 30
0.0
 11
-473.071255641843
 21
2160.642922148108
 31
0.0
  0
LINE
  5
2108
330
A
100
AcDbEntity
  8
0
  6
Continuous
 62
     7
370
    15
100
AcDbLine
 10
-473.071255641843
 20
2144.642889723182
 30
0.0
 11
-472.8212560665261
 21
2144.642889723182
 31
0.0
  0
ARC
  5
2109
330
A
100
AcDbEntity
  8
0
  6
Continuous
 62
     7
370
    15
100
AcDbCircle
 10
-472.8212558480146
 20
2160.142812732667
 30
0.0
 40
0.5000000000001137
100
AcDbArc
 50
0.0000000020844083
 51
90.00000000218863
  0
ARC
  5
210A
330
A
100
AcDbEntity
  8
0
  6
Continuous
 62
     7
370
    15
100
AcDbCircle
 10
-472.8212558474543
 20
2145.142812732667
 30
0.0
 40
0.4999999999998295
100
AcDbArc
 50
270.0000000020844
 51
0.0000000020844083
  0
LINE
  5
210B
330
A
100
AcDbEntity
  8
0
  6
Continuous
 62
     7
370
    15
100
AcDbLine
 10
-508.9212571408998
 20
2148.649990782142
 30
0.0
 11
-508.8712562945138
 21
2148.700058683753
 31
0.0
  0
LINE
  5
210C
330
A
100
AcDbEntity
  8
0
  6
Continuous
 62
     7
370
    15
100
AcDbLine
 10
-501.8712570097696
 20
2172.099888548255
 30
0.0
 11
-502.8712553110372
 21
2171.099961027503
 31
0.0
  0
LINE
  5
210D
330
A
100
AcDbEntity
  8
0
  6
Continuous
 62
     7
370
    15
100
AcDbLine
 10
-496.8712561902058
 20
2171.099961027503
 30
0.0
 11
-497.8712563541185
 21
2172.099888548255
 31
0.0
  0
LINE
  5
210E
330
A
100
AcDbEntity
  8
0
  6
HIDDEN
 62
     7
370
    15
100
AcDbLine
 10
-502.8712553110372
 20
2171.099961027503
 30
0.0
 11
-502.8712553110372
 21
2145.099816069007
 31
0.0
  0
LINE
  5
210F
330
A
100
AcDbEntity
  8
0
  6
HIDDEN
 62
     7
370
    15
100
AcDbLine
 10
-496.8712561902058
 20
2145.099816069007
 30
0.0
 11
-496.8712561902058
 21
2171.099961027503
 31
0.0
  0
LINE
  5
2111
330
A
100
AcDbEntity
  8
0
  6
ByBlock
 62
     3
370
     0
100
AcDbLine
 10
-466.8212558477344
 20
2479.662527579676
 30
0.0
 11
-466.8212558477344
 21
2100.14281273276
 31
0.0
  0
LINE
  5
2119
330
A
100
AcDbEntity
  8
0
  6
ByBlock
 62
     4
100
AcDbLine
 10
-485.3712570991765
 20
2162.000000700355
 30
0.0
 11
-485.3712570991765
 21
2169.999897703528
 31
0.0
  0
LINE
  5
211A
330
A
100
AcDbEntity
  8
0
  6
ByBlock
 62
     4
100
AcDbLine
 10
-495.371255013014
 20
2162.000000700355
 30
0.0
 11
-495.371255013014
 21
2169.999897703528
 31
0.0
  0
LINE
  5
211B
330
A
100
AcDbEntity
  8
0
  6
ByBlock
 62
     4
100
AcDbLine
 10
-485.3712570991765
 20
2169.999897703528
 30
0.0
 11
-495.371255013014
 21
2169.999897703528
 31
0.0
  0
LINE
  5
211C
330
A
100
AcDbEntity
  8
0
  6
ByBlock
 62
     4
100
AcDbLine
 10
-485.3712570991765
 20
10.0
 30
0.0
 11
-485.3712570991765
 21
2148.000061735511
 31
0.0
  0
LINE
  5
211D
330
A
100
AcDbEntity
  8
0
  6
ByBlock
 62
     4
100
AcDbLine
 10
-495.371255013014
 20
10.0
 30
0.0
 11
-495.371255013014
 21
2148.000061735511
 31
0.0
  0
LINE
  5
211E
330
A
100
AcDbEntity
  8
0
  6
ByBlock
 62
     4
100
AcDbLine
 10
-495.371255013014
 20
10.0
 30
0.0
 11
-485.3712570991765
 21
10.0
 31
0.0
  0
LINE
  5
211F
330
A
100
AcDbEntity
  8
0
  6
Continuous
 62
     7
370
    15
100
AcDbLine
 10
-485.3712570991765
 20
2162.000000700355
 30
0.0
 11
-485.3712570991765
 21
2148.000061735511
 31
0.0
  0
LINE
  5
2120
330
A
100
AcDbEntity
  8
0
  6
Continuous
 62
     7
370
    15
100
AcDbLine
 10
-495.371255013014
 20
2162.000000700355
 30
0.0
 11
-485.3712570991765
 21
2162.000000700355
 31
0.0
  0
LINE
  5
2121
330
A
100
AcDbEntity
  8
0
  6
Continuous
 62
     7
370
    15
100
AcDbLine
 10
-495.371255013014
 20
2162.000000700355
 30
0.0
 11
-495.371255013014
 21
2148.000061735511
 31
0.0
  0
LINE
  5
2122
330
A
100
AcDbEntity
  8
0
  6
Continuous
 62
     7
370
    15
100
AcDbLine
 10
-485.3712570991765
 20
2148.000061735511
 30
0.0
 11
-495.371255013014
 21
2148.000061735511
 31
0.0
  0
LINE
  5
228C
330
A
100
AcDbEntity
  8
0
  6
ByBlock
 62
     3
370
     0
100
AcDbLine
 10
-466.8212558477344
 20
2100.14281273276
 30
0.0
 11
-319.5192747852254
 21
2100.14281273276
 31
0.0
  0
HATCH
  5
229E
330
A
100
AcDbEntity
  8
0
  6
ByBlock
 62
     3
370
     0
100
AcDbHatch
 10
0.0
 20
0.0
 30
0.0
210
0.0
220
0.0
230
1.0
  2
ANSI31
 70
     0
 71
     1
 91
        1
 92
        7
 72
     0
 73
     1
 93
       16
 10
799.9999523162844
 20
20.0
 10
799.9999523162844
 20
2130.142860416476
 10
52.50000953674225
 20
2130.142860416476
 10
52.50000953674225
 20
2180.14281273276
 10
1829.999876022339
 20
2180.14281273276
 10
1829.999876022339
 20
2130.142860416476
 10
1659.999966621399
 20
2130.142860416476
 10
1659.999966621399
 20
9.999999999998636
 10
1629.999876022339
 20
9.999999999998636
 10
1629.999876022339
 20
0.0
 10
2459.999918937682
 20
0.0
 10
2459.999918937682
 20
2479.662527579676
 10
0.0
 20
2479.662527579676
 10
0.0
 20
0.0
 10
789.9999237060547
 20
0.0
 10
789.9999237060547
 20
20.0
 97
       14
330
189D
330
18B3
330
18AF
330
18B4
330
18AE
330
18B2
330
189E
330
18AA
330
189C
330
1896
330
1897
330
1899
330
18A8
330
18A6
 75
     0
 76
     1
 52
0.0
 41
50.0
 77
     0
 78
     1
 53
45.0
 43
-600.3712560560953
 44
0.0
 45
-112.2532015133644
 46
112.2532015133644
 79
     0
 47
0.0
 98
        1
 10
410.6020263811088
 20
1546.148340066127
1001
ACAD
1010
0.0
1020
0.0
1030
0.0
  0
ENDSEC
  0
SECTION
  2
OBJECTS
  0
DICTIONARY
  5
19
330
0
100
AcDbDictionary
281
     1
  3
ACAD_GROUP
350
1A
  3
ACAD_IMAGE_VARS
350
D40
  3
ACAD_LAYOUT
350
1E
  3
ACAD_MLINESTYLE
350
1B
  3
ACAD_PLOTSETTINGS
350
22
  3
ACAD_PLOTSTYLENAME
350
1F
  3
ACAD_SCALELIST
350
51A
  3
ACAD_WIPEOUT_VARS
350
23
  3
AcDbVariableDictionary
350
54B
  3
APPDATA
350
D3F
  3
ASE_INDEX_DICTIONARY
350
543
  3
DWGPROPS
350
237D
  0
DICTIONARY
  5
546
330
14
100
AcDbDictionary
280
     1
281
     1
  3
ADSK_XREC_LAYER_RECONCILED
360
547
  0
DICTIONARY
  5
90F
330
A
100
AcDbDictionary
280
     1
281
     1
  3
ACAD_SORTENTS
360
910
  0
DICTIONARY
  5
1A
102
{ACAD_REACTORS
330
19
102
}
330
19
100
AcDbDictionary
281
     1
  0
RASTERVARIABLES
  5
D40
102
{ACAD_REACTORS
330
19
102
}
330
19
100
AcDbRasterVariables
 90
        0
 70
     1
 71
     1
 72
     0
  0
DICTIONARY
  5
1E
102
{ACAD_REACTORS
330
19
102
}
330
19
100
AcDbDictionary
281
     1
  3
Layout1
350
21
  3
Model
350
20
  0
DICTIONARY
  5
1B
102
{ACAD_REACTORS
330
19
102
}
330
19
100
AcDbDictionary
281
     1
  3
Standard
350
1C
  0
DICTIONARY
  5
22
102
{ACAD_REACTORS
330
19
102
}
330
19
100
AcDbDictionary
281
     1
  0
ACDBDICTIONARYWDFLT
  5
1F
102
{ACAD_REACTORS
330
19
102
}
330
19
100
AcDbDictionary
281
     1
  3
Normal
350
1D
100
AcDbDictionaryWithDefault
340
1D
  0
DICTIONARY
  5
51A
102
{ACAD_REACTORS
330
19
102
}
330
19
100
AcDbDictionary
281
     1
  3
A0
350
51B
  3
A1
350
51C
  3
A2
350
51D
  3
A3
350
51E
  3
A4
350
51F
  3
A5
350
520
  3
A6
350
521
  3
A7
350
522
  3
A8
350
523
  3
A9
350
524
  3
B0
350
525
  3
B1
350
526
  3
B2
350
527
  3
B3
350
528
  3
B4
350
529
  3
B5
350
52A
  3
B6
350
52B
  3
B7
350
52C
  3
B8
350
52D
  3
B9
350
52E
  3
C0
350
52F
  3
C1
350
530
  3
C2
350
531
  3
C3
350
532
  3
C4
350
533
  3
C5
350
534
  3
C6
350
535
  3
C7
350
536
  3
C8
350
537
  3
C9
350
538
  3
D0
350
539
  3
D1
350
53A
  3
D2
350
53B
  0
WIPEOUTVARIABLES
  5
23
330
19
100
AcDbWipeoutVariables
 70
     1
  0
DICTIONARY
  5
54B
102
{ACAD_REACTORS
330
19
102
}
330
19
100
AcDbDictionary
281
     1
  3
CANNOSCALE
350
237E
  3
DIMASSOC
350
CD4
  3
INDEXCTL
350
CD3
  3
SORTENTS
350
CD2
  0
DICTIONARY
  5
D3F
102
{ACAD_REACTORS
330
19
102
}
330
19
100
AcDbDictionary
281
     1
  0
DICTIONARY
  5
543
102
{ACAD_REACTORS
330
19
102
}
330
19
100
AcDbDictionary
281
     1
  3
ASEBlockHierarchyIndexRecord
350
545
1001
DCO15
1040
1685697460.757
  0
XRECORD
  5
237D
102
{ACAD_REACTORS
330
19
102
}
330
19
100
AcDbXrecord
280
     1
  1
DWGPROPS COOKIE
  2

  3

  4

  6

  7

  8
renzo.ceresoli
  9

300
=
301
=
302
=
303
=
304
=
305
=
306
=
307
=
308
=
309
=
 40
0.0
 41
2455313.515715498
 42
2456183.318004757
  1

 90
        0
  0
XRECORD
  5
547
102
{ACAD_REACTORS
330
546
102
}
330
546
100
AcDbXrecord
280
     1
290
     1
  0
SORTENTSTABLE
  5
910
102
{ACAD_REACTORS
330
90F
102
}
330
90F
100
AcDbSortentsTable
330
A
331
0
  5
B7E
  0
LAYOUT
  5
21
102
{ACAD_REACTORS
330
1E
102
}
330
1E
100
AcDbPlotSettings
  1

  2

  4

  6

 40
0.0
 41
0.0
 42
0.0
 43
0.0
 44
0.0
 45
0.0
 46
0.0
 47
0.0
 48
0.0
 49
0.0
140
0.0
141
0.0
142
1.0
143
1.0
 70
     0
 72
     0
 73
     0
 74
     0
  7

 75
     0
147
1.0
148
0.0
149
0.0
100
AcDbLayout
  1
Layout1
 70
     0
 71
     1
 10
0.0
 20
0.0
 11
12.0
 21
9.0
 12
0.0
 22
0.0
 32
0.0
 14
1.000000000000000E+20
 24
1.000000000000000E+20
 34
1.000000000000000E+20
 15
-1.000000000000000E+20
 25
-1.000000000000000E+20
 35
-1.000000000000000E+20
146
0.0
 13
0.0
 23
0.0
 33
0.0
 16
1.0
 26
0.0
 36
0.0
 17
0.0
 27
1.0
 37
0.0
 76
     0
330
B
  0
LAYOUT
  5
20
102
{ACAD_REACTORS
330
1E
102
}
330
1E
100
AcDbPlotSettings
  1

  2

  4

  6

 40
0.0
 41
0.0
 42
0.0
 43
0.0
 44
0.0
 45
0.0
 46
0.0
 47
0.0
 48
0.0
 49
0.0
140
0.0
141
0.0
142
1.0
143
1.0
 70
  1024
 72
     0
 73
     0
 74
     0
  7

 75
     0
147
1.0
148
0.0
149
0.0
100
AcDbLayout
  1
Model
 70
     0
 71
     0
 10
0.0
 20
0.0
 11
0.0
 21
0.0
 12
0.0
 22
0.0
 32
0.0
 14
0.0
 24
0.0
 34
0.0
 15
0.0
 25
0.0
 35
0.0
146
0.0
 13
0.0
 23
0.0
 33
0.0
 16
0.0
 26
0.0
 36
0.0
 17
0.0
 27
0.0
 37
0.0
 76
     0
330
A
331
15
  0
MLINESTYLE
  5
1C
102
{ACAD_REACTORS
330
1B
102
}
330
1B
100
AcDbMlineStyle
  2
STANDARD
 70
     0
  3

 62
     0
 51
90.0
 52
90.0
 71
     2
 49
0.5
 62
   256
  6
BYLAYER
 49
-0.5
 62
   256
  6
BYLAYER
  0
ACDBPLACEHOLDER
  5
1D
102
{ACAD_REACTORS
330
1F
102
}
330
1F
  0
SCALE
  5
51B
102
{ACAD_REACTORS
330
51A
102
}
330
51A
100
AcDbScale
 70
     0
300
1:1
140
1.0
141
1.0
290
     1
  0
SCALE
  5
51C
102
{ACAD_REACTORS
330
51A
102
}
330
51A
100
AcDbScale
 70
     0
300
1:2
140
1.0
141
2.0
290
     0
  0
SCALE
  5
51D
102
{ACAD_REACTORS
330
51A
102
}
330
51A
100
AcDbScale
 70
     0
300
1:4
140
1.0
141
4.0
290
     0
  0
SCALE
  5
51E
102
{ACAD_REACTORS
330
51A
102
}
330
51A
100
AcDbScale
 70
     0
300
1:5
140
1.0
141
5.0
290
     0
  0
SCALE
  5
51F
102
{ACAD_REACTORS
330
51A
102
}
330
51A
100
AcDbScale
 70
     0
300
1:8
140
1.0
141
8.0
290
     0
  0
SCALE
  5
520
102
{ACAD_REACTORS
330
51A
102
}
330
51A
100
AcDbScale
 70
     0
300
1:10
140
1.0
141
10.0
290
     0
  0
SCALE
  5
521
102
{ACAD_REACTORS
330
51A
102
}
330
51A
100
AcDbScale
 70
     0
300
1:16
140
1.0
141
16.0
290
     0
  0
SCALE
  5
522
102
{ACAD_REACTORS
330
51A
102
}
330
51A
100
AcDbScale
 70
     0
300
1:20
140
1.0
141
20.0
290
     0
  0
SCALE
  5
523
102
{ACAD_REACTORS
330
51A
102
}
330
51A
100
AcDbScale
 70
     0
300
1:30
140
1.0
141
30.0
290
     0
  0
SCALE
  5
524
102
{ACAD_REACTORS
330
51A
102
}
330
51A
100
AcDbScale
 70
     0
300
1:40
140
1.0
141
40.0
290
     0
  0
SCALE
  5
525
102
{ACAD_REACTORS
330
51A
102
}
330
51A
100
AcDbScale
 70
     0
300
1:50
140
1.0
141
50.0
290
     0
  0
SCALE
  5
526
102
{ACAD_REACTORS
330
51A
102
}
330
51A
100
AcDbScale
 70
     0
300
1:100
140
1.0
141
100.0
290
     0
  0
SCALE
  5
527
102
{ACAD_REACTORS
330
51A
102
}
330
51A
100
AcDbScale
 70
     0
300
2:1
140
2.0
141
1.0
290
     0
  0
SCALE
  5
528
102
{ACAD_REACTORS
330
51A
102
}
330
51A
100
AcDbScale
 70
     0
300
4:1
140
4.0
141
1.0
290
     0
  0
SCALE
  5
529
102
{ACAD_REACTORS
330
51A
102
}
330
51A
100
AcDbScale
 70
     0
300
8:1
140
8.0
141
1.0
290
     0
  0
SCALE
  5
52A
102
{ACAD_REACTORS
330
51A
102
}
330
51A
100
AcDbScale
 70
     0
300
10:1
140
10.0
141
1.0
290
     0
  0
SCALE
  5
52B
102
{ACAD_REACTORS
330
51A
102
}
330
51A
100
AcDbScale
 70
     0
300
100:1
140
100.0
141
1.0
290
     0
  0
SCALE
  5
52C
102
{ACAD_REACTORS
330
51A
102
}
330
51A
100
AcDbScale
 70
     0
300
1/128" = 1'-0"
140
0.0078125
141
12.0
290
     0
  0
SCALE
  5
52D
102
{ACAD_REACTORS
330
51A
102
}
330
51A
100
AcDbScale
 70
     0
300
1/64" = 1'-0"
140
0.015625
141
12.0
290
     0
  0
SCALE
  5
52E
102
{ACAD_REACTORS
330
51A
102
}
330
51A
100
AcDbScale
 70
     0
300
1/32" = 1'-0"
140
0.03125
141
12.0
290
     0
  0
SCALE
  5
52F
102
{ACAD_REACTORS
330
51A
102
}
330
51A
100
AcDbScale
 70
     0
300
1/16" = 1'-0"
140
0.0625
141
12.0
290
     0
  0
SCALE
  5
530
102
{ACAD_REACTORS
330
51A
102
}
330
51A
100
AcDbScale
 70
     0
300
3/32" = 1'-0"
140
0.09375
141
12.0
290
     0
  0
SCALE
  5
531
102
{ACAD_REACTORS
330
51A
102
}
330
51A
100
AcDbScale
 70
     0
300
1/8" = 1'-0"
140
0.125
141
12.0
290
     0
  0
SCALE
  5
532
102
{ACAD_REACTORS
330
51A
102
}
330
51A
100
AcDbScale
 70
     0
300
3/16" = 1'-0"
140
0.1875
141
12.0
290
     0
  0
SCALE
  5
533
102
{ACAD_REACTORS
330
51A
102
}
330
51A
100
AcDbScale
 70
     0
300
1/4" = 1'-0"
140
0.25
141
12.0
290
     0
  0
SCALE
  5
534
102
{ACAD_REACTORS
330
51A
102
}
330
51A
100
AcDbScale
 70
     0
300
3/8" = 1'-0"
140
0.375
141
12.0
290
     0
  0
SCALE
  5
535
102
{ACAD_REACTORS
330
51A
102
}
330
51A
100
AcDbScale
 70
     0
300
1/2" = 1'-0"
140
0.5
141
12.0
290
     0
  0
SCALE
  5
536
102
{ACAD_REACTORS
330
51A
102
}
330
51A
100
AcDbScale
 70
     0
300
3/4" = 1'-0"
140
0.75
141
12.0
290
     0
  0
SCALE
  5
537
102
{ACAD_REACTORS
330
51A
102
}
330
51A
100
AcDbScale
 70
     0
300
1" = 1'-0"
140
1.0
141
12.0
290
     0
  0
SCALE
  5
538
102
{ACAD_REACTORS
330
51A
102
}
330
51A
100
AcDbScale
 70
     0
300
1-1/2" = 1'-0"
140
1.5
141
12.0
290
     0
  0
SCALE
  5
539
102
{ACAD_REACTORS
330
51A
102
}
330
51A
100
AcDbScale
 70
     0
300
3" = 1'-0"
140
3.0
141
12.0
290
     0
  0
SCALE
  5
53A
102
{ACAD_REACTORS
330
51A
102
}
330
51A
100
AcDbScale
 70
     0
300
6" = 1'-0"
140
6.0
141
12.0
290
     0
  0
SCALE
  5
53B
102
{ACAD_REACTORS
330
51A
102
}
330
51A
100
AcDbScale
 70
     0
300
1'-0" = 1'-0"
140
12.0
141
12.0
290
     0
  0
DICTIONARYVAR
  5
237E
102
{ACAD_REACTORS
330
54B
102
}
330
54B
100
DictionaryVariables
280
     0
  1
1:1
  0
DICTIONARYVAR
  5
CD4
102
{ACAD_REACTORS
330
54B
102
}
330
54B
100
DictionaryVariables
280
     0
  1
1
  0
DICTIONARYVAR
  5
CD3
102
{ACAD_REACTORS
330
54B
102
}
330
54B
100
DictionaryVariables
280
     0
  1
0
  0
DICTIONARYVAR
  5
CD2
102
{ACAD_REACTORS
330
54B
102
}
330
54B
100
DictionaryVariables
280
     0
  1
127
  0
XRECORD
  5
545
102
{ACAD_REACTORS
330
543
102
}
330
543
100
AcDbXrecord
280
     1
330
0
330
0
330
0
330
0
330
0
330
0
330
0
330
0
330
0
330
0
330
0
330
0
330
0
330
0
330
0
330
0
330
0
330
0
330
0
330
0
330
0
330
0
330
0
330
0
330
0
330
0
330
0
330
0
330
0
330
0
330
0
330
0
330
0
330
0
330
0
330
0
330
0
330
0
330
0
330
0
330
0
330
0
330
0
330
0
330
0
330
0
330
0
330
0
330
0
330
0
330
0
330
0
330
0
330
0
330
0
330
0
  0
ENDSEC
  0
EOF
