  0
SECTION
  2
HEADER
  9
$ACADVER
  1
AC1015
  9
$ACADMAINTVER
 70
    20
  9
$DWGCODEPAGE
  3
ANSI_1252
  9
$INSBASE
 10
267.5068505439835
 20
0.0
 30
0.0
  9
$EXTMIN
 10
-0.148273600558241
 20
-0.1366456290743372
 30
-0.0015258207003583
  9
$EXTMAX
 10
4859.148345952565
 20
4258.407666333667
 30
0.0000000349246037
  9
$LIMMIN
 10
0.0
 20
0.0
  9
$LIMMAX
 10
420.0
 20
297.0
  9
$ORTHOMODE
 70
     1
  9
$REGENMODE
 70
     1
  9
$FILLMODE
 70
     1
  9
$QTEXTMODE
 70
     0
  9
$MIRRTEXT
 70
     1
  9
$LTSCALE
 40
0.5
  9
$ATTMODE
 70
     1
  9
$TEXTSIZE
 40
5.86670481121007
  9
$TRACEWID
 40
1.0
  9
$TEXTSTYLE
  7
Standard
  9
$CLAYER
  8
0
  9
$CELTYPE
  6
ByLayer
  9
$CECOLOR
 62
   256
  9
$CELTSCALE
 40
1.0
  9
$DISPSILH
 70
     0
  9
$DIMSCALE
 40
1.0
  9
$DIMASZ
 40
2.5
  9
$DIMEXO
 40
0.0
  9
$DIMDLI
 40
3.75
  9
$DIMRND
 40
0.0
  9
$DIMDLE
 40
0.0
  9
$DIMEXE
 40
1.25
  9
$DIMTP
 40
0.0
  9
$DIMTM
 40
0.0
  9
$DIMTXT
 40
2.5
  9
$DIMCEN
 40
2.5
  9
$DIMTSZ
 40
0.0
  9
$DIMTOL
 70
     0
  9
$DIMLIM
 70
     0
  9
$DIMTIH
 70
     0
  9
$DIMTOH
 70
     0
  9
$DIMSE1
 70
     0
  9
$DIMSE2
 70
     0
  9
$DIMTAD
 70
     1
  9
$DIMZIN
 70
     8
  9
$DIMBLK
  1

  9
$DIMASO
 70
     1
  9
$DIMSHO
 70
     1
  9
$DIMPOST
  1

  9
$DIMAPOST
  1

  9
$DIMALT
 70
     0
  9
$DIMALTD
 70
     3
  9
$DIMALTF
 40
0.03937007874016
  9
$DIMLFAC
 40
1.0
  9
$DIMTOFL
 70
     1
  9
$DIMTVP
 40
0.0
  9
$DIMTIX
 70
     0
  9
$DIMSOXD
 70
     0
  9
$DIMSAH
 70
     0
  9
$DIMBLK1
  1

  9
$DIMBLK2
  1

  9
$DIMSTYLE
  2
ISO-25
  9
$DIMCLRD
 70
     3
  9
$DIMCLRE
 70
     3
  9
$DIMCLRT
 70
     0
  9
$DIMTFAC
 40
0.8
  9
$DIMGAP
 40
0.625
  9
$DIMJUST
 70
     0
  9
$DIMSD1
 70
     0
  9
$DIMSD2
 70
     0
  9
$DIMTOLJ
 70
     0
  9
$DIMTZIN
 70
     8
  9
$DIMALTZ
 70
     0
  9
$DIMALTTZ
 70
     0
  9
$DIMUPT
 70
     0
  9
$DIMDEC
 70
     2
  9
$DIMTDEC
 70
     2
  9
$DIMALTU
 70
     2
  9
$DIMALTTD
 70
     3
  9
$DIMTXSTY
  7
Standard
  9
$DIMAUNIT
 70
     0
  9
$DIMADEC
 70
     2
  9
$DIMALTRND
 40
0.0
  9
$DIMAZIN
 70
     2
  9
$DIMDSEP
 70
    44
  9
$DIMATFIT
 70
     3
  9
$DIMFRAC
 70
     0
  9
$DIMLDRBLK
  1

  9
$DIMLUNIT
 70
     2
  9
$DIMLWD
 70
    -2
  9
$DIMLWE
 70
    -2
  9
$DIMTMOVE
 70
     0
  9
$LUNITS
 70
     2
  9
$LUPREC
 70
     4
  9
$SKETCHINC
 40
1.0
  9
$FILLETRAD
 40
5.0
  9
$AUNITS
 70
     0
  9
$AUPREC
 70
     0
  9
$MENU
  1
.
  9
$ELEVATION
 40
0.0
  9
$PELEVATION
 40
0.0
  9
$THICKNESS
 40
0.0
  9
$LIMCHECK
 70
     0
  9
$CHAMFERA
 40
0.0
  9
$CHAMFERB
 40
0.0
  9
$CHAMFERC
 40
20.0
  9
$CHAMFERD
 40
0.0
  9
$SKPOLY
 70
     0
  9
$TDCREATE
 40
2455315.382164607
  9
$TDUCREATE
 40
2455315.298831274
  9
$TDUPDATE
 40
2455315.382636829
  9
$TDUUPDATE
 40
2455315.299303495
  9
$TDINDWG
 40
0.0004727662
  9
$TDUSRTIMER
 40
0.0004727662
  9
$USRTIMER
 70
     1
  9
$ANGBASE
 50
0.0
  9
$ANGDIR
 70
     0
  9
$PDMODE
 70
     0
  9
$PDSIZE
 40
0.0
  9
$PLINEWID
 40
0.0
  9
$SPLFRAME
 70
     0
  9
$SPLINETYPE
 70
     6
  9
$SPLINESEGS
 70
     8
  9
$HANDSEED
  5
ED0
  9
$SURFTAB1
 70
     6
  9
$SURFTAB2
 70
     6
  9
$SURFTYPE
 70
     6
  9
$SURFU
 70
     6
  9
$SURFV
 70
     6
  9
$UCSBASE
  2

  9
$UCSNAME
  2

  9
$UCSORG
 10
0.0
 20
0.0
 30
0.0
  9
$UCSXDIR
 10
1.0
 20
0.0
 30
0.0
  9
$UCSYDIR
 10
0.0
 20
1.0
 30
0.0
  9
$UCSORTHOREF
  2

  9
$UCSORTHOVIEW
 70
     0
  9
$UCSORGTOP
 10
0.0
 20
0.0
 30
0.0
  9
$UCSORGBOTTOM
 10
0.0
 20
0.0
 30
0.0
  9
$UCSORGLEFT
 10
0.0
 20
0.0
 30
0.0
  9
$UCSORGRIGHT
 10
0.0
 20
0.0
 30
0.0
  9
$UCSORGFRONT
 10
0.0
 20
0.0
 30
0.0
  9
$UCSORGBACK
 10
0.0
 20
0.0
 30
0.0
  9
$PUCSBASE
  2

  9
$PUCSNAME
  2

  9
$PUCSORG
 10
0.0
 20
0.0
 30
0.0
  9
$PUCSXDIR
 10
1.0
 20
0.0
 30
0.0
  9
$PUCSYDIR
 10
0.0
 20
1.0
 30
0.0
  9
$PUCSORTHOREF
  2

  9
$PUCSORTHOVIEW
 70
     0
  9
$PUCSORGTOP
 10
0.0
 20
0.0
 30
0.0
  9
$PUCSORGBOTTOM
 10
0.0
 20
0.0
 30
0.0
  9
$PUCSORGLEFT
 10
0.0
 20
0.0
 30
0.0
  9
$PUCSORGRIGHT
 10
0.0
 20
0.0
 30
0.0
  9
$PUCSORGFRONT
 10
0.0
 20
0.0
 30
0.0
  9
$PUCSORGBACK
 10
0.0
 20
0.0
 30
0.0
  9
$USERI1
 70
     0
  9
$USERI2
 70
     0
  9
$USERI3
 70
     0
  9
$USERI4
 70
     0
  9
$USERI5
 70
     0
  9
$USERR1
 40
0.0
  9
$USERR2
 40
0.0
  9
$USERR3
 40
0.0
  9
$USERR4
 40
0.0
  9
$USERR5
 40
0.0
  9
$WORLDVIEW
 70
     1
  9
$SHADEDGE
 70
     3
  9
$SHADEDIF
 70
    70
  9
$TILEMODE
 70
     1
  9
$MAXACTVP
 70
    64
  9
$PINSBASE
 10
0.0
 20
0.0
 30
0.0
  9
$PLIMCHECK
 70
     0
  9
$PEXTMIN
 10
1.000000000000000E+20
 20
1.000000000000000E+20
 30
1.000000000000000E+20
  9
$PEXTMAX
 10
-1.000000000000000E+20
 20
-1.000000000000000E+20
 30
-1.000000000000000E+20
  9
$PLIMMIN
 10
0.0
 20
0.0
  9
$PLIMMAX
 10
420.0
 20
297.0
  9
$UNITMODE
 70
     0
  9
$VISRETAIN
 70
     1
  9
$PLINEGEN
 70
     0
  9
$PSLTSCALE
 70
     1
  9
$TREEDEPTH
 70
  3020
  9
$CMLSTYLE
  2
Standard
  9
$CMLJUST
 70
     0
  9
$CMLSCALE
 40
20.0
  9
$PROXYGRAPHICS
 70
     1
  9
$MEASUREMENT
 70
     1
  9
$CELWEIGHT
370
    -1
  9
$ENDCAPS
280
     0
  9
$JOINSTYLE
280
     0
  9
$LWDISPLAY
290
     0
  9
$INSUNITS
 70
     4
  9
$HYPERLINKBASE
  1

  9
$STYLESHEET
  1
monochrome.ctb
  9
$XEDIT
290
     1
  9
$CEPSNTYPE
380
     0
  9
$PSTYLEMODE
290
     1
  9
$FINGERPRINTGUID
  2
{FB2875F0-4967-4E45-99F2-F1FC16DDEA91}
  9
$VERSIONGUID
  2
{7CA04939-0B94-4AF1-999E-20F33D68DCB6}
  9
$EXTNAMES
290
     1
  9
$PSVPSCALE
 40
0.0
  9
$OLESTARTUP
290
     0
  0
ENDSEC
  0
SECTION
  2
CLASSES
  0
CLASS
  1
ACDBDICTIONARYWDFLT
  2
AcDbDictionaryWithDefault
  3
ObjectDBX Classes
 90
        0
280
     0
281
     0
  0
CLASS
  1
ACDBPLACEHOLDER
  2
AcDbPlaceHolder
  3
ObjectDBX Classes
 90
        0
280
     0
281
     0
  0
CLASS
  1
LAYOUT
  2
AcDbLayout
  3
ObjectDBX Classes
 90
        0
280
     0
281
     0
  0
CLASS
  1
DICTIONARYVAR
  2
AcDbDictionaryVar
  3
ObjectDBX Classes
 90
        0
280
     0
281
     0
  0
CLASS
  1
MATERIAL
  2
AcDbMaterial
  3
ObjectDBX Classes
 90
     1153
280
     0
281
     0
  0
CLASS
  1
VISUALSTYLE
  2
AcDbVisualStyle
  3
ObjectDBX Classes
 90
     4095
280
     0
281
     0
  0
CLASS
  1
TABLESTYLE
  2
AcDbTableStyle
  3
ObjectDBX Classes
 90
     4095
280
     0
281
     0
  0
CLASS
  1
SCALE
  2
AcDbScale
  3
ObjectDBX Classes
 90
     1153
280
     0
281
     0
  0
CLASS
  1
MLEADERSTYLE
  2
AcDbMLeaderStyle
  3
ACDB_MLEADERSTYLE_CLASS
 90
     4095
280
     0
281
     0
  0
CLASS
  1
CELLSTYLEMAP
  2
AcDbCellStyleMap
  3
ObjectDBX Classes
 90
     1152
280
     0
281
     0
  0
CLASS
  1
SORTENTSTABLE
  2
AcDbSortentsTable
  3
ObjectDBX Classes
 90
        0
280
     0
281
     0
  0
ENDSEC
  0
SECTION
  2
TABLES
  0
TABLE
  2
VPORT
  5
19
330
0
100
AcDbSymbolTable
 70
     1
  0
VPORT
  5
630
330
19
100
AcDbSymbolTableRecord
100
AcDbViewportTableRecord
  2
*Active
 70
     0
 10
0.0
 20
0.0
 11
1.0
 21
1.0
 12
2432.158210263248
 22
1985.790105939543
 13
0.0
 23
0.0
 14
10.0
 24
10.0
 15
10.0
 25
10.0
 16
0.0
 26
0.0
 36
1.0
 17
0.0
 27
0.0
 37
0.0
 40
4818.169624853775
 41
1.611330698287219
 42
50.0
 43
0.0
 44
0.0
 50
0.0
 51
0.0
 71
     0
 72
   100
 73
     1
 74
     2
 75
     0
 76
     0
 77
     0
 78
     0
281
     0
 65
     1
110
0.0
120
0.0
130
0.0
111
1.0
121
0.0
131
0.0
112
0.0
122
1.0
132
0.0
 79
     0
146
0.0
  0
ENDTAB
  0
TABLE
  2
LTYPE
  5
14
330
0
100
AcDbSymbolTable
 70
     5
  0
LTYPE
  5
15
330
14
100
AcDbSymbolTableRecord
100
AcDbLinetypeTableRecord
  2
ByBlock
 70
     0
  3

 72
    65
 73
     0
 40
0.0
  0
LTYPE
  5
16
330
14
100
AcDbSymbolTableRecord
100
AcDbLinetypeTableRecord
  2
ByLayer
 70
     0
  3

 72
    65
 73
     0
 40
0.0
  0
LTYPE
  5
8
330
14
100
AcDbSymbolTableRecord
100
AcDbLinetypeTableRecord
  2
Continuous
 70
     0
  3
Solid line
 72
    65
 73
     0
 40
0.0
  0
ENDTAB
  0
TABLE
  2
LAYER
  5
10
330
0
100
AcDbSymbolTable
 70
     9
  0
LAYER
  5
4
102
{ACAD_XDICTIONARY
360
68A
102
}
330
10
100
AcDbSymbolTableRecord
100
AcDbLayerTableRecord
  2
0
 70
     0
 62
     7
  6
Continuous
370
    -3
390
5
  0
LAYER
  5
34
330
10
100
AcDbSymbolTableRecord
100
AcDbLayerTableRecord
  2
Defpoints
 70
     0
 62
     7
  6
Continuous
290
     0
370
    -3
390
5
  0
ENDTAB
  0
TABLE
  2
STYLE
  5
11
330
0
100
AcDbSymbolTable
 70
     6
  0
STYLE
  5
12
330
11
100
AcDbSymbolTableRecord
100
AcDbTextStyleTableRecord
  2
Standard
 70
     0
 40
0.0
 41
0.9
 50
0.0
 71
     0
 42
5.86670481121007
  3
simplex.shx
  4

  0
ENDTAB
  0
TABLE
  2
VIEW
  5
17
330
0
100
AcDbSymbolTable
 70
     0
  0
ENDTAB
  0
TABLE
  2
UCS
  5
18
330
0
100
AcDbSymbolTable
 70
     0
  0
ENDTAB
  0
TABLE
  2
APPID
  5
1B
330
0
100
AcDbSymbolTable
 70
     3
  0
APPID
  5
1C
330
1B
100
AcDbSymbolTableRecord
100
AcDbRegAppTableRecord
  2
ACAD
 70
     0
  0
APPID
  5
683
330
1B
100
AcDbSymbolTableRecord
100
AcDbRegAppTableRecord
  2
ACAD_MLEADERVER
 70
     0
  0
APPID
  5
69C
330
1B
100
AcDbSymbolTableRecord
100
AcDbRegAppTableRecord
  2
DCO15
 70
     0
  0
ENDTAB
  0
TABLE
  2
DIMSTYLE
  5
1D
330
0
100
AcDbSymbolTable
 70
     2
100
AcDbDimStyleTable
 71
     1
340
1E
  0
DIMSTYLE
105
1E
330
1D
100
AcDbSymbolTableRecord
100
AcDbDimStyleTableRecord
  2
ISO-25
 70
     0
 41
2.5
 42
0.0
 43
3.75
 44
1.25
 73
     0
 74
     0
 77
     1
 78
     8
140
2.5
141
2.5
143
0.03937007874016
147
0.625
171
     3
172
     1
176
     3
177
     3
271
     2
272
     2
274
     3
278
    44
283
     0
284
     8
340
12
  0
DIMSTYLE
105
AA4
330
1D
100
AcDbSymbolTableRecord
100
AcDbDimStyleTableRecord
  2
Standard
 70
     0
 41
1.25
 42
1.0
 44
0.75
 73
     0
 74
     0
 77
     1
140
2.5
146
0.8
147
1.25
176
     7
177
     7
178
     7
271
     2
340
12
  0
ENDTAB
  0
TABLE
  2
BLOCK_RECORD
  5
1
330
0
100
AcDbSymbolTable
 70
    37
  0
BLOCK_RECORD
  5
2
102
{ACAD_XDICTIONARY
360
AB6
102
}
330
1
100
AcDbSymbolTableRecord
100
AcDbBlockTableRecord
  2
*Model_Space
340
A
  0
BLOCK_RECORD
  5
C
330
1
100
AcDbSymbolTableRecord
100
AcDbBlockTableRecord
  2
*Paper_Space
340
F
  0
ENDTAB
  0
ENDSEC
  0
SECTION
  2
BLOCKS
  0
BLOCK
  5
3
330
2
100
AcDbEntity
  8
0
100
AcDbBlockBegin
  2
*Model_Space
 70
     0
 10
0.0
 20
0.0
 30
0.0
  3
*Model_Space
  1

  0
ENDBLK
  5
9
330
2
100
AcDbEntity
  8
0
100
AcDbBlockEnd
  0
BLOCK
  5
D
330
C
100
AcDbEntity
 67
     1
  8
0
100
AcDbBlockBegin
  2
*Paper_Space
 70
     0
 10
0.0
 20
0.0
 30
0.0
  3
*Paper_Space
  1

  0
ENDBLK
  5
E
330
C
100
AcDbEntity
 67
     1
  8
0
100
AcDbBlockEnd
  0
ENDSEC
  0
SECTION
  2
ENTITIES
  0
TEXT
  5
AB5
330
2
100
AcDbEntity
  8
0
 62
     7
100
AcDbText
 10
2008.79950618375
 20
4058.205860951662
 30
0.0
 40
200.0
  1
BZQ9
 41
0.9
100
AcDbText
  0
ARC
  5
AB8
330
2
100
AcDbEntity
  8
0
  6
Continuous
 62
     9
100
AcDbCircle
 10
2554.800688331708
 20
41.00002705779206
 30
0.0
 40
2.0
100
AcDbArc
 50
179.9999999801981
 51
89.99999998018509
  0
ARC
  5
AB9
330
2
100
AcDbEntity
  8
0
  6
Continuous
 62
     9
100
AcDbCircle
 10
2564.80068833171
 20
41.0000270543369
 30
0.0
 40
2.0
100
AcDbArc
 50
179.9999999801981
 51
89.99999998018509
  0
ARC
  5
ABA
330
2
100
AcDbEntity
  8
0
  6
Continuous
 62
     9
100
AcDbCircle
 10
1618.043168463227
 20
41.20002738310222
 30
0.0
 40
2.99999999999989
100
AcDbArc
 50
359.9999999634447
 51
269.9999999634447
  0
ARC
  5
ABB
330
2
100
AcDbEntity
  8
0
  6
Continuous
 62
     9
100
AcDbCircle
 10
1588.043168463226
 20
41.20002740224527
 30
0.0
 40
2.99999999999989
100
AcDbArc
 50
359.9999999634447
 51
269.9999999634317
  0
ARC
  5
ABC
330
2
100
AcDbEntity
  8
0
  6
Continuous
 62
     9
100
AcDbCircle
 10
3347.000048089074
 20
41.20002678392757
 30
0.0
 40
2.99999999999989
100
AcDbArc
 50
179.9999999801721
 51
89.99999998015903
  0
ARC
  5
ABD
330
2
100
AcDbEntity
  8
0
  6
Continuous
 62
     9
100
AcDbCircle
 10
3377.000048089073
 20
41.20002677353932
 30
0.0
 40
3.000000000000113
100
AcDbArc
 50
179.9999999801721
 51
89.99999998015903
  0
LINE
  5
ABE
330
2
100
AcDbEntity
  8
0
  6
Continuous
 62
     7
100
AcDbLine
 10
2062.000049671304
 20
16.25002934523627
 30
0.0
 11
1582.000049671303
 21
16.25002937508907
 31
0.0
  0
LINE
  5
ABF
330
2
100
AcDbEntity
  8
0
  6
Continuous
 62
     9
100
AcDbLine
 10
2062.000049671242
 20
15.25002934523718
 30
0.0
 11
1582.000049671241
 21
15.25002937509043
 31
0.0
  0
LINE
  5
AC0
330
2
100
AcDbEntity
  8
0
  6
Continuous
 62
     7
100
AcDbLine
 10
1582.000049671241
 20
15.25002937509043
 30
0.0
 11
1582.000049671303
 21
16.25002937509134
 31
0.0
  0
LINE
  5
AC1
330
2
100
AcDbEntity
  8
0
  6
Continuous
 62
     7
100
AcDbLine
 10
2062.000049671242
 20
15.25002934523718
 30
0.0
 11
2062.000049671304
 21
16.25002934523627
 31
0.0
  0
LINE
  5
AC2
330
2
100
AcDbEntity
  8
0
  6
Continuous
 62
     9
100
AcDbLine
 10
2062.000049671226
 20
15.00002934523718
 30
0.0
 11
1582.000049671226
 21
15.00002937509134
 31
0.0
  0
LINE
  5
AC3
330
2
100
AcDbEntity
  8
0
  6
Continuous
 62
     7
100
AcDbLine
 10
1582.000049671226
 20
15.00002937509134
 30
0.0
 11
1582.000049671241
 21
15.25002937509043
 31
0.0
  0
LINE
  5
AC4
330
2
100
AcDbEntity
  8
0
  6
Continuous
 62
     7
100
AcDbLine
 10
2062.000049671226
 20
15.00002934523718
 30
0.0
 11
2062.000049671242
 21
15.25002934523718
 31
0.0
  0
LINE
  5
AC5
330
2
100
AcDbEntity
  8
0
  6
Continuous
 62
     7
100
AcDbLine
 10
2062.000049671164
 20
14.00002934523627
 30
0.0
 11
1582.000049671164
 21
14.00002937509134
 31
0.0
  0
LINE
  5
AC6
330
2
100
AcDbEntity
  8
0
  6
Continuous
 62
     7
100
AcDbLine
 10
1582.000049671164
 20
14.00002937509134
 30
0.0
 11
1582.000049671226
 21
15.00002937509134
 31
0.0
  0
LINE
  5
AC7
330
2
100
AcDbEntity
  8
0
  6
Continuous
 62
     7
100
AcDbLine
 10
2062.000049671164
 20
14.00002934523627
 30
0.0
 11
2062.000049671226
 21
15.00002934523718
 31
0.0
  0
LINE
  5
AC8
330
2
100
AcDbEntity
  8
0
  6
Continuous
 62
     9
100
AcDbLine
 10
2062.000049672198
 20
30.62848844096425
 30
0.0
 11
2032.706013229902
 21
30.62848844278551
 31
0.0
  0
LINE
  5
AC9
330
2
100
AcDbEntity
  8
0
  6
Continuous
 62
     9
100
AcDbLine
 10
2031.708483597128
 20
30.62848844284918
 30
0.0
 11
1582.000049672198
 21
30.62848847081841
 31
0.0
  0
LINE
  5
ACA
330
2
100
AcDbEntity
  8
0
  6
Continuous
 62
     7
100
AcDbLine
 10
2062.000049672131
 20
29.550029345236
 30
0.0
 11
2043.726961838722
 21
29.55002934637332
 31
0.0
  0
LINE
  5
ACB
330
2
100
AcDbEntity
  8
0
  6
Continuous
 62
     7
100
AcDbLine
 10
2031.708483597061
 20
29.55002934712138
 30
0.0
 11
1582.000049672131
 21
29.55002937509016
 31
0.0
  0
LINE
  5
ACC
330
2
100
AcDbEntity
  8
0
  6
Continuous
 62
     7
100
AcDbLine
 10
1582.000049672131
 20
29.55002937509016
 30
0.0
 11
1582.000049672198
 21
30.62848847081887
 31
0.0
  0
LINE
  5
ACD
330
2
100
AcDbEntity
  8
0
  6
Continuous
 62
     7
100
AcDbLine
 10
2062.000049672131
 20
29.550029345236
 30
0.0
 11
2062.000049672198
 21
30.62848844096607
 31
0.0
  0
LINE
  5
ACE
330
2
100
AcDbEntity
  8
0
  6
Continuous
 62
     9
100
AcDbLine
 10
2062.000049673504
 20
51.62848844096425
 30
0.0
 11
2032.302167077361
 21
51.62848844281234
 31
0.0
  0
LINE
  5
ACF
330
2
100
AcDbEntity
  8
0
  6
Continuous
 62
     9
100
AcDbLine
 10
2031.708483598432
 20
51.62848844284827
 30
0.0
 11
1982.000049673162
 21
51.62848844594055
 31
0.0
  0
LINE
  5
AD0
330
2
100
AcDbEntity
  8
0
  6
Continuous
 62
     9
100
AcDbLine
 10
1962.000049673162
 20
51.62848844718428
 30
0.0
 11
1682.000046696815
 21
51.62848846459929
 31
0.0
  0
LINE
  5
AD1
330
2
100
AcDbEntity
  8
0
  6
Continuous
 62
     9
100
AcDbLine
 10
1662.000046696815
 20
51.62848846584211
 30
0.0
 11
1582.000049673504
 21
51.62848847081841
 31
0.0
  0
LINE
  5
AD2
330
2
100
AcDbEntity
  8
0
  6
Continuous
 62
     7
100
AcDbLine
 10
1582.000049672198
 20
30.62848847081887
 30
0.0
 11
1582.000049673504
 21
51.62848847081841
 31
0.0
  0
LINE
  5
AD3
330
2
100
AcDbEntity
  8
0
  6
Continuous
 62
     7
100
AcDbLine
 10
2062.000049672198
 20
30.62848844096425
 30
0.0
 11
2062.000049672533
 21
36.00002722694944
 31
0.0
  0
LINE
  5
AD4
330
2
100
AcDbEntity
  8
0
  6
Continuous
 62
     7
100
AcDbLine
 10
2062.000049673154
 20
46.00002722694944
 30
0.0
 11
2062.000049673504
 21
51.62848844096425
 31
0.0
  0
LINE
  5
AD5
330
2
100
AcDbEntity
  8
0
  6
Continuous
 62
     7
100
AcDbLine
 10
1582.000049673504
 20
51.62848847081841
 30
0.0
 11
1582.000049673562
 21
52.55002937509016
 31
0.0
  0
LINE
  5
AD6
330
2
100
AcDbEntity
  8
0
  6
Continuous
 62
     7
100
AcDbLine
 10
2062.000049673504
 20
51.62848844096425
 30
0.0
 11
2062.000049673562
 21
52.55002934523736
 31
0.0
  0
LINE
  5
AD7
330
2
100
AcDbEntity
  8
0
  6
Continuous
 62
     9
100
AcDbLine
 10
2062.000049674353
 20
65.2686231586913
 30
0.0
 11
1984.500049675867
 21
65.26862316351025
 31
0.0
  0
LINE
  5
AD8
330
2
100
AcDbEntity
  8
0
  6
Continuous
 62
     9
100
AcDbLine
 10
1959.500049675867
 20
65.26862316506504
 30
0.0
 11
1684.500046703463
 21
65.26862318216899
 31
0.0
  0
LINE
  5
AD9
330
2
100
AcDbEntity
  8
0
  6
Continuous
 62
     9
100
AcDbLine
 10
1659.500046703463
 20
65.26862318372423
 30
0.0
 11
1582.000049674352
 21
65.26862318854319
 31
0.0
  0
LINE
  5
ADA
330
2
100
AcDbEntity
  8
0
  6
Continuous
 62
     9
100
AcDbLine
 10
2062.000049674285
 20
64.1852727178516
 30
0.0
 11
1984.500049675696
 21
64.18527272267147
 31
0.0
  0
LINE
  5
ADB
330
2
100
AcDbEntity
  8
0
  6
Continuous
 62
     9
100
AcDbLine
 10
1959.500049675696
 20
64.18527272422579
 30
0.0
 11
1684.500046702979
 21
64.1852727413293
 31
0.0
  0
LINE
  5
ADC
330
2
100
AcDbEntity
  8
0
  6
Continuous
 62
     9
100
AcDbLine
 10
1659.500046702979
 20
64.18527274288499
 30
0.0
 11
1582.000049674285
 21
64.18527274770486
 31
0.0
  0
LINE
  5
ADD
330
2
100
AcDbEntity
  8
0
  6
Continuous
 62
     7
100
AcDbLine
 10
1582.000049674285
 20
64.18527274770486
 30
0.0
 11
1582.000049674352
 21
65.26862318854319
 31
0.0
  0
LINE
  5
ADE
330
2
100
AcDbEntity
  8
0
  6
Continuous
 62
     7
100
AcDbLine
 10
2062.000049674285
 20
64.1852727178516
 30
0.0
 11
2062.000049674353
 21
65.2686231586913
 31
0.0
  0
LINE
  5
ADF
330
2
100
AcDbEntity
  8
0
  6
Continuous
 62
     9
100
AcDbLine
 10
2062.00004967427
 20
63.93622404332837
 30
0.0
 11
1984.000049674081
 21
63.93622404817915
 31
0.0
  0
LINE
  5
AE0
330
2
100
AcDbEntity
  8
0
  6
Continuous
 62
     9
100
AcDbLine
 10
1960.000049674082
 20
63.93622404967209
 30
0.0
 11
1684.000046701292
 21
63.93622406683835
 31
0.0
  0
LINE
  5
AE1
330
2
100
AcDbEntity
  8
0
  6
Continuous
 62
     9
100
AcDbLine
 10
1660.000046701293
 20
63.93622406833128
 30
0.0
 11
1582.00004967427
 21
63.93622407318116
 31
0.0
  0
LINE
  5
AE2
330
2
100
AcDbEntity
  8
0
  6
Continuous
 62
     7
100
AcDbLine
 10
1582.00004967427
 20
63.93622407318116
 30
0.0
 11
1582.000049674285
 21
64.18527274770486
 31
0.0
  0
LINE
  5
AE3
330
2
100
AcDbEntity
  8
0
  6
Continuous
 62
     7
100
AcDbLine
 10
2062.00004967427
 20
63.93622404332837
 30
0.0
 11
2062.000049674285
 21
64.1852727178516
 31
0.0
  0
LINE
  5
AE4
330
2
100
AcDbEntity
  8
0
  6
Continuous
 62
     7
100
AcDbLine
 10
2062.000049674213
 20
63.02337978607511
 30
0.0
 11
2062.00004967427
 21
63.93622404332837
 31
0.0
  0
LINE
  5
AE5
330
2
100
AcDbEntity
  8
0
  6
Continuous
 62
     7
100
AcDbLine
 10
1582.000049674213
 20
63.02337981593018
 30
0.0
 11
1582.00004967427
 21
63.93622407318116
 31
0.0
  0
LINE
  5
AE6
330
2
100
AcDbEntity
  8
0
  6
Continuous
 62
     9
100
AcDbLine
 10
2062.000049674413
 20
66.23420487842622
 30
0.0
 11
1984.500049676019
 21
66.23420488324518
 31
0.0
  0
LINE
  5
AE7
330
2
100
AcDbEntity
  8
0
  6
Continuous
 62
     9
100
AcDbLine
 10
1959.500049676019
 20
66.23420488480042
 30
0.0
 11
1684.500046703893
 21
66.23420490190437
 31
0.0
  0
LINE
  5
AE8
330
2
100
AcDbEntity
  8
0
  6
Continuous
 62
     9
100
AcDbLine
 10
1659.500046703894
 20
66.23420490345916
 30
0.0
 11
1582.000049674413
 21
66.23420490827948
 31
0.0
  0
LINE
  5
AE9
330
2
100
AcDbEntity
  8
0
  6
Continuous
 62
     7
100
AcDbLine
 10
1582.000049674352
 20
65.26862318854319
 30
0.0
 11
1582.000049674413
 21
66.23420490827948
 31
0.0
  0
LINE
  5
AEA
330
2
100
AcDbEntity
  8
0
  6
Continuous
 62
     7
100
AcDbLine
 10
2062.000049674353
 20
65.2686231586913
 30
0.0
 11
2062.000049674413
 21
66.23420487842622
 31
0.0
  0
LINE
  5
AEB
330
2
100
AcDbEntity
  8
0
  6
Continuous
 62
     7
100
AcDbLine
 10
1582.000049674413
 20
66.23420490827948
 30
0.0
 11
1582.000049674413
 21
66.23801021018744
 31
0.0
  0
LINE
  5
AEC
330
2
100
AcDbEntity
  8
0
  6
Continuous
 62
     7
100
AcDbLine
 10
2062.000049674413
 20
66.23420487842622
 30
0.0
 11
2062.000049674414
 21
66.23801018033327
 31
0.0
  0
LINE
  5
AED
330
2
100
AcDbEntity
  8
0
  6
Continuous
 62
     7
100
AcDbLine
 10
1582.000049673562
 20
52.55002937509016
 30
0.0
 11
1582.000049673652
 21
54.0000293750727
 31
0.0
  0
LINE
  5
AEE
330
2
100
AcDbEntity
  8
0
  6
Continuous
 62
     7
100
AcDbLine
 10
1582.00004967415
 20
62.0000293750727
 30
0.0
 11
1582.000049674213
 21
63.02337981593018
 31
0.0
  0
LINE
  5
AEF
330
2
100
AcDbEntity
  8
0
  6
Continuous
 62
     7
100
AcDbLine
 10
2062.000049673562
 20
52.55002934523736
 30
0.0
 11
2062.000049673653
 21
54.00002934523718
 31
0.0
  0
LINE
  5
AF0
330
2
100
AcDbEntity
  8
0
  6
Continuous
 62
     7
100
AcDbLine
 10
2062.00004967415
 20
62.00002934523627
 30
0.0
 11
2062.000049674213
 21
63.02337978607511
 31
0.0
  0
LINE
  5
AF1
330
2
100
AcDbEntity
  8
0
  6
Continuous
 62
     7
100
AcDbLine
 10
1582.000049671304
 20
16.25002937509134
 30
0.0
 11
1582.000049672132
 21
29.55002937509016
 31
0.0
  0
LINE
  5
AF2
330
2
100
AcDbEntity
  8
0
  6
Continuous
 62
     7
100
AcDbLine
 10
2062.000049671305
 20
16.25002934523627
 30
0.0
 11
2062.000049671538
 21
20.00002934523718
 31
0.0
  0
LINE
  5
AF3
330
2
100
AcDbEntity
  8
0
  6
Continuous
 62
     7
100
AcDbLine
 10
2062.000049672036
 20
28.00002934523718
 30
0.0
 11
2062.000049672132
 21
29.550029345236
 31
0.0
  0
LINE
  5
AF4
330
2
100
AcDbEntity
  8
0
  6
Continuous
 62
     7
100
AcDbLine
 10
1582.000049721037
 20
814.0000293750855
 30
0.0
 11
3382.000049721039
 21
814.0000292631512
 31
0.0
  0
LINE
  5
AF5
330
2
100
AcDbEntity
  8
0
  6
Continuous
 62
     9
100
AcDbLine
 10
1632.000049717927
 20
764.0000293719749
 30
0.0
 11
3332.00004971793
 21
764.0000292662603
 31
0.0
  0
LINE
  5
AF6
330
2
100
AcDbEntity
  8
0
  6
Continuous
 62
     9
100
AcDbLine
 10
1632.000049674537
 20
66.23801020707742
 30
0.0
 11
1632.000049717927
 21
764.0000293719749
 31
0.0
  0
LINE
  5
AF7
330
2
100
AcDbEntity
  8
0
  6
Continuous
 62
     9
100
AcDbLine
 10
3332.000049674399
 20
64.00002926626166
 30
0.0
 11
2062.000049674274
 21
64.00002934523627
 31
0.0
  0
LINE
  5
AF8
330
2
100
AcDbEntity
  8
0
  6
Continuous
 62
     9
100
AcDbLine
 10
3332.00004971793
 20
764.0000292662603
 30
0.0
 11
3332.000049674399
 21
64.00002926626166
 31
0.0
  0
LINE
  5
AF9
330
2
100
AcDbEntity
  8
0
  6
Continuous
 62
     7
100
AcDbLine
 10
3382.000049721039
 20
814.0000292631512
 30
0.0
 11
3382.000049673447
 21
48.70002677173215
 31
0.0
  0
LINE
  5
AFA
330
2
100
AcDbEntity
  8
0
  6
Continuous
 62
     7
100
AcDbLine
 10
3382.000048881156
 20
33.70002677173216
 30
0.0
 11
3382.000049671289
 21
14.00002926315119
 31
0.0
  0
LINE
  5
AFB
330
2
100
AcDbEntity
  8
0
  6
Continuous
 62
     7
100
AcDbLine
 10
3382.000049671289
 20
14.00002926315255
 30
0.0
 11
2562.708483595325
 21
14.00002931410017
 31
0.0
  0
LINE
  5
AFC
330
2
100
AcDbEntity
  8
0
  6
Continuous
 62
     7
100
AcDbLine
 10
2520.208483595903
 20
14.00002931674316
 30
0.0
 11
2145.20848359605
 21
14.00002934006397
 31
0.0
  0
LINE
  5
AFD
330
2
100
AcDbEntity
  8
0
  6
Continuous
 62
     7
100
AcDbLine
 10
2120.20848359606
 20
14.00002934161875
 30
0.0
 11
2062.000049671164
 21
14.00002934523809
 31
0.0
  0
LINE
  5
AFE
330
2
100
AcDbEntity
  8
0
  6
Continuous
 62
     7
100
AcDbLine
 10
1582.000049674475
 20
66.23801021018744
 30
0.0
 11
1582.000049721037
 21
814.0000293750855
 31
0.0
  0
LINE
  5
AFF
330
2
100
AcDbEntity
  8
0
  6
Continuous
 62
     7
100
AcDbLine
 10
3332.000049674399
 20
64.00002926626166
 30
0.0
 11
3282.000049677508
 21
114.0000292693698
 31
0.0
  0
LINE
  5
B00
330
2
100
AcDbEntity
  8
0
  6
Continuous
 62
     7
100
AcDbLine
 10
3282.000049677508
 20
114.0000292693698
 30
0.0
 11
3282.000049714819
 21
714.0000292693693
 31
0.0
  0
LINE
  5
B01
330
2
100
AcDbEntity
  8
0
  6
Continuous
 62
     7
100
AcDbLine
 10
3332.00004971793
 20
764.0000292662603
 30
0.0
 11
3282.00004971482
 21
714.0000292693693
 31
0.0
  0
LINE
  5
B02
330
2
100
AcDbEntity
  8
0
  6
Continuous
 62
     7
100
AcDbLine
 10
1682.000049714818
 20
714.0000293688663
 30
0.0
 11
1682.000049677507
 21
114.0000293688672
 31
0.0
  0
LINE
  5
B03
330
2
100
AcDbEntity
  8
0
  6
Continuous
 62
     7
100
AcDbLine
 10
1682.000049677507
 20
114.0000293688672
 30
0.0
 11
1634.238030509638
 21
66.23801020693827
 31
0.0
  0
LINE
  5
B04
330
2
100
AcDbEntity
  8
0
  6
Continuous
 62
     7
100
AcDbLine
 10
1682.000049714818
 20
714.0000293688663
 30
0.0
 11
1632.000049717927
 21
764.0000293719749
 31
0.0
  0
LINE
  5
B05
330
2
100
AcDbEntity
  8
0
  6
Continuous
 62
     7
100
AcDbLine
 10
1682.000049677507
 20
114.0000293688672
 30
0.0
 11
3282.000049677508
 21
114.0000292693698
 31
0.0
  0
LINE
  5
B06
330
2
100
AcDbEntity
  8
0
  6
Continuous
 62
     7
100
AcDbLine
 10
3282.000049714819
 20
714.0000292693693
 30
0.0
 11
1682.000049714818
 21
714.0000293688663
 31
0.0
  0
LINE
  5
B07
330
2
100
AcDbEntity
  8
0
  6
Continuous
 62
     7
100
AcDbLine
 10
1882.000049702381
 20
514.0000293564294
 30
0.0
 11
1682.000049714819
 21
714.0000293688663
 31
0.0
  0
LINE
  5
B08
330
2
100
AcDbEntity
  8
0
  6
Continuous
 62
     9
100
AcDbLine
 10
1882.000049702381
 20
514.0000293564294
 30
0.0
 11
1882.000049689944
 21
314.0000293564294
 31
0.0
  0
LINE
  5
B09
330
2
100
AcDbEntity
  8
0
  6
Continuous
 62
     7
100
AcDbLine
 10
1682.000049677507
 20
114.0000293688672
 30
0.0
 11
1882.000049689944
 21
314.0000293564294
 31
0.0
  0
LINE
  5
B0A
330
2
100
AcDbEntity
  8
0
  6
Continuous
 62
     9
100
AcDbLine
 10
1882.000049689944
 20
314.0000293564294
 30
0.0
 11
3082.000049689945
 21
314.0000292818068
 31
0.0
  0
LINE
  5
B0B
330
2
100
AcDbEntity
  8
0
  6
Continuous
 62
     7
100
AcDbLine
 10
3282.000049677508
 20
114.0000292693698
 30
0.0
 11
3082.000049689945
 21
314.0000292818068
 31
0.0
  0
LINE
  5
B0C
330
2
100
AcDbEntity
  8
0
  6
Continuous
 62
     9
100
AcDbLine
 10
3082.000049689945
 20
314.0000292818068
 30
0.0
 11
3082.000049702382
 21
514.0000292818071
 31
0.0
  0
LINE
  5
B0D
330
2
100
AcDbEntity
  8
0
  6
Continuous
 62
     7
100
AcDbLine
 10
3082.000049702382
 20
514.0000292818071
 30
0.0
 11
3282.000049714819
 21
714.0000292693693
 31
0.0
  0
LINE
  5
B0E
330
2
100
AcDbEntity
  8
0
  6
Continuous
 62
     9
100
AcDbLine
 10
3082.000049702382
 20
514.0000292818071
 30
0.0
 11
1882.000049702381
 21
514.0000293564294
 31
0.0
  0
LINE
  5
B0F
330
2
100
AcDbEntity
  8
0
  6
Continuous
 62
     9
100
AcDbLine
 10
2561.708483594455
 20
1.000029313991035
 30
0.0
 11
2561.708483595635
 21
20.00002931399103
 31
0.0
  0
LINE
  5
B10
330
2
100
AcDbEntity
  8
0
  6
Continuous
 62
     7
100
AcDbLine
 10
2562.708483595697
 20
20.00002931394693
 30
0.0
 11
2562.708483594517
 21
1.000029313948289
 31
0.0
  0
LINE
  5
B11
330
2
100
AcDbEntity
  8
0
  6
Continuous
 62
     9
100
AcDbLine
 10
2561.708483594455
 20
1.000029314010589
 30
0.0
 11
2562.708483594517
 21
1.000029313948289
 31
0.0
  0
LINE
  5
B12
330
2
100
AcDbEntity
  8
0
  6
Continuous
 62
     9
100
AcDbLine
 10
2543.708483595208
 20
13.00002931563358
 30
0.0
 11
2543.708483594463
 21
1.000029315110168
 31
0.0
  0
LINE
  5
B13
330
2
100
AcDbEntity
  8
0
  6
Continuous
 62
     9
100
AcDbLine
 10
2543.708483594463
 20
1.000029315110168
 30
0.0
 11
2561.708483594455
 21
1.000029313991035
 31
0.0
  0
ARC
  5
B14
330
2
100
AcDbEntity
  8
0
  6
Continuous
 62
     7
100
AcDbCircle
 10
2561.708483594517
 20
1.000029314010589
 30
0.0
 40
0.9999999999994455
100
AcDbArc
 50
269.9999999964435
 51
359.9999999964305
  0
LINE
  5
B15
330
2
100
AcDbEntity
  8
0
  6
Continuous
 62
     9
100
AcDbLine
 10
2561.708483594517
 20
1.000029313991035
 30
0.0
 11
2561.708483594455
 21
0.0000293140110443
 31
0.0
  0
LINE
  5
B16
330
2
100
AcDbEntity
  8
0
  6
Continuous
 62
     7
100
AcDbLine
 10
2561.708483594455
 20
0.0000293140105896
 30
0.0
 11
2543.708483594463
 21
0.0000293151306323
 31
0.0
  0
LINE
  5
B17
330
2
100
AcDbEntity
  8
0
  6
Continuous
 62
     9
100
AcDbLine
 10
2543.708483594525
 20
1.000029315110168
 30
0.0
 11
2543.708483594463
 21
0.0000293151306323
 31
0.0
  0
LINE
  5
B18
330
2
100
AcDbEntity
  8
0
  6
Continuous
 62
     9
100
AcDbLine
 10
2543.708483594463
 20
1.000029315129268
 30
0.0
 11
2542.708483594525
 21
1.000029315191113
 31
0.0
  0
LINE
  5
B19
330
2
100
AcDbEntity
  8
0
  6
Continuous
 62
     7
100
AcDbLine
 10
2542.708483594526
 20
1.000029315191113
 30
0.0
 11
2542.708483595272
 21
13.00002931580502
 31
0.0
  0
ARC
  5
B1A
330
2
100
AcDbEntity
  8
0
  6
Continuous
 62
     7
100
AcDbCircle
 10
2543.708483594525
 20
1.000029315129268
 30
0.0
 40
1.0
100
AcDbArc
 50
179.9999999964304
 51
269.9999999964305
  0
LINE
  5
B1B
330
2
100
AcDbEntity
  8
0
  6
Continuous
 62
     9
100
AcDbLine
 10
2547.800688333783
 20
47.00002931485232
 30
0.0
 11
2543.708483598664
 21
47.00002931525932
 31
0.0
  0
LINE
  5
B1C
330
2
100
AcDbEntity
  8
0
  6
Continuous
 62
     9
100
AcDbLine
 10
2543.708483598664
 20
47.00002931525932
 30
0.0
 11
2543.708483598764
 21
48.00002931529525
 31
0.0
  0
LINE
  5
B1D
330
2
100
AcDbEntity
  8
0
  6
Continuous
 62
     7
100
AcDbLine
 10
2543.708483598764
 20
48.00002931529661
 30
0.0
 11
2547.800688334588
 21
48.00002931488961
 31
0.0
  0
LINE
  5
B1E
330
2
100
AcDbEntity
  8
0
  6
Continuous
 62
     9
100
AcDbLine
 10
2543.708483598664
 20
47.00002931529707
 30
0.0
 11
2543.208483597957
 21
47.00002931534618
 31
0.0
  0
ARC
  5
B1F
330
2
100
AcDbEntity
  8
0
  6
Continuous
 62
     7
100
AcDbCircle
 10
2543.708483598664
 20
47.00002931529707
 30
0.0
 40
0.9999999999998896
100
AcDbArc
 50
89.99999999430697
 51
120.000000043282
  0
LINE
  5
B20
330
2
100
AcDbEntity
  8
0
  6
Continuous
 62
     9
100
AcDbLine
 10
2543.708483598664
 20
47.00002931525932
 30
0.0
 11
2543.708483598565
 21
46.00002706043506
 31
0.0
  0
LINE
  5
B21
330
2
100
AcDbEntity
  8
0
  6
Continuous
 62
     9
100
AcDbLine
 10
2543.70848359757
 20
36.00002706043506
 30
0.0
 11
2543.708483596775
 21
28.00002931526069
 31
0.0
  0
LINE
  5
B22
330
2
100
AcDbEntity
  8
0
  6
Continuous
 62
     7
100
AcDbLine
 10
2542.708483597222
 20
32.50002931558356
 30
0.0
 11
2542.708483597273
 21
33.00002931535801
 31
0.0
  0
LINE
  5
B23
330
2
100
AcDbEntity
  8
0
  6
Continuous
 62
     7
100
AcDbLine
 10
2542.708483597556
 20
35.85002931558392
 30
0.0
 11
2542.708483597571
 21
36.00002706078112
 31
0.0
  0
LINE
  5
B24
330
2
100
AcDbEntity
  8
0
  6
Continuous
 62
     7
100
AcDbLine
 10
2542.708483598566
 20
46.00002706078112
 30
0.0
 11
2542.708483598581
 21
46.15002931558684
 31
0.0
  0
LINE
  5
B25
330
2
100
AcDbEntity
  8
0
  6
Continuous
 62
     9
100
AcDbLine
 10
2561.708483596766
 20
28.00002931346899
 30
0.0
 11
2561.708483597314
 21
33.50002705533143
 31
0.0
  0
LINE
  5
B26
330
2
100
AcDbEntity
  8
0
  6
Continuous
 62
     7
100
AcDbLine
 10
2562.708483597313
 20
33.50002705498628
 30
0.0
 11
2562.708483596765
 21
28.00002931340623
 31
0.0
  0
CIRCLE
  5
B27
330
2
100
AcDbEntity
  8
0
  6
Continuous
 62
     7
100
AcDbCircle
 10
2564.800688331197
 20
41.0000270543369
 30
0.0
 40
1.299999999999966
  0
LINE
  5
B28
330
2
100
AcDbEntity
  8
0
  6
Continuous
 62
     7
100
AcDbLine
 10
2565.378038600732
 20
42.00002705413726
 30
0.0
 11
2565.955388869576
 21
41.00002705393808
 31
0.0
  0
LINE
  5
B29
330
2
100
AcDbEntity
  8
0
  6
Continuous
 62
     7
100
AcDbLine
 10
2564.223338062353
 20
42.00002705453607
 30
0.0
 11
2565.378038600732
 21
42.00002705413726
 31
0.0
  0
LINE
  5
B2A
330
2
100
AcDbEntity
  8
0
  6
Continuous
 62
     7
100
AcDbLine
 10
2563.645987792817
 20
41.00002705473616
 30
0.0
 11
2564.223338062353
 21
42.00002705453607
 31
0.0
  0
LINE
  5
B2B
330
2
100
AcDbEntity
  8
0
  6
Continuous
 62
     7
100
AcDbLine
 10
2564.223338061661
 20
40.00002705453744
 30
0.0
 11
2563.645987792817
 21
41.00002705473616
 31
0.0
  0
LINE
  5
B2C
330
2
100
AcDbEntity
  8
0
  6
Continuous
 62
     7
100
AcDbLine
 10
2565.378038600041
 20
40.00002705413726
 30
0.0
 11
2564.223338061661
 21
40.00002705453744
 31
0.0
  0
LINE
  5
B2D
330
2
100
AcDbEntity
  8
0
  6
Continuous
 62
     7
100
AcDbLine
 10
2565.955388869576
 20
41.00002705393808
 30
0.0
 11
2565.378038600041
 21
40.00002705413726
 31
0.0
  0
CIRCLE
  5
B2E
330
2
100
AcDbEntity
  8
0
  6
Continuous
 62
     7
100
AcDbCircle
 10
2554.800688331197
 20
41.00002705779343
 30
0.0
 40
1.299999999999966
  0
LINE
  5
B2F
330
2
100
AcDbEntity
  8
0
  6
Continuous
 62
     7
100
AcDbLine
 10
2555.378038600732
 20
42.00002705759334
 30
0.0
 11
2555.955388869576
 21
41.00002705739416
 31
0.0
  0
LINE
  5
B30
330
2
100
AcDbEntity
  8
0
  6
Continuous
 62
     7
100
AcDbLine
 10
2554.223338062353
 20
42.00002705799306
 30
0.0
 11
2555.378038600732
 21
42.00002705759334
 31
0.0
  0
LINE
  5
B31
330
2
100
AcDbEntity
  8
0
  6
Continuous
 62
     7
100
AcDbLine
 10
2553.645987792818
 20
41.00002705819224
 30
0.0
 11
2554.223338062353
 21
42.00002705799306
 31
0.0
  0
LINE
  5
B32
330
2
100
AcDbEntity
  8
0
  6
Continuous
 62
     7
100
AcDbLine
 10
2554.223338061662
 20
40.00002705799261
 30
0.0
 11
2553.645987792818
 21
41.00002705819224
 31
0.0
  0
LINE
  5
B33
330
2
100
AcDbEntity
  8
0
  6
Continuous
 62
     7
100
AcDbLine
 10
2555.378038600041
 20
40.00002705759334
 30
0.0
 11
2554.223338061662
 21
40.00002705799261
 31
0.0
  0
LINE
  5
B34
330
2
100
AcDbEntity
  8
0
  6
Continuous
 62
     7
100
AcDbLine
 10
2555.955388869576
 20
41.00002705739416
 30
0.0
 11
2555.378038600041
 21
40.00002705759334
 31
0.0
  0
ELLIPSE
  5
B35
330
2
100
AcDbEntity
  8
0
  6
Continuous
 62
    92
100
AcDbEllipse
 10
2544.303846348737
 20
41.00002706116038
 30
0.0
 11
-1.783999834967241
 21
-1.783999512571021
 31
0.0
210
0.0
220
0.0
230
1.0
 40
0.9817175513781513
 41
5.507012529320411
 42
7.059358265093629
  0
ELLIPSE
  5
B36
330
2
100
AcDbEntity
  8
0
  6
Continuous
 62
    92
100
AcDbEllipse
 10
2544.303846348737
 20
41.00002706116038
 30
0.0
 11
-1.783999834967241
 21
-1.783999512571021
 31
0.0
210
0.0
220
0.0
230
1.0
 40
0.9817175513781513
 41
3.917765611503833
 42
5.507012529320411
  0
LINE
  5
B37
330
2
100
AcDbEntity
  8
0
  6
Continuous
 62
     9
100
AcDbLine
 10
2567.800688329463
 20
34.50002705330007
 30
0.0
 11
2547.800688329463
 21
34.5000270602136
 31
0.0
  0
LINE
  5
B38
330
2
100
AcDbEntity
  8
0
  6
Continuous
 62
     7
100
AcDbLine
 10
2567.800688332439
 20
33.50002705322504
 30
0.0
 11
2547.800688332439
 21
33.50002706013902
 31
0.0
  0
LINE
  5
B39
330
2
100
AcDbEntity
  8
0
  6
Continuous
 62
     7
100
AcDbLine
 10
2547.800688332785
 20
34.5000270602136
 30
0.0
 11
2547.800688332439
 21
33.50002706013902
 31
0.0
  0
LINE
  5
B3A
330
2
100
AcDbEntity
  8
0
  6
Continuous
 62
     7
100
AcDbLine
 10
2567.800688332785
 20
34.50002705330007
 30
0.0
 11
2567.800688332439
 21
33.50002705322504
 31
0.0
  0
LINE
  5
B3B
330
2
100
AcDbEntity
  8
0
  6
Continuous
 62
     9
100
AcDbLine
 10
2567.800688333956
 20
47.50002705329961
 30
0.0
 11
2547.800688333956
 21
47.50002706021223
 31
0.0
  0
LINE
  5
B3C
330
2
100
AcDbEntity
  8
0
  6
Continuous
 62
     7
100
AcDbLine
 10
2547.800688333956
 20
47.50002706021223
 30
0.0
 11
2547.800688329463
 21
34.5000270602136
 31
0.0
  0
CIRCLE
  5
B3D
330
2
100
AcDbEntity
  8
0
  6
Continuous
 62
     7
100
AcDbCircle
 10
2564.80068833171
 20
41.0000270543369
 30
0.0
 40
1.650000000000039
  0
CIRCLE
  5
B3E
330
2
100
AcDbEntity
  8
0
  6
Continuous
 62
     7
100
AcDbCircle
 10
2554.80068833171
 20
41.00002705779343
 30
0.0
 40
1.650000000000039
  0
LINE
  5
B3F
330
2
100
AcDbEntity
  8
0
  6
Continuous
 62
     7
100
AcDbLine
 10
2567.800688333956
 20
47.50002705329961
 30
0.0
 11
2567.800688329463
 21
34.50002705330007
 31
0.0
  0
LINE
  5
B40
330
2
100
AcDbEntity
  8
0
  6
Continuous
 62
     7
100
AcDbLine
 10
2567.800688337624
 20
48.50002705322504
 30
0.0
 11
2547.800688337624
 21
48.50002706013765
 31
0.0
  0
LINE
  5
B41
330
2
100
AcDbEntity
  8
0
  6
Continuous
 62
     7
100
AcDbLine
 10
2547.800688337624
 20
48.50002706013765
 30
0.0
 11
2547.800688337278
 21
47.50002706021223
 31
0.0
  0
LINE
  5
B42
330
2
100
AcDbEntity
  8
0
  6
Continuous
 62
     7
100
AcDbLine
 10
2567.800688337624
 20
48.50002705322504
 30
0.0
 11
2567.800688337278
 21
47.50002705329961
 31
0.0
  0
LINE
  5
B43
330
2
100
AcDbEntity
  8
0
  6
Continuous
 62
     7
100
AcDbLine
 10
2036.204448318938
 20
29.31684021057117
 30
0.0
 11
2039.200336923192
 21
29.15983234165515
 31
0.0
  0
LINE
  5
B44
330
2
100
AcDbEntity
  8
0
  6
Continuous
 62
     7
100
AcDbLine
 10
2036.199621777276
 20
28.94263537037659
 30
0.0
 11
2036.204448318938
 21
29.31684021057117
 31
0.0
  0
ARC
  5
B45
330
2
100
AcDbEntity
  8
0
  6
Continuous
 62
     7
100
AcDbCircle
 10
2035.799762909388
 20
28.93201059877447
 30
0.0
 40
0.4000000000002422
100
AcDbArc
 50
266.9999999964587
 51
1.522065442252826
  0
LINE
  5
B46
330
2
100
AcDbEntity
  8
0
  6
Continuous
 62
     7
100
AcDbLine
 10
2035.579102619916
 20
28.54302597613468
 30
0.0
 11
2035.778828526866
 21
28.53255878487289
 31
0.0
  0
LINE
  5
B47
330
2
100
AcDbEntity
  8
0
  6
Continuous
 62
     7
100
AcDbLine
 10
2031.708483596312
 20
17.5000293471171
 30
0.0
 11
2032.735177290931
 21
17.5000293470548
 31
0.0
  0
LINE
  5
B48
330
2
100
AcDbEntity
  8
0
  6
Continuous
 62
     7
100
AcDbLine
 10
2031.70848359712
 20
30.50002934711847
 30
0.0
 11
2031.708483596312
 21
17.5000293471171
 31
0.0
  0
LINE
  5
B49
330
2
100
AcDbEntity
  8
0
  6
Continuous
 62
     7
100
AcDbLine
 10
2031.708483598735
 20
56.50002934711847
 30
0.0
 11
2031.70848359858
 21
54.00002934712029
 31
0.0
  0
LINE
  5
B4A
330
2
100
AcDbEntity
  8
0
  6
Continuous
 62
     7
100
AcDbLine
 10
2031.70848359858
 20
54.00002934712029
 30
0.0
 11
2031.70848359712
 21
30.50002934711847
 31
0.0
  0
LINE
  5
B4B
330
2
100
AcDbEntity
  8
0
  6
Continuous
 62
     7
100
AcDbLine
 10
2032.208483598735
 20
56.50002934708709
 30
0.0
 11
2031.708483598735
 21
56.50002934711847
 31
0.0
  0
LINE
  5
B4C
330
2
100
AcDbEntity
  8
0
  6
Continuous
 62
     7
100
AcDbLine
 10
2032.708456666954
 20
30.5014297156622
 30
0.0
 11
2032.256560521657
 21
54.00002934708618
 31
0.0
  0
LINE
  5
B4D
330
2
100
AcDbEntity
  8
0
  6
Continuous
 62
     7
100
AcDbLine
 10
2032.256560521657
 20
54.00002934708618
 30
0.0
 11
2032.208483598735
 21
56.50002934708709
 31
0.0
  0
LINE
  5
B4E
330
2
100
AcDbEntity
  8
0
  6
Continuous
 62
     7
100
AcDbLine
 10
2043.746505785878
 20
29.92295007303392
 30
0.0
 11
2032.708456666954
 21
30.50142971566174
 31
0.0
  0
LINE
  5
B4F
330
2
100
AcDbEntity
  8
0
  6
Continuous
 62
     7
100
AcDbLine
 10
2043.715104212095
 20
29.32377235218292
 30
0.0
 11
2043.746505785878
 21
29.92295007303392
 31
0.0
  0
LINE
  5
B50
330
2
100
AcDbEntity
  8
0
  6
Continuous
 62
     7
100
AcDbLine
 10
2039.210804114453
 20
29.35955824860639
 30
0.0
 11
2042.206692718707
 21
29.20255037969127
 31
0.0
  0
LINE
  5
B51
330
2
100
AcDbEntity
  8
0
  6
Continuous
 62
     7
100
AcDbLine
 10
2039.200336923192
 20
29.15983234165515
 30
0.0
 11
2039.210804114453
 21
29.35955824860639
 31
0.0
  0
LINE
  5
B52
330
2
100
AcDbEntity
  8
0
  6
Continuous
 62
     7
100
AcDbLine
 10
2036.204448318278
 20
18.68321848310825
 30
0.0
 11
2036.199214722678
 21
19.08898247742627
 31
0.0
  0
LINE
  5
B53
330
2
100
AcDbEntity
  8
0
  6
Continuous
 62
     7
100
AcDbLine
 10
2039.200336922551
 20
18.84022635165047
 30
0.0
 11
2036.204448318278
 21
18.68321848310825
 31
0.0
  0
LINE
  5
B54
330
2
100
AcDbEntity
  8
0
  6
Continuous
 62
     7
100
AcDbLine
 10
2039.210804113787
 20
18.64050044469832
 30
0.0
 11
2039.200336922551
 21
18.84022635164865
 31
0.0
  0
LINE
  5
B55
330
2
100
AcDbEntity
  8
0
  6
Continuous
 62
     7
100
AcDbLine
 10
2042.20669271806
 20
18.79750831324145
 30
0.0
 11
2039.210804113787
 21
18.64050044469832
 31
0.0
  0
ARC
  5
B56
330
2
100
AcDbEntity
  8
0
  6
Continuous
 62
     7
100
AcDbCircle
 10
2035.600037002438
 20
28.94247779003535
 30
0.0
 40
0.4000000000000413
100
AcDbArc
 50
181.5220654420701
 51
266.9999999964587
  0
LINE
  5
B57
330
2
100
AcDbEntity
  8
0
  6
Continuous
 62
     7
100
AcDbLine
 10
2035.205818784187
 20
29.36917616687561
 30
0.0
 11
2035.20017813455
 21
28.93185301843414
 31
0.0
  0
LINE
  5
B58
330
2
100
AcDbEntity
  8
0
  6
Continuous
 62
     7
100
AcDbLine
 10
2032.708483597057
 20
29.50005595831408
 30
0.0
 11
2035.205818784187
 21
29.36917616687561
 31
0.0
  0
LINE
  5
B59
330
2
100
AcDbEntity
  8
0
  6
Continuous
 62
     7
100
AcDbLine
 10
2032.708483596374
 20
18.5000027357969
 30
0.0
 11
2032.708483596467
 21
20.00002934705845
 31
0.0
  0
LINE
  5
B5A
330
2
100
AcDbEntity
  8
0
  6
Continuous
 62
     7
100
AcDbLine
 10
2032.708483596467
 20
20.00002934705845
 30
0.0
 11
2032.708483596964
 21
28.00002934705935
 31
0.0
  0
LINE
  5
B5B
330
2
100
AcDbEntity
  8
0
  6
Continuous
 62
     7
100
AcDbLine
 10
2032.708483596964
 20
28.00002934705754
 30
0.0
 11
2032.708483597057
 21
29.50005595831408
 31
0.0
  0
LINE
  5
B5C
330
2
100
AcDbEntity
  8
0
  6
Continuous
 62
     7
100
AcDbLine
 10
2035.20581878352
 20
18.63088252692751
 30
0.0
 11
2032.708483596374
 21
18.5000027357969
 31
0.0
  0
LINE
  5
B5D
330
2
100
AcDbEntity
  8
0
  6
Continuous
 62
     7
100
AcDbLine
 10
2035.20058518792
 20
19.03664652124644
 30
0.0
 11
2035.20581878352
 21
18.63088252692751
 31
0.0
  0
ARC
  5
B5E
330
2
100
AcDbEntity
  8
0
  6
Continuous
 62
     7
100
AcDbCircle
 10
2035.600037001824
 20
19.05758090371864
 30
0.0
 40
0.4000000000003129
100
AcDbArc
 50
92.99999999644356
 51
182.9999999963264
  0
LINE
  5
B5F
330
2
100
AcDbEntity
  8
0
  6
Continuous
 62
     7
100
AcDbLine
 10
2035.778828526303
 20
19.46749990885837
 30
0.0
 11
2035.579102619351
 21
19.45703271762113
 31
0.0
  0
ARC
  5
B60
330
2
100
AcDbEntity
  8
0
  6
Continuous
 62
     7
100
AcDbCircle
 10
2035.799762908776
 20
19.06804809495406
 30
0.0
 40
0.3999999999998857
100
AcDbArc
 50
2.999999996509279
 51
92.99999999643052
  0
ARC
  5
B61
330
2
100
AcDbEntity
  8
0
  6
Continuous
 62
     7
100
AcDbCircle
 10
2043.31565239753
 20
18.65535195808707
 30
0.0
 40
0.4000000000000706
100
AcDbArc
 50
2.999999996379182
 51
92.99999999636549
  0
LINE
  5
B62
330
2
100
AcDbEntity
  8
0
  6
Continuous
 62
     7
100
AcDbLine
 10
2043.746505785142
 20
18.07710861970736
 30
0.0
 11
2043.715104211434
 21
18.67628634056154
 31
0.0
  0
LINE
  5
B63
330
2
100
AcDbEntity
  8
0
  6
Continuous
 62
     7
100
AcDbLine
 10
2032.735177290931
 20
17.50002934705299
 30
0.0
 11
2043.746505785142
 21
18.07710861970645
 31
0.0
  0
ARC
  5
B64
330
2
100
AcDbEntity
  8
0
  6
Continuous
 62
     7
100
AcDbCircle
 10
2043.315652398195
 20
29.34470673470651
 30
0.0
 40
0.4000000000002536
100
AcDbArc
 50
266.9999999964197
 51
356.9999999964457
  0
LINE
  5
B65
330
2
100
AcDbEntity
  8
0
  6
Continuous
 62
     7
100
AcDbLine
 10
2042.196225526824
 20
18.9972342201936
 30
0.0
 11
2042.20669271806
 21
18.79750831324145
 31
0.0
  0
LINE
  5
B66
330
2
100
AcDbEntity
  8
0
  6
Continuous
 62
     7
100
AcDbLine
 10
2043.294718015058
 20
19.05480377199137
 30
0.0
 11
2042.196225526824
 21
18.9972342201936
 31
0.0
  0
LINE
  5
B67
330
2
100
AcDbEntity
  8
0
  6
Continuous
 62
     7
100
AcDbLine
 10
2042.196225527446
 20
29.00282447274094
 30
0.0
 11
2043.294718015673
 21
28.94525492080493
 31
0.0
  0
LINE
  5
B68
330
2
100
AcDbEntity
  8
0
  6
Continuous
 62
     7
100
AcDbLine
 10
2042.206692718707
 20
29.20255037969127
 30
0.0
 11
2042.196225527446
 21
29.00282447274094
 31
0.0
  0
LINE
  5
B69
330
2
100
AcDbEntity
  8
0
  6
Continuous
 62
     7
100
AcDbLine
 10
2521.208483596292
 20
29.00002931383051
 30
0.0
 11
2526.708483596835
 21
29.00002931348945
 31
0.0
  0
LINE
  5
B6A
330
2
100
AcDbEntity
  8
0
  6
Continuous
 62
     7
100
AcDbLine
 10
2534.708483596838
 20
29.00002931299241
 30
0.0
 11
2540.208483596306
 21
29.00002931265135
 31
0.0
  0
LINE
  5
B6B
330
2
100
AcDbEntity
  8
0
  6
Continuous
 62
     7
100
AcDbLine
 10
2540.708483596236
 20
29.00002931325116
 30
0.0
 11
2534.708483596838
 21
29.00002931324434
 31
0.0
  0
LINE
  5
B6C
330
2
100
AcDbEntity
  8
0
  6
Continuous
 62
     7
100
AcDbLine
 10
2526.708483596835
 20
29.00002931323616
 30
0.0
 11
2520.70848359622
 21
29.00002931322934
 31
0.0
  0
LINE
  5
B6D
330
2
100
AcDbEntity
  8
0
  6
Continuous
 62
     7
100
AcDbLine
 10
2518.708483596828
 20
29.00002931685231
 30
0.0
 11
2519.295805401327
 21
29.00002931681638
 31
0.0
  0
LINE
  5
B6E
330
2
100
AcDbEntity
  8
0
  6
Continuous
 62
     7
100
AcDbLine
 10
2541.911448714855
 20
29.00002931541121
 30
0.0
 11
2542.708483596844
 21
29.00002931536119
 31
0.0
  0
LINE
  5
B6F
330
2
100
AcDbEntity
  8
0
  6
Continuous
 62
     7
100
AcDbLine
 10
2544.708483596223
 20
19.00002931523431
 30
0.0
 11
2532.708483596342
 21
19.00002931598146
 31
0.0
  0
LINE
  5
B70
330
2
100
AcDbEntity
  8
0
  6
Continuous
 62
     7
100
AcDbLine
 10
2532.708483596342
 20
19.00002931598146
 30
0.0
 11
2520.708483596204
 21
19.00002931672725
 31
0.0
  0
LINE
  5
B71
330
2
100
AcDbEntity
  8
0
  6
Continuous
 62
     7
100
AcDbLine
 10
2543.208483598178
 20
50.46413093047113
 30
0.0
 11
2518.208483598162
 21
50.464130932025
 31
0.0
  0
LINE
  5
B72
330
2
100
AcDbEntity
  8
0
  6
Continuous
 62
     7
100
AcDbLine
 10
2543.208483598119
 20
49.50002931533254
 30
0.0
 11
2518.208483598102
 21
49.50002931688641
 31
0.0
  0
LINE
  5
B73
330
2
100
AcDbEntity
  8
0
  6
Continuous
 62
     7
100
AcDbLine
 10
2541.208483598211
 20
51.00002931545805
 30
0.0
 11
2520.208483598197
 21
51.00002931676318
 31
0.0
  0
LINE
  5
B74
330
2
100
AcDbEntity
  8
0
  6
Continuous
 62
     7
100
AcDbLine
 10
2544.90848359585
 20
13.00002931522022
 30
0.0
 11
2520.508483595834
 21
13.0000293167368
 31
0.0
  0
LINE
  5
B75
330
2
100
AcDbEntity
  8
0
  6
Continuous
 62
     7
100
AcDbLine
 10
2520.208483595852
 20
13.30002931675517
 30
0.0
 11
2545.208483595869
 21
13.30002931520266
 31
0.0
  0
LINE
  5
B76
330
2
100
AcDbEntity
  8
0
  6
Continuous
 62
     7
100
AcDbLine
 10
2520.208483596207
 20
19.00002931675635
 30
0.0
 11
2545.208483596223
 21
19.00002931520248
 31
0.0
  0
LINE
  5
B77
330
2
100
AcDbEntity
  8
0
  6
Continuous
 62
     9
100
AcDbLine
 10
2518.208483597108
 20
33.50002931688232
 30
0.0
 11
2543.208483597124
 21
33.50002931532936
 31
0.0
  0
LINE
  5
B78
330
2
100
AcDbEntity
  8
0
  6
Continuous
 62
     7
100
AcDbLine
 10
2542.708483597093
 20
33.00002931535937
 30
0.0
 11
2518.708483597077
 21
33.00002931685094
 31
0.0
  0
LINE
  5
B79
330
2
100
AcDbEntity
  8
0
  6
Continuous
 62
     7
100
AcDbLine
 10
2543.208483597271
 20
35.85002931532745
 30
0.0
 11
2538.659750345673
 21
35.85002931561167
 31
0.0
  0
LINE
  5
B7A
330
2
100
AcDbEntity
  8
0
  6
Continuous
 62
     7
100
AcDbLine
 10
2538.659750345673
 20
35.85002931561167
 30
0.0
 11
2518.208483597252
 21
35.85002931688223
 31
0.0
  0
LINE
  5
B7B
330
2
100
AcDbEntity
  8
0
  6
Continuous
 62
     7
100
AcDbLine
 10
2518.208483597894
 20
46.15002931688514
 30
0.0
 11
2543.20848359791
 21
46.15002931533126
 31
0.0
  0
LINE
  5
B7C
330
2
100
AcDbEntity
  8
0
  6
Continuous
 62
     9
100
AcDbLine
 10
2543.208483598057
 20
48.500029315333
 30
0.0
 11
2538.65975034646
 21
48.50002931561494
 31
0.0
  0
LINE
  5
B7D
330
2
100
AcDbEntity
  8
0
  6
Continuous
 62
     9
100
AcDbLine
 10
2538.65975034646
 20
48.50002931561494
 30
0.0
 11
2518.208483598038
 21
48.50002931688732
 31
0.0
  0
LINE
  5
B7E
330
2
100
AcDbEntity
  8
0
  6
Continuous
 62
     7
100
AcDbLine
 10
2518.708483598071
 20
49.00002931685595
 30
0.0
 11
2538.341699676554
 21
49.0000293156354
 31
0.0
  0
LINE
  5
B7F
330
2
100
AcDbEntity
  8
0
  6
Continuous
 62
     7
100
AcDbLine
 10
2538.341699676554
 20
49.0000293156354
 30
0.0
 11
2542.70848359809
 21
49.00002931536301
 31
0.0
  0
LINE
  5
B80
330
2
100
AcDbEntity
  8
0
  6
Continuous
 62
     9
100
AcDbLine
 10
2520.708483597349
 20
37.35002931672762
 30
0.0
 11
2537.069496996084
 21
37.35002931571035
 31
0.0
  0
LINE
  5
B81
330
2
100
AcDbEntity
  8
0
  6
Continuous
 62
     9
100
AcDbLine
 10
2537.069496996084
 20
37.35002931571035
 30
0.0
 11
2540.708483597364
 21
37.35002931548434
 31
0.0
  0
LINE
  5
B82
330
2
100
AcDbEntity
  8
0
  6
Continuous
 62
     9
100
AcDbLine
 10
2520.708483597803
 20
44.65002931673007
 30
0.0
 11
2537.069496996537
 21
44.65002931571325
 31
0.0
  0
LINE
  5
B83
330
2
100
AcDbEntity
  8
0
  6
Continuous
 62
     9
100
AcDbLine
 10
2537.069496996537
 20
44.65002931571325
 30
0.0
 11
2540.708483597818
 21
44.65002931548679
 31
0.0
  0
LINE
  5
B84
330
2
100
AcDbEntity
  8
0
  6
Continuous
 62
     7
100
AcDbLine
 10
2518.208483596828
 20
29.00002931688096
 30
0.0
 11
2543.208483596845
 21
29.00002931532663
 31
0.0
  0
LINE
  5
B85
330
2
100
AcDbEntity
  8
0
  6
Continuous
 62
     7
100
AcDbLine
 10
2518.208483597045
 20
32.50002931688096
 30
0.0
 11
2543.208483597062
 21
32.50002931532754
 31
0.0
  0
LINE
  5
B86
330
2
100
AcDbEntity
  8
0
  6
Continuous
 62
     9
100
AcDbLine
 10
2524.708483597081
 20
33.00002931647805
 30
0.0
 11
2525.552012829735
 21
33.00002931642485
 31
0.0
  0
LINE
  5
B87
330
2
100
AcDbEntity
  8
0
  6
Continuous
 62
     9
100
AcDbLine
 10
2525.552012829735
 20
33.00002931642485
 30
0.0
 11
2527.375008934966
 21
33.00002931631116
 31
0.0
  0
LINE
  5
B88
330
2
100
AcDbEntity
  8
0
  6
Continuous
 62
     9
100
AcDbLine
 10
2527.375008934966
 20
33.00002931631116
 30
0.0
 11
2527.91474036413
 21
33.00002931627796
 31
0.0
  0
LINE
  5
B89
330
2
100
AcDbEntity
  8
0
  6
Continuous
 62
     9
100
AcDbLine
 10
2527.91474036413
 20
33.00002931627796
 30
0.0
 11
2528.779786766855
 21
33.0000293162243
 31
0.0
  0
LINE
  5
B8A
330
2
100
AcDbEntity
  8
0
  6
Continuous
 62
     9
100
AcDbLine
 10
2532.785126454987
 20
33.00002931597646
 30
0.0
 11
2536.70848359709
 21
33.00002931573227
 31
0.0
  0
LINE
  5
B8B
330
2
100
AcDbEntity
  8
0
  6
Continuous
 62
     7
100
AcDbLine
 10
2121.208483596449
 20
29.00002933869109
 30
0.0
 11
2126.708483596988
 21
29.00002933834822
 31
0.0
  0
LINE
  5
B8C
330
2
100
AcDbEntity
  8
0
  6
Continuous
 62
     7
100
AcDbLine
 10
2134.708483596988
 20
29.00002933785208
 30
0.0
 11
2140.208483596449
 21
29.00002933751011
 31
0.0
  0
LINE
  5
B8D
330
2
100
AcDbEntity
  8
0
  6
Continuous
 62
     7
100
AcDbLine
 10
2140.708483596382
 20
29.0000293381122
 30
0.0
 11
2134.708483596989
 21
29.00002933810538
 31
0.0
  0
LINE
  5
B8E
330
2
100
AcDbEntity
  8
0
  6
Continuous
 62
     7
100
AcDbLine
 10
2126.708483596988
 20
29.00002933809629
 30
0.0
 11
2120.708483596382
 21
29.0000293380881
 31
0.0
  0
LINE
  5
B8F
330
2
100
AcDbEntity
  8
0
  6
Continuous
 62
     7
100
AcDbLine
 10
2118.708483596989
 20
29.00002934171335
 30
0.0
 11
2119.295805401486
 21
29.00002934167651
 31
0.0
  0
LINE
  5
B90
330
2
100
AcDbEntity
  8
0
  6
Continuous
 62
     7
100
AcDbLine
 10
2141.911448715001
 20
29.00002934026907
 30
0.0
 11
2142.708483596988
 21
29.00002934022041
 31
0.0
  0
LINE
  5
B91
330
2
100
AcDbEntity
  8
0
  6
Continuous
 62
     7
100
AcDbLine
 10
2144.708483596367
 20
19.00002934009717
 30
0.0
 11
2132.708483596493
 21
19.00002934084205
 31
0.0
  0
LINE
  5
B92
330
2
100
AcDbEntity
  8
0
  6
Continuous
 62
     7
100
AcDbLine
 10
2132.708483596493
 20
19.00002934084205
 30
0.0
 11
2120.708483596366
 21
19.00002934158783
 31
0.0
  0
LINE
  5
B93
330
2
100
AcDbEntity
  8
0
  6
Continuous
 62
     7
100
AcDbLine
 10
2143.208483598323
 20
50.46413095532398
 30
0.0
 11
2118.208483598323
 21
50.46413095687785
 31
0.0
  0
LINE
  5
B94
330
2
100
AcDbEntity
  8
0
  6
Continuous
 62
     7
100
AcDbLine
 10
2143.208483598263
 20
49.50002934018584
 30
0.0
 11
2118.208483598263
 21
49.50002934174017
 31
0.0
  0
LINE
  5
B95
330
2
100
AcDbEntity
  8
0
  6
Continuous
 62
     7
100
AcDbLine
 10
2141.208483598356
 20
51.00002934031
 30
0.0
 11
2120.208483598356
 21
51.00002934161557
 31
0.0
  0
LINE
  5
B96
330
2
100
AcDbEntity
  8
0
  6
Continuous
 62
     7
100
AcDbLine
 10
2144.908483595993
 20
13.00002934008535
 30
0.0
 11
2120.508483595993
 21
13.00002934160147
 31
0.0
  0
LINE
  5
B97
330
2
100
AcDbEntity
  8
0
  6
Continuous
 62
     7
100
AcDbLine
 10
2120.208483596012
 20
13.3000293416203
 30
0.0
 11
2145.208483596011
 21
13.30002934006506
 31
0.0
  0
LINE
  5
B98
330
2
100
AcDbEntity
  8
0
  6
Continuous
 62
     7
100
AcDbLine
 10
2120.208483596366
 20
19.00002934162057
 30
0.0
 11
2145.208483596366
 21
19.00002934006534
 31
0.0
  0
LINE
  5
B99
330
2
100
AcDbEntity
  8
0
  6
Continuous
 62
     9
100
AcDbLine
 10
2118.208483597268
 20
33.50002934174018
 30
0.0
 11
2143.208483597268
 21
33.50002934018721
 31
0.0
  0
LINE
  5
B9A
330
2
100
AcDbEntity
  8
0
  6
Continuous
 62
     7
100
AcDbLine
 10
2142.708483597237
 20
33.00002934021723
 30
0.0
 11
2118.708483597237
 21
33.00002934170971
 31
0.0
  0
LINE
  5
B9B
330
2
100
AcDbEntity
  8
0
  6
Continuous
 62
     7
100
AcDbLine
 10
2143.208483597414
 20
35.85002934018621
 30
0.0
 11
2138.659750345821
 21
35.85002934046907
 31
0.0
  0
LINE
  5
B9C
330
2
100
AcDbEntity
  8
0
  6
Continuous
 62
     7
100
AcDbLine
 10
2138.659750345821
 20
35.85002934046907
 30
0.0
 11
2118.208483597414
 21
35.85002934173963
 31
0.0
  0
LINE
  5
B9D
330
2
100
AcDbEntity
  8
0
  6
Continuous
 62
     7
100
AcDbLine
 10
2118.208483598055
 20
46.15002934173981
 30
0.0
 11
2143.208483598054
 21
46.15002934018548
 31
0.0
  0
LINE
  5
B9E
330
2
100
AcDbEntity
  8
0
  6
Continuous
 62
     9
100
AcDbLine
 10
2143.208483598201
 20
48.50002934018585
 30
0.0
 11
2138.659750346608
 21
48.50002934046869
 31
0.0
  0
LINE
  5
B9F
330
2
100
AcDbEntity
  8
0
  6
Continuous
 62
     9
100
AcDbLine
 10
2138.659750346608
 20
48.50002934046869
 30
0.0
 11
2118.208483598201
 21
48.50002934174018
 31
0.0
  0
LINE
  5
BA0
330
2
100
AcDbEntity
  8
0
  6
Continuous
 62
     7
100
AcDbLine
 10
2118.708483598231
 20
49.00002934170834
 30
0.0
 11
2138.341699676702
 21
49.00002934048825
 31
0.0
  0
LINE
  5
BA1
330
2
100
AcDbEntity
  8
0
  6
Continuous
 62
     7
100
AcDbLine
 10
2138.341699676702
 20
49.00002934048825
 30
0.0
 11
2142.708483598231
 21
49.00002934021722
 31
0.0
  0
LINE
  5
BA2
330
2
100
AcDbEntity
  8
0
  6
Continuous
 62
     9
100
AcDbLine
 10
2120.708483597507
 20
37.35002934158456
 30
0.0
 11
2137.069496996233
 21
37.35002934056775
 31
0.0
  0
LINE
  5
BA3
330
2
100
AcDbEntity
  8
0
  6
Continuous
 62
     9
100
AcDbLine
 10
2137.069496996233
 20
37.35002934056775
 30
0.0
 11
2140.708483597507
 21
37.35002934034128
 31
0.0
  0
LINE
  5
BA4
330
2
100
AcDbEntity
  8
0
  6
Continuous
 62
     9
100
AcDbLine
 10
2120.708483597962
 20
44.65002934158519
 30
0.0
 11
2137.069496996687
 21
44.65002934056883
 31
0.0
  0
LINE
  5
BA5
330
2
100
AcDbEntity
  8
0
  6
Continuous
 62
     9
100
AcDbLine
 10
2137.069496996687
 20
44.65002934056883
 30
0.0
 11
2140.708483597961
 21
44.650029340341
 31
0.0
  0
LINE
  5
BA6
330
2
100
AcDbEntity
  8
0
  6
Continuous
 62
     7
100
AcDbLine
 10
2118.208483596989
 20
29.00002934174017
 30
0.0
 11
2143.208483596989
 21
29.00002934018721
 31
0.0
  0
LINE
  5
BA7
330
2
100
AcDbEntity
  8
0
  6
Continuous
 62
     7
100
AcDbLine
 10
2118.208483597206
 20
32.50002934173926
 30
0.0
 11
2143.208483597206
 21
32.50002934018585
 31
0.0
  0
LINE
  5
BA8
330
2
100
AcDbEntity
  8
0
  6
Continuous
 62
     9
100
AcDbLine
 10
2124.708483597237
 20
33.00002934133591
 30
0.0
 11
2126.99386977682
 21
33.00002934119448
 31
0.0
  0
LINE
  5
BA9
330
2
100
AcDbEntity
  8
0
  6
Continuous
 62
     9
100
AcDbLine
 10
2126.99386977682
 20
33.00002934119448
 30
0.0
 11
2127.914740364284
 21
33.00002934113809
 31
0.0
  0
LINE
  5
BAA
330
2
100
AcDbEntity
  8
0
  6
Continuous
 62
     9
100
AcDbLine
 10
2127.914740364284
 20
33.00002934113718
 30
0.0
 11
2128.779786767007
 21
33.00002934108216
 31
0.0
  0
LINE
  5
BAB
330
2
100
AcDbEntity
  8
0
  6
Continuous
 62
     9
100
AcDbLine
 10
2132.785126455136
 20
33.00002934083568
 30
0.0
 11
2136.708483597237
 21
33.00002934059012
 31
0.0
  0
LINE
  5
BAC
330
2
100
AcDbEntity
  8
0
  6
Continuous
 62
     4
100
AcDbLine
 10
2032.708483596466
 20
20.00002934705845
 30
0.0
 11
2032.708483596964
 21
28.00002934705935
 31
0.0
  0
LINE
  5
BAD
330
2
100
AcDbEntity
  8
0
  6
Continuous
 62
     4
100
AcDbLine
 10
2582.708483596259
 20
20.00002931287327
 30
0.0
 11
2032.708483596466
 21
20.00002934705845
 31
0.0
  0
LINE
  5
BAE
330
2
100
AcDbEntity
  8
0
  6
Continuous
 62
     4
100
AcDbLine
 10
2582.708483596756
 20
28.00002931287236
 30
0.0
 11
2582.708483596259
 21
20.00002931287236
 31
0.0
  0
LINE
  5
BAF
330
2
100
AcDbEntity
  8
0
  6
Continuous
 62
     4
100
AcDbLine
 10
2032.708483596964
 20
28.00002934705754
 30
0.0
 11
2582.708483596756
 21
28.00002931287236
 31
0.0
  0
LINE
  5
BB0
330
2
100
AcDbEntity
  8
0
  6
Continuous
 62
     7
100
AcDbLine
 10
1583.043168461762
 20
33.70002740536256
 30
0.0
 11
1623.043168461762
 21
33.70002737983714
 31
0.0
  0
LINE
  5
BB1
330
2
100
AcDbEntity
  8
0
  6
Continuous
 62
     7
100
AcDbLine
 10
1583.043168461762
 20
33.70002740536256
 30
0.0
 11
1583.0431684624
 21
34.7000274054376
 31
0.0
  0
LINE
  5
BB2
330
2
100
AcDbEntity
  8
0
  6
Continuous
 62
     9
100
AcDbLine
 10
1583.043168459078
 20
34.7000274054376
 30
0.0
 11
1623.043168459078
 21
34.70002737991126
 31
0.0
  0
LINE
  5
BB3
330
2
100
AcDbEntity
  8
0
  6
Continuous
 62
     7
100
AcDbLine
 10
1623.043168461762
 20
33.70002737983714
 30
0.0
 11
1623.0431684624
 21
34.70002737991126
 31
0.0
  0
LINE
  5
BB4
330
2
100
AcDbEntity
  8
0
  6
Continuous
 62
     7
100
AcDbLine
 10
1583.043168459078
 20
34.7000274054376
 30
0.0
 11
1583.043168467374
 21
47.70002740543623
 31
0.0
  0
LINE
  5
BB5
330
2
100
AcDbEntity
  8
0
  6
Continuous
 62
     9
100
AcDbLine
 10
1583.043168467374
 20
47.70002740543623
 30
0.0
 11
1623.043168467374
 21
47.70002737991126
 31
0.0
  0
CIRCLE
  5
BB6
330
2
100
AcDbEntity
  8
0
  6
Continuous
 62
     7
100
AcDbCircle
 10
1588.043168463226
 20
41.20002740224527
 30
0.0
 40
2.499999999999945
  0
CIRCLE
  5
BB7
330
2
100
AcDbEntity
  8
0
  6
Continuous
 62
     7
100
AcDbCircle
 10
1618.043168463226
 20
41.20002738310131
 30
0.0
 40
2.499999999999945
  0
LINE
  5
BB8
330
2
100
AcDbEntity
  8
0
  6
Continuous
 62
     7
100
AcDbLine
 10
1623.043168459078
 20
34.70002737991126
 30
0.0
 11
1623.043168467374
 21
47.70002737991126
 31
0.0
  0
LINE
  5
BB9
330
2
100
AcDbEntity
  8
0
  6
Continuous
 62
     7
100
AcDbLine
 10
1583.043168470696
 20
47.70002740543623
 30
0.0
 11
1583.043168471334
 21
48.70002740536119
 31
0.0
  0
LINE
  5
BBA
330
2
100
AcDbEntity
  8
0
  6
Continuous
 62
     7
100
AcDbLine
 10
1583.043168471334
 20
48.70002740536119
 30
0.0
 11
1623.043168471334
 21
48.70002737983623
 31
0.0
  0
LINE
  5
BBB
330
2
100
AcDbEntity
  8
0
  6
Continuous
 62
     7
100
AcDbLine
 10
1623.043168470696
 20
47.70002737991126
 30
0.0
 11
1623.043168471334
 21
48.70002737983623
 31
0.0
  0
LINE
  5
BBC
330
2
100
AcDbEntity
  8
0
  6
Continuous
 62
     9
100
AcDbLine
 10
3382.000048086823
 20
34.70002677180719
 30
0.0
 11
3342.000048086823
 21
34.70002678565925
 31
0.0
  0
LINE
  5
BBD
330
2
100
AcDbEntity
  8
0
  6
Continuous
 62
     7
100
AcDbLine
 10
3382.000048090146
 20
34.70002677180719
 30
0.0
 11
3382.000048089798
 21
33.70002677173216
 31
0.0
  0
LINE
  5
BBE
330
2
100
AcDbEntity
  8
0
  6
Continuous
 62
     7
100
AcDbLine
 10
3382.000048089798
 20
33.70002677173216
 30
0.0
 11
3342.000048089798
 21
33.70002678558421
 31
0.0
  0
LINE
  5
BBF
330
2
100
AcDbEntity
  8
0
  6
Continuous
 62
     7
100
AcDbLine
 10
3342.000048090144
 20
34.70002678565925
 30
0.0
 11
3342.000048089798
 21
33.70002678558421
 31
0.0
  0
LINE
  5
BC0
330
2
100
AcDbEntity
  8
0
  6
Continuous
 62
     9
100
AcDbLine
 10
3382.000048091324
 20
47.70002677180719
 30
0.0
 11
3342.000048091325
 21
47.70002678565925
 31
0.0
  0
LINE
  5
BC1
330
2
100
AcDbEntity
  8
0
  6
Continuous
 62
     7
100
AcDbLine
 10
3342.000048091325
 20
47.70002678565925
 30
0.0
 11
3342.000048086823
 21
34.70002678565925
 31
0.0
  0
CIRCLE
  5
BC2
330
2
100
AcDbEntity
  8
0
  6
Continuous
 62
     7
100
AcDbCircle
 10
3377.000048089073
 20
41.20002677353932
 30
0.0
 40
2.500000000000167
  0
CIRCLE
  5
BC3
330
2
100
AcDbEntity
  8
0
  6
Continuous
 62
     7
100
AcDbCircle
 10
3347.000048089074
 20
41.20002678392757
 30
0.0
 40
2.499999999999945
  0
LINE
  5
BC4
330
2
100
AcDbEntity
  8
0
  6
Continuous
 62
     7
100
AcDbLine
 10
3382.000048091324
 20
47.70002677180719
 30
0.0
 11
3382.000048086823
 21
34.70002677180719
 31
0.0
  0
LINE
  5
BC5
330
2
100
AcDbEntity
  8
0
  6
Continuous
 62
     7
100
AcDbLine
 10
3382.000048094993
 20
48.70002677173215
 30
0.0
 11
3342.000048094993
 21
48.70002678558421
 31
0.0
  0
LINE
  5
BC6
330
2
100
AcDbEntity
  8
0
  6
Continuous
 62
     7
100
AcDbLine
 10
3342.000048094993
 20
48.70002678558421
 30
0.0
 11
3342.000048094647
 21
47.70002678565925
 31
0.0
  0
LINE
  5
BC7
330
2
100
AcDbEntity
  8
0
  6
Continuous
 62
     7
100
AcDbLine
 10
3382.000048094993
 20
48.70002677173215
 30
0.0
 11
3382.000048094648
 21
47.70002677180719
 31
0.0
  0
LINE
  5
BC8
330
2
100
AcDbEntity
  8
0
  6
Continuous
 62
     7
100
AcDbLine
 10
1960.000132214258
 20
63.00002737285831
 30
0.0
 11
1984.000049674053
 21
63.00002736904662
 31
0.0
  0
LINE
  5
BC9
330
2
100
AcDbEntity
  8
0
  6
Continuous
 62
     7
100
AcDbLine
 10
1981.50004967311
 20
53.0000273706778
 30
0.0
 11
1962.500049673123
 21
53.00002737124032
 31
0.0
  0
LINE
  5
BCA
330
2
100
AcDbEntity
  8
0
  6
Continuous
 62
     7
100
AcDbLine
 10
1982.00004967311
 20
53.00002737128898
 30
0.0
 11
1962.000049673124
 21
53.00002737062914
 31
0.0
  0
LINE
  5
BCB
330
2
100
AcDbEntity
  8
0
  6
Continuous
 62
     7
100
AcDbLine
 10
1984.000049673994
 20
63.00002736982242
 30
0.0
 11
1960.000049673994
 21
63.00002737208297
 31
0.0
  0
LINE
  5
BCC
330
2
100
AcDbEntity
  8
0
  6
Continuous
 62
     7
100
AcDbLine
 10
1984.500049675659
 20
64.00002736898568
 30
0.0
 11
1959.500049675676
 21
64.00002737291879
 31
0.0
  0
LINE
  5
BCD
330
2
100
AcDbEntity
  8
0
  6
Continuous
 62
     7
100
AcDbLine
 10
1984.500049676555
 20
69.70002736898232
 30
0.0
 11
1959.500049676573
 21
69.70002737291633
 31
0.0
  0
LINE
  5
BCE
330
2
100
AcDbEntity
  8
0
  6
Continuous
 62
     7
100
AcDbLine
 10
1959.800049676619
 20
70.00002737286923
 30
0.0
 11
1984.200049676602
 21
70.00002736903025
 31
0.0
  0
LINE
  5
BCF
330
2
100
AcDbEntity
  8
0
  6
Continuous
 62
     7
100
AcDbLine
 10
1660.000046701009
 20
63.00002670075901
 30
0.0
 11
1660.000192868337
 21
63.00002670075901
 31
0.0
  0
LINE
  5
BD0
330
2
100
AcDbEntity
  8
0
  6
Continuous
 62
     7
100
AcDbLine
 10
1660.000192868337
 20
63.00002670075901
 30
0.0
 11
1684.000046700994
 21
63.00002669001014
 31
0.0
  0
LINE
  5
BD1
330
2
100
AcDbEntity
  8
0
  6
Continuous
 62
     7
100
AcDbLine
 10
1681.50004669716
 20
53.00002669236437
 30
0.0
 11
1670.262510274838
 21
53.00002669594551
 31
0.0
  0
LINE
  5
BD2
330
2
100
AcDbEntity
  8
0
  6
Continuous
 62
     7
100
AcDbLine
 10
1670.262510274838
 20
53.00002669594551
 30
0.0
 11
1664.971631774396
 21
53.00002669763035
 31
0.0
  0
LINE
  5
BD3
330
2
100
AcDbEntity
  8
0
  6
Continuous
 62
     7
100
AcDbLine
 10
1662.510987411287
 20
53.00002669841524
 30
0.0
 11
1662.500046697173
 21
53.00002669841842
 31
0.0
  0
LINE
  5
BD4
330
2
100
AcDbEntity
  8
0
  6
Continuous
 62
     7
100
AcDbLine
 10
1682.00004669716
 20
53.0000266928314
 30
0.0
 11
1662.000046697173
 21
53.00002669795095
 31
0.0
  0
LINE
  5
BD5
330
2
100
AcDbEntity
  8
0
  6
Continuous
 62
     7
100
AcDbLine
 10
1684.000046700934
 20
63.00002669078594
 30
0.0
 11
1660.000192868262
 21
63.0000266999832
 31
0.0
  0
LINE
  5
BD6
330
2
100
AcDbEntity
  8
0
  6
Continuous
 62
     7
100
AcDbLine
 10
1660.000192868262
 20
63.0000266999832
 30
0.0
 11
1660.000046700934
 21
63.0000266999832
 31
0.0
  0
LINE
  5
BD7
330
2
100
AcDbEntity
  8
0
  6
Continuous
 62
     7
100
AcDbLine
 10
1684.500046702888
 20
64.00002668980324
 30
0.0
 11
1659.500046702905
 21
64.00002670096319
 31
0.0
  0
LINE
  5
BD8
330
2
100
AcDbEntity
  8
0
  6
Continuous
 62
     7
100
AcDbLine
 10
1684.500046705433
 20
69.70002668980214
 30
0.0
 11
1659.500046705449
 21
69.70002670096255
 31
0.0
  0
LINE
  5
BD9
330
2
100
AcDbEntity
  8
0
  6
Continuous
 62
     7
100
AcDbLine
 10
1659.800046705583
 20
70.00002670082768
 30
0.0
 11
1684.200046705567
 21
70.00002668993511
 31
0.0
  0
LINE
  5
BDA
330
2
100
AcDbEntity
  8
0
  6
Continuous
 62
     7
100
AcDbLine
 10
3342.000048087273
 20
36.00002678448709
 30
0.0
 11
2567.800688329981
 21
36.00002705210727
 31
0.0
  0
LINE
  5
BDB
330
2
100
AcDbEntity
  8
0
  6
Continuous
 62
     7
100
AcDbLine
 10
2547.800688329981
 20
36.0000270590217
 30
0.0
 11
2541.554653410213
 21
36.00002706118039
 31
0.0
  0
LINE
  5
BDC
330
2
100
AcDbEntity
  8
0
  6
Continuous
 62
     7
100
AcDbLine
 10
2519.862313797029
 20
36.00002706867917
 30
0.0
 11
2141.554653176193
 21
36.00002719944951
 31
0.0
  0
LINE
  5
BDD
330
2
100
AcDbEntity
  8
0
  6
Continuous
 62
     7
100
AcDbLine
 10
2119.862314031353
 20
36.00002720694829
 30
0.0
 11
2032.602714407268
 21
36.00002723711123
 31
0.0
  0
LINE
  5
BDE
330
2
100
AcDbEntity
  8
0
  6
Continuous
 62
     7
100
AcDbLine
 10
2031.708483597462
 20
36.00002723742
 30
0.0
 11
1623.043168459908
 21
36.00002737868499
 31
0.0
  0
LINE
  5
BDF
330
2
100
AcDbEntity
  8
0
  6
Continuous
 62
     9
100
AcDbLine
 10
1623.043168461503
 20
38.50002737887144
 30
0.0
 11
2031.708483597617
 21
38.50002723760599
 31
0.0
  0
LINE
  5
BE0
330
2
100
AcDbEntity
  8
0
  6
Continuous
 62
     9
100
AcDbLine
 10
2032.554637484343
 20
38.5000272373145
 30
0.0
 11
2120.708483597583
 21
38.50002720684143
 31
0.0
  0
LINE
  5
BE1
330
2
100
AcDbEntity
  8
0
  6
Continuous
 62
     9
100
AcDbLine
 10
2140.708483597574
 20
38.5000271999279
 30
0.0
 11
2520.708483597426
 21
38.50002706857231
 31
0.0
  0
LINE
  5
BE2
330
2
100
AcDbEntity
  8
0
  6
Continuous
 62
     9
100
AcDbLine
 10
2540.708483597429
 20
38.50002706165833
 30
0.0
 11
2544.25772248737
 21
38.50002706043188
 31
0.0
  0
LINE
  5
BE3
330
2
100
AcDbEntity
  8
0
  6
Continuous
 62
     9
100
AcDbLine
 10
2544.25772248737
 20
38.50002706043188
 30
0.0
 11
2547.800688330845
 21
38.50002705920724
 31
0.0
  0
LINE
  5
BE4
330
2
100
AcDbEntity
  8
0
  6
Continuous
 62
     9
100
AcDbLine
 10
2567.800688330845
 20
38.50002705229417
 30
0.0
 11
3342.000048088139
 21
38.50002678467399
 31
0.0
  0
LINE
  5
BE5
330
2
100
AcDbEntity
  8
0
  6
Continuous
 62
     9
100
AcDbLine
 10
3347.979843989288
 20
43.50002678260534
 30
0.0
 11
3346.020252190449
 21
43.50002678328428
 31
0.0
  0
LINE
  5
BE6
330
2
100
AcDbEntity
  8
0
  6
Continuous
 62
     9
100
AcDbLine
 10
3342.00004808987
 20
43.50002678467354
 30
0.0
 11
2567.800688332574
 21
43.50002705229417
 31
0.0
  0
LINE
  5
BE7
330
2
100
AcDbEntity
  8
0
  6
Continuous
 62
     9
100
AcDbLine
 10
2547.800688332574
 20
43.50002705920724
 30
0.0
 11
2544.349970210104
 21
43.50002706039913
 31
0.0
  0
LINE
  5
BE8
330
2
100
AcDbEntity
  8
0
  6
Continuous
 62
     9
100
AcDbLine
 10
2544.349970210104
 20
43.50002706039913
 30
0.0
 11
2540.708483597739
 21
43.50002706165923
 31
0.0
  0
LINE
  5
BE9
330
2
100
AcDbEntity
  8
0
  6
Continuous
 62
     9
100
AcDbLine
 10
2520.708483597736
 20
43.50002706857231
 30
0.0
 11
2140.708483597885
 21
43.50002719992926
 31
0.0
  0
LINE
  5
BEA
330
2
100
AcDbEntity
  8
0
  6
Continuous
 62
     9
100
AcDbLine
 10
2120.708483597894
 20
43.50002720684187
 30
0.0
 11
2032.458483638499
 21
43.5000272373486
 31
0.0
  0
LINE
  5
BEB
330
2
100
AcDbEntity
  8
0
  6
Continuous
 62
     9
100
AcDbLine
 10
2031.708483597927
 20
43.50002723760735
 30
0.0
 11
1623.043168464693
 21
43.50002737887189
 31
0.0
  0
LINE
  5
BEC
330
2
100
AcDbEntity
  8
0
  6
Continuous
 62
     9
100
AcDbLine
 10
1619.022964367007
 20
43.50002738026114
 30
0.0
 11
1617.063372561035
 21
43.5000273809378
 31
0.0
  0
LINE
  5
BED
330
2
100
AcDbEntity
  8
0
  6
Continuous
 62
     7
100
AcDbLine
 10
1623.043168466289
 20
46.00002737868499
 30
0.0
 11
2031.708483598083
 21
46.00002723742
 31
0.0
  0
LINE
  5
BEE
330
2
100
AcDbEntity
  8
0
  6
Continuous
 62
     7
100
AcDbLine
 10
2032.410406715581
 20
46.00002723717716
 30
0.0
 11
2119.862322847137
 21
46.00002720694829
 31
0.0
  0
LINE
  5
BEF
330
2
100
AcDbEntity
  8
0
  6
Continuous
 62
     7
100
AcDbLine
 10
2141.554644336255
 20
46.00002719944995
 30
0.0
 11
2519.862323081153
 21
46.00002706867781
 31
0.0
  0
LINE
  5
BF0
330
2
100
AcDbEntity
  8
0
  6
Continuous
 62
     7
100
AcDbLine
 10
2541.554644101934
 20
46.00002706117902
 30
0.0
 11
2547.800688333437
 21
46.0000270590217
 31
0.0
  0
LINE
  5
BF1
330
2
100
AcDbEntity
  8
0
  6
Continuous
 62
     7
100
AcDbLine
 10
2567.800688333438
 20
46.00002705210727
 30
0.0
 11
3342.000048090736
 21
46.00002678448709
 31
0.0
  0
LINE
  5
BF2
330
2
100
AcDbEntity
  8
0
  6
Continuous
 62
     4
100
AcDbLine
 10
1582.000049673402
 20
54.0000293750727
 30
0.0
 11
2031.708483598579
 21
54.00002934712029
 31
0.0
  0
LINE
  5
BF3
330
2
100
AcDbEntity
  8
0
  6
Continuous
 62
     4
100
AcDbLine
 10
2031.708483598579
 20
54.00002934712029
 30
0.0
 11
2032.256560521657
 21
54.00002934708618
 31
0.0
  0
LINE
  5
BF4
330
2
100
AcDbEntity
  8
0
  6
Continuous
 62
     4
100
AcDbLine
 10
2032.256560521657
 20
54.00002934708618
 30
0.0
 11
2062.000049673402
 21
54.00002934523718
 31
0.0
  0
LINE
  5
BF5
330
2
100
AcDbEntity
  8
0
  6
Continuous
 62
     4
100
AcDbLine
 10
1582.000049673899
 20
62.0000293750727
 30
0.0
 11
1582.000049673402
 21
54.0000293750727
 31
0.0
  0
LINE
  5
BF6
330
2
100
AcDbEntity
  8
0
  6
Continuous
 62
     4
100
AcDbLine
 10
2062.000049673899
 20
62.00002934523627
 30
0.0
 11
1582.000049673899
 21
62.0000293750727
 31
0.0
  0
LINE
  5
BF7
330
2
100
AcDbEntity
  8
0
  6
Continuous
 62
     4
100
AcDbLine
 10
2062.000049673402
 20
54.00002934523718
 30
0.0
 11
2062.000049673899
 21
62.00002934523627
 31
0.0
  0
LINE
  5
BF8
330
2
100
AcDbEntity
  8
0
  6
Continuous
 62
     7
100
AcDbLine
 10
2062.000049673562
 20
52.55002934523736
 30
0.0
 11
2032.284445136951
 21
52.55002934708409
 31
0.0
  0
LINE
  5
BF9
330
2
100
AcDbEntity
  8
0
  6
Continuous
 62
     7
100
AcDbLine
 10
2031.70848359849
 20
52.55002934712047
 30
0.0
 11
1982.000049673132
 21
52.5500293502123
 31
0.0
  0
LINE
  5
BFA
330
2
100
AcDbEntity
  8
0
  6
Continuous
 62
     7
100
AcDbLine
 10
1962.000049673132
 20
52.55002935145603
 30
0.0
 11
1682.000046697051
 21
52.55002936887013
 31
0.0
  0
LINE
  5
BFB
330
2
100
AcDbEntity
  8
0
  6
Continuous
 62
     7
100
AcDbLine
 10
1662.000046697051
 20
52.55002937011522
 30
0.0
 11
1582.000049673562
 21
52.55002937509016
 31
0.0
  0
LINE
  5
BFC
330
2
100
AcDbEntity
  8
0
  6
Continuous
 62
     7
100
AcDbLine
 10
1582.000049674213
 20
63.02337981593018
 30
0.0
 11
1660.000046700943
 21
63.02337981107758
 31
0.0
  0
LINE
  5
BFD
330
2
100
AcDbEntity
  8
0
  6
Continuous
 62
     7
100
AcDbLine
 10
1684.000046700943
 20
63.02337980958601
 30
0.0
 11
1960.000049673996
 21
63.02337979241975
 31
0.0
  0
LINE
  5
BFE
330
2
100
AcDbEntity
  8
0
  6
Continuous
 62
     7
100
AcDbLine
 10
1984.000049673996
 20
63.02337979092681
 30
0.0
 11
2062.000049674213
 21
63.02337978607511
 31
0.0
  0
LINE
  5
BFF
330
2
100
AcDbEntity
  8
0
  6
Continuous
 62
     7
100
AcDbLine
 10
2062.000049674414
 20
66.23801018033327
 30
0.0
 11
1984.500049676019
 21
66.2380101851545
 31
0.0
  0
LINE
  5
C00
330
2
100
AcDbEntity
  8
0
  6
Continuous
 62
     7
100
AcDbLine
 10
1959.500049676019
 20
66.23801018670929
 30
0.0
 11
1684.500046703895
 21
66.23801020381233
 31
0.0
  0
LINE
  5
C01
330
2
100
AcDbEntity
  8
0
  6
Continuous
 62
     7
100
AcDbLine
 10
1659.500046703896
 20
66.23801020536712
 30
0.0
 11
1582.000049674413
 21
66.23801021018744
 31
0.0
  0
LINE
  5
C02
330
2
100
AcDbEntity
  8
0
  6
Continuous
 62
    92
100
AcDbLine
 10
2544.25772248737
 20
38.50002706117721
 30
0.0
 11
2547.800688342472
 21
38.50002705995212
 31
0.0
  0
LINE
  5
C03
330
2
100
AcDbEntity
  8
0
  6
Continuous
 62
    92
100
AcDbLine
 10
2547.8006883442
 20
43.50002705995211
 30
0.0
 11
2544.349970210104
 21
43.50002706114537
 31
0.0
  0
LINE
  5
C04
330
2
100
AcDbEntity
  8
0
  6
Continuous
 62
     7
100
AcDbLine
 10
2538.208483596227
 20
32.50002931627023
 30
0.0
 11
2538.208483596227
 21
33.0000293162293
 31
0.0
  0
LINE
  5
C05
330
2
100
AcDbEntity
  8
0
  6
Continuous
 62
     7
100
AcDbLine
 10
2523.208483596224
 20
33.00002931716108
 30
0.0
 11
2523.208483596224
 21
32.50002931720019
 31
0.0
  0
LINE
  5
C06
330
2
100
AcDbEntity
  8
0
  6
Continuous
 62
     7
100
AcDbLine
 10
2542.708483596776
 20
28.00002931536119
 30
0.0
 11
2542.708483596838
 21
29.00002931536119
 31
0.0
  0
LINE
  5
C07
330
2
100
AcDbEntity
  8
0
  6
Continuous
 62
     7
100
AcDbLine
 10
2518.708483596835
 20
29.00002931685231
 30
0.0
 11
2518.708483596772
 21
28.00002931685231
 31
0.0
  0
LINE
  5
C08
330
2
100
AcDbEntity
  8
0
  6
Continuous
 62
     7
100
AcDbLine
 10
2544.708483596217
 20
19.00002931523431
 30
0.0
 11
2544.70848359628
 21
20.00002931523295
 31
0.0
  0
LINE
  5
C09
330
2
100
AcDbEntity
  8
0
  6
Continuous
 62
     7
100
AcDbLine
 10
2520.708483596276
 20
20.00002931672589
 30
0.0
 11
2520.708483596213
 21
19.00002931672588
 31
0.0
  0
LINE
  5
C0A
330
2
100
AcDbEntity
  8
0
  6
Continuous
 62
     7
100
AcDbLine
 10
2543.208483598113
 20
49.50002931533254
 30
0.0
 11
2543.208483598172
 21
50.46413093047113
 31
0.0
  0
LINE
  5
C0B
330
2
100
AcDbEntity
  8
0
  6
Continuous
 62
     7
100
AcDbLine
 10
2518.208483598169
 20
50.464130932025
 30
0.0
 11
2518.208483598109
 21
49.50002931688641
 31
0.0
  0
LINE
  5
C0C
330
2
100
AcDbEntity
  8
0
  6
Continuous
 62
     7
100
AcDbLine
 10
2543.208483598172
 20
50.46413093047113
 30
0.0
 11
2541.208483598206
 21
51.00002931545805
 31
0.0
  0
LINE
  5
C0D
330
2
100
AcDbEntity
  8
0
  6
Continuous
 62
     7
100
AcDbLine
 10
2520.208483598202
 20
51.00002931676318
 30
0.0
 11
2518.208483598169
 21
50.464130932025
 31
0.0
  0
LINE
  5
C0E
330
2
100
AcDbEntity
  8
0
  6
Continuous
 62
     7
100
AcDbLine
 10
2536.20848359808
 20
49.00002931645122
 30
0.0
 11
2536.208483598112
 21
49.50002931576728
 31
0.0
  0
LINE
  5
C0F
330
2
100
AcDbEntity
  8
0
  6
Continuous
 62
     7
100
AcDbLine
 10
2525.20848359811
 20
49.50002931645122
 30
0.0
 11
2525.208483598078
 21
49.00002931713562
 31
0.0
  0
LINE
  5
C10
330
2
100
AcDbEntity
  8
0
  6
Continuous
 62
     7
100
AcDbLine
 10
2520.208483595859
 20
13.30002931675517
 30
0.0
 11
2520.50848359584
 21
13.0000293167368
 31
0.0
  0
LINE
  5
C11
330
2
100
AcDbEntity
  8
0
  6
Continuous
 62
     7
100
AcDbLine
 10
2544.908483595844
 20
13.00002931522022
 30
0.0
 11
2545.208483595863
 21
13.30002931520266
 31
0.0
  0
LINE
  5
C12
330
2
100
AcDbEntity
  8
0
  6
Continuous
 62
     7
100
AcDbLine
 10
2520.208483596213
 20
19.00002931675635
 30
0.0
 11
2520.208483595859
 21
13.30002931675517
 31
0.0
  0
LINE
  5
C13
330
2
100
AcDbEntity
  8
0
  6
Continuous
 62
     7
100
AcDbLine
 10
2545.208483595863
 20
13.30002931520266
 30
0.0
 11
2545.208483596217
 21
19.00002931520294
 31
0.0
  0
ARC
  5
C14
330
2
100
AcDbEntity
  8
0
  6
Continuous
 62
     7
100
AcDbCircle
 10
2542.708483597124
 20
33.50002931535801
 30
0.0
 40
0.4999999999997229
100
AcDbArc
 50
269.9999999961047
 51
359.9999999964305
  0
ARC
  5
C15
330
2
100
AcDbEntity
  8
0
  6
Continuous
 62
     7
100
AcDbCircle
 10
2518.708483597108
 20
33.50002931685049
 30
0.0
 40
0.4999999999999451
100
AcDbArc
 50
179.9999999964304
 51
269.9999999967822
  0
LINE
  5
C16
330
2
100
AcDbEntity
  8
0
  6
Continuous
 62
     7
100
AcDbLine
 10
2543.208483597118
 20
33.50002931532936
 30
0.0
 11
2543.208483597264
 21
35.85002931532745
 31
0.0
  0
LINE
  5
C17
330
2
100
AcDbEntity
  8
0
  6
Continuous
 62
     7
100
AcDbLine
 10
2518.20848359726
 20
35.85002931688223
 30
0.0
 11
2518.208483597114
 21
33.50002931688232
 31
0.0
  0
LINE
  5
C18
330
2
100
AcDbEntity
  8
0
  6
Continuous
 62
     7
100
AcDbLine
 10
2543.208483597904
 20
46.15002931533126
 30
0.0
 11
2543.20848359805
 21
48.500029315333
 31
0.0
  0
LINE
  5
C19
330
2
100
AcDbEntity
  8
0
  6
Continuous
 62
     7
100
AcDbLine
 10
2518.208483598046
 20
48.50002931688732
 30
0.0
 11
2518.2084835979
 21
46.15002931688514
 31
0.0
  0
ARC
  5
C1A
330
2
100
AcDbEntity
  8
0
  6
Continuous
 62
     7
100
AcDbCircle
 10
2518.70848359804
 20
48.50002931685549
 30
0.0
 40
0.5000000000001671
100
AcDbArc
 50
89.99999999610476
 51
179.9999999964304
  0
ARC
  5
C1B
330
2
100
AcDbEntity
  8
0
  6
Continuous
 62
     7
100
AcDbCircle
 10
2542.708483598057
 20
48.50002931536301
 30
0.0
 40
0.4999999999999451
100
AcDbArc
 50
359.9999999964305
 51
89.9999999967822
  0
ARC
  5
C1C
330
2
100
AcDbEntity
  8
0
  6
Continuous
 62
     7
100
AcDbCircle
 10
2519.208483597348
 20
37.35002931682129
 30
0.0
 40
1.499999999999945
100
AcDbArc
 50
269.9999999965477
 51
359.9999999964305
  0
ARC
  5
C1D
330
2
100
AcDbEntity
  8
0
  6
Continuous
 62
     7
100
AcDbCircle
 10
2542.208483597363
 20
37.35002931539066
 30
0.0
 40
1.500000000000055
100
AcDbArc
 50
179.9999999964304
 51
269.9999999963262
  0
ARC
  5
C1E
330
2
100
AcDbEntity
  8
0
  6
Continuous
 62
     7
100
AcDbCircle
 10
2519.208483597801
 20
44.65002931682284
 30
0.0
 40
1.500000000000055
100
AcDbArc
 50
359.9999999964305
 51
89.99999999632622
  0
ARC
  5
C1F
330
2
100
AcDbEntity
  8
0
  6
Continuous
 62
     7
100
AcDbCircle
 10
2542.208483597817
 20
44.65002931539311
 30
0.0
 40
1.499999999999945
100
AcDbArc
 50
89.9999999965477
 51
179.9999999964304
  0
LINE
  5
C20
330
2
100
AcDbEntity
  8
0
  6
Continuous
 62
     7
100
AcDbLine
 10
2520.708483597808
 20
44.65002931673007
 30
0.0
 11
2520.708483597354
 21
37.35002931672762
 31
0.0
  0
LINE
  5
C21
330
2
100
AcDbEntity
  8
0
  6
Continuous
 62
     7
100
AcDbLine
 10
2540.708483597357
 20
37.35002931548434
 30
0.0
 11
2540.708483597811
 21
44.65002931548679
 31
0.0
  0
LINE
  5
C22
330
2
100
AcDbEntity
  8
0
  6
Continuous
 62
     7
100
AcDbLine
 10
2518.20848359705
 20
32.50002931688096
 30
0.0
 11
2518.208483596832
 21
29.00002931688096
 31
0.0
  0
LINE
  5
C23
330
2
100
AcDbEntity
  8
0
  6
Continuous
 62
     7
100
AcDbLine
 10
2543.208483596841
 20
29.00002931532663
 30
0.0
 11
2543.208483597058
 21
32.50002931532709
 31
0.0
  0
ARC
  5
C24
330
2
100
AcDbEntity
  8
0
  6
Continuous
 62
     7
100
AcDbCircle
 10
2537.208483597091
 20
33.00002931570134
 30
0.0
 40
0.4999999999997229
100
AcDbArc
 50
179.9999999964304
 51
269.999999996196
  0
ARC
  5
C25
330
2
100
AcDbEntity
  8
0
  6
Continuous
 62
     7
100
AcDbCircle
 10
2524.208483597079
 20
33.00002931650943
 30
0.0
 40
0.4999999999999451
100
AcDbArc
 50
269.999999996691
 51
359.9999999964305
  0
LINE
  5
C26
330
2
100
AcDbEntity
  8
0
  6
Continuous
 62
     7
100
AcDbLine
 10
2138.208483596374
 20
32.50002934113991
 30
0.0
 11
2138.208483596374
 21
33.00002934109853
 31
0.0
  0
LINE
  5
C27
330
2
100
AcDbEntity
  8
0
  6
Continuous
 62
     7
100
AcDbLine
 10
2123.208483596381
 20
33.00002934202939
 30
0.0
 11
2123.208483596381
 21
32.50002934207032
 31
0.0
  0
LINE
  5
C28
330
2
100
AcDbEntity
  8
0
  6
Continuous
 62
     7
100
AcDbLine
 10
2142.708483596921
 20
28.00002934022132
 30
0.0
 11
2142.708483596983
 21
29.00002934022041
 31
0.0
  0
LINE
  5
C29
330
2
100
AcDbEntity
  8
0
  6
Continuous
 62
     7
100
AcDbLine
 10
2118.708483596994
 20
29.00002934171335
 30
0.0
 11
2118.708483596931
 21
28.00002934171335
 31
0.0
  0
LINE
  5
C2A
330
2
100
AcDbEntity
  8
0
  6
Continuous
 62
     7
100
AcDbLine
 10
2144.708483596361
 20
19.00002934009717
 30
0.0
 11
2144.708483596423
 21
20.00002934009808
 31
0.0
  0
LINE
  5
C2B
330
2
100
AcDbEntity
  8
0
  6
Continuous
 62
     7
100
AcDbLine
 10
2120.708483596434
 20
20.0000293415892
 30
0.0
 11
2120.708483596372
 21
19.00002934158783
 31
0.0
  0
LINE
  5
C2C
330
2
100
AcDbEntity
  8
0
  6
Continuous
 62
     7
100
AcDbLine
 10
2143.208483598257
 20
49.50002934018584
 30
0.0
 11
2143.208483598317
 21
50.46413095532398
 31
0.0
  0
LINE
  5
C2D
330
2
100
AcDbEntity
  8
0
  6
Continuous
 62
     7
100
AcDbLine
 10
2118.208483598328
 20
50.46413095687785
 30
0.0
 11
2118.208483598268
 21
49.50002934174017
 31
0.0
  0
LINE
  5
C2E
330
2
100
AcDbEntity
  8
0
  6
Continuous
 62
     7
100
AcDbLine
 10
2143.208483598317
 20
50.46413095532398
 30
0.0
 11
2141.208483598351
 21
51.00002934031
 31
0.0
  0
LINE
  5
C2F
330
2
100
AcDbEntity
  8
0
  6
Continuous
 62
     7
100
AcDbLine
 10
2120.208483598361
 20
51.00002934161557
 30
0.0
 11
2118.208483598328
 21
50.46413095687785
 31
0.0
  0
LINE
  5
C30
330
2
100
AcDbEntity
  8
0
  6
Continuous
 62
     7
100
AcDbLine
 10
2136.208483598229
 20
49.00002934130544
 30
0.0
 11
2136.20848359826
 21
49.50002934062104
 31
0.0
  0
LINE
  5
C31
330
2
100
AcDbEntity
  8
0
  6
Continuous
 62
     7
100
AcDbLine
 10
2125.208483598265
 20
49.50002934130407
 30
0.0
 11
2125.208483598234
 21
49.00002934198892
 31
0.0
  0
LINE
  5
C32
330
2
100
AcDbEntity
  8
0
  6
Continuous
 62
     7
100
AcDbLine
 10
2120.208483596017
 20
13.3000293416203
 30
0.0
 11
2120.508483595998
 21
13.00002934160147
 31
0.0
  0
LINE
  5
C33
330
2
100
AcDbEntity
  8
0
  6
Continuous
 62
     7
100
AcDbLine
 10
2144.908483595988
 20
13.00002934008535
 30
0.0
 11
2145.208483596006
 21
13.30002934006643
 31
0.0
  0
LINE
  5
C34
330
2
100
AcDbEntity
  8
0
  6
Continuous
 62
     7
100
AcDbLine
 10
2120.208483596371
 20
19.00002934162057
 30
0.0
 11
2120.208483596017
 21
13.3000293416203
 31
0.0
  0
LINE
  5
C35
330
2
100
AcDbEntity
  8
0
  6
Continuous
 62
     7
100
AcDbLine
 10
2145.208483596006
 20
13.30002934006643
 30
0.0
 11
2145.20848359636
 21
19.00002934006534
 31
0.0
  0
ARC
  5
C36
330
2
100
AcDbEntity
  8
0
  6
Continuous
 62
     7
100
AcDbCircle
 10
2142.708483597269
 20
33.50002934021586
 30
0.0
 40
0.5000000000006111
100
AcDbArc
 50
269.9999999961047
 51
359.9999999964305
  0
ARC
  5
C37
330
2
100
AcDbEntity
  8
0
  6
Continuous
 62
     7
100
AcDbCircle
 10
2118.708483597267
 20
33.50002934170834
 30
0.0
 40
0.4999999999999451
100
AcDbArc
 50
179.9999999964304
 51
269.9999999967692
  0
LINE
  5
C38
330
2
100
AcDbEntity
  8
0
  6
Continuous
 62
     7
100
AcDbLine
 10
2143.208483597263
 20
33.50002934018721
 30
0.0
 11
2143.208483597409
 21
35.85002934018621
 31
0.0
  0
LINE
  5
C39
330
2
100
AcDbEntity
  8
0
  6
Continuous
 62
     7
100
AcDbLine
 10
2118.20848359742
 20
35.85002934173963
 30
0.0
 11
2118.208483597274
 21
33.50002934174018
 31
0.0
  0
LINE
  5
C3A
330
2
100
AcDbEntity
  8
0
  6
Continuous
 62
     7
100
AcDbLine
 10
2143.208483598049
 20
46.15002934018548
 30
0.0
 11
2143.208483598195
 21
48.50002934018585
 31
0.0
  0
LINE
  5
C3B
330
2
100
AcDbEntity
  8
0
  6
Continuous
 62
     7
100
AcDbLine
 10
2118.208483598206
 20
48.50002934174018
 30
0.0
 11
2118.20848359806
 21
46.15002934173981
 31
0.0
  0
ARC
  5
C3C
330
2
100
AcDbEntity
  8
0
  6
Continuous
 62
     7
100
AcDbCircle
 10
2118.708483598199
 20
48.5000293417097
 30
0.0
 40
0.4999999999997229
100
AcDbArc
 50
89.99999999610476
 51
179.9999999964304
  0
ARC
  5
C3D
330
2
100
AcDbEntity
  8
0
  6
Continuous
 62
     7
100
AcDbCircle
 10
2142.708483598201
 20
48.50002934021723
 30
0.0
 40
0.4999999999999451
100
AcDbArc
 50
359.9999999964305
 51
89.99999999676916
  0
ARC
  5
C3E
330
2
100
AcDbEntity
  8
0
  6
Continuous
 62
     7
100
AcDbCircle
 10
2119.208483597507
 20
37.35002934167778
 30
0.0
 40
1.499999999999945
100
AcDbArc
 50
269.9999999965477
 51
359.9999999964305
  0
ARC
  5
C3F
330
2
100
AcDbEntity
  8
0
  6
Continuous
 62
     7
100
AcDbCircle
 10
2142.208483597508
 20
37.35002934024715
 30
0.0
 40
1.500000000000055
100
AcDbArc
 50
179.9999999964304
 51
269.9999999963262
  0
ARC
  5
C40
330
2
100
AcDbEntity
  8
0
  6
Continuous
 62
     7
100
AcDbCircle
 10
2119.20848359796
 20
44.65002934167705
 30
0.0
 40
1.500000000000055
100
AcDbArc
 50
359.9999999964305
 51
89.99999999632622
  0
ARC
  5
C41
330
2
100
AcDbEntity
  8
0
  6
Continuous
 62
     7
100
AcDbCircle
 10
2142.208483597962
 20
44.65002934024823
 30
0.0
 40
1.499999999999945
100
AcDbArc
 50
89.9999999965477
 51
179.9999999964304
  0
LINE
  5
C42
330
2
100
AcDbEntity
  8
0
  6
Continuous
 62
     7
100
AcDbLine
 10
2120.708483597965
 20
44.65002934158519
 30
0.0
 11
2120.708483597512
 21
37.35002934158456
 31
0.0
  0
LINE
  5
C43
330
2
100
AcDbEntity
  8
0
  6
Continuous
 62
     7
100
AcDbLine
 10
2140.708483597503
 20
37.35002934034128
 30
0.0
 11
2140.708483597957
 21
44.650029340341
 31
0.0
  0
LINE
  5
C44
330
2
100
AcDbEntity
  8
0
  6
Continuous
 62
     7
100
AcDbLine
 10
2118.208483597209
 20
32.50002934173926
 30
0.0
 11
2118.208483596992
 21
29.00002934173926
 31
0.0
  0
LINE
  5
C45
330
2
100
AcDbEntity
  8
0
  6
Continuous
 62
     7
100
AcDbLine
 10
2143.208483596985
 20
29.00002934018721
 30
0.0
 11
2143.208483597202
 21
32.50002934018721
 31
0.0
  0
ARC
  5
C46
330
2
100
AcDbEntity
  8
0
  6
Continuous
 62
     7
100
AcDbCircle
 10
2137.20848359724
 20
33.0000293405592
 30
0.0
 40
0.5000000000006111
100
AcDbArc
 50
179.9999999964304
 51
269.999999996196
  0
ARC
  5
C47
330
2
100
AcDbEntity
  8
0
  6
Continuous
 62
     7
100
AcDbCircle
 10
2124.208483597235
 20
33.00002934136819
 30
0.0
 40
0.4999999999999451
100
AcDbArc
 50
269.999999996691
 51
359.9999999964305
  0
LINE
  5
C48
330
2
100
AcDbEntity
  8
0
  6
Continuous
 62
     7
100
AcDbLine
 10
1984.000049673903
 20
62.00002736904662
 30
0.0
 11
1984.000049674061
 21
63.00002736904662
 31
0.0
  0
LINE
  5
C49
330
2
100
AcDbEntity
  8
0
  6
Continuous
 62
     7
100
AcDbLine
 10
1960.000049674061
 20
63.00002737285831
 30
0.0
 11
1960.000049673902
 21
62.00002737285922
 31
0.0
  0
LINE
  5
C4A
330
2
100
AcDbEntity
  8
0
  6
Continuous
 62
     7
100
AcDbLine
 10
1962.500049673147
 20
54.00002737123941
 30
0.0
 11
1962.500049673117
 21
53.00002737124032
 31
0.0
  0
LINE
  5
C4B
330
2
100
AcDbEntity
  8
0
  6
Continuous
 62
     7
100
AcDbLine
 10
1981.500049673117
 20
53.0000273706778
 30
0.0
 11
1981.500049673147
 21
54.00002737067779
 31
0.0
  0
LINE
  5
C4C
330
2
100
AcDbEntity
  8
0
  6
Continuous
 62
     7
100
AcDbLine
 10
1982.000049673348
 20
46.00002737129216
 30
0.0
 11
1982.000049673117
 21
53.00002737128898
 31
0.0
  0
LINE
  5
C4D
330
2
100
AcDbEntity
  8
0
  6
Continuous
 62
     7
100
AcDbLine
 10
1962.000049673117
 20
53.00002737062914
 30
0.0
 11
1962.000049673348
 21
46.00002737063095
 31
0.0
  0
LINE
  5
C4E
330
2
100
AcDbEntity
  8
0
  6
Continuous
 62
     7
100
AcDbLine
 10
1960.000049674089
 20
64.00002737208251
 30
0.0
 11
1960.000049673994
 21
63.00002737208297
 31
0.0
  0
LINE
  5
C4F
330
2
100
AcDbEntity
  8
0
  6
Continuous
 62
     7
100
AcDbLine
 10
1984.000049673994
 20
63.00002736982242
 30
0.0
 11
1984.000049674088
 21
64.00002736982106
 31
0.0
  0
LINE
  5
C50
330
2
100
AcDbEntity
  8
0
  6
Continuous
 62
     7
100
AcDbLine
 10
1984.500049675667
 20
64.00002736898568
 30
0.0
 11
1984.500049676564
 21
69.70002736898232
 31
0.0
  0
LINE
  5
C51
330
2
100
AcDbEntity
  8
0
  6
Continuous
 62
     7
100
AcDbLine
 10
1959.500049676564
 20
69.70002737291633
 30
0.0
 11
1959.500049675667
 21
64.00002737291879
 31
0.0
  0
LINE
  5
C52
330
2
100
AcDbEntity
  8
0
  6
Continuous
 62
     7
100
AcDbLine
 10
1984.500049676564
 20
69.70002736898232
 30
0.0
 11
1984.200049676611
 21
70.00002736903025
 31
0.0
  0
LINE
  5
C53
330
2
100
AcDbEntity
  8
0
  6
Continuous
 62
     7
100
AcDbLine
 10
1959.800049676611
 20
70.00002737286923
 30
0.0
 11
1959.500049676564
 21
69.70002737291633
 31
0.0
  0
LINE
  5
C54
330
2
100
AcDbEntity
  8
0
  6
Continuous
 62
     7
100
AcDbLine
 10
1684.000046700553
 20
62.00002669001015
 30
0.0
 11
1684.000046701002
 21
63.00002669001014
 31
0.0
  0
LINE
  5
C55
330
2
100
AcDbEntity
  8
0
  6
Continuous
 62
     7
100
AcDbLine
 10
1660.000046701002
 20
63.00002670075901
 30
0.0
 11
1660.000046700554
 21
62.00002670075901
 31
0.0
  0
LINE
  5
C56
330
2
100
AcDbEntity
  8
0
  6
Continuous
 62
     7
100
AcDbLine
 10
1662.500046697485
 20
54.00002669841843
 30
0.0
 11
1662.500046697166
 21
53.00002669841842
 31
0.0
  0
LINE
  5
C57
330
2
100
AcDbEntity
  8
0
  6
Continuous
 62
     7
100
AcDbLine
 10
1681.500046697166
 20
53.00002669236437
 30
0.0
 11
1681.500046697485
 21
54.000026692363
 31
0.0
  0
LINE
  5
C58
330
2
100
AcDbEntity
  8
0
  6
Continuous
 62
     7
100
AcDbLine
 10
1682.000046695374
 20
46.00002669283322
 30
0.0
 11
1682.000046697166
 21
53.0000266928314
 31
0.0
  0
LINE
  5
C59
330
2
100
AcDbEntity
  8
0
  6
Continuous
 62
     7
100
AcDbLine
 10
1662.000046697167
 20
53.00002669795095
 30
0.0
 11
1662.000046695374
 21
46.00002669795322
 31
0.0
  0
LINE
  5
C5A
330
2
100
AcDbEntity
  8
0
  6
Continuous
 62
     7
100
AcDbLine
 10
1660.000046701318
 20
64.00002669998229
 30
0.0
 11
1660.000046700934
 21
63.0000266999832
 31
0.0
  0
LINE
  5
C5B
330
2
100
AcDbEntity
  8
0
  6
Continuous
 62
     7
100
AcDbLine
 10
1684.000046700934
 20
63.00002669078594
 30
0.0
 11
1684.000046701317
 21
64.00002669078549
 31
0.0
  0
LINE
  5
C5C
330
2
100
AcDbEntity
  8
0
  6
Continuous
 62
     7
100
AcDbLine
 10
1684.500046702896
 20
64.00002668980324
 30
0.0
 11
1684.500046705441
 21
69.70002668980214
 31
0.0
  0
LINE
  5
C5D
330
2
100
AcDbEntity
  8
0
  6
Continuous
 62
     7
100
AcDbLine
 10
1659.500046705441
 20
69.70002670096255
 30
0.0
 11
1659.500046702896
 21
64.00002670096319
 31
0.0
  0
LINE
  5
C5E
330
2
100
AcDbEntity
  8
0
  6
Continuous
 62
     7
100
AcDbLine
 10
1684.500046705441
 20
69.70002668980214
 30
0.0
 11
1684.200046705575
 21
70.00002668993511
 31
0.0
  0
LINE
  5
C5F
330
2
100
AcDbEntity
  8
0
  6
Continuous
 62
     7
100
AcDbLine
 10
1659.800046705575
 20
70.00002670082768
 30
0.0
 11
1659.500046705441
 21
69.70002670096255
 31
0.0
  0
LINE
  5
C60
330
2
100
AcDbEntity
  8
0
  6
Continuous
 62
     7
100
AcDbLine
 10
4807.467242903959
 20
2395.216697890028
 30
0.0
 11
4809.19006622854
 21
2382.130555536842
 31
0.0
  0
LINE
  5
C61
330
2
100
AcDbEntity
  8
0
  6
Continuous
 62
     7
100
AcDbLine
 10
4809.19006622854
 20
2382.130555536842
 30
0.0
 11
4809.338902825334
 21
2381.000029344623
 31
0.0
  0
ARC
  5
C62
330
2
100
AcDbEntity
  8
0
  6
Continuous
 62
     7
100
AcDbCircle
 10
4807.59117351163
 20
2395.233013664054
 30
0.0
 40
0.1250000000000174
100
AcDbArc
 50
94.50000000004912
 51
187.5000000000377
  0
LINE
  5
C63
330
2
100
AcDbEntity
  8
0
  6
Continuous
 62
     7
100
AcDbLine
 10
4828.315242278595
 20
2396.989419773175
 30
0.0
 11
4807.581366124665
 21
2395.357628330771
 31
0.0
  0
LINE
  5
C64
330
2
100
AcDbEntity
  8
0
  6
Continuous
 62
     7
100
AcDbLine
 10
4809.338902825334
 20
2381.000029344623
 30
0.0
 11
4821.000049665561
 21
2381.000029344623
 31
0.0
  0
LINE
  5
C65
330
2
100
AcDbEntity
  8
0
  6
Continuous
 62
     7
100
AcDbLine
 10
4828.45004966556
 20
2396.274792964388
 30
0.0
 11
4828.45004966556
 21
2396.86480510646
 31
0.0
  0
ARC
  5
C66
330
2
100
AcDbEntity
  8
0
  6
Continuous
 62
     7
100
AcDbCircle
 10
4828.32504966556
 20
2396.86480510646
 30
0.0
 40
0.1250000000001528
100
AcDbArc
 50
0.0
 51
94.49999999999718
  0
LINE
  5
C67
330
2
100
AcDbEntity
  8
0
  6
Continuous
 62
     7
100
AcDbLine
 10
4821.000049665561
 20
2381.000029344623
 30
0.0
 11
4821.701590148303
 21
2382.438400491412
 31
0.0
  0
LINE
  5
C68
330
2
100
AcDbEntity
  8
0
  6
Continuous
 62
     7
100
AcDbLine
 10
4821.701590148303
 20
2382.438400491412
 30
0.0
 11
4828.45004966556
 21
2396.274792964388
 31
0.0
  0
LINE
  5
C69
330
2
100
AcDbEntity
  8
0
  6
Continuous
 62
     7
100
AcDbLine
 10
4829.45004966556
 20
2396.043924773263
 30
0.0
 11
4829.45004966556
 21
2397.000029344623
 31
0.0
  0
LINE
  5
C6A
330
2
100
AcDbEntity
  8
0
  6
Continuous
 62
     7
100
AcDbLine
 10
4822.688076754944
 20
2382.179825737971
 30
0.0
 11
4829.45004966556
 21
2396.043924773263
 31
0.0
  0
ARC
  5
C6B
330
2
100
AcDbEntity
  8
0
  6
Continuous
 62
     7
100
AcDbCircle
 10
4822.800426010731
 20
2382.125029344623
 30
0.0
 40
0.1250000000001528
100
AcDbArc
 50
154.0000000000036
 51
270.0
  0
LINE
  5
C6C
330
2
100
AcDbEntity
  8
0
  6
Continuous
 62
     7
100
AcDbLine
 10
4843.875049665562
 20
2382.000029344622
 30
0.0
 11
4822.800426010731
 21
2382.000029344622
 31
0.0
  0
ARC
  5
C6D
330
2
100
AcDbEntity
  8
0
  6
Continuous
 62
     7
100
AcDbCircle
 10
4843.875049665562
 20
2382.125029344623
 30
0.0
 40
0.1250000000001528
100
AcDbArc
 50
270.0
 51
0.0
  0
LINE
  5
C6E
330
2
100
AcDbEntity
  8
0
  6
Continuous
 62
     7
100
AcDbLine
 10
4844.000049665561
 20
2401.875029344623
 30
0.0
 11
4844.000049665561
 21
2382.125029344623
 31
0.0
  0
ARC
  5
C6F
330
2
100
AcDbEntity
  8
0
  6
Continuous
 62
     7
100
AcDbCircle
 10
4843.875049665562
 20
2401.875029344623
 30
0.0
 40
0.1249999999999307
100
AcDbArc
 50
0.0
 51
90.0
  0
ARC
  5
C70
330
2
100
AcDbEntity
  8
0
  6
Continuous
 62
     7
100
AcDbCircle
 10
4843.875049665562
 20
2401.875029344623
 30
0.0
 40
0.1250000000001528
100
AcDbArc
 50
90.00000000001303
 51
180.0
  0
LINE
  5
C71
330
2
100
AcDbEntity
  8
0
  6
Continuous
 62
     7
100
AcDbLine
 10
4843.750049665562
 20
2397.000029344623
 30
0.0
 11
4843.750049665562
 21
2401.875029344623
 31
0.0
  0
LINE
  5
C72
330
2
100
AcDbEntity
  8
0
  6
Continuous
 62
     7
100
AcDbLine
 10
4842.750049665561
 20
2397.000029344623
 30
0.0
 11
4843.750049665562
 21
2397.000029344623
 31
0.0
  0
LINE
  5
C73
330
2
100
AcDbEntity
  8
0
  6
Continuous
 62
     7
100
AcDbLine
 10
4842.750049665561
 20
2402.000029344622
 30
0.0
 11
4842.750049665561
 21
2397.000029344623
 31
0.0
  0
ARC
  5
C74
330
2
100
AcDbEntity
  8
0
  6
Continuous
 62
     7
100
AcDbCircle
 10
4843.750049665562
 20
2402.000029344622
 30
0.0
 40
1.000000000000111
100
AcDbArc
 50
90.0
 51
180.0
  0
LINE
  5
C75
330
2
100
AcDbEntity
  8
0
  6
Continuous
 62
     7
100
AcDbLine
 10
4844.000049665561
 20
2403.000029344623
 30
0.0
 11
4843.750049665562
 21
2403.000029344623
 31
0.0
  0
ARC
  5
C76
330
2
100
AcDbEntity
  8
0
  6
Continuous
 62
     7
100
AcDbCircle
 10
4844.000049665561
 20
2402.000029344622
 30
0.0
 40
0.9999999999998896
100
AcDbArc
 50
0.0
 51
90.0
  0
ARC
  5
C77
330
2
100
AcDbEntity
  8
0
  6
Continuous
 62
     7
100
AcDbCircle
 10
4844.000049665561
 20
2382.000029344622
 30
0.0
 40
0.9999999999998896
100
AcDbArc
 50
270.0
 51
0.0
  0
LINE
  5
C78
330
2
100
AcDbEntity
  8
0
  6
Continuous
 62
     7
100
AcDbLine
 10
4822.600384194601
 20
2381.000029344623
 30
0.0
 11
4844.000049665561
 21
2381.000029344623
 31
0.0
  0
ARC
  5
C79
330
2
100
AcDbEntity
  8
0
  6
Continuous
 62
     7
100
AcDbCircle
 10
4822.600384194601
 20
2382.000029344622
 30
0.0
 40
1.000000000000121
100
AcDbArc
 50
154.0000000000036
 51
269.999999999987
  0
LINE
  5
C7A
330
2
100
AcDbEntity
  8
0
  6
Continuous
 62
     7
100
AcDbLine
 10
4828.45004966556
 20
2396.274792964388
 30
0.0
 11
4821.701590148303
 21
2382.438400491412
 31
0.0
  0
LINE
  5
C7B
330
2
100
AcDbEntity
  8
0
  6
Continuous
 62
     7
100
AcDbLine
 10
4828.45004966556
 20
2396.86480510646
 30
0.0
 11
4828.45004966556
 21
2396.274792964388
 31
0.0
  0
ARC
  5
C7C
330
2
100
AcDbEntity
  8
0
  6
Continuous
 62
     7
100
AcDbCircle
 10
4828.32504966556
 20
2396.86480510646
 30
0.0
 40
0.1250000000000174
100
AcDbArc
 50
0.0000000000521102
 51
94.50000000004912
  0
LINE
  5
C7D
330
2
100
AcDbEntity
  8
0
  6
Continuous
 62
     7
100
AcDbLine
 10
4807.581366124665
 20
2395.357628330771
 30
0.0
 11
4828.315242278595
 21
2396.989419773175
 31
0.0
  0
ARC
  5
C7E
330
2
100
AcDbEntity
  8
0
  6
Continuous
 62
     7
100
AcDbCircle
 10
4807.59117351163
 20
2395.233013664054
 30
0.0
 40
0.1249999999999435
100
AcDbArc
 50
94.49999999995823
 51
187.4999999999585
  0
LINE
  5
C7F
330
2
100
AcDbEntity
  8
0
  6
Continuous
 62
     7
100
AcDbLine
 10
4809.19006622854
 20
2382.130555536842
 30
0.0
 11
4807.467242903959
 21
2395.216697890028
 31
0.0
  0
ARC
  5
C80
330
2
100
AcDbEntity
  8
0
  6
Continuous
 62
     7
100
AcDbCircle
 10
4808.198621367166
 20
2382.000029344622
 30
0.0
 40
0.9999999999998896
100
AcDbArc
 50
270.0
 51
7.499999999986077
  0
LINE
  5
C81
330
2
100
AcDbEntity
  8
0
  6
Continuous
 62
     7
100
AcDbLine
 10
4793.762068830463
 20
2381.000029344623
 30
0.0
 11
4808.198621367166
 21
2381.000029344623
 31
0.0
  0
ARC
  5
C82
330
2
100
AcDbEntity
  8
0
  6
Continuous
 62
     7
100
AcDbCircle
 10
4793.762068830463
 20
2382.000029344622
 30
0.0
 40
1.00000000000035
100
AcDbArc
 50
175.0000000000005
 51
270.0
  0
LINE
  5
C83
330
2
100
AcDbEntity
  8
0
  6
Continuous
 62
     7
100
AcDbLine
 10
4793.731455852106
 20
2393.123834646532
 30
0.0
 11
4792.76587413237
 21
2382.08718508737
 31
0.0
  0
ARC
  5
C84
330
2
100
AcDbEntity
  8
0
  6
Continuous
 62
     7
100
AcDbCircle
 10
4794.727650550197
 20
2393.036678903783
 30
0.0
 40
0.9999999999999094
100
AcDbArc
 50
84.99999999999941
 51
175.0000000000005
  0
LINE
  5
C85
330
2
100
AcDbEntity
  8
0
  6
Continuous
 62
     7
100
AcDbLine
 10
4795.063854967468
 20
2394.011084666189
 30
0.0
 11
4794.814806292946
 21
2394.032873601876
 31
0.0
  0
ARC
  5
C86
330
2
100
AcDbEntity
  8
0
  6
Continuous
 62
     7
100
AcDbCircle
 10
4794.976699224721
 20
2393.014889968096
 30
0.0
 40
0.9999999999999094
100
AcDbArc
 50
355.0000000000006
 51
84.99999999999941
  0
LINE
  5
C87
330
2
100
AcDbEntity
  8
0
  6
Continuous
 62
     7
100
AcDbLine
 10
4795.537115209074
 20
2387.946760734891
 30
0.0
 11
4795.972893922813
 21
2392.927734225349
 31
0.0
  0
LINE
  5
C88
330
2
100
AcDbEntity
  8
0
  6
Continuous
 62
     7
100
AcDbLine
 10
4794.540920510982
 20
2388.033916477637
 30
0.0
 11
4795.537115209074
 21
2387.946760734891
 31
0.0
  0
LINE
  5
C89
330
2
100
AcDbEntity
  8
0
  6
Continuous
 62
     7
100
AcDbLine
 10
4794.965804756877
 20
2392.890365630835
 30
0.0
 11
4794.540920510982
 21
2388.033916477637
 31
0.0
  0
ARC
  5
C8A
330
2
100
AcDbEntity
  8
0
  6
Continuous
 62
     7
100
AcDbCircle
 10
4794.841280419616
 20
2392.901260098678
 30
0.0
 40
0.1249999999999285
100
AcDbArc
 50
355.0000000000265
 51
85.00000000001238
  0
ARC
  5
C8B
330
2
100
AcDbEntity
  8
0
  6
Continuous
 62
     7
100
AcDbCircle
 10
4794.841280419616
 20
2392.901260098678
 30
0.0
 40
0.1249999999997073
100
AcDbArc
 50
84.99999999999941
 51
175.0000000000005
  0
LINE
  5
C8C
330
2
100
AcDbEntity
  8
0
  6
Continuous
 62
     7
100
AcDbLine
 10
4793.773958055836
 20
2382.135923812466
 30
0.0
 11
4794.716756082354
 21
2392.912154566522
 31
0.0
  0
ARC
  5
C8D
330
2
100
AcDbEntity
  8
0
  6
Continuous
 62
     7
100
AcDbCircle
 10
4793.898482393095
 20
2382.125029344623
 30
0.0
 40
0.1250000000001528
100
AcDbArc
 50
175.0000000000005
 51
270.0
  0
LINE
  5
C8E
330
2
100
AcDbEntity
  8
0
  6
Continuous
 62
     7
100
AcDbLine
 10
4808.056086184895
 20
2382.000029344622
 30
0.0
 11
4793.898482393095
 21
2382.000029344622
 31
0.0
  0
ARC
  5
C8F
330
2
100
AcDbEntity
  8
0
  6
Continuous
 62
     7
100
AcDbCircle
 10
4808.056086184895
 20
2382.125029344623
 30
0.0
 40
0.1249999999999435
100
AcDbArc
 50
269.9999999999479
 51
7.499999999958544
  0
LINE
  5
C90
330
2
100
AcDbEntity
  8
0
  6
Continuous
 62
     7
100
AcDbLine
 10
4806.458604804188
 20
2395.216767309086
 30
0.0
 11
4808.180016792568
 21
2382.14134511865
 31
0.0
  0
ARC
  5
C91
330
2
100
AcDbEntity
  8
0
  6
Continuous
 62
     7
100
AcDbCircle
 10
4807.45004966556
 20
2395.347293501306
 30
0.0
 40
1.000000000000069
100
AcDbArc
 50
94.49999999999718
 51
187.4999999999861
  0
LINE
  5
C92
330
2
100
AcDbEntity
  8
0
  6
Continuous
 62
     7
100
AcDbLine
 10
4828.371590569832
 20
2397.996946678356
 30
0.0
 11
4807.371590569833
 21
2396.344210835039
 31
0.0
  0
ARC
  5
C93
330
2
100
AcDbEntity
  8
0
  6
Continuous
 62
     7
100
AcDbCircle
 10
4828.45004966556
 20
2397.000029344623
 30
0.0
 40
0.9999999999998896
100
AcDbArc
 50
0.0
 51
94.49999999999718
  0
LINE
  5
C94
330
2
100
AcDbEntity
  8
0
  6
Continuous
 62
     7
100
AcDbLine
 10
4845.000049665561
 20
2382.000029344622
 30
0.0
 11
4845.000049665561
 21
2402.000029344622
 31
0.0
  0
LINE
  5
C95
330
2
100
AcDbEntity
  8
0
  6
Continuous
 62
     7
100
AcDbLine
 10
4845.000049665564
 20
1831.00002934467
 30
0.0
 11
4045.000049665565
 21
1831.00002934467
 31
0.0
  0
LINE
  5
C96
330
2
100
AcDbEntity
  8
0
  6
Continuous
 62
     7
100
AcDbLine
 10
4045.000049665565
 20
1831.00002934467
 30
0.0
 11
4045.000049665565
 21
2381.00002934467
 31
0.0
  0
LINE
  5
C97
330
2
100
AcDbEntity
  8
0
  6
Continuous
 62
     7
100
AcDbLine
 10
4845.000049665564
 20
2381.00002934467
 30
0.0
 11
4844.000049665561
 21
2381.00002934467
 31
0.0
  0
LINE
  5
C98
330
2
100
AcDbEntity
  8
0
  6
Continuous
 62
     7
100
AcDbLine
 10
4844.000049665561
 20
2381.00002934467
 30
0.0
 11
4822.600384194601
 21
2381.00002934467
 31
0.0
  0
LINE
  5
C99
330
2
100
AcDbEntity
  8
0
  6
Continuous
 62
     7
100
AcDbLine
 10
4822.600384194601
 20
2381.00002934467
 30
0.0
 11
4821.000049665585
 21
2381.00002934467
 31
0.0
  0
LINE
  5
C9A
330
2
100
AcDbEntity
  8
0
  6
Continuous
 62
     7
100
AcDbLine
 10
4821.000049665585
 20
2381.00002934467
 30
0.0
 11
4809.338902825327
 21
2381.00002934467
 31
0.0
  0
LINE
  5
C9B
330
2
100
AcDbEntity
  8
0
  6
Continuous
 62
     7
100
AcDbLine
 10
4809.338902825327
 20
2381.00002934467
 30
0.0
 11
4808.198621367166
 21
2381.00002934467
 31
0.0
  0
LINE
  5
C9C
330
2
100
AcDbEntity
  8
0
  6
Continuous
 62
     7
100
AcDbLine
 10
4808.198621367166
 20
2381.00002934467
 30
0.0
 11
4793.762068830463
 21
2381.00002934467
 31
0.0
  0
LINE
  5
C9D
330
2
100
AcDbEntity
  8
0
  6
Continuous
 62
     7
100
AcDbLine
 10
4793.762068830463
 20
2381.00002934467
 30
0.0
 11
4045.000049665565
 21
2381.00002934467
 31
0.0
  0
LINE
  5
C9E
330
2
100
AcDbEntity
  8
0
  6
Continuous
 62
     7
100
AcDbLine
 10
4845.000049665564
 20
1831.00002934467
 30
0.0
 11
4845.000049665564
 21
2381.00002934467
 31
0.0
  0
ARC
  5
C9F
330
2
100
AcDbEntity
  8
0
  6
Continuous
 62
     7
100
AcDbCircle
 10
4858.000049725522
 20
3146.000029343752
 30
0.0
 40
1.0
100
AcDbArc
 50
359.9999999989317
 51
89.99999999893175
  0
LINE
  5
CA0
330
2
100
AcDbEntity
  8
0
  6
Continuous
 62
     9
100
AcDbLine
 10
4858.000049725461
 20
3146.000029343752
 30
0.0
 11
4859.00004972552
 21
3146.000029343733
 31
0.0
  0
LINE
  5
CA1
330
2
100
AcDbEntity
  8
0
  6
Continuous
 62
     9
100
AcDbLine
 10
4858.00004972554
 20
3147.000029343752
 30
0.0
 11
4858.000049725522
 21
3146.000029343689
 31
0.0
  0
LINE
  5
CA2
330
2
100
AcDbEntity
  8
0
  6
Continuous
 62
     7
100
AcDbLine
 10
4841.500049693532
 20
3147.000029344058
 30
0.0
 11
4858.00004972554
 21
3147.000029343751
 31
0.0
  0
LINE
  5
CA3
330
2
100
AcDbEntity
  8
0
  6
Continuous
 62
     9
100
AcDbLine
 10
4858.000049725461
 20
3146.000029343689
 30
0.0
 11
4841.500049693532
 21
3146.000029343996
 31
0.0
  0
LINE
  5
CA4
330
2
100
AcDbEntity
  8
0
  6
Continuous
 62
     9
100
AcDbLine
 10
4858.000049725124
 20
3128.000029343697
 30
0.0
 11
4858.000049725461
 21
3146.000029343689
 31
0.0
  0
LINE
  5
CA5
330
2
100
AcDbEntity
  8
0
  6
Continuous
 62
     7
100
AcDbLine
 10
4859.000049725523
 20
3146.000029343733
 30
0.0
 11
4859.000049725188
 21
3128.000029343741
 31
0.0
  0
LINE
  5
CA6
330
2
100
AcDbEntity
  8
0
  6
Continuous
 62
     9
100
AcDbLine
 10
4858.000049725124
 20
3128.00002934376
 30
0.0
 11
4859.000049725185
 21
3128.000029343741
 31
0.0
  0
LINE
  5
CA7
330
2
100
AcDbEntity
  8
0
  6
Continuous
 62
     9
100
AcDbLine
 10
4841.500049693532
 20
3128.000029344004
 30
0.0
 11
4858.000049725124
 21
3128.000029343697
 31
0.0
  0
CIRCLE
  5
CA8
330
2
100
AcDbEntity
  8
0
  6
Continuous
 62
     7
100
AcDbCircle
 10
4849.000049725292
 20
3137.000029343861
 30
0.0
 40
7.141428428542817
  0
ARC
  5
CA9
330
2
100
AcDbEntity
  8
0
  6
Continuous
 62
     7
100
AcDbCircle
 10
4858.000049725186
 20
3128.00002934376
 30
0.0
 40
1.000000000000333
100
AcDbArc
 50
269.9999999989318
 51
359.9999999989317
  0
LINE
  5
CAA
330
2
100
AcDbEntity
  8
0
  6
Continuous
 62
     9
100
AcDbLine
 10
4858.000049725186
 20
3128.000029343697
 30
0.0
 11
4858.000049725167
 21
3127.00002934376
 31
0.0
  0
LINE
  5
CAB
330
2
100
AcDbEntity
  8
0
  6
Continuous
 62
     7
100
AcDbLine
 10
4858.000049725167
 20
3127.00002934376
 30
0.0
 11
4841.500049693532
 21
3127.000029344068
 31
0.0
  0
LINE
  5
CAC
330
2
100
AcDbEntity
  8
0
  6
Continuous
 62
     9
100
AcDbLine
 10
4828.500049693534
 20
3883.000029344369
 30
0.0
 11
4828.500049693534
 21
2408.000029344369
 31
0.0
  0
LINE
  5
CAD
330
2
100
AcDbEntity
  8
0
  6
Continuous
 62
     7
100
AcDbLine
 10
4828.500049693534
 20
3883.000029344369
 30
0.0
 11
4841.500049693532
 21
3883.000029344369
 31
0.0
  0
LINE
  5
CAE
330
2
100
AcDbEntity
  8
0
  6
Continuous
 62
     7
100
AcDbLine
 10
4841.500049693532
 20
3883.000029344369
 30
0.0
 11
4841.500049693532
 21
2408.000029344369
 31
0.0
  0
LINE
  5
CAF
330
2
100
AcDbEntity
  8
0
  6
Continuous
 62
     7
100
AcDbLine
 10
4828.500049693534
 20
2408.000029344369
 30
0.0
 11
4841.500049693532
 21
2408.000029344369
 31
0.0
  0
LINE
  5
CB0
330
2
100
AcDbEntity
  8
0
  6
Continuous
 62
     7
100
AcDbLine
 10
4805.000049665579
 20
2408.000029344369
 30
0.0
 11
4828.500049693534
 21
2408.000029344369
 31
0.0
  0
LINE
  5
CB1
330
2
100
AcDbEntity
  8
0
  6
Continuous
 62
     7
100
AcDbLine
 10
4805.000049665579
 20
3883.000029344369
 30
0.0
 11
4828.500049693534
 21
3883.000029344369
 31
0.0
  0
LINE
  5
CB2
330
2
100
AcDbEntity
  8
0
  6
Continuous
 62
     7
100
AcDbLine
 10
4845.70004970369
 20
3792.50002934477
 30
0.0
 11
4845.700049702889
 21
3805.000029344902
 31
0.0
  0
LINE
  5
CB3
330
2
100
AcDbEntity
  8
0
  6
Continuous
 62
     7
100
AcDbLine
 10
4845.700049702889
 20
3805.000029344902
 30
0.0
 11
4845.700049702085
 21
3817.50002934477
 31
0.0
  0
LINE
  5
CB4
330
2
100
AcDbEntity
  8
0
  6
Continuous
 62
     7
100
AcDbLine
 10
4846.000049702105
 20
3817.200029344789
 30
0.0
 11
4846.000049702889
 21
3805.000029344918
 31
0.0
  0
LINE
  5
CB5
330
2
100
AcDbEntity
  8
0
  6
Continuous
 62
     7
100
AcDbLine
 10
4846.000049702889
 20
3805.000029344918
 30
0.0
 11
4846.000049703673
 21
3792.800029344789
 31
0.0
  0
LINE
  5
CB6
330
2
100
AcDbEntity
  8
0
  6
Continuous
 62
     7
100
AcDbLine
 10
4845.70004970061
 20
3840.500029344813
 30
0.0
 11
4845.700049699808
 21
3853.000029344838
 31
0.0
  0
LINE
  5
CB7
330
2
100
AcDbEntity
  8
0
  6
Continuous
 62
     7
100
AcDbLine
 10
4846.000049699025
 20
3865.200029344832
 30
0.0
 11
4846.000049699808
 21
3853.000029344857
 31
0.0
  0
LINE
  5
CB8
330
2
100
AcDbEntity
  8
0
  6
Continuous
 62
     7
100
AcDbLine
 10
4845.700049699808
 20
3853.000029344838
 30
0.0
 11
4845.700049699006
 21
3865.500029344813
 31
0.0
  0
LINE
  5
CB9
330
2
100
AcDbEntity
  8
0
  6
Continuous
 62
     7
100
AcDbLine
 10
4846.000049699808
 20
3853.000029344857
 30
0.0
 11
4846.000049700592
 21
3840.800029344832
 31
0.0
  0
LINE
  5
CBA
330
2
100
AcDbEntity
  8
0
  6
Continuous
 62
     4
100
AcDbLine
 10
4831.000049693592
 20
2408.000029344369
 30
0.0
 11
4831.000049693592
 21
2391.000029345045
 31
0.0
  0
LINE
  5
CBB
330
2
100
AcDbEntity
  8
0
  6
Continuous
 62
     4
100
AcDbLine
 10
4839.000049693591
 20
2391.000029345045
 30
0.0
 11
4831.000049693592
 21
2391.000029345045
 31
0.0
  0
LINE
  5
CBC
330
2
100
AcDbEntity
  8
0
  6
Continuous
 62
     4
100
AcDbLine
 10
4839.000049693591
 20
2408.000029344369
 30
0.0
 11
4839.000049693591
 21
2391.000029345045
 31
0.0
  0
LINE
  5
CBD
330
2
100
AcDbEntity
  8
0
  6
Continuous
 62
     7
100
AcDbLine
 10
4812.600051638381
 20
3819.50002903026
 30
0.0
 11
4812.600051636332
 21
3847.00002903026
 31
0.0
  0
ARC
  5
CBE
330
2
100
AcDbEntity
  8
0
  6
Continuous
 62
     7
100
AcDbCircle
 10
4814.100051638381
 20
3819.500029030371
 30
0.0
 40
1.500000000000055
100
AcDbArc
 50
180.000000004273
 51
270.000000004273
  0
LINE
  5
CBF
330
2
100
AcDbEntity
  8
0
  6
Continuous
 62
     7
100
AcDbLine
 10
4821.500051638493
 20
3818.000029030923
 30
0.0
 11
4814.500051650189
 21
3818.000029030401
 31
0.0
  0
LINE
  5
CC0
330
2
100
AcDbEntity
  8
0
  6
Continuous
 62
     7
100
AcDbLine
 10
4814.500051650189
 20
3818.000029030401
 30
0.0
 11
4814.100051638494
 21
3818.000029030371
 31
0.0
  0
ARC
  5
CC1
330
2
100
AcDbEntity
  8
0
  6
Continuous
 62
     7
100
AcDbCircle
 10
4821.500051638381
 20
3819.500029030923
 30
0.0
 40
1.500000000000055
100
AcDbArc
 50
270.000000004273
 51
0.000000004273037
  0
LINE
  5
CC2
330
2
100
AcDbEntity
  8
0
  6
Continuous
 62
     7
100
AcDbLine
 10
4823.000051636332
 20
3847.000029031034
 30
0.0
 11
4823.000051636369
 21
3846.500029042756
 31
0.0
  0
LINE
  5
CC3
330
2
100
AcDbEntity
  8
0
  6
Continuous
 62
     7
100
AcDbLine
 10
4823.000051636369
 20
3846.500029042756
 30
0.0
 11
4823.000051638381
 21
3819.500029031034
 31
0.0
  0
ARC
  5
CC4
330
2
100
AcDbEntity
  8
0
  6
Continuous
 62
     7
100
AcDbCircle
 10
4821.500051636332
 20
3847.000029030922
 30
0.0
 40
1.500000000000055
100
AcDbArc
 50
0.000000004273037
 51
90.00000000427304
  0
LINE
  5
CC5
330
2
100
AcDbEntity
  8
0
  6
Continuous
 62
     7
100
AcDbLine
 10
4814.100051636221
 20
3848.500029030371
 30
0.0
 11
4821.500051636221
 21
3848.500029030923
 31
0.0
  0
ARC
  5
CC6
330
2
100
AcDbEntity
  8
0
  6
Continuous
 62
     7
100
AcDbCircle
 10
4814.100051636332
 20
3847.000029030371
 30
0.0
 40
1.500000000000055
100
AcDbArc
 50
90.00000000427304
 51
180.000000004273
  0
LINE
  5
CC7
330
2
100
AcDbEntity
  8
0
  6
Continuous
 62
     7
100
AcDbLine
 10
4825.300051638567
 20
3817.000029031206
 30
0.0
 11
4825.30005163529
 21
3861.000029031206
 31
0.0
  0
ARC
  5
CC8
330
2
100
AcDbEntity
  8
0
  6
Continuous
 62
     7
100
AcDbCircle
 10
4824.300051638568
 20
3817.000029031131
 30
0.0
 40
1.000000000000111
100
AcDbArc
 50
270.000000004273
 51
0.000000004273037
  0
LINE
  5
CC9
330
2
100
AcDbEntity
  8
0
  6
Continuous
 62
     7
100
AcDbLine
 10
4811.300051638642
 20
3816.000029030163
 30
0.0
 11
4824.300051638641
 21
3816.000029031131
 31
0.0
  0
ARC
  5
CCA
330
2
100
AcDbEntity
  8
0
  6
Continuous
 62
     7
100
AcDbCircle
 10
4811.300051638568
 20
3817.000029030162
 30
0.0
 40
0.9999999999998896
100
AcDbArc
 50
180.000000004273
 51
270.000000004273
  0
LINE
  5
CCB
330
2
100
AcDbEntity
  8
0
  6
Continuous
 62
     7
100
AcDbLine
 10
4810.300051635289
 20
3861.000029030088
 30
0.0
 11
4810.300051638567
 21
3817.000029030089
 31
0.0
  0
ARC
  5
CCC
330
2
100
AcDbEntity
  8
0
  6
Continuous
 62
     7
100
AcDbCircle
 10
4811.300051635289
 20
3861.000029030163
 30
0.0
 40
1.000000000000111
100
AcDbArc
 50
90.00000000427304
 51
180.000000004273
  0
LINE
  5
CCD
330
2
100
AcDbEntity
  8
0
  6
Continuous
 62
     7
100
AcDbLine
 10
4824.300051635215
 20
3862.000029031131
 30
0.0
 11
4811.300051635214
 21
3862.000029030163
 31
0.0
  0
ARC
  5
CCE
330
2
100
AcDbEntity
  8
0
  6
Continuous
 62
     7
100
AcDbCircle
 10
4824.300051635289
 20
3861.000029031131
 30
0.0
 40
1.000000000000333
100
AcDbArc
 50
0.000000004273037
 51
90.00000000427304
  0
LINE
  5
CCF
330
2
100
AcDbEntity
  8
0
  6
Continuous
 62
     7
100
AcDbLine
 10
4813.000051648067
 20
3846.500029030315
 30
0.0
 11
4813.000051650078
 21
3819.500029030315
 31
0.0
  0
LINE
  5
CD0
330
2
100
AcDbEntity
  8
0
  6
Continuous
 62
     7
100
AcDbLine
 10
4814.500051647954
 20
3848.000029030426
 30
0.0
 11
4813.000051648067
 21
3846.500029030315
 31
0.0
  0
LINE
  5
CD1
330
2
100
AcDbEntity
  8
0
  6
Continuous
 62
     7
100
AcDbLine
 10
4821.500051647954
 20
3848.000029030948
 30
0.0
 11
4814.500051647954
 21
3848.000029030426
 31
0.0
  0
LINE
  5
CD2
330
2
100
AcDbEntity
  8
0
  6
Continuous
 62
     7
100
AcDbLine
 10
4823.000051648067
 20
3846.50002903106
 30
0.0
 11
4821.500051647954
 21
3848.000029030948
 31
0.0
  0
LINE
  5
CD3
330
2
100
AcDbEntity
  8
0
  6
Continuous
 62
     7
100
AcDbLine
 10
4823.000051650076
 20
3819.50002903106
 30
0.0
 11
4823.000051648067
 21
3846.50002903106
 31
0.0
  0
LINE
  5
CD4
330
2
100
AcDbEntity
  8
0
  6
Continuous
 62
     7
100
AcDbLine
 10
4821.50005165019
 20
3818.000029030948
 30
0.0
 11
4823.000051650076
 21
3819.50002903106
 31
0.0
  0
LINE
  5
CD5
330
2
100
AcDbEntity
  8
0
  6
Continuous
 62
     7
100
AcDbLine
 10
4814.500051650189
 20
3818.000029030427
 30
0.0
 11
4821.50005165019
 21
3818.000029030948
 31
0.0
  0
LINE
  5
CD6
330
2
100
AcDbEntity
  8
0
  6
Continuous
 62
     7
100
AcDbLine
 10
4813.000051650078
 20
3819.500029030315
 30
0.0
 11
4814.500051650189
 21
3818.000029030427
 31
0.0
  0
CIRCLE
  5
CD7
330
2
100
AcDbEntity
  8
0
  6
Continuous
 62
     7
100
AcDbCircle
 10
4818.000051649704
 20
3824.500029030687
 30
0.0
 40
2.650000000000041
  0
CIRCLE
  5
CD8
330
2
100
AcDbEntity
  8
0
  6
Continuous
 62
     7
100
AcDbCircle
 10
4818.000051648438
 20
3841.500029030687
 30
0.0
 40
2.650000000000041
  0
LINE
  5
CD9
330
2
100
AcDbEntity
  8
0
  6
Continuous
 62
     7
100
AcDbLine
 10
4796.000052347913
 20
3821.000029322073
 30
0.0
 11
4796.000052345252
 21
3833.059257647274
 31
0.0
  0
LINE
  5
CDA
330
2
100
AcDbEntity
  8
0
  6
Continuous
 62
     7
100
AcDbLine
 10
4796.000052345252
 20
3833.059257647274
 30
0.0
 11
4796.000052342619
 21
3845.000029322054
 31
0.0
  0
LINE
  5
CDB
330
2
100
AcDbEntity
  8
0
  6
Continuous
 62
     7
100
AcDbLine
 10
4806.000052343168
 20
3842.500029324263
 30
0.0
 11
4806.000052343383
 21
3841.52768227867
 31
0.0
  0
LINE
  5
CDC
330
2
100
AcDbEntity
  8
0
  6
Continuous
 62
     7
100
AcDbLine
 10
4806.000052345576
 20
3831.560231816467
 30
0.0
 11
4806.000052345984
 21
3829.703958469059
 31
0.0
  0
LINE
  5
CDD
330
2
100
AcDbEntity
  8
0
  6
Continuous
 62
     7
100
AcDbLine
 10
4806.000052345984
 20
3829.703958469059
 30
0.0
 11
4806.00005234713
 21
3824.496515703972
 31
0.0
  0
LINE
  5
CDE
330
2
100
AcDbEntity
  8
0
  6
Continuous
 62
     7
100
AcDbLine
 10
4806.00005234713
 20
3824.49651570397
 30
0.0
 11
4806.000052347349
 21
3823.500029324275
 31
0.0
  0
LINE
  5
CDF
330
2
100
AcDbEntity
  8
0
  6
Continuous
 62
     7
100
AcDbLine
 10
4806.000052343063
 20
3843.000029324263
 30
0.0
 11
4806.000052347457
 21
3823.000029324276
 31
0.0
  0
LINE
  5
CE0
330
2
100
AcDbEntity
  8
0
  6
Continuous
 62
     7
100
AcDbLine
 10
4796.000052342622
 20
3845.000029322066
 30
0.0
 11
4796.000052345252
 21
3833.059257647274
 31
0.0
  0
LINE
  5
CE1
330
2
100
AcDbEntity
  8
0
  6
Continuous
 62
     7
100
AcDbLine
 10
4796.000052345252
 20
3833.059257647274
 30
0.0
 11
4796.00005234791
 21
3821.000029322066
 31
0.0
  0
LINE
  5
CE2
330
2
100
AcDbEntity
  8
0
  6
Continuous
 62
     7
100
AcDbLine
 10
4795.000052342509
 20
3845.50002932183
 30
0.0
 11
4795.000052345282
 21
3832.926809487018
 31
0.0
  0
LINE
  5
CE3
330
2
100
AcDbEntity
  8
0
  6
Continuous
 62
     7
100
AcDbLine
 10
4789.30005234251
 20
3845.500029320572
 30
0.0
 11
4789.300052345285
 21
3832.926809485761
 31
0.0
  0
LINE
  5
CE4
330
2
100
AcDbEntity
  8
0
  6
Continuous
 62
     7
100
AcDbLine
 10
4795.000052345282
 20
3832.926809487018
 30
0.0
 11
4795.000052348024
 21
3820.500029321851
 31
0.0
  0
LINE
  5
CE5
330
2
100
AcDbEntity
  8
0
  6
Continuous
 62
     7
100
AcDbLine
 10
4789.300052345285
 20
3832.926809485761
 30
0.0
 11
4789.300052348026
 21
3820.500029320593
 31
0.0
  0
LINE
  5
CE6
330
2
100
AcDbEntity
  8
0
  6
Continuous
 62
     7
100
AcDbLine
 10
4789.000052347961
 20
3820.800029320522
 30
0.0
 11
4789.000052345284
 21
3832.92856676173
 31
0.0
  0
LINE
  5
CE7
330
2
100
AcDbEntity
  8
0
  6
Continuous
 62
     7
100
AcDbLine
 10
4789.000052345284
 20
3832.92856676173
 30
0.0
 11
4789.000052342576
 21
3845.200029320502
 31
0.0
  0
ARC
  5
CE8
330
2
100
AcDbEntity
  8
0
  6
Continuous
 62
     7
100
AcDbCircle
 10
4815.500051654826
 20
3820.500029076858
 30
0.0
 40
2.499999999999943
100
AcDbArc
 50
216.8699035148474
 51
233.1300964936857
  0
ARC
  5
CE9
330
2
100
AcDbEntity
  8
0
  6
Continuous
 62
     7
100
AcDbCircle
 10
4815.500051652964
 20
3845.500029076858
 30
0.0
 40
2.500000000000087
100
AcDbArc
 50
126.8698928905895
 51
143.1301071179513
  0
ARC
  5
CEA
330
2
100
AcDbEntity
  8
0
  6
Continuous
 62
     7
100
AcDbCircle
 10
4820.500051652961
 20
3845.500029077231
 30
0.0
 40
2.499999999999958
100
AcDbArc
 50
36.86989178536069
 51
53.13010822316194
  0
ARC
  5
CEB
330
2
100
AcDbEntity
  8
0
  6
Continuous
 62
     7
100
AcDbCircle
 10
4820.500051654825
 20
3820.50002907723
 30
0.0
 40
2.500000000000043
100
AcDbArc
 50
306.869902409655
 51
323.130097598878
  0
LINE
  5
CEC
330
2
100
AcDbEntity
  8
0
  6
Continuous
 62
     4
100
AcDbLine
 10
4805.000049665579
 20
2383.000029344426
 30
0.0
 11
4805.000049665579
 21
3883.000029344426
 31
0.0
  0
LINE
  5
CED
330
2
100
AcDbEntity
  8
0
  6
Continuous
 62
     4
100
AcDbLine
 10
4797.000049665579
 20
2383.000029344426
 30
0.0
 11
4805.000049665579
 21
2383.000029344426
 31
0.0
  0
LINE
  5
CEE
330
2
100
AcDbEntity
  8
0
  6
Continuous
 62
     4
100
AcDbLine
 10
4797.000049665579
 20
2383.000029344426
 30
0.0
 11
4797.000049665579
 21
3883.000029344426
 31
0.0
  0
LINE
  5
CEF
330
2
100
AcDbEntity
  8
0
  6
Continuous
 62
     4
100
AcDbLine
 10
4797.000049665579
 20
3883.000029344426
 30
0.0
 11
4805.000049665579
 21
3883.000029344426
 31
0.0
  0
LINE
  5
CF0
330
2
100
AcDbEntity
  8
0
  6
Continuous
 62
     7
100
AcDbLine
 10
4841.500049693532
 20
3792.500029344506
 30
0.0
 11
4845.70004970369
 21
3792.500029344775
 31
0.0
  0
LINE
  5
CF1
330
2
100
AcDbEntity
  8
0
  6
Continuous
 62
     7
100
AcDbLine
 10
4845.700049702085
 20
3817.500029344765
 30
0.0
 11
4841.500049693532
 21
3817.500029344495
 31
0.0
  0
LINE
  5
CF2
330
2
100
AcDbEntity
  8
0
  6
Continuous
 62
     7
100
AcDbLine
 10
4845.70004970369
 20
3792.500029344775
 30
0.0
 11
4846.000049703673
 21
3792.800029344795
 31
0.0
  0
LINE
  5
CF3
330
2
100
AcDbEntity
  8
0
  6
Continuous
 62
     7
100
AcDbLine
 10
4846.000049702105
 20
3817.200029344784
 30
0.0
 11
4845.700049702085
 21
3817.500029344765
 31
0.0
  0
LINE
  5
CF4
330
2
100
AcDbEntity
  8
0
  6
Continuous
 62
     7
100
AcDbLine
 10
4845.70004970061
 20
3840.500029344818
 30
0.0
 11
4846.000049700592
 21
3840.800029344837
 31
0.0
  0
LINE
  5
CF5
330
2
100
AcDbEntity
  8
0
  6
Continuous
 62
     7
100
AcDbLine
 10
4846.000049699025
 20
3865.200029344827
 30
0.0
 11
4845.700049699006
 21
3865.500029344808
 31
0.0
  0
LINE
  5
CF6
330
2
100
AcDbEntity
  8
0
  6
Continuous
 62
     7
100
AcDbLine
 10
4841.500049693532
 20
3840.500029344549
 30
0.0
 11
4845.70004970061
 21
3840.500029344818
 31
0.0
  0
LINE
  5
CF7
330
2
100
AcDbEntity
  8
0
  6
Continuous
 62
     7
100
AcDbLine
 10
4845.700049699006
 20
3865.500029344808
 30
0.0
 11
4841.500049693532
 21
3865.500029344538
 31
0.0
  0
LINE
  5
CF8
330
2
100
AcDbEntity
  8
0
  6
Continuous
 62
     7
100
AcDbLine
 10
4797.000052342618
 20
3845.000029322283
 30
0.0
 11
4796.000052342619
 21
3845.000029322062
 31
0.0
  0
LINE
  5
CF9
330
2
100
AcDbEntity
  8
0
  6
Continuous
 62
     7
100
AcDbLine
 10
4796.000052347913
 20
3821.00002932207
 30
0.0
 11
4797.000052347913
 21
3821.00002932229
 31
0.0
  0
LINE
  5
CFA
330
2
100
AcDbEntity
  8
0
  6
Continuous
 62
     7
100
AcDbLine
 10
4805.000052347349
 20
3823.500029324052
 30
0.0
 11
4806.000052347349
 21
3823.500029324272
 31
0.0
  0
LINE
  5
CFB
330
2
100
AcDbEntity
  8
0
  6
Continuous
 62
     7
100
AcDbLine
 10
4806.000052343168
 20
3842.500029324266
 30
0.0
 11
4805.000052343169
 21
3842.500029324046
 31
0.0
  0
LINE
  5
CFC
330
2
100
AcDbEntity
  8
0
  6
Continuous
 62
     7
100
AcDbLine
 10
4813.000052343061
 20
3843.000029325804
 30
0.0
 11
4812.60005225637
 21
3843.000029325716
 31
0.0
  0
LINE
  5
CFD
330
2
100
AcDbEntity
  8
0
  6
Continuous
 62
     7
100
AcDbLine
 10
4810.300052256369
 20
3843.000029325211
 30
0.0
 11
4806.000052343063
 21
3843.000029324266
 31
0.0
  0
LINE
  5
CFE
330
2
100
AcDbEntity
  8
0
  6
Continuous
 62
     7
100
AcDbLine
 10
4806.000052347457
 20
3823.000029324273
 30
0.0
 11
4810.30005225786
 21
3823.000029325217
 31
0.0
  0
LINE
  5
CFF
330
2
100
AcDbEntity
  8
0
  6
Continuous
 62
     7
100
AcDbLine
 10
4812.60005225786
 20
3823.000029325722
 30
0.0
 11
4813.000052347454
 21
3823.000029325811
 31
0.0
  0
LINE
  5
D00
330
2
100
AcDbEntity
  8
0
  6
Continuous
 62
     7
100
AcDbLine
 10
4795.000052347911
 20
3821.000029321855
 30
0.0
 11
4796.00005234791
 21
3821.000029322075
 31
0.0
  0
LINE
  5
D01
330
2
100
AcDbEntity
  8
0
  6
Continuous
 62
     7
100
AcDbLine
 10
4796.000052342622
 20
3845.000029322056
 30
0.0
 11
4795.000052342622
 21
3845.000029321837
 31
0.0
  0
LINE
  5
D02
330
2
100
AcDbEntity
  8
0
  6
Continuous
 62
     7
100
AcDbLine
 10
4795.000052342509
 20
3845.500029321834
 30
0.0
 11
4789.30005234251
 21
3845.500029320577
 31
0.0
  0
LINE
  5
D03
330
2
100
AcDbEntity
  8
0
  6
Continuous
 62
     7
100
AcDbLine
 10
4789.300052348026
 20
3820.500029320584
 30
0.0
 11
4795.000052348024
 21
3820.500029321842
 31
0.0
  0
LINE
  5
D04
330
2
100
AcDbEntity
  8
0
  6
Continuous
 62
     7
100
AcDbLine
 10
4789.30005234251
 20
3845.500029320577
 30
0.0
 11
4789.000052342576
 21
3845.20002932051
 31
0.0
  0
LINE
  5
D05
330
2
100
AcDbEntity
  8
0
  6
Continuous
 62
     7
100
AcDbLine
 10
4789.000052347961
 20
3820.800029320518
 30
0.0
 11
4789.300052348026
 21
3820.500029320584
 31
0.0
  0
LINE
  5
D06
330
2
100
AcDbEntity
  8
0
  6
Continuous
 62
     7
100
AcDbLine
 10
38.0000496967898
 20
2381.000029344646
 30
0.0
 11
37.29850921404909
 21
2382.438400491435
 31
0.0
  0
LINE
  5
D07
330
2
100
AcDbEntity
  8
0
  6
Continuous
 62
     7
100
AcDbLine
 10
37.29850921404909
 20
2382.438400491435
 30
0.0
 11
30.55004969678999
 21
2396.274792964411
 31
0.0
  0
LINE
  5
D08
330
2
100
AcDbEntity
  8
0
  6
Continuous
 62
     7
100
AcDbLine
 10
30.55004969678999
 20
2396.274792964411
 30
0.0
 11
30.55004969678999
 21
2396.864805106481
 31
0.0
  0
ARC
  5
D09
330
2
100
AcDbEntity
  8
0
  6
Continuous
 62
     7
100
AcDbCircle
 10
30.67504969678998
 20
2396.864805106481
 30
0.0
 40
0.1250000000001528
100
AcDbArc
 50
85.50000000001579
 51
180.0
  0
LINE
  5
D0A
330
2
100
AcDbEntity
  8
0
  6
Continuous
 62
     7
100
AcDbLine
 10
30.68485708375602
 20
2396.989419773198
 30
0.0
 11
51.41873323768618
 21
2395.357628330794
 31
0.0
  0
ARC
  5
D0B
330
2
100
AcDbEntity
  8
0
  6
Continuous
 62
     7
100
AcDbCircle
 10
51.40892585072015
 20
2395.233013664078
 30
0.0
 40
0.125
100
AcDbArc
 50
352.5000000000673
 51
85.50000000004178
  0
LINE
  5
D0C
330
2
100
AcDbEntity
  8
0
  6
Continuous
 62
     7
100
AcDbLine
 10
51.53285645839196
 20
2395.21669789005
 30
0.0
 11
49.81003313381098
 21
2382.130555536865
 31
0.0
  0
LINE
  5
D0D
330
2
100
AcDbEntity
  8
0
  6
Continuous
 62
     7
100
AcDbLine
 10
49.81003313381098
 20
2382.130555536865
 30
0.0
 11
49.6611965370173
 21
2381.000029344646
 31
0.0
  0
LINE
  5
D0E
330
2
100
AcDbEntity
  8
0
  6
Continuous
 62
     7
100
AcDbLine
 10
30.62850879251823
 20
2397.996946678378
 30
0.0
 11
51.62850879251823
 21
2396.344210835061
 31
0.0
  0
ARC
  5
D0F
330
2
100
AcDbEntity
  8
0
  6
Continuous
 62
     7
100
AcDbCircle
 10
51.55004969679112
 20
2395.347293501329
 30
0.0
 40
1.000000000000069
100
AcDbArc
 50
352.5000000000139
 51
85.50000000000281
  0
LINE
  5
D10
330
2
100
AcDbEntity
  8
0
  6
Continuous
 62
     7
100
AcDbLine
 10
52.541494558164
 20
2395.216767309108
 30
0.0
 11
50.82008256978429
 21
2382.141345118673
 31
0.0
  0
ARC
  5
D11
330
2
100
AcDbEntity
  8
0
  6
Continuous
 62
     7
100
AcDbCircle
 10
50.9440131774561
 20
2382.125029344646
 30
0.0
 40
0.1250000000001528
100
AcDbArc
 50
172.5000000000139
 51
270.0
  0
LINE
  5
D12
330
2
100
AcDbEntity
  8
0
  6
Continuous
 62
     7
100
AcDbLine
 10
50.9440131774561
 20
2382.000029344645
 30
0.0
 11
65.10161696925411
 21
2382.000029344645
 31
0.0
  0
ARC
  5
D13
330
2
100
AcDbEntity
  8
0
  6
Continuous
 62
     7
100
AcDbCircle
 10
65.10161696925411
 20
2382.125029344646
 30
0.0
 40
0.1250000000001497
100
AcDbArc
 50
269.9999999999739
 51
4.999999999973503
  0
LINE
  5
D14
330
2
100
AcDbEntity
  8
0
  6
Continuous
 62
     7
100
AcDbLine
 10
65.22614130651618
 20
2382.135923812489
 30
0.0
 11
64.28334327999596
 21
2392.912154566544
 31
0.0
  0
ARC
  5
D15
330
2
100
AcDbEntity
  8
0
  6
Continuous
 62
     7
100
AcDbCircle
 10
64.15881894273525
 20
2392.9012600987
 30
0.0
 40
0.1249999999999285
100
AcDbArc
 50
4.999999999973503
 51
94.99999999998761
  0
ARC
  5
D16
330
2
100
AcDbEntity
  8
0
  6
Continuous
 62
     7
100
AcDbCircle
 10
64.15881894273525
 20
2392.9012600987
 30
0.0
 40
0.1250000000001497
100
AcDbArc
 50
94.99999999998761
 51
184.9999999999735
  0
LINE
  5
D17
330
2
100
AcDbEntity
  8
0
  6
Continuous
 62
     7
100
AcDbLine
 10
64.03429460547295
 20
2392.890365630857
 30
0.0
 11
64.45917885136805
 21
2388.03391647766
 31
0.0
  0
LINE
  5
D18
330
2
100
AcDbEntity
  8
0
  6
Continuous
 62
     7
100
AcDbLine
 10
64.45917885136805
 20
2388.03391647766
 30
0.0
 11
63.46298415327601
 21
2387.946760734912
 31
0.0
  0
LINE
  5
D19
330
2
100
AcDbEntity
  8
0
  6
Continuous
 62
     7
100
AcDbLine
 10
63.46298415327601
 20
2387.946760734912
 30
0.0
 11
63.02720543953819
 21
2392.927734225371
 31
0.0
  0
ARC
  5
D1A
330
2
100
AcDbEntity
  8
0
  6
Continuous
 62
     7
100
AcDbCircle
 10
64.02340013763023
 20
2393.014889968119
 30
0.0
 40
0.9999999999999094
100
AcDbArc
 50
95.00000000000062
 51
184.9999999999994
  0
LINE
  5
D1B
330
2
100
AcDbEntity
  8
0
  6
Continuous
 62
     7
100
AcDbLine
 10
63.93624439488212
 20
2394.01108466621
 30
0.0
 11
64.18529306940513
 21
2394.032873601897
 31
0.0
  0
ARC
  5
D1C
330
2
100
AcDbEntity
  8
0
  6
Continuous
 62
     7
100
AcDbCircle
 10
64.27244881215301
 20
2393.036678903806
 30
0.0
 40
0.9999999999998896
100
AcDbArc
 50
4.999999999999459
 51
95.00000000000062
  0
LINE
  5
D1D
330
2
100
AcDbEntity
  8
0
  6
Continuous
 62
     7
100
AcDbLine
 10
65.26864351024414
 20
2393.123834646553
 30
0.0
 11
66.2342252299793
 21
2382.087185087392
 31
0.0
  0
ARC
  5
D1E
330
2
100
AcDbEntity
  8
0
  6
Continuous
 62
     7
100
AcDbCircle
 10
50.80147799518522
 20
2382.000029344645
 30
0.0
 40
0.9999999999998896
100
AcDbArc
 50
172.5000000000139
 51
270.0
  0
LINE
  5
D1F
330
2
100
AcDbEntity
  8
0
  6
Continuous
 62
     7
100
AcDbLine
 10
49.81003313381098
 20
2382.130555536865
 30
0.0
 11
51.53285645839196
 21
2395.21669789005
 31
0.0
  0
ARC
  5
D20
330
2
100
AcDbEntity
  8
0
  6
Continuous
 62
     7
100
AcDbCircle
 10
51.40892585072015
 20
2395.233013664078
 30
0.0
 40
0.125
100
AcDbArc
 50
352.5000000000673
 51
85.50000000004178
  0
LINE
  5
D21
330
2
100
AcDbEntity
  8
0
  6
Continuous
 62
     7
100
AcDbLine
 10
51.41873323768618
 20
2395.357628330794
 30
0.0
 11
30.68485708375602
 21
2396.989419773198
 31
0.0
  0
ARC
  5
D22
330
2
100
AcDbEntity
  8
0
  6
Continuous
 62
     7
100
AcDbCircle
 10
30.67504969678998
 20
2396.864805106481
 30
0.0
 40
0.1250000000001528
100
AcDbArc
 50
85.50000000000281
 51
180.0
  0
LINE
  5
D23
330
2
100
AcDbEntity
  8
0
  6
Continuous
 62
     7
100
AcDbLine
 10
30.55004969678999
 20
2396.864805106481
 30
0.0
 11
30.55004969678999
 21
2396.274792964411
 31
0.0
  0
LINE
  5
D24
330
2
100
AcDbEntity
  8
0
  6
Continuous
 62
     7
100
AcDbLine
 10
30.55004969678999
 20
2396.274792964411
 30
0.0
 11
37.29850921404909
 21
2382.438400491435
 31
0.0
  0
ARC
  5
D25
330
2
100
AcDbEntity
  8
0
  6
Continuous
 62
     7
100
AcDbCircle
 10
36.39971516775017
 20
2382.000029344645
 30
0.0
 40
0.9999999999998243
100
AcDbArc
 50
270.0
 51
25.99999999999633
  0
ARC
  5
D26
330
2
100
AcDbEntity
  8
0
  6
Continuous
 62
     7
100
AcDbCircle
 10
15.00004969679116
 20
2382.000029344645
 30
0.0
 40
0.9999999999998896
100
AcDbArc
 50
180.0
 51
270.0
  0
LINE
  5
D27
330
2
100
AcDbEntity
  8
0
  6
Continuous
 62
     7
100
AcDbLine
 10
14.00004969679116
 20
2382.000029344645
 30
0.0
 11
14.00004969679116
 21
2402.000029344646
 31
0.0
  0
ARC
  5
D28
330
2
100
AcDbEntity
  8
0
  6
Continuous
 62
     7
100
AcDbCircle
 10
15.00004969679116
 20
2402.000029344646
 30
0.0
 40
0.9999999999998896
100
AcDbArc
 50
90.0
 51
180.0
  0
LINE
  5
D29
330
2
100
AcDbEntity
  8
0
  6
Continuous
 62
     7
100
AcDbLine
 10
15.00004969679116
 20
2403.000029344646
 30
0.0
 11
15.2500496967898
 21
2403.000029344646
 31
0.0
  0
ARC
  5
D2A
330
2
100
AcDbEntity
  8
0
  6
Continuous
 62
     7
100
AcDbCircle
 10
15.2500496967898
 20
2402.000029344646
 30
0.0
 40
1.000000000000111
100
AcDbArc
 50
0.0
 51
90.0
  0
LINE
  5
D2B
330
2
100
AcDbEntity
  8
0
  6
Continuous
 62
     7
100
AcDbLine
 10
16.2500496967898
 20
2402.000029344646
 30
0.0
 11
16.2500496967898
 21
2397.000029344646
 31
0.0
  0
LINE
  5
D2C
330
2
100
AcDbEntity
  8
0
  6
Continuous
 62
     7
100
AcDbLine
 10
16.2500496967898
 20
2397.000029344646
 30
0.0
 11
15.2500496967898
 21
2397.000029344646
 31
0.0
  0
LINE
  5
D2D
330
2
100
AcDbEntity
  8
0
  6
Continuous
 62
     7
100
AcDbLine
 10
15.2500496967898
 20
2397.000029344646
 30
0.0
 11
15.2500496967898
 21
2401.875029344646
 31
0.0
  0
ARC
  5
D2E
330
2
100
AcDbEntity
  8
0
  6
Continuous
 62
     7
100
AcDbCircle
 10
15.1250496967898
 20
2401.875029344646
 30
0.0
 40
0.1249999999999307
100
AcDbArc
 50
0.0
 51
90.0
  0
ARC
  5
D2F
330
2
100
AcDbEntity
  8
0
  6
Continuous
 62
     7
100
AcDbCircle
 10
15.1250496967898
 20
2401.875029344646
 30
0.0
 40
0.1249999999997087
100
AcDbArc
 50
90.0
 51
180.0
  0
LINE
  5
D30
330
2
100
AcDbEntity
  8
0
  6
Continuous
 62
     7
100
AcDbLine
 10
15.00004969679116
 20
2401.875029344646
 30
0.0
 11
15.00004969679116
 21
2382.125029344646
 31
0.0
  0
ARC
  5
D31
330
2
100
AcDbEntity
  8
0
  6
Continuous
 62
     7
100
AcDbCircle
 10
15.1250496967898
 20
2382.125029344646
 30
0.0
 40
0.1250000000001528
100
AcDbArc
 50
180.0
 51
270.0
  0
LINE
  5
D32
330
2
100
AcDbEntity
  8
0
  6
Continuous
 62
     7
100
AcDbLine
 10
15.1250496967898
 20
2382.000029344645
 30
0.0
 11
36.19967335161937
 21
2382.000029344645
 31
0.0
  0
ARC
  5
D33
330
2
100
AcDbEntity
  8
0
  6
Continuous
 62
     7
100
AcDbCircle
 10
36.19967335161937
 20
2382.125029344646
 30
0.0
 40
0.1250000000000906
100
AcDbArc
 50
269.9999999999609
 51
25.9999999999672
  0
LINE
  5
D34
330
2
100
AcDbEntity
  8
0
  6
Continuous
 62
     7
100
AcDbLine
 10
36.31202260740725
 20
2382.179825737994
 30
0.0
 11
29.55004969678999
 21
2396.043924773286
 31
0.0
  0
LINE
  5
D35
330
2
100
AcDbEntity
  8
0
  6
Continuous
 62
     7
100
AcDbLine
 10
29.55004969678999
 20
2396.043924773286
 30
0.0
 11
29.55004969678999
 21
2397.000029344646
 31
0.0
  0
ARC
  5
D36
330
2
100
AcDbEntity
  8
0
  6
Continuous
 62
     7
100
AcDbCircle
 10
30.55004969678999
 20
2397.000029344646
 30
0.0
 40
0.9999999999998896
100
AcDbArc
 50
85.50000000000281
 51
180.0
  0
ARC
  5
D37
330
2
100
AcDbEntity
  8
0
  6
Continuous
 62
     7
100
AcDbCircle
 10
65.23803053188817
 20
2382.000029344645
 30
0.0
 40
0.9999999999999094
100
AcDbArc
 50
270.0
 51
4.999999999999459
  0
LINE
  5
D38
330
2
100
AcDbEntity
  8
0
  6
Continuous
 62
     7
100
AcDbLine
 10
14.00004961470517
 20
1831.00002934467
 30
0.0
 11
14.00004961470517
 21
2381.00002934467
 31
0.0
  0
LINE
  5
D39
330
2
100
AcDbEntity
  8
0
  6
Continuous
 62
     7
100
AcDbLine
 10
814.0000496147051
 20
2381.00002934467
 30
0.0
 11
14.00004961470517
 21
2381.00002934467
 31
0.0
  0
LINE
  5
D3A
330
2
100
AcDbEntity
  8
0
  6
Continuous
 62
     7
100
AcDbLine
 10
814.0000496147051
 20
1831.00002934467
 30
0.0
 11
14.00004961470517
 21
1831.00002934467
 31
0.0
  0
LINE
  5
D3B
330
2
100
AcDbEntity
  8
0
  6
Continuous
 62
     7
100
AcDbLine
 10
814.0000496147051
 20
1831.00002934467
 30
0.0
 11
814.0000496147051
 21
2381.00002934467
 31
0.0
  0
LINE
  5
D3C
330
2
100
AcDbEntity
  8
0
  6
Continuous
 62
     7
100
AcDbLine
 10
20.00004966591701
 20
3127.000029345247
 30
0.0
 11
1.000049665918368
 21
3127.000029344892
 31
0.0
  0
LINE
  5
D3D
330
2
100
AcDbEntity
  8
0
  6
Continuous
 62
     9
100
AcDbLine
 10
1.000049665918368
 20
3127.000029344892
 30
0.0
 11
1.000049665899041
 21
3128.000029344955
 31
0.0
  0
LINE
  5
D3E
330
2
100
AcDbEntity
  8
0
  6
Continuous
 62
     9
100
AcDbLine
 10
1.000049665837195
 20
3128.000029344955
 30
0.0
 11
20.0000496658372
 21
3128.000029345309
 31
0.0
  0
LINE
  5
D3F
330
2
100
AcDbEntity
  8
0
  6
Continuous
 62
     9
100
AcDbLine
 10
1.000049665501137
 20
3146.000029344947
 30
0.0
 11
1.000049665837195
 21
3128.000029344955
 31
0.0
  0
LINE
  5
D40
330
2
100
AcDbEntity
  8
0
  6
Continuous
 62
     9
100
AcDbLine
 10
20.00004966550114
 20
3146.000029345301
 30
0.0
 11
1.000049665501137
 21
3146.000029344947
 31
0.0
  0
CIRCLE
  5
D41
330
2
100
AcDbEntity
  8
0
  6
Continuous
 62
     7
100
AcDbCircle
 10
10.00004966566916
 20
3137.000029345119
 30
0.0
 40
7.141428428542817
  0
LINE
  5
D42
330
2
100
AcDbEntity
  8
0
  6
Continuous
 62
     9
100
AcDbLine
 10
0.0000496659001783
 20
3128.000029344873
 30
0.0
 11
1.000049665837195
 21
3128.000029344892
 31
0.0
  0
ARC
  5
D43
330
2
100
AcDbEntity
  8
0
  6
Continuous
 62
     7
100
AcDbCircle
 10
1.000049665899041
 20
3128.000029344892
 30
0.0
 40
0.9999999999998896
100
AcDbArc
 50
180.0000000010682
 51
270.0000000010683
  0
LINE
  5
D44
330
2
100
AcDbEntity
  8
0
  6
Continuous
 62
     7
100
AcDbLine
 10
1.000049665544111
 20
3147.000029344883
 30
0.0
 11
20.00004966554502
 21
3147.000029345238
 31
0.0
  0
LINE
  5
D45
330
2
100
AcDbEntity
  8
0
  6
Continuous
 62
     9
100
AcDbLine
 10
1.000049665544111
 20
3147.000029344884
 30
0.0
 11
1.000049665562983
 21
3146.000029344947
 31
0.0
  0
LINE
  5
D46
330
2
100
AcDbEntity
  8
0
  6
Continuous
 62
     7
100
AcDbLine
 10
0.0000496658990414
 20
3128.000029344873
 30
0.0
 11
0.0000496655629831
 21
3146.000029344865
 31
0.0
  0
LINE
  5
D47
330
2
100
AcDbEntity
  8
0
  6
Continuous
 62
     9
100
AcDbLine
 10
0.0000496655643474
 20
3146.000029344865
 30
0.0
 11
1.000049665501137
 21
3146.000029344884
 31
0.0
  0
ARC
  5
D48
330
2
100
AcDbEntity
  8
0
  6
Continuous
 62
     7
100
AcDbCircle
 10
1.000049665562983
 20
3146.000029344884
 30
0.0
 40
1.0
100
AcDbArc
 50
90.00000000106826
 51
180.0000000010682
  0
LINE
  5
D49
330
2
100
AcDbEntity
  8
0
  6
Continuous
 62
     9
100
AcDbLine
 10
47.0000496656321
 20
3128.000029345472
 30
0.0
 11
47.00004966496044
 21
3146.000029345464
 31
0.0
  0
LINE
  5
D4A
330
2
100
AcDbEntity
  8
0
  6
Continuous
 62
     9
100
AcDbLine
 10
47.00004966496044
 20
3146.000029345464
 30
0.0
 11
48.00004966505821
 21
3146.000029345501
 31
0.0
  0
LINE
  5
D4B
330
2
100
AcDbEntity
  8
0
  6
Continuous
 62
     7
100
AcDbLine
 10
48.00004966506048
 20
3146.000029345501
 30
0.0
 11
48.00004966573124
 21
3128.000029345509
 31
0.0
  0
LINE
  5
D4C
330
2
100
AcDbEntity
  8
0
  6
Continuous
 62
     9
100
AcDbLine
 10
47.0000496656321
 20
3128.000029345472
 30
0.0
 11
48.00004966573033
 21
3128.000029345509
 31
0.0
  0
ARC
  5
D4D
330
2
100
AcDbEntity
  8
0
  6
Continuous
 62
     7
100
AcDbCircle
 10
47.00004966573124
 20
3128.000029345472
 30
0.0
 40
0.9999999999998896
100
AcDbArc
 50
270.0000000021365
 51
0.0000000021365185
  0
LINE
  5
D4E
330
2
100
AcDbEntity
  8
0
  6
Continuous
 62
     9
100
AcDbLine
 10
47.00004966573124
 20
3128.000029345472
 30
0.0
 11
47.00004966576898
 21
3127.000029345472
 31
0.0
  0
ARC
  5
D4F
330
2
100
AcDbEntity
  8
0
  6
Continuous
 62
     7
100
AcDbCircle
 10
47.00004966505912
 20
3146.000029345464
 30
0.0
 40
1.0
100
AcDbArc
 50
0.0000000021365185
 51
90.00000000213651
  0
LINE
  5
D50
330
2
100
AcDbEntity
  8
0
  6
Continuous
 62
     9
100
AcDbLine
 10
47.00004966502229
 20
3147.000029345463
 30
0.0
 11
47.00004966505912
 21
3146.000029345464
 31
0.0
  0
LINE
  5
D51
330
2
100
AcDbEntity
  8
0
  6
Continuous
 62
     7
100
AcDbLine
 10
28.00004966502229
 20
3147.000029344754
 30
0.0
 11
47.00004966502229
 21
3147.000029345463
 31
0.0
  0
LINE
  5
D52
330
2
100
AcDbEntity
  8
0
  6
Continuous
 62
     9
100
AcDbLine
 10
47.00004966496044
 20
3146.000029345464
 30
0.0
 11
28.00004966496045
 21
3146.000029344755
 31
0.0
  0
LINE
  5
D53
330
2
100
AcDbEntity
  8
0
  6
Continuous
 62
     9
100
AcDbLine
 10
28.0000496656312
 20
3128.000029344763
 30
0.0
 11
47.0000496656321
 21
3128.000029345472
 31
0.0
  0
CIRCLE
  5
D54
330
2
100
AcDbEntity
  8
0
  6
Continuous
 62
     7
100
AcDbCircle
 10
38.00004966529605
 20
3137.000029345131
 30
0.0
 40
7.141428428542817
  0
LINE
  5
D55
330
2
100
AcDbEntity
  8
0
  6
Continuous
 62
     7
100
AcDbLine
 10
47.00004966576898
 20
3127.000029345472
 30
0.0
 11
28.00004966576807
 21
3127.000029344763
 31
0.0
  0
ARC
  5
D56
330
2
100
AcDbEntity
  8
0
  6
Continuous
 62
     7
100
AcDbCircle
 10
44.70004740168701
 20
3819.000032301701
 30
0.0
 40
1.500000000000055
100
AcDbArc
 50
269.999999995727
 51
359.999999995727
  0
LINE
  5
D57
330
2
100
AcDbEntity
  8
0
  6
Continuous
 62
     7
100
AcDbLine
 10
46.20004740373633
 20
3846.50003230159
 30
0.0
 11
46.20004740168815
 21
3819.00003230159
 31
0.0
  0
ARC
  5
D58
330
2
100
AcDbEntity
  8
0
  6
Continuous
 62
     7
100
AcDbCircle
 10
44.70004740373633
 20
3846.500032301701
 30
0.0
 40
1.500000000000055
100
AcDbArc
 50
359.999999995727
 51
89.99999999573999
  0
LINE
  5
D59
330
2
100
AcDbEntity
  8
0
  6
Continuous
 62
     7
100
AcDbLine
 10
37.30004740384834
 20
3848.000032302253
 30
0.0
 11
37.50004442502222
 21
3848.000032302238
 31
0.0
  0
ARC
  5
D5A
330
2
100
AcDbEntity
  8
0
  6
Continuous
 62
     7
100
AcDbCircle
 10
34.50004740150121
 20
3816.500032302462
 30
0.0
 40
0.9999999999998896
100
AcDbArc
 50
179.999999995727
 51
269.999999995727
  0
LINE
  5
D5B
330
2
100
AcDbEntity
  8
0
  6
Continuous
 62
     7
100
AcDbLine
 10
33.50004740477903
 20
3860.500032302536
 30
0.0
 11
33.50004740150211
 21
3816.500032302536
 31
0.0
  0
ARC
  5
D5C
330
2
100
AcDbEntity
  8
0
  6
Continuous
 62
     7
100
AcDbCircle
 10
34.50004740477903
 20
3860.500032302462
 30
0.0
 40
1.000000000000111
100
AcDbArc
 50
89.99999999572697
 51
179.999999995727
  0
LINE
  5
D5D
330
2
100
AcDbEntity
  8
0
  6
Continuous
 62
     7
100
AcDbLine
 10
34.70004712336117
 20
3861.500032302446
 30
0.0
 11
34.50004740485315
 21
3861.500032302461
 31
0.0
  0
LINE
  5
D5E
330
2
100
AcDbEntity
  8
0
  6
Continuous
 62
     7
100
AcDbLine
 10
29.92297042458813
 20
3883.000029344369
 30
0.0
 11
29.92297042458813
 21
3865.500029343758
 31
0.0
  0
LINE
  5
D5F
330
2
100
AcDbEntity
  8
0
  6
Continuous
 62
     7
100
AcDbLine
 10
29.92297042458813
 20
3840.500029343742
 30
0.0
 11
29.92297042458813
 21
3814.371432149642
 31
0.0
  0
LINE
  5
D60
330
2
100
AcDbEntity
  8
0
  6
Continuous
 62
     7
100
AcDbLine
 10
29.92297042458813
 20
3795.628626539799
 30
0.0
 11
29.92297042458813
 21
3147.000029344826
 31
0.0
  0
LINE
  5
D61
330
2
100
AcDbEntity
  8
0
  6
Continuous
 62
     7
100
AcDbLine
 10
29.92297042458813
 20
3127.000029344835
 30
0.0
 11
29.92297042458813
 21
2408.000029344369
 31
0.0
  0
LINE
  5
D62
330
2
100
AcDbEntity
  8
0
  6
Continuous
 62
     7
100
AcDbLine
 10
30.50145006721527
 20
3883.000029344369
 30
0.0
 11
30.50145006721527
 21
3865.500029343721
 31
0.0
  0
LINE
  5
D63
330
2
100
AcDbEntity
  8
0
  6
Continuous
 62
     7
100
AcDbLine
 10
30.50145006721527
 20
3840.500029343705
 30
0.0
 11
30.50145006721527
 21
3813.369476017318
 31
0.0
  0
LINE
  5
D64
330
2
100
AcDbEntity
  8
0
  6
Continuous
 62
     7
100
AcDbLine
 10
30.50145006721527
 20
3796.630582671827
 30
0.0
 11
30.50145006721527
 21
3147.000029344847
 31
0.0
  0
LINE
  5
D65
330
2
100
AcDbEntity
  8
0
  6
Continuous
 62
     7
100
AcDbLine
 10
30.50145006721527
 20
3127.000029344856
 30
0.0
 11
30.50145006721527
 21
2408.000029344369
 31
0.0
  0
LINE
  5
D66
330
2
100
AcDbEntity
  8
0
  6
Continuous
 62
     7
100
AcDbLine
 10
29.92297042458813
 20
2408.000029344369
 30
0.0
 11
30.50145006721527
 21
2408.000029344369
 31
0.0
  0
LINE
  5
D67
330
2
100
AcDbEntity
  8
0
  6
Continuous
 62
     7
100
AcDbLine
 10
29.92297042458813
 20
3883.000029344369
 30
0.0
 11
30.50145006721527
 21
3883.000029344369
 31
0.0
  0
LINE
  5
D68
330
2
100
AcDbEntity
  8
0
  6
Continuous
 62
     9
100
AcDbLine
 10
29.32379270373713
 20
3883.000029344369
 30
0.0
 11
29.32379270373713
 21
3865.500029343797
 31
0.0
  0
LINE
  5
D69
330
2
100
AcDbEntity
  8
0
  6
Continuous
 62
     9
100
AcDbLine
 10
29.32379270373713
 20
3840.50002934378
 30
0.0
 11
29.32379270373713
 21
3815.000029343723
 31
0.0
  0
LINE
  5
D6A
330
2
100
AcDbEntity
  8
0
  6
Continuous
 62
     9
100
AcDbLine
 10
29.32379270373713
 20
3795.000029343713
 30
0.0
 11
29.32379270373713
 21
3147.000029344804
 31
0.0
  0
LINE
  5
D6B
330
2
100
AcDbEntity
  8
0
  6
Continuous
 62
     9
100
AcDbLine
 10
29.32379270373713
 20
3127.000029344812
 30
0.0
 11
29.32379270373713
 21
2408.000029344369
 31
0.0
  0
LINE
  5
D6C
330
2
100
AcDbEntity
  8
0
  6
Continuous
 62
     7
100
AcDbLine
 10
29.32379270373713
 20
2408.000029344369
 30
0.0
 11
29.92297042458813
 21
2408.000029344369
 31
0.0
  0
LINE
  5
D6D
330
2
100
AcDbEntity
  8
0
  6
Continuous
 62
     7
100
AcDbLine
 10
29.32379270373713
 20
3883.000029344369
 30
0.0
 11
29.92297042458813
 21
3883.000029344369
 31
0.0
  0
LINE
  5
D6E
330
2
100
AcDbEntity
  8
0
  6
Continuous
 62
     7
100
AcDbLine
 10
18.07712897126043
 20
3883.000029344369
 30
0.0
 11
18.07712897126043
 21
3865.500029344513
 31
0.0
  0
LINE
  5
D6F
330
2
100
AcDbEntity
  8
0
  6
Continuous
 62
     7
100
AcDbLine
 10
18.07712897126043
 20
3840.5000293445
 30
0.0
 11
18.07712897126043
 21
3817.500029344425
 31
0.0
  0
LINE
  5
D70
330
2
100
AcDbEntity
  8
0
  6
Continuous
 62
     7
100
AcDbLine
 10
18.07712897126043
 20
3792.500029344412
 30
0.0
 11
18.07712897126043
 21
3147.000029345202
 31
0.0
  0
LINE
  5
D71
330
2
100
AcDbEntity
  8
0
  6
Continuous
 62
     7
100
AcDbLine
 10
18.07712897126043
 20
3127.00002934521
 30
0.0
 11
18.07712897126043
 21
2408.000029344369
 31
0.0
  0
LINE
  5
D72
330
2
100
AcDbEntity
  8
0
  6
Continuous
 62
     9
100
AcDbLine
 10
18.67630669211417
 20
3883.000029344369
 30
0.0
 11
18.67630669211417
 21
3865.500029344474
 31
0.0
  0
LINE
  5
D73
330
2
100
AcDbEntity
  8
0
  6
Continuous
 62
     9
100
AcDbLine
 10
18.67630669211417
 20
3840.500029344462
 30
0.0
 11
18.67630669211417
 21
3817.500029344386
 31
0.0
  0
LINE
  5
D74
330
2
100
AcDbEntity
  8
0
  6
Continuous
 62
     9
100
AcDbLine
 10
18.67630669211417
 20
3792.500029344374
 30
0.0
 11
18.67630669211417
 21
3147.000029345213
 31
0.0
  0
LINE
  5
D75
330
2
100
AcDbEntity
  8
0
  6
Continuous
 62
     9
100
AcDbLine
 10
18.67630669211417
 20
3127.000029345222
 30
0.0
 11
18.67630669211417
 21
2408.000029344369
 31
0.0
  0
LINE
  5
D76
330
2
100
AcDbEntity
  8
0
  6
Continuous
 62
     7
100
AcDbLine
 10
18.07712897126043
 20
2408.000029344369
 30
0.0
 11
18.67630669211417
 21
2408.000029344369
 31
0.0
  0
LINE
  5
D77
330
2
100
AcDbEntity
  8
0
  6
Continuous
 62
     7
100
AcDbLine
 10
18.07712897126043
 20
3883.000029344369
 30
0.0
 11
18.67630669211417
 21
3883.000029344369
 31
0.0
  0
LINE
  5
D78
330
2
100
AcDbEntity
  8
0
  6
Continuous
 62
     7
100
AcDbLine
 10
17.50004969860811
 20
3883.000029344369
 30
0.0
 11
17.50004969860811
 21
3865.50002934455
 31
0.0
  0
LINE
  5
D79
330
2
100
AcDbEntity
  8
0
  6
Continuous
 62
     7
100
AcDbLine
 10
17.50004969860811
 20
3840.500029344538
 30
0.0
 11
17.50004969860811
 21
3817.500029344461
 31
0.0
  0
LINE
  5
D7A
330
2
100
AcDbEntity
  8
0
  6
Continuous
 62
     7
100
AcDbLine
 10
17.50004969860811
 20
3792.500029344449
 30
0.0
 11
17.50004969860811
 21
3147.000029345191
 31
0.0
  0
LINE
  5
D7B
330
2
100
AcDbEntity
  8
0
  6
Continuous
 62
     7
100
AcDbLine
 10
17.50004969860811
 20
3127.0000293452
 30
0.0
 11
17.50004969860811
 21
2408.000029344369
 31
0.0
  0
LINE
  5
D7C
330
2
100
AcDbEntity
  8
0
  6
Continuous
 62
     7
100
AcDbLine
 10
17.50004969860811
 20
2408.000029344369
 30
0.0
 11
18.07712897126043
 21
2408.000029344369
 31
0.0
  0
LINE
  5
D7D
330
2
100
AcDbEntity
  8
0
  6
Continuous
 62
     7
100
AcDbLine
 10
17.50004969860811
 20
3883.000029344369
 30
0.0
 11
18.07712897126043
 21
3883.000029344369
 31
0.0
  0
LINE
  5
D7E
330
2
100
AcDbEntity
  8
0
  6
Continuous
 62
     7
100
AcDbLine
 10
28.94472708625926
 20
3883.000029344369
 30
0.0
 11
29.32379270373713
 21
3883.000029344369
 31
0.0
  0
LINE
  5
D7F
330
2
100
AcDbEntity
  8
0
  6
Continuous
 62
     7
100
AcDbLine
 10
28.94472708625926
 20
2408.000029344369
 30
0.0
 11
29.32379270373713
 21
2408.000029344369
 31
0.0
  0
LINE
  5
D80
330
2
100
AcDbEntity
  8
0
  6
Continuous
 62
     7
100
AcDbLine
 10
18.67630669211417
 20
2408.000029344369
 30
0.0
 11
19.05537230964205
 21
2408.000029344369
 31
0.0
  0
LINE
  5
D81
330
2
100
AcDbEntity
  8
0
  6
Continuous
 62
     7
100
AcDbLine
 10
18.67630669211417
 20
3883.000029344369
 30
0.0
 11
19.05537230964205
 21
3883.000029344369
 31
0.0
  0
LINE
  5
D82
330
2
100
AcDbEntity
  8
0
  6
Continuous
 62
     7
100
AcDbLine
 10
28.94265572193035
 20
3883.000029344369
 30
0.0
 11
28.94265572193035
 21
3865.000029343819
 31
0.0
  0
LINE
  5
D83
330
2
100
AcDbEntity
  8
0
  6
Continuous
 62
     7
100
AcDbLine
 10
28.94265572193035
 20
3841.000029343807
 30
0.0
 11
28.94265572193035
 21
3814.500029343747
 31
0.0
  0
LINE
  5
D84
330
2
100
AcDbEntity
  8
0
  6
Continuous
 62
     7
100
AcDbLine
 10
28.94265572193035
 20
3795.500029343737
 30
0.0
 11
28.94265572193035
 21
3147.000029344789
 31
0.0
  0
LINE
  5
D85
330
2
100
AcDbEntity
  8
0
  6
Continuous
 62
     7
100
AcDbLine
 10
28.94265572193035
 20
3127.000029344798
 30
0.0
 11
28.94265572193035
 21
2408.000029344369
 31
0.0
  0
LINE
  5
D86
330
2
100
AcDbEntity
  8
0
  6
Continuous
 62
     7
100
AcDbLine
 10
28.94265572193035
 20
2408.000029344369
 30
0.0
 11
28.94472708625926
 21
2408.000029344369
 31
0.0
  0
LINE
  5
D87
330
2
100
AcDbEntity
  8
0
  6
Continuous
 62
     7
100
AcDbLine
 10
28.94265572193035
 20
3883.000029344369
 30
0.0
 11
28.94472708625926
 21
3883.000029344369
 31
0.0
  0
LINE
  5
D88
330
2
100
AcDbEntity
  8
0
  6
Continuous
 62
     7
100
AcDbLine
 10
19.08900282898094
 20
3883.000029344369
 30
0.0
 11
19.08900282898094
 21
3865.000029344389
 31
0.0
  0
LINE
  5
D89
330
2
100
AcDbEntity
  8
0
  6
Continuous
 62
     7
100
AcDbLine
 10
19.08900282898094
 20
3841.000029344377
 30
0.0
 11
19.08900282898094
 21
3817.00002934436
 31
0.0
  0
LINE
  5
D8A
330
2
100
AcDbEntity
  8
0
  6
Continuous
 62
     7
100
AcDbLine
 10
19.08900282898094
 20
3793.000029344348
 30
0.0
 11
19.08900282898094
 21
3147.000029345221
 31
0.0
  0
LINE
  5
D8B
330
2
100
AcDbEntity
  8
0
  6
Continuous
 62
     7
100
AcDbLine
 10
19.08900282898094
 20
3127.00002934523
 30
0.0
 11
19.08900282898094
 21
2408.000029344369
 31
0.0
  0
LINE
  5
D8C
330
2
100
AcDbEntity
  8
0
  6
Continuous
 62
     7
100
AcDbLine
 10
19.05537230964205
 20
2408.000029344369
 30
0.0
 11
19.08900282898094
 21
2408.000029344369
 31
0.0
  0
LINE
  5
D8D
330
2
100
AcDbEntity
  8
0
  6
Continuous
 62
     7
100
AcDbLine
 10
19.05537230964205
 20
3883.000029344369
 30
0.0
 11
19.08900282898094
 21
3883.000029344369
 31
0.0
  0
LINE
  5
D8E
330
2
100
AcDbEntity
  8
0
  6
Continuous
 62
     7
100
AcDbLine
 10
28.53203095032723
 20
3883.000029344369
 30
0.0
 11
28.94265572193035
 21
3883.000029344369
 31
0.0
  0
LINE
  5
D8F
330
2
100
AcDbEntity
  8
0
  6
Continuous
 62
     7
100
AcDbLine
 10
28.53203095032723
 20
2408.000029344369
 30
0.0
 11
28.94265572193035
 21
2408.000029344369
 31
0.0
  0
LINE
  5
D90
330
2
100
AcDbEntity
  8
0
  6
Continuous
 62
     7
100
AcDbLine
 10
19.08900282898094
 20
2408.000029344369
 30
0.0
 11
19.46806844650723
 21
2408.000029344369
 31
0.0
  0
LINE
  5
D91
330
2
100
AcDbEntity
  8
0
  6
Continuous
 62
     7
100
AcDbLine
 10
19.08900282898094
 20
3883.000029344369
 30
0.0
 11
19.46806844650723
 21
3883.000029344369
 31
0.0
  0
LINE
  5
D92
330
2
100
AcDbEntity
  8
0
  6
Continuous
 62
     7
100
AcDbLine
 10
19.46806844650723
 20
2408.000029344369
 30
0.0
 11
20.00004966442634
 21
2408.000029344369
 31
0.0
  0
LINE
  5
D93
330
2
100
AcDbEntity
  8
0
  6
Continuous
 62
     7
100
AcDbLine
 10
28.00004966442634
 20
2408.000029344369
 30
0.0
 11
28.53203095032723
 21
2408.000029344369
 31
0.0
  0
LINE
  5
D94
330
2
100
AcDbEntity
  8
0
  6
Continuous
 62
     7
100
AcDbLine
 10
19.46806844650723
 20
3883.000029344369
 30
0.0
 11
20.00004966442634
 21
3883.000029344369
 31
0.0
  0
LINE
  5
D95
330
2
100
AcDbEntity
  8
0
  6
Continuous
 62
     7
100
AcDbLine
 10
28.00004966442634
 20
3883.000029344369
 30
0.0
 11
28.53203095032723
 21
3883.000029344369
 31
0.0
  0
LINE
  5
D96
330
2
100
AcDbEntity
  8
0
  6
Continuous
 62
     7
100
AcDbLine
 10
30.50145006721527
 20
2408.000029344369
 30
0.0
 11
54.0000496967898
 21
2408.000029344369
 31
0.0
  0
LINE
  5
D97
330
2
100
AcDbEntity
  8
0
  6
Continuous
 62
     7
100
AcDbLine
 10
30.50145006721527
 20
3883.000029344369
 30
0.0
 11
54.00004969679116
 21
3883.000029344369
 31
0.0
  0
LINE
  5
D98
330
2
100
AcDbEntity
  8
0
  6
Continuous
 62
     7
100
AcDbLine
 10
29.00004966540405
 20
3814.500029343745
 30
0.0
 11
29.000049664794
 21
3805.000029343638
 31
0.0
  0
LINE
  5
D99
330
2
100
AcDbEntity
  8
0
  6
Continuous
 62
     7
100
AcDbLine
 10
29.000049664794
 20
3805.000029343638
 30
0.0
 11
29.00004966418419
 21
3795.500029343729
 31
0.0
  0
LINE
  5
D9A
330
2
100
AcDbEntity
  8
0
  6
Continuous
 62
     7
100
AcDbLine
 10
29.5600496641523
 20
3795.000029343696
 30
0.0
 11
29.56004966479395
 21
3805.000029343597
 31
0.0
  0
LINE
  5
D9B
330
2
100
AcDbEntity
  8
0
  6
Continuous
 62
     7
100
AcDbLine
 10
29.00004966415213
 20
3795.000029343731
 30
0.0
 11
29.000049664794
 21
3805.000029343633
 31
0.0
  0
LINE
  5
D9C
330
2
100
AcDbEntity
  8
0
  6
Continuous
 62
     7
100
AcDbLine
 10
29.56004966479395
 20
3805.000029343597
 30
0.0
 11
29.56004966543606
 21
3815.000029343713
 31
0.0
  0
LINE
  5
D9D
330
2
100
AcDbEntity
  8
0
  6
Continuous
 62
     7
100
AcDbLine
 10
29.000049664794
 20
3805.000029343633
 30
0.0
 11
29.00004966543611
 21
3815.000029343749
 31
0.0
  0
LINE
  5
D9E
330
2
100
AcDbEntity
  8
0
  6
Continuous
 62
     7
100
AcDbLine
 10
31.00004966431311
 20
3797.494182506504
 30
0.0
 11
31.00004966479401
 21
3805.00002934353
 31
0.0
  0
LINE
  5
D9F
330
2
100
AcDbEntity
  8
0
  6
Continuous
 62
     7
100
AcDbLine
 10
31.00004966479401
 20
3805.00002934353
 30
0.0
 11
31.00004966527718
 21
3812.505876180718
 31
0.0
  0
LINE
  5
DA0
330
2
100
AcDbEntity
  8
0
  6
Continuous
 62
     9
100
AcDbLine
 10
48.50004966432016
 20
3797.500029342482
 30
0.0
 11
48.50004966480105
 21
3805.000029342408
 31
0.0
  0
LINE
  5
DA1
330
2
100
AcDbEntity
  8
0
  6
Continuous
 62
     9
100
AcDbLine
 10
48.50004966480105
 20
3805.000029342408
 30
0.0
 11
48.5000496652824
 21
3812.500029342494
 31
0.0
  0
LINE
  5
DA2
330
2
100
AcDbEntity
  8
0
  6
Continuous
 62
     7
100
AcDbLine
 10
49.00004966435131
 20
3798.00002934245
 30
0.0
 11
49.00004966480105
 21
3805.000029342381
 31
0.0
  0
LINE
  5
DA3
330
2
100
AcDbEntity
  8
0
  6
Continuous
 62
     7
100
AcDbLine
 10
49.00004966480105
 20
3805.000029342381
 30
0.0
 11
49.00004966525035
 21
3812.000029342462
 31
0.0
  0
LINE
  5
DA4
330
2
100
AcDbEntity
  8
0
  6
Continuous
 62
     7
100
AcDbLine
 10
29.00004966694132
 20
3841.79706422579
 30
0.0
 11
29.00004966688994
 21
3841.000029343801
 31
0.0
  0
LINE
  5
DA5
330
2
100
AcDbEntity
  8
0
  6
Continuous
 62
     7
100
AcDbLine
 10
19.00004966753317
 20
3841.000029344375
 30
0.0
 11
19.00004966753317
 21
3844.381017150148
 31
0.0
  0
LINE
  5
DA6
330
2
100
AcDbEntity
  8
0
  6
Continuous
 62
     7
100
AcDbLine
 10
19.00004966753317
 20
3844.381017150148
 30
0.0
 11
19.00004966753317
 21
3846.188571721619
 31
0.0
  0
LINE
  5
DA7
330
2
100
AcDbEntity
  8
0
  6
Continuous
 62
     7
100
AcDbLine
 10
19.00004966753317
 20
3846.188571721619
 30
0.0
 11
19.00004966753317
 21
3847.615101606642
 31
0.0
  0
LINE
  5
DA8
330
2
100
AcDbEntity
  8
0
  6
Continuous
 62
     7
100
AcDbLine
 10
19.00004966753317
 20
3847.615101606642
 30
0.0
 11
19.00004966753317
 21
3849.447866696549
 31
0.0
  0
LINE
  5
DA9
330
2
100
AcDbEntity
  8
0
  6
Continuous
 62
     7
100
AcDbLine
 10
19.00004966753317
 20
3849.447866696549
 30
0.0
 11
19.00004966753317
 21
3853.48423247889
 31
0.0
  0
LINE
  5
DAA
330
2
100
AcDbEntity
  8
0
  6
Continuous
 62
     7
100
AcDbLine
 10
19.00004966753317
 20
3853.484232478889
 30
0.0
 11
19.00004966753317
 21
3858.68462854886
 31
0.0
  0
LINE
  5
DAB
330
2
100
AcDbEntity
  8
0
  6
Continuous
 62
     7
100
AcDbLine
 10
19.00004966753317
 20
3858.684628548857
 30
0.0
 11
19.00004966753317
 21
3859.540258465729
 31
0.0
  0
LINE
  5
DAC
330
2
100
AcDbEntity
  8
0
  6
Continuous
 62
     7
100
AcDbLine
 10
19.00004966753317
 20
3859.540258465728
 30
0.0
 11
19.00004966753317
 21
3862.08539094609
 31
0.0
  0
LINE
  5
DAD
330
2
100
AcDbEntity
  8
0
  6
Continuous
 62
     7
100
AcDbLine
 10
19.00004966753317
 20
3862.085390946089
 30
0.0
 11
19.00004966753317
 21
3864.202994462311
 31
0.0
  0
LINE
  5
DAE
330
2
100
AcDbEntity
  8
0
  6
Continuous
 62
     7
100
AcDbLine
 10
19.00004966753317
 20
3864.73780055317
 30
0.0
 11
19.00004966753317
 21
3865.000029344391
 31
0.0
  0
LINE
  5
DAF
330
2
100
AcDbEntity
  8
0
  6
Continuous
 62
     7
100
AcDbLine
 10
13.30004966525325
 20
3817.500029344734
 30
0.0
 11
13.30004966364936
 21
3792.500029344716
 31
0.0
  0
LINE
  5
DB0
330
2
100
AcDbEntity
  8
0
  6
Continuous
 62
     7
100
AcDbLine
 10
13.00004966366737
 20
3792.800029344736
 30
0.0
 11
13.0000496652342
 21
3817.200029344752
 31
0.0
  0
LINE
  5
DB1
330
2
100
AcDbEntity
  8
0
  6
Continuous
 62
     7
100
AcDbLine
 10
19.00004966525512
 20
3817.500029344368
 30
0.0
 11
19.00004966365031
 21
3792.500029344351
 31
0.0
  0
LINE
  5
DB2
330
2
100
AcDbEntity
  8
0
  6
Continuous
 62
     7
100
AcDbLine
 10
51.00004966699135
 20
3842.500029342391
 30
0.0
 11
51.00004966766505
 21
3853.000029342286
 31
0.0
  0
LINE
  5
DB3
330
2
100
AcDbEntity
  8
0
  6
Continuous
 62
     7
100
AcDbLine
 10
50.4641512820001
 20
3840.500029342423
 30
0.0
 11
50.46415128280205
 21
3853.000029342299
 31
0.0
  0
LINE
  5
DB4
330
2
100
AcDbEntity
  8
0
  6
Continuous
 62
     7
100
AcDbLine
 10
51.00004966766505
 20
3853.000029342286
 30
0.0
 11
51.00004966833807
 21
3863.500029342408
 31
0.0
  0
LINE
  5
DB5
330
2
100
AcDbEntity
  8
0
  6
Continuous
 62
     7
100
AcDbLine
 10
50.46415128280205
 20
3853.000029342299
 30
0.0
 11
50.46415128360422
 21
3865.500029342444
 31
0.0
  0
LINE
  5
DB6
330
2
100
AcDbEntity
  8
0
  6
Continuous
 62
     7
100
AcDbLine
 10
49.50004966686219
 20
3840.500029342486
 30
0.0
 11
49.50004966766414
 21
3853.000029342361
 31
0.0
  0
LINE
  5
DB7
330
2
100
AcDbEntity
  8
0
  6
Continuous
 62
     7
100
AcDbLine
 10
49.50004966766414
 20
3853.000029342361
 30
0.0
 11
49.50004966846631
 21
3865.500029342506
 31
0.0
  0
LINE
  5
DB8
330
2
100
AcDbEntity
  8
0
  6
Continuous
 62
     7
100
AcDbLine
 10
19.00004966833626
 20
3865.500029344455
 30
0.0
 11
19.00004966673123
 21
3840.500029344439
 31
0.0
  0
LINE
  5
DB9
330
2
100
AcDbEntity
  8
0
  6
Continuous
 62
     7
100
AcDbLine
 10
13.30004966833417
 20
3865.500029344821
 30
0.0
 11
13.30004966672914
 21
3840.500029344805
 31
0.0
  0
LINE
  5
DBA
330
2
100
AcDbEntity
  8
0
  6
Continuous
 62
     7
100
AcDbLine
 10
13.00004966674919
 20
3840.800029344824
 30
0.0
 11
13.0000496683142
 21
3865.20002934484
 31
0.0
  0
LINE
  5
DBB
330
2
100
AcDbEntity
  8
0
  6
Continuous
 62
     9
100
AcDbLine
 10
48.50004966818324
 20
3861.100031613523
 30
0.0
 11
48.50004966828305
 21
3862.6450983986
 31
0.0
  0
LINE
  5
DBC
330
2
100
AcDbEntity
  8
0
  6
Continuous
 62
     7
100
AcDbLine
 10
49.00004966843425
 20
3865.000029342534
 30
0.0
 11
49.00004966825804
 21
3862.259295636326
 31
0.0
  0
LINE
  5
DBD
330
2
100
AcDbEntity
  8
0
  6
Continuous
 62
     9
100
AcDbLine
 10
48.50004966828305
 20
3862.6450983986
 30
0.0
 11
48.50004966846632
 21
3865.500029342567
 31
0.0
  0
LINE
  5
DBE
330
2
100
AcDbEntity
  8
0
  6
Continuous
 62
     7
100
AcDbLine
 10
49.00004966825804
 20
3862.259295636326
 30
0.0
 11
49.00004966689426
 21
3841.000029342517
 31
0.0
  0
LINE
  5
DBF
330
2
100
AcDbEntity
  8
0
  6
Continuous
 62
     7
100
AcDbLine
 10
46.15004966846527
 20
3865.500029342717
 30
0.0
 11
46.15004966820811
 21
3861.50003500631
 31
0.0
  0
LINE
  5
DC0
330
2
100
AcDbEntity
  8
0
  6
Continuous
 62
     7
100
AcDbLine
 10
46.1500496672702
 20
3846.884081045488
 30
0.0
 11
46.15004966686046
 21
3840.500029342697
 31
0.0
  0
LINE
  5
DC1
330
2
100
AcDbEntity
  8
0
  6
Continuous
 62
     7
100
AcDbLine
 10
35.8500496682052
 20
3861.500035007077
 30
0.0
 11
35.85004966827819
 21
3862.645098399413
 31
0.0
  0
LINE
  5
DC2
330
2
100
AcDbEntity
  8
0
  6
Continuous
 62
     9
100
AcDbLine
 10
33.50004966846132
 20
3865.500029343529
 30
0.0
 11
33.50004966814004
 21
3860.500032302545
 31
0.0
  0
LINE
  5
DC3
330
2
100
AcDbEntity
  8
0
  6
Continuous
 62
     7
100
AcDbLine
 10
35.85004966827819
 20
3862.645098399413
 30
0.0
 11
35.85004966846213
 21
3865.50002934338
 31
0.0
  0
LINE
  5
DC4
330
2
100
AcDbEntity
  8
0
  6
Continuous
 62
     7
100
AcDbLine
 10
33.00004966688812
 20
3841.000029343545
 30
0.0
 11
33.00004966842926
 21
3865.000029343561
 31
0.0
  0
LINE
  5
DC5
330
2
100
AcDbEntity
  8
0
  6
Continuous
 62
     9
100
AcDbLine
 10
44.65004966830406
 20
3863.000029342811
 30
0.0
 11
44.65004966820811
 21
3861.500035006422
 31
0.0
  0
LINE
  5
DC6
330
2
100
AcDbEntity
  8
0
  6
Continuous
 62
     9
100
AcDbLine
 10
44.65004966734136
 20
3848.00003500642
 30
0.0
 11
44.65004966733227
 21
3847.850032456057
 31
0.0
  0
LINE
  5
DC7
330
2
100
AcDbEntity
  8
0
  6
Continuous
 62
     9
100
AcDbLine
 10
37.35004966830229
 20
3863.00002934328
 30
0.0
 11
37.35004966820611
 21
3861.500035006966
 31
0.0
  0
LINE
  5
DC8
330
2
100
AcDbEntity
  8
0
  6
Continuous
 62
     9
100
AcDbLine
 10
37.35004966733914
 20
3847.992516418005
 30
0.0
 11
37.35004966733027
 21
3847.850037544035
 31
0.0
  0
LINE
  5
DC9
330
2
100
AcDbEntity
  8
0
  6
Continuous
 62
     7
100
AcDbLine
 10
29.00004966845927
 20
3865.500029343818
 30
0.0
 11
29.00004966694701
 21
3841.937745379274
 31
0.0
  0
LINE
  5
DCA
330
2
100
AcDbEntity
  8
0
  6
Continuous
 62
     7
100
AcDbLine
 10
32.50004966846041
 20
3865.500029343593
 30
0.0
 11
32.50004966694928
 21
3841.93774537905
 31
0.0
  0
LINE
  5
DCB
330
2
100
AcDbEntity
  8
0
  6
Continuous
 62
     7
100
AcDbLine
 10
29.00004966694701
 20
3841.937745379274
 30
0.0
 11
29.00004966685515
 21
3840.5000293438
 31
0.0
  0
LINE
  5
DCC
330
2
100
AcDbEntity
  8
0
  6
Continuous
 62
     7
100
AcDbLine
 10
32.50004966694928
 20
3841.93774537905
 30
0.0
 11
32.50004966685606
 21
3840.500029343576
 31
0.0
  0
LINE
  5
DCD
330
2
100
AcDbEntity
  8
0
  6
Continuous
 62
     9
100
AcDbLine
 10
33.00004966804408
 20
3859.000029343557
 30
0.0
 11
33.0000496679902
 21
3858.156500327744
 31
0.0
  0
LINE
  5
DCE
330
2
100
AcDbEntity
  8
0
  6
Continuous
 62
     9
100
AcDbLine
 10
33.0000496679902
 20
3858.156500327744
 30
0.0
 11
33.00004966793927
 21
3857.358106763734
 31
0.0
  0
LINE
  5
DCF
330
2
100
AcDbEntity
  8
0
  6
Continuous
 62
     9
100
AcDbLine
 10
33.00004966793927
 20
3857.358106763734
 30
0.0
 11
33.00004966778238
 21
3854.928726173783
 31
0.0
  0
LINE
  5
DD0
330
2
100
AcDbEntity
  8
0
  6
Continuous
 62
     9
100
AcDbLine
 10
33.00004966754432
 20
3851.220840445238
 30
0.0
 11
33.00004966753818
 21
3851.118523414005
 31
0.0
  0
LINE
  5
DD1
330
2
100
AcDbEntity
  8
0
  6
Continuous
 62
     9
100
AcDbLine
 10
33.00004966752499
 20
3850.923386485653
 30
0.0
 11
33.00004966727329
 21
3847.000029343547
 31
0.0
  0
LINE
  5
DD2
330
2
100
AcDbEntity
  8
0
  6
Continuous
 62
     4
100
AcDbLine
 10
20.00004966442634
 20
3883.000029344369
 30
0.0
 11
20.00004966442634
 21
2391.000029345045
 31
0.0
  0
LINE
  5
DD3
330
2
100
AcDbEntity
  8
0
  6
Continuous
 62
     4
100
AcDbLine
 10
28.00004966442634
 20
3883.000029344369
 30
0.0
 11
28.00004966442634
 21
2391.000029345045
 31
0.0
  0
LINE
  5
DD4
330
2
100
AcDbEntity
  8
0
  6
Continuous
 62
     4
100
AcDbLine
 10
28.00004966442634
 20
2391.000029345045
 30
0.0
 11
20.00004966442634
 21
2391.000029345045
 31
0.0
  0
LINE
  5
DD5
330
2
100
AcDbEntity
  8
0
  6
Continuous
 62
     4
100
AcDbLine
 10
28.00004966442634
 20
3883.000029344369
 30
0.0
 11
20.00004966442634
 21
3883.000029344369
 31
0.0
  0
LINE
  5
DD6
330
2
100
AcDbEntity
  8
0
  6
Continuous
 62
     7
100
AcDbLine
 10
36.00004712019495
 20
3819.000035007063
 30
0.0
 11
36.00004712224427
 21
3846.500035007063
 31
0.0
  0
ARC
  5
DD7
330
2
100
AcDbEntity
  8
0
  6
Continuous
 62
     7
100
AcDbCircle
 10
37.50004712019495
 20
3819.000035006952
 30
0.0
 40
1.500000000000055
100
AcDbArc
 50
179.999999995727
 51
269.99999999574
  0
LINE
  5
DD8
330
2
100
AcDbEntity
  8
0
  6
Continuous
 62
     7
100
AcDbLine
 10
44.90004712008294
 20
3817.5000350064
 30
0.0
 11
37.50004712008308
 21
3817.500035006952
 31
0.0
  0
ARC
  5
DD9
330
2
100
AcDbEntity
  8
0
  6
Continuous
 62
     7
100
AcDbCircle
 10
44.90004712019504
 20
3819.0000350064
 30
0.0
 40
1.500000000000055
100
AcDbArc
 50
269.999999995727
 51
359.999999995727
  0
LINE
  5
DDA
330
2
100
AcDbEntity
  8
0
  6
Continuous
 62
     7
100
AcDbLine
 10
46.40004712224436
 20
3846.500035006289
 30
0.0
 11
46.40004712019504
 21
3819.000035006289
 31
0.0
  0
ARC
  5
DDB
330
2
100
AcDbEntity
  8
0
  6
Continuous
 62
     7
100
AcDbCircle
 10
44.90004712224299
 20
3846.5000350064
 30
0.0
 40
1.500000000000055
100
AcDbArc
 50
359.999999995727
 51
89.99999999573999
  0
LINE
  5
DDC
330
2
100
AcDbEntity
  8
0
  6
Continuous
 62
     7
100
AcDbLine
 10
37.500047122355
 20
3848.000035006952
 30
0.0
 11
44.90004712235509
 21
3848.0000350064
 31
0.0
  0
ARC
  5
DDD
330
2
100
AcDbEntity
  8
0
  6
Continuous
 62
     7
100
AcDbCircle
 10
37.50004712224427
 20
3846.500035006952
 30
0.0
 40
1.499999999999833
100
AcDbArc
 50
89.99999999572697
 51
179.999999995727
  0
LINE
  5
DDE
330
2
100
AcDbEntity
  8
0
  6
Continuous
 62
     7
100
AcDbLine
 10
48.70004712000923
 20
3816.500035006117
 30
0.0
 11
48.70004712328705
 21
3860.500035006118
 31
0.0
  0
LINE
  5
DDF
330
2
100
AcDbEntity
  8
0
  6
Continuous
 62
     7
100
AcDbLine
 10
34.7000471199342
 20
3815.50003500716
 30
0.0
 11
47.70004711993419
 21
3815.500035006192
 31
0.0
  0
ARC
  5
DE0
330
2
100
AcDbEntity
  8
0
  6
Continuous
 62
     7
100
AcDbCircle
 10
34.70004712000923
 20
3816.50003500716
 30
0.0
 40
1.000000000000111
100
AcDbArc
 50
179.999999995727
 51
269.999999995727
  0
LINE
  5
DE1
330
2
100
AcDbEntity
  8
0
  6
Continuous
 62
     7
100
AcDbLine
 10
33.70004712328614
 20
3860.500035007234
 30
0.0
 11
33.70004712000832
 21
3816.500035007235
 31
0.0
  0
ARC
  5
DE2
330
2
100
AcDbEntity
  8
0
  6
Continuous
 62
     7
100
AcDbCircle
 10
34.70004712328614
 20
3860.50003500716
 30
0.0
 40
0.9999999999998896
100
AcDbArc
 50
89.99999999572697
 51
179.999999995727
  0
LINE
  5
DE3
330
2
100
AcDbEntity
  8
0
  6
Continuous
 62
     7
100
AcDbLine
 10
47.70004712336117
 20
3861.500035006192
 30
0.0
 11
34.70004712336117
 21
3861.500035007161
 31
0.0
  0
ARC
  5
DE4
330
2
100
AcDbEntity
  8
0
  6
Continuous
 62
     7
100
AcDbCircle
 10
47.70004712328705
 20
3860.500035006192
 30
0.0
 40
0.9999999999998896
100
AcDbArc
 50
359.999999995727
 51
89.99999999572697
  0
ARC
  5
DE5
330
2
100
AcDbEntity
  8
0
  6
Continuous
 62
     7
100
AcDbCircle
 10
47.70004712000832
 20
3816.500035006192
 30
0.0
 40
0.9999999999998896
100
AcDbArc
 50
269.999999995727
 51
359.999999995727
  0
LINE
  5
DE6
330
2
100
AcDbEntity
  8
0
  6
Continuous
 62
     7
100
AcDbLine
 10
37.50004712309215
 20
3848.000035000307
 30
0.0
 11
36.00004712298028
 21
3846.50003500042
 31
0.0
  0
LINE
  5
DE7
330
2
100
AcDbEntity
  8
0
  6
Continuous
 62
     7
100
AcDbLine
 10
46.00004712298027
 20
3846.500034999674
 30
0.0
 11
44.50004712309123
 21
3848.000034999787
 31
0.0
  0
LINE
  5
DE8
330
2
100
AcDbEntity
  8
0
  6
Continuous
 62
     7
100
AcDbLine
 10
46.00004712096915
 20
3819.500034999675
 30
0.0
 11
46.00004712298027
 21
3846.500034999674
 31
0.0
  0
LINE
  5
DE9
330
2
100
AcDbEntity
  8
0
  6
Continuous
 62
     7
100
AcDbLine
 10
44.50004712085728
 20
3818.000034999786
 30
0.0
 11
46.00004712096915
 21
3819.500034999675
 31
0.0
  0
LINE
  5
DEA
330
2
100
AcDbEntity
  8
0
  6
Continuous
 62
     7
100
AcDbLine
 10
37.50004712085729
 20
3818.000035000308
 30
0.0
 11
44.50004712085728
 21
3818.000034999786
 31
0.0
  0
LINE
  5
DEB
330
2
100
AcDbEntity
  8
0
  6
Continuous
 62
     7
100
AcDbLine
 10
36.00004712096916
 20
3819.50003500042
 30
0.0
 11
37.50004712085729
 21
3818.000035000308
 31
0.0
  0
CIRCLE
  5
DEC
330
2
100
AcDbEntity
  8
0
  6
Continuous
 62
     7
100
AcDbCircle
 10
41.00004712134136
 20
3824.500035000047
 30
0.0
 40
2.650000000000041
  0
CIRCLE
  5
DED
330
2
100
AcDbEntity
  8
0
  6
Continuous
 62
     7
100
AcDbCircle
 10
41.00004712260806
 20
3841.500035000047
 30
0.0
 40
2.650000000000041
  0
LINE
  5
DEE
330
2
100
AcDbEntity
  8
0
  6
Continuous
 62
     7
100
AcDbLine
 10
63.0000477225401
 20
3845.000030321057
 30
0.0
 11
63.00004772250622
 21
3832.955522369925
 31
0.0
  0
LINE
  5
DEF
330
2
100
AcDbEntity
  8
0
  6
Continuous
 62
     7
100
AcDbLine
 10
63.00004772250622
 20
3832.955522369925
 30
0.0
 11
63.00004772247234
 21
3821.000030321079
 31
0.0
  0
LINE
  5
DF0
330
2
100
AcDbEntity
  8
0
  6
Continuous
 62
     7
100
AcDbLine
 10
63.0000477224753
 20
3821.000030321066
 30
0.0
 11
63.00004772250622
 21
3832.955522369925
 31
0.0
  0
LINE
  5
DF1
330
2
100
AcDbEntity
  8
0
  6
Continuous
 62
     7
100
AcDbLine
 10
63.00004772250622
 20
3832.955522369925
 30
0.0
 11
63.00004772253806
 21
3845.000030321066
 31
0.0
  0
LINE
  5
DF2
330
2
100
AcDbEntity
  8
0
  6
Continuous
 62
     7
100
AcDbLine
 10
69.7000477224683
 20
3820.50003032105
 30
0.0
 11
69.70004772253901
 21
3845.500030321033
 31
0.0
  0
LINE
  5
DF3
330
2
100
AcDbEntity
  8
0
  6
Continuous
 62
     7
100
AcDbLine
 10
70.00004772253806
 20
3845.200030321032
 30
0.0
 11
70.00004772246916
 21
3820.800030321048
 31
0.0
  0
LINE
  5
DF4
330
2
100
AcDbEntity
  8
0
  6
Continuous
 62
     7
100
AcDbLine
 10
64.00004772247007
 20
3820.500030321066
 30
0.0
 11
64.00004772254124
 21
3845.500030321049
 31
0.0
  0
ARC
  5
DF5
330
2
100
AcDbEntity
  8
0
  6
Continuous
 62
     7
100
AcDbCircle
 10
38.50004712739929
 20
3845.500034957048
 30
0.0
 40
2.50000000000001
100
AcDbArc
 50
126.8691533848481
 51
143.1308466066292
  0
ARC
  5
DF6
330
2
100
AcDbEntity
  8
0
  6
Continuous
 62
     7
100
AcDbCircle
 10
43.50004712739928
 20
3845.500034956675
 30
0.0
 40
2.500000000000084
100
AcDbArc
 50
36.86929367251837
 51
53.13070631893817
  0
ARC
  5
DF7
330
2
100
AcDbEntity
  8
0
  6
Continuous
 62
     7
100
AcDbCircle
 10
43.50004712553709
 20
3820.500034956676
 30
0.0
 40
2.5
100
AcDbArc
 50
306.8706419660058
 51
323.1293580254611
  0
ARC
  5
DF8
330
2
100
AcDbEntity
  8
0
  6
Continuous
 62
     7
100
AcDbCircle
 10
38.5000471255371
 20
3820.500034957048
 30
0.0
 40
2.499999999999829
100
AcDbArc
 50
216.8705016552065
 51
233.1294983362422
  0
LINE
  5
DF9
330
2
100
AcDbEntity
  8
0
  6
Continuous
 62
     4
100
AcDbLine
 10
62.00004969679117
 20
2383.000029344426
 30
0.0
 11
62.00004969679117
 21
3883.000029344426
 31
0.0
  0
LINE
  5
DFA
330
2
100
AcDbEntity
  8
0
  6
Continuous
 62
     4
100
AcDbLine
 10
54.0000496967898
 20
2383.000029344426
 30
0.0
 11
62.00004969679117
 21
2383.000029344426
 31
0.0
  0
LINE
  5
DFB
330
2
100
AcDbEntity
  8
0
  6
Continuous
 62
     4
100
AcDbLine
 10
54.0000496967898
 20
2383.000029344426
 30
0.0
 11
54.00004969679116
 21
3883.000029344426
 31
0.0
  0
LINE
  5
DFC
330
2
100
AcDbEntity
  8
0
  6
Continuous
 62
     4
100
AcDbLine
 10
54.00004969679116
 20
3883.000029344426
 30
0.0
 11
62.00004969679117
 21
3883.000029344426
 31
0.0
  0
LINE
  5
DFD
330
2
100
AcDbEntity
  8
0
  6
Continuous
 62
     7
100
AcDbLine
 10
28.94472708625926
 20
3883.000029344369
 30
0.0
 11
28.94472708625926
 21
3865.000029343819
 31
0.0
  0
LINE
  5
DFE
330
2
100
AcDbEntity
  8
0
  6
Continuous
 62
     7
100
AcDbLine
 10
28.94472708625926
 20
3841.000029343807
 30
0.0
 11
28.94472708625926
 21
3814.500029343747
 31
0.0
  0
LINE
  5
DFF
330
2
100
AcDbEntity
  8
0
  6
Continuous
 62
     7
100
AcDbLine
 10
28.94472708625926
 20
3795.500029343737
 30
0.0
 11
28.94472708625926
 21
3147.000029344789
 31
0.0
  0
LINE
  5
E00
330
2
100
AcDbEntity
  8
0
  6
Continuous
 62
     7
100
AcDbLine
 10
28.94472708625926
 20
3127.000029344798
 30
0.0
 11
28.94472708625926
 21
2408.000029344369
 31
0.0
  0
LINE
  5
E01
330
2
100
AcDbEntity
  8
0
  6
Continuous
 62
     7
100
AcDbLine
 10
19.05537230964205
 20
2408.000029344369
 30
0.0
 11
19.05537230964205
 21
3127.000029345229
 31
0.0
  0
LINE
  5
E02
330
2
100
AcDbEntity
  8
0
  6
Continuous
 62
     7
100
AcDbLine
 10
19.05537230964205
 20
3147.00002934522
 30
0.0
 11
19.05537230964205
 21
3793.00002934435
 31
0.0
  0
LINE
  5
E03
330
2
100
AcDbEntity
  8
0
  6
Continuous
 62
     7
100
AcDbLine
 10
19.05537230964205
 20
3817.000029344362
 30
0.0
 11
19.05537230964205
 21
3841.000029344377
 31
0.0
  0
LINE
  5
E04
330
2
100
AcDbEntity
  8
0
  6
Continuous
 62
     7
100
AcDbLine
 10
19.05537230964205
 20
3865.000029344389
 30
0.0
 11
19.05537230964205
 21
3883.000029344369
 31
0.0
  0
LINE
  5
E05
330
2
100
AcDbEntity
  8
0
  6
Continuous
 62
     7
100
AcDbLine
 10
28.53203095032723
 20
3883.000029344369
 30
0.0
 11
28.53203095032723
 21
3865.000029343845
 31
0.0
  0
LINE
  5
E06
330
2
100
AcDbEntity
  8
0
  6
Continuous
 62
     7
100
AcDbLine
 10
28.53203095032723
 20
3841.000029343834
 30
0.0
 11
28.53203095032723
 21
3814.500029343773
 31
0.0
  0
LINE
  5
E07
330
2
100
AcDbEntity
  8
0
  6
Continuous
 62
     7
100
AcDbLine
 10
28.53203095032723
 20
3795.500029343764
 30
0.0
 11
28.53203095032723
 21
3147.000029344774
 31
0.0
  0
LINE
  5
E08
330
2
100
AcDbEntity
  8
0
  6
Continuous
 62
     7
100
AcDbLine
 10
28.53203095032723
 20
3127.000029344783
 30
0.0
 11
28.53203095032723
 21
2408.000029344369
 31
0.0
  0
LINE
  5
E09
330
2
100
AcDbEntity
  8
0
  6
Continuous
 62
     7
100
AcDbLine
 10
19.46806844650723
 20
2408.000029344369
 30
0.0
 11
19.46806844650723
 21
3127.000029345238
 31
0.0
  0
LINE
  5
E0A
330
2
100
AcDbEntity
  8
0
  6
Continuous
 62
     7
100
AcDbLine
 10
19.46806844650723
 20
3147.000029345228
 30
0.0
 11
19.46806844650723
 21
3793.000029344324
 31
0.0
  0
LINE
  5
E0B
330
2
100
AcDbEntity
  8
0
  6
Continuous
 62
     7
100
AcDbLine
 10
19.46806844650723
 20
3817.000029344335
 30
0.0
 11
19.46806844650723
 21
3841.000029344377
 31
0.0
  0
LINE
  5
E0C
330
2
100
AcDbEntity
  8
0
  6
Continuous
 62
     7
100
AcDbLine
 10
19.46806844650723
 20
3865.000029344389
 30
0.0
 11
19.46806844650723
 21
3883.000029344369
 31
0.0
  0
LINE
  5
E0D
330
2
100
AcDbEntity
  8
0
  6
Continuous
 62
     7
100
AcDbLine
 10
20.00004966522306
 20
3817.000029344301
 30
0.0
 11
19.00004966522306
 21
3817.000029344365
 31
0.0
  0
LINE
  5
E0E
330
2
100
AcDbEntity
  8
0
  6
Continuous
 62
     7
100
AcDbLine
 10
19.00004966368237
 20
3793.000029344354
 30
0.0
 11
20.00004966368329
 21
3793.00002934429
 31
0.0
  0
LINE
  5
E0F
330
2
100
AcDbEntity
  8
0
  6
Continuous
 62
     7
100
AcDbLine
 10
28.00004966418419
 20
3795.500029343799
 30
0.0
 11
29.00004966418419
 21
3795.500029343734
 31
0.0
  0
LINE
  5
E10
330
2
100
AcDbEntity
  8
0
  6
Continuous
 62
     7
100
AcDbLine
 10
29.00004966540405
 20
3814.500029343743
 30
0.0
 11
28.00004966540405
 21
3814.500029343808
 31
0.0
  0
LINE
  5
E11
330
2
100
AcDbEntity
  8
0
  6
Continuous
 62
     7
100
AcDbLine
 10
29.00004966415213
 20
3795.000029343734
 30
0.0
 11
29.5600496641523
 21
3795.000029343697
 31
0.0
  0
LINE
  5
E12
330
2
100
AcDbEntity
  8
0
  6
Continuous
 62
     7
100
AcDbLine
 10
29.56004966543606
 20
3815.000029343707
 30
0.0
 11
29.00004966543611
 21
3815.000029343744
 31
0.0
  0
LINE
  5
E13
330
2
100
AcDbEntity
  8
0
  6
Continuous
 62
     7
100
AcDbLine
 10
29.5600496641523
 20
3795.000029343697
 30
0.0
 11
31.00004966431311
 21
3797.494182506505
 31
0.0
  0
LINE
  5
E14
330
2
100
AcDbEntity
  8
0
  6
Continuous
 62
     7
100
AcDbLine
 10
31.00004966527718
 20
3812.505876180715
 30
0.0
 11
29.56004966543606
 21
3815.000029343707
 31
0.0
  0
LINE
  5
E15
330
2
100
AcDbEntity
  8
0
  6
Continuous
 62
     7
100
AcDbLine
 10
31.00004966431311
 20
3797.500029343607
 30
0.0
 11
48.50004966432016
 21
3797.500029342483
 31
0.0
  0
LINE
  5
E16
330
2
100
AcDbEntity
  8
0
  6
Continuous
 62
     7
100
AcDbLine
 10
48.5000496652824
 20
3812.500029342491
 30
0.0
 11
31.00004966527627
 21
3812.500029343614
 31
0.0
  0
ARC
  5
E17
330
2
100
AcDbEntity
  8
0
  6
Continuous
 62
     7
100
AcDbCircle
 10
48.50004966435221
 20
3798.000029342482
 30
0.0
 40
0.4999999999999451
100
AcDbArc
 50
269.9999999963132
 51
359.9999999963783
  0
ARC
  5
E18
330
2
100
AcDbEntity
  8
0
  6
Continuous
 62
     7
100
AcDbCircle
 10
48.50004966525034
 20
3812.000029342492
 30
0.0
 40
0.4999999999999451
100
AcDbArc
 50
359.9999999962481
 51
89.99999999632622
  0
LINE
  5
E19
330
2
100
AcDbEntity
  8
0
  6
Continuous
 62
     7
100
AcDbLine
 10
28.00004966688994
 20
3841.000029343868
 30
0.0
 11
29.00004966688994
 21
3841.000029343803
 31
0.0
  0
LINE
  5
E1A
330
2
100
AcDbEntity
  8
0
  6
Continuous
 62
     7
100
AcDbLine
 10
29.00004966843108
 20
3865.000029343816
 30
0.0
 11
28.00004966843017
 21
3865.00002934388
 31
0.0
  0
LINE
  5
E1B
330
2
100
AcDbEntity
  8
0
  6
Continuous
 62
     7
100
AcDbLine
 10
19.00004966753317
 20
3841.000029344377
 30
0.0
 11
20.00004966753408
 21
3841.000029344377
 31
0.0
  0
LINE
  5
E1C
330
2
100
AcDbEntity
  8
0
  6
Continuous
 62
     7
100
AcDbLine
 10
20.00004966753408
 20
3865.000029344389
 30
0.0
 11
19.00004966753317
 21
3865.000029344389
 31
0.0
  0
LINE
  5
E1D
330
2
100
AcDbEntity
  8
0
  6
Continuous
 62
     7
100
AcDbLine
 10
13.30004966525325
 20
3817.500029344731
 30
0.0
 11
13.0000496652342
 21
3817.20002934475
 31
0.0
  0
LINE
  5
E1E
330
2
100
AcDbEntity
  8
0
  6
Continuous
 62
     7
100
AcDbLine
 10
13.00004966366737
 20
3792.800029344738
 30
0.0
 11
13.30004966364936
 21
3792.500029344719
 31
0.0
  0
LINE
  5
E1F
330
2
100
AcDbEntity
  8
0
  6
Continuous
 62
     7
100
AcDbLine
 10
19.00004966525512
 20
3817.500029344365
 30
0.0
 11
13.30004966525325
 21
3817.500029344731
 31
0.0
  0
LINE
  5
E20
330
2
100
AcDbEntity
  8
0
  6
Continuous
 62
     7
100
AcDbLine
 10
13.30004966364936
 20
3792.500029344719
 30
0.0
 11
19.00004966365031
 21
3792.500029344353
 31
0.0
  0
LINE
  5
E21
330
2
100
AcDbEntity
  8
0
  6
Continuous
 62
     7
100
AcDbLine
 10
50.4641512820001
 20
3840.500029342426
 30
0.0
 11
51.00004966699135
 21
3842.500029342392
 31
0.0
  0
LINE
  5
E22
330
2
100
AcDbEntity
  8
0
  6
Continuous
 62
     7
100
AcDbLine
 10
51.00004966833807
 20
3863.500029342402
 30
0.0
 11
50.46415128360422
 21
3865.500029342438
 31
0.0
  0
LINE
  5
E23
330
2
100
AcDbEntity
  8
0
  6
Continuous
 62
     7
100
AcDbLine
 10
49.50004966686219
 20
3840.500029342488
 30
0.0
 11
50.4641512820001
 21
3840.500029342426
 31
0.0
  0
LINE
  5
E24
330
2
100
AcDbEntity
  8
0
  6
Continuous
 62
     7
100
AcDbLine
 10
50.46415128360422
 20
3865.500029342438
 30
0.0
 11
49.50004966846631
 21
3865.5000293425
 31
0.0
  0
LINE
  5
E25
330
2
100
AcDbEntity
  8
0
  6
Continuous
 62
     7
100
AcDbLine
 10
49.0000496666471
 20
3847.500029342523
 30
0.0
 11
49.50004966731103
 21
3847.500029342491
 31
0.0
  0
LINE
  5
E26
330
2
100
AcDbEntity
  8
0
  6
Continuous
 62
     7
100
AcDbLine
 10
49.50004966801725
 20
3858.500029342496
 30
0.0
 11
49.00004966735242
 21
3858.500029342528
 31
0.0
  0
LINE
  5
E27
330
2
100
AcDbEntity
  8
0
  6
Continuous
 62
     7
100
AcDbLine
 10
19.00004966833626
 20
3865.500029344453
 30
0.0
 11
13.30004966833417
 21
3865.50002934482
 31
0.0
  0
LINE
  5
E28
330
2
100
AcDbEntity
  8
0
  6
Continuous
 62
     7
100
AcDbLine
 10
13.30004966672914
 20
3840.500029344807
 30
0.0
 11
19.00004966673123
 21
3840.500029344441
 31
0.0
  0
LINE
  5
E29
330
2
100
AcDbEntity
  8
0
  6
Continuous
 62
     7
100
AcDbLine
 10
13.30004966833417
 20
3865.50002934482
 30
0.0
 11
13.0000496683142
 21
3865.200029344838
 31
0.0
  0
LINE
  5
E2A
330
2
100
AcDbEntity
  8
0
  6
Continuous
 62
     7
100
AcDbLine
 10
13.00004966674919
 20
3840.800029344826
 30
0.0
 11
13.30004966672914
 21
3840.500029344807
 31
0.0
  0
ARC
  5
E2B
330
2
100
AcDbEntity
  8
0
  6
Continuous
 62
     7
100
AcDbCircle
 10
48.50004966843425
 20
3865.000029342566
 30
0.0
 40
0.5000000000001671
100
AcDbArc
 50
359.999999996196
 51
89.99999999632622
  0
ARC
  5
E2C
330
2
100
AcDbEntity
  8
0
  6
Continuous
 62
     7
100
AcDbCircle
 10
48.50004966689425
 20
3841.00002934255
 30
0.0
 40
0.5000000000000511
100
AcDbArc
 50
293.5778602664031
 51
359.9999999964305
  0
LINE
  5
E2D
330
2
100
AcDbEntity
  8
0
  6
Continuous
 62
     7
100
AcDbLine
 10
46.15004966686046
 20
3840.500029342702
 30
0.0
 11
46.20004740328909
 21
3840.500029342699
 31
0.0
  0
LINE
  5
E2E
330
2
100
AcDbEntity
  8
0
  6
Continuous
 62
     7
100
AcDbLine
 10
48.50004966846632
 20
3865.500029342564
 30
0.0
 11
46.15004966846527
 21
3865.500029342714
 31
0.0
  0
LINE
  5
E2F
330
2
100
AcDbEntity
  8
0
  6
Continuous
 62
     7
100
AcDbLine
 10
35.85004966846213
 20
3865.500029343376
 30
0.0
 11
33.50004966846132
 21
3865.500029343527
 31
0.0
  0
ARC
  5
E30
330
2
100
AcDbEntity
  8
0
  6
Continuous
 62
     7
100
AcDbCircle
 10
33.50004966688903
 20
3841.000029343513
 30
0.0
 40
0.5000000000001671
100
AcDbArc
 50
179.9999999961959
 51
269.9999999963262
  0
ARC
  5
E31
330
2
100
AcDbEntity
  8
0
  6
Continuous
 62
     7
100
AcDbCircle
 10
33.50004966842926
 20
3865.000029343529
 30
0.0
 40
0.4999999999999451
100
AcDbArc
 50
89.9999999963132
 51
179.9999999964304
  0
ARC
  5
E32
330
2
100
AcDbEntity
  8
0
  6
Continuous
 62
     7
100
AcDbCircle
 10
44.65004966840115
 20
3864.500029342812
 30
0.0
 40
1.499999999999833
100
AcDbArc
 50
269.9999999963262
 51
359.9999999962741
  0
ARC
  5
E33
330
2
100
AcDbEntity
  8
0
  6
Continuous
 62
     7
100
AcDbCircle
 10
44.65004966692413
 20
3841.500029342797
 30
0.0
 40
1.499999999999908
100
AcDbArc
 50
359.9999999963523
 51
25.84215532367963
  0
ARC
  5
E34
330
2
100
AcDbEntity
  8
0
  6
Continuous
 62
     7
100
AcDbCircle
 10
37.35004966839824
 20
3864.500029343281
 30
0.0
 40
1.500000000000055
100
AcDbArc
 50
179.9999999963523
 51
269.9999999963132
  0
LINE
  5
E35
330
2
100
AcDbEntity
  8
0
  6
Continuous
 62
     7
100
AcDbLine
 10
44.65004966830406
 20
3863.00002934281
 30
0.0
 11
37.35004966830229
 21
3863.000029343278
 31
0.0
  0
LINE
  5
E36
330
2
100
AcDbEntity
  8
0
  6
Continuous
 62
     7
100
AcDbLine
 10
38.81544270154427
 20
3843.000029343174
 30
0.0
 11
43.18465277847235
 21
3843.000029342894
 31
0.0
  0
LINE
  5
E37
330
2
100
AcDbEntity
  8
0
  6
Continuous
 62
     7
100
AcDbLine
 10
32.50004966846041
 20
3865.500029343593
 30
0.0
 11
29.00004966845927
 21
3865.500029343818
 31
0.0
  0
LINE
  5
E38
330
2
100
AcDbEntity
  8
0
  6
Continuous
 62
     7
100
AcDbLine
 10
29.00004966685515
 20
3840.500029343802
 30
0.0
 11
32.50004966685606
 21
3840.500029343576
 31
0.0
  0
ARC
  5
E39
330
2
100
AcDbEntity
  8
0
  6
Continuous
 62
     7
100
AcDbCircle
 10
33.00004966724123
 20
3846.500029343546
 30
0.0
 40
0.4999999999999451
100
AcDbArc
 50
89.99999999632622
 51
179.9999999961959
  0
ARC
  5
E3A
330
2
100
AcDbEntity
  8
0
  6
Continuous
 62
     7
100
AcDbCircle
 10
33.00004966807615
 20
3859.500029343559
 30
0.0
 40
0.4999999999999451
100
AcDbArc
 50
179.9999999964565
 51
269.9999999963393
  0
LINE
  5
E3B
330
2
100
AcDbEntity
  8
0
  6
Continuous
 62
     7
100
AcDbLine
 10
62.00004772247234
 20
3821.000030321073
 30
0.0
 11
63.00004772247234
 21
3821.00003032107
 31
0.0
  0
LINE
  5
E3C
330
2
100
AcDbEntity
  8
0
  6
Continuous
 62
     7
100
AcDbLine
 10
63.0000477225401
 20
3845.000030321062
 30
0.0
 11
62.00004772254124
 21
3845.000030321065
 31
0.0
  0
LINE
  5
E3D
330
2
100
AcDbEntity
  8
0
  6
Continuous
 62
     7
100
AcDbLine
 10
64.00004772253715
 20
3845.000030321054
 30
0.0
 11
63.00004772253806
 21
3845.000030321056
 31
0.0
  0
LINE
  5
E3E
330
2
100
AcDbEntity
  8
0
  6
Continuous
 62
     7
100
AcDbLine
 10
63.0000477224753
 20
3821.000030321076
 30
0.0
 11
64.00004772247417
 21
3821.000030321073
 31
0.0
  0
LINE
  5
E3F
330
2
100
AcDbEntity
  8
0
  6
Continuous
 62
     7
100
AcDbLine
 10
69.7000477224683
 20
3820.500030321045
 30
0.0
 11
70.00004772246916
 21
3820.800030321044
 31
0.0
  0
LINE
  5
E40
330
2
100
AcDbEntity
  8
0
  6
Continuous
 62
     7
100
AcDbLine
 10
70.00004772253806
 20
3845.200030321036
 30
0.0
 11
69.70004772253901
 21
3845.500030321036
 31
0.0
  0
LINE
  5
E41
330
2
100
AcDbEntity
  8
0
  6
Continuous
 62
     7
100
AcDbLine
 10
64.00004772247007
 20
3820.500030321062
 30
0.0
 11
69.7000477224683
 21
3820.500030321045
 31
0.0
  0
LINE
  5
E42
330
2
100
AcDbEntity
  8
0
  6
Continuous
 62
     7
100
AcDbLine
 10
69.70004772253901
 20
3845.500030321036
 30
0.0
 11
64.00004772254124
 21
3845.500030321053
 31
0.0
  0
LINE
  5
E43
330
2
100
AcDbEntity
  8
0
  6
Continuous
 62
     7
100
AcDbLine
 10
2062.000049671226
 20
2403.000029344646
 30
0.0
 11
1582.000049671226
 21
2403.000029344623
 31
0.0
  0
LINE
  5
E44
330
2
100
AcDbEntity
  8
0
  6
Continuous
 62
     7
100
AcDbLine
 10
2062.000049671226
 20
2402.000029344646
 30
0.0
 11
2062.000049671226
 21
2403.000029344646
 31
0.0
  0
LINE
  5
E45
330
2
100
AcDbEntity
  8
0
  6
Continuous
 62
     9
100
AcDbLine
 10
2062.000049671164
 20
2402.000029344646
 30
0.0
 11
1582.000049671164
 21
2402.000029344622
 31
0.0
  0
LINE
  5
E46
330
2
100
AcDbEntity
  8
0
  6
Continuous
 62
     7
100
AcDbLine
 10
1582.000049671226
 20
2402.000029344622
 30
0.0
 11
1582.000049671226
 21
2403.000029344623
 31
0.0
  0
LINE
  5
E47
330
2
100
AcDbEntity
  8
0
  6
Continuous
 62
     9
100
AcDbLine
 10
2062.000049671165
 20
2382.000029344645
 30
0.0
 11
1582.000049671164
 21
2382.000029344622
 31
0.0
  0
LINE
  5
E48
330
2
100
AcDbEntity
  8
0
  6
Continuous
 62
     7
100
AcDbLine
 10
1582.000049671164
 20
2382.000029344622
 30
0.0
 11
1582.000049671164
 21
2402.000029344622
 31
0.0
  0
LINE
  5
E49
330
2
100
AcDbEntity
  8
0
  6
Continuous
 62
     7
100
AcDbLine
 10
2062.000049671165
 20
2382.000029344645
 30
0.0
 11
2062.000049671164
 21
2402.000029344646
 31
0.0
  0
LINE
  5
E4A
330
2
100
AcDbEntity
  8
0
  6
Continuous
 62
     7
100
AcDbLine
 10
1582.000049671227
 20
2381.000029344623
 30
0.0
 11
1582.000049671227
 21
2382.000029344622
 31
0.0
  0
LINE
  5
E4B
330
2
100
AcDbEntity
  8
0
  6
Continuous
 62
     7
100
AcDbLine
 10
2062.000049671227
 20
2381.000029344646
 30
0.0
 11
2062.000049671227
 21
2382.000029344645
 31
0.0
  0
LINE
  5
E4C
330
2
100
AcDbEntity
  8
0
  6
Continuous
 62
     7
100
AcDbLine
 10
3382.000049671289
 20
1831.00002934467
 30
0.0
 11
3382.000049671289
 21
2381.00002934467
 31
0.0
  0
LINE
  5
E4D
330
2
100
AcDbEntity
  8
0
  6
Continuous
 62
     7
100
AcDbLine
 10
1582.000049671289
 20
1831.00002934467
 30
0.0
 11
1582.000049671289
 21
2381.00002934467
 31
0.0
  0
LINE
  5
E4E
330
2
100
AcDbEntity
  8
0
  6
Continuous
 62
     7
100
AcDbLine
 10
3382.000049671289
 20
2381.00002934467
 30
0.0
 11
1582.000049671289
 21
2381.00002934467
 31
0.0
  0
LINE
  5
E4F
330
2
100
AcDbEntity
  8
0
  6
Continuous
 62
     7
100
AcDbLine
 10
3382.000049671289
 20
1831.00002934467
 30
0.0
 11
1582.000049671289
 21
1831.00002934467
 31
0.0
  0
ARC
  5
E50
330
2
100
AcDbEntity
  8
0
  6
Continuous
 62
     7
100
AcDbCircle
 10
2561.708483594517
 20
3146.000029344884
 30
0.0
 40
1.0
100
AcDbArc
 50
0.0000000035956043
 51
90.00000000359561
  0
LINE
  5
E51
330
2
100
AcDbEntity
  8
0
  6
Continuous
 62
     9
100
AcDbLine
 10
2561.708483594455
 20
3146.000029344884
 30
0.0
 11
2562.708483594516
 21
3146.000029344947
 31
0.0
  0
LINE
  5
E52
330
2
100
AcDbEntity
  8
0
  6
Continuous
 62
     9
100
AcDbLine
 10
2561.708483594455
 20
3147.000029344883
 30
0.0
 11
2561.708483594517
 21
3146.000029344865
 31
0.0
  0
LINE
  5
E53
330
2
100
AcDbEntity
  8
0
  6
Continuous
 62
     9
100
AcDbLine
 10
2561.708483595588
 20
3128.000029344873
 30
0.0
 11
2561.708483594455
 21
3146.000029344865
 31
0.0
  0
LINE
  5
E54
330
2
100
AcDbEntity
  8
0
  6
Continuous
 62
     7
100
AcDbLine
 10
2562.708483594517
 20
3146.000029344947
 30
0.0
 11
2562.708483595649
 21
3128.000029344955
 31
0.0
  0
LINE
  5
E55
330
2
100
AcDbEntity
  8
0
  6
Continuous
 62
     9
100
AcDbLine
 10
2561.708483595588
 20
3128.000029344892
 30
0.0
 11
2562.708483595649
 21
3128.000029344955
 31
0.0
  0
LINE
  5
E56
330
2
100
AcDbEntity
  8
0
  6
Continuous
 62
     7
100
AcDbLine
 10
2543.708483594463
 20
3147.000029343751
 30
0.0
 11
2561.708483594455
 21
3147.000029344883
 31
0.0
  0
LINE
  5
E57
330
2
100
AcDbEntity
  8
0
  6
Continuous
 62
     9
100
AcDbLine
 10
2561.708483594455
 20
3146.000029344865
 30
0.0
 11
2543.708483594463
 21
3146.000029343733
 31
0.0
  0
LINE
  5
E58
330
2
100
AcDbEntity
  8
0
  6
Continuous
 62
     9
100
AcDbLine
 10
2543.708483594463
 20
3147.000029343751
 30
0.0
 11
2543.708483594525
 21
3146.000029343733
 31
0.0
  0
LINE
  5
E59
330
2
100
AcDbEntity
  8
0
  6
Continuous
 62
     9
100
AcDbLine
 10
2543.708483594463
 20
3146.000029343733
 30
0.0
 11
2543.708483595596
 21
3128.000029343741
 31
0.0
  0
LINE
  5
E5A
330
2
100
AcDbEntity
  8
0
  6
Continuous
 62
     9
100
AcDbLine
 10
2543.708483595596
 20
3128.000029343741
 30
0.0
 11
2561.708483595588
 21
3128.000029344873
 31
0.0
  0
ARC
  5
E5B
330
2
100
AcDbEntity
  8
0
  6
Continuous
 62
     7
100
AcDbCircle
 10
2561.70848359565
 20
3128.000029344892
 30
0.0
 40
1.0
100
AcDbArc
 50
270.0000000036086
 51
0.0000000035956043
  0
LINE
  5
E5C
330
2
100
AcDbEntity
  8
0
  6
Continuous
 62
     9
100
AcDbLine
 10
2561.70848359565
 20
3128.000029344873
 30
0.0
 11
2561.708483595712
 21
3127.000029344893
 31
0.0
  0
LINE
  5
E5D
330
2
100
AcDbEntity
  8
0
  6
Continuous
 62
     7
100
AcDbLine
 10
2561.708483595712
 20
3127.000029344892
 30
0.0
 11
2543.70848359572
 21
3127.00002934376
 31
0.0
  0
LINE
  5
E5E
330
2
100
AcDbEntity
  8
0
  6
Continuous
 62
     9
100
AcDbLine
 10
2543.708483595658
 20
3128.000029343741
 30
0.0
 11
2543.708483595721
 21
3127.000029343761
 31
0.0
  0
LINE
  5
E5F
330
2
100
AcDbEntity
  8
0
  6
Continuous
 62
     9
100
AcDbLine
 10
2542.708483594526
 20
3146.000029343689
 30
0.0
 11
2543.708483594463
 21
3146.000029343752
 31
0.0
  0
ARC
  5
E60
330
2
100
AcDbEntity
  8
0
  6
Continuous
 62
     7
100
AcDbCircle
 10
2543.708483594525
 20
3146.000029343752
 30
0.0
 40
1.0
100
AcDbArc
 50
90.00000000360863
 51
180.0000000035956
  0
LINE
  5
E61
330
2
100
AcDbEntity
  8
0
  6
Continuous
 62
     7
100
AcDbLine
 10
2542.708483595659
 20
3128.000029343697
 30
0.0
 11
2542.708483594526
 21
3146.000029343689
 31
0.0
  0
LINE
  5
E62
330
2
100
AcDbEntity
  8
0
  6
Continuous
 62
     9
100
AcDbLine
 10
2542.708483595659
 20
3128.000029343697
 30
0.0
 11
2543.708483595596
 21
3128.00002934376
 31
0.0
  0
ARC
  5
E63
330
2
100
AcDbEntity
  8
0
  6
Continuous
 62
     7
100
AcDbCircle
 10
2543.708483595658
 20
3128.00002934376
 30
0.0
 40
1.0
100
AcDbArc
 50
180.0000000035956
 51
270.0000000035956
  0
LINE
  5
E64
330
2
100
AcDbEntity
  8
0
  6
Continuous
 62
     7
100
AcDbLine
 10
2032.735177290931
 20
3883.000029344369
 30
0.0
 11
2032.735177290931
 21
2408.000029344369
 31
0.0
  0
LINE
  5
E65
330
2
100
AcDbEntity
  8
0
  6
Continuous
 62
     7
100
AcDbLine
 10
2032.735177290931
 20
3883.000029344369
 30
0.0
 11
2043.746505785142
 21
3883.000029344369
 31
0.0
  0
LINE
  5
E66
330
2
100
AcDbEntity
  8
0
  6
Continuous
 62
     7
100
AcDbLine
 10
2043.746505785142
 20
3883.000029344369
 30
0.0
 11
2043.746505785142
 21
2408.000029344369
 31
0.0
  0
LINE
  5
E67
330
2
100
AcDbEntity
  8
0
  6
Continuous
 62
     7
100
AcDbLine
 10
2032.735177290931
 20
2408.000029344369
 30
0.0
 11
2043.746505785142
 21
2408.000029344369
 31
0.0
  0
LINE
  5
E68
330
2
100
AcDbEntity
  8
0
  6
Continuous
 62
     7
100
AcDbLine
 10
2031.708483596312
 20
3883.000029344369
 30
0.0
 11
2031.708483596312
 21
2408.000029344369
 31
0.0
  0
LINE
  5
E69
330
2
100
AcDbEntity
  8
0
  6
Continuous
 62
     7
100
AcDbLine
 10
2031.708483596312
 20
3883.000029344369
 30
0.0
 11
2032.735177290931
 21
3883.000029344369
 31
0.0
  0
LINE
  5
E6A
330
2
100
AcDbEntity
  8
0
  6
Continuous
 62
     7
100
AcDbLine
 10
2031.708483596312
 20
2408.000029344369
 30
0.0
 11
2032.735177290931
 21
2408.000029344369
 31
0.0
  0
CIRCLE
  5
E6B
330
2
100
AcDbEntity
  8
0
  6
Continuous
 62
     7
100
AcDbCircle
 10
2532.708483596223
 20
3805.000029344725
 30
0.0
 40
12.49999999999995
  0
CIRCLE
  5
E6C
330
2
100
AcDbEntity
  8
0
  6
Continuous
 62
     7
100
AcDbCircle
 10
2532.708483596223
 20
3805.000029344745
 30
0.0
 40
12.19999999999999
  0
CIRCLE
  5
E6D
330
2
100
AcDbEntity
  8
0
  6
Continuous
 62
     7
100
AcDbCircle
 10
2532.708483596282
 20
3810.500029344747
 30
0.0
 40
1.249999999999972
  0
CIRCLE
  5
E6E
330
2
100
AcDbEntity
  8
0
  6
Continuous
 62
     7
100
AcDbCircle
 10
2532.708483596165
 20
3799.500029344742
 30
0.0
 40
1.249999999999972
  0
CIRCLE
  5
E6F
330
2
100
AcDbEntity
  8
0
  6
Continuous
 62
     7
100
AcDbCircle
 10
2525.208483596222
 20
3805.000029344824
 30
0.0
 40
0.2499999999999725
  0
CIRCLE
  5
E70
330
2
100
AcDbEntity
  8
0
  6
Continuous
 62
     7
100
AcDbCircle
 10
2532.708483595861
 20
3853.000029344813
 30
0.0
 40
12.49999999999995
  0
CIRCLE
  5
E71
330
2
100
AcDbEntity
  8
0
  6
Continuous
 62
     7
100
AcDbCircle
 10
2532.708483595842
 20
3853.000029344832
 30
0.0
 40
12.19999999999999
  0
CIRCLE
  5
E72
330
2
100
AcDbEntity
  8
0
  6
Continuous
 62
     7
100
AcDbCircle
 10
2532.708483595853
 20
3858.500029344835
 30
0.0
 40
1.249999999999972
  0
CIRCLE
  5
E73
330
2
100
AcDbEntity
  8
0
  6
Continuous
 62
     7
100
AcDbCircle
 10
2532.708483595831
 20
3847.50002934483
 30
0.0
 40
1.249999999999972
  0
CIRCLE
  5
E74
330
2
100
AcDbEntity
  8
0
  6
Continuous
 62
     7
100
AcDbCircle
 10
2525.208483595841
 20
3853.000029344848
 30
0.0
 40
0.2499999999999725
  0
CIRCLE
  5
E75
330
2
100
AcDbEntity
  8
0
  6
Continuous
 62
     7
100
AcDbCircle
 10
2132.708483596374
 20
3805.00002934477
 30
0.0
 40
12.49999999999995
  0
CIRCLE
  5
E76
330
2
100
AcDbEntity
  8
0
  6
Continuous
 62
     7
100
AcDbCircle
 10
2132.708483596374
 20
3805.000029344789
 30
0.0
 40
12.19999999999999
  0
CIRCLE
  5
E77
330
2
100
AcDbEntity
  8
0
  6
Continuous
 62
     7
100
AcDbCircle
 10
2132.708483596433
 20
3810.500029344787
 30
0.0
 40
1.249999999999972
  0
CIRCLE
  5
E78
330
2
100
AcDbEntity
  8
0
  6
Continuous
 62
     7
100
AcDbCircle
 10
2132.708483596316
 20
3799.500029344791
 30
0.0
 40
1.249999999999972
  0
CIRCLE
  5
E79
330
2
100
AcDbEntity
  8
0
  6
Continuous
 62
     7
100
AcDbCircle
 10
2125.208483596377
 20
3805.000029344869
 30
0.0
 40
0.2499999999999725
  0
CIRCLE
  5
E7A
330
2
100
AcDbEntity
  8
0
  6
Continuous
 62
     7
100
AcDbCircle
 10
2132.708483596012
 20
3853.000029344813
 30
0.0
 40
12.49999999999995
  0
CIRCLE
  5
E7B
330
2
100
AcDbEntity
  8
0
  6
Continuous
 62
     7
100
AcDbCircle
 10
2132.708483595993
 20
3853.000029344832
 30
0.0
 40
12.19999999999999
  0
CIRCLE
  5
E7C
330
2
100
AcDbEntity
  8
0
  6
Continuous
 62
     7
100
AcDbCircle
 10
2132.708483596004
 20
3858.50002934483
 30
0.0
 40
1.249999999999972
  0
CIRCLE
  5
E7D
330
2
100
AcDbEntity
  8
0
  6
Continuous
 62
     7
100
AcDbCircle
 10
2132.708483595982
 20
3847.500029344835
 30
0.0
 40
1.249999999999972
  0
CIRCLE
  5
E7E
330
2
100
AcDbEntity
  8
0
  6
Continuous
 62
     7
100
AcDbCircle
 10
2125.208483595996
 20
3853.000029344848
 30
0.0
 40
0.2499999999999725
  0
LINE
  5
E7F
330
2
100
AcDbEntity
  8
0
  6
Continuous
 62
     4
100
AcDbLine
 10
2032.708483596466
 20
2408.000029344369
 30
0.0
 11
2032.708483596466
 21
2403.000029344643
 31
0.0
  0
LINE
  5
E80
330
2
100
AcDbEntity
  8
0
  6
Continuous
 62
     4
100
AcDbLine
 10
2582.708483596259
 20
3883.000029344369
 30
0.0
 11
2043.746505785878
 21
3883.000029344369
 31
0.0
  0
LINE
  5
E81
330
2
100
AcDbEntity
  8
0
  6
Continuous
 62
     4
100
AcDbLine
 10
2582.708483596259
 20
2391.000029345045
 30
0.0
 11
2062.000049673402
 21
2391.000029345045
 31
0.0
  0
LINE
  5
E82
330
2
100
AcDbEntity
  8
0
  6
Continuous
 62
     4
100
AcDbLine
 10
2582.708483596259
 20
3883.000029344369
 30
0.0
 11
2582.708483596259
 21
2391.000029345045
 31
0.0
  0
LINE
  5
E83
330
2
100
AcDbEntity
  8
0
  6
Continuous
 62
     7
100
AcDbLine
 10
1583.043168611891
 20
3816.000029031131
 30
0.0
 11
1623.043168611891
 21
3816.000029164012
 31
0.0
  0
LINE
  5
E84
330
2
100
AcDbEntity
  8
0
  6
Continuous
 62
     7
100
AcDbLine
 10
1583.043168611891
 20
3816.000029031131
 30
0.0
 11
1583.043168608569
 21
3817.000029031206
 31
0.0
  0
LINE
  5
E85
330
2
100
AcDbEntity
  8
0
  6
Continuous
 62
     9
100
AcDbLine
 10
1583.043168607931
 20
3817.000029031206
 30
0.0
 11
1623.043168607931
 21
3817.000029164086
 31
0.0
  0
LINE
  5
E86
330
2
100
AcDbEntity
  8
0
  6
Continuous
 62
     7
100
AcDbLine
 10
1623.043168611891
 20
3816.000029164012
 30
0.0
 11
1623.043168608569
 21
3817.000029164086
 31
0.0
  0
LINE
  5
E87
330
2
100
AcDbEntity
  8
0
  6
Continuous
 62
     7
100
AcDbLine
 10
1583.043168607931
 20
3817.000029031206
 30
0.0
 11
1583.043168461762
 21
3861.000029031206
 31
0.0
  0
LINE
  5
E88
330
2
100
AcDbEntity
  8
0
  6
Continuous
 62
     9
100
AcDbLine
 10
1583.043168461762
 20
3861.000029031206
 30
0.0
 11
1623.043168461762
 21
3861.000029164087
 31
0.0
  0
LINE
  5
E89
330
2
100
AcDbEntity
  8
0
  6
Continuous
 62
     7
100
AcDbLine
 10
1623.043168607931
 20
3817.000029164086
 30
0.0
 11
1623.043168461762
 21
3861.000029164087
 31
0.0
  0
LINE
  5
E8A
330
2
100
AcDbEntity
  8
0
  6
Continuous
 62
     7
100
AcDbLine
 10
1583.0431684624
 20
3861.000029031206
 30
0.0
 11
1583.043168459078
 21
3862.000029031131
 31
0.0
  0
LINE
  5
E8B
330
2
100
AcDbEntity
  8
0
  6
Continuous
 62
     7
100
AcDbLine
 10
1583.043168459078
 20
3862.000029031131
 30
0.0
 11
1623.043168459078
 21
3862.000029164012
 31
0.0
  0
LINE
  5
E8C
330
2
100
AcDbEntity
  8
0
  6
Continuous
 62
     7
100
AcDbLine
 10
1623.0431684624
 20
3861.000029164087
 30
0.0
 11
1623.043168459078
 21
3862.000029164012
 31
0.0
  0
LINE
  5
E8D
330
2
100
AcDbEntity
  8
0
  6
Continuous
 62
     9
100
AcDbLine
 10
3382.000048235963
 20
3816.500035007235
 30
0.0
 11
3342.000048235963
 21
3816.500034874358
 31
0.0
  0
LINE
  5
E8E
330
2
100
AcDbEntity
  8
0
  6
Continuous
 62
     7
100
AcDbLine
 10
3382.000048239632
 20
3815.50003500716
 30
0.0
 11
3342.000048239633
 21
3815.500034874283
 31
0.0
  0
LINE
  5
E8F
330
2
100
AcDbEntity
  8
0
  6
Continuous
 62
     7
100
AcDbLine
 10
3342.00004823631
 20
3816.500034874358
 30
0.0
 11
3342.000048239633
 21
3815.500034874283
 31
0.0
  0
LINE
  5
E90
330
2
100
AcDbEntity
  8
0
  6
Continuous
 62
     7
100
AcDbLine
 10
3382.000048236309
 20
3816.500035007235
 30
0.0
 11
3382.000048239632
 21
3815.50003500716
 31
0.0
  0
LINE
  5
E91
330
2
100
AcDbEntity
  8
0
  6
Continuous
 62
     9
100
AcDbLine
 10
3382.000048089798
 20
3860.500035007234
 30
0.0
 11
3342.000048089798
 21
3860.500034874358
 31
0.0
  0
LINE
  5
E92
330
2
100
AcDbEntity
  8
0
  6
Continuous
 62
     7
100
AcDbLine
 10
3342.000048089798
 20
3860.500034874358
 30
0.0
 11
3342.000048235963
 21
3816.500034874358
 31
0.0
  0
LINE
  5
E93
330
2
100
AcDbEntity
  8
0
  6
Continuous
 62
     7
100
AcDbLine
 10
3382.000048089798
 20
3860.500035007234
 30
0.0
 11
3382.000048235963
 21
3816.500035007235
 31
0.0
  0
LINE
  5
E94
330
2
100
AcDbEntity
  8
0
  6
Continuous
 62
     7
100
AcDbLine
 10
3382.000048086823
 20
3861.500035007161
 30
0.0
 11
3342.000048086823
 21
3861.500034874283
 31
0.0
  0
LINE
  5
E95
330
2
100
AcDbEntity
  8
0
  6
Continuous
 62
     7
100
AcDbLine
 10
3342.000048086823
 20
3861.500034874283
 30
0.0
 11
3342.000048090144
 21
3860.500034874358
 31
0.0
  0
LINE
  5
E96
330
2
100
AcDbEntity
  8
0
  6
Continuous
 62
     7
100
AcDbLine
 10
3382.000048086823
 20
3861.500035007161
 30
0.0
 11
3382.000048090146
 21
3860.500035007234
 31
0.0
  0
LINE
  5
E97
330
2
100
AcDbEntity
  8
0
  6
Continuous
 62
     7
100
AcDbLine
 10
3342.000048230981
 20
3818.000034874
 30
0.0
 11
2582.708483596259
 21
3818.000032351686
 31
0.0
  0
LINE
  5
E98
330
2
100
AcDbEntity
  8
0
  6
Continuous
 62
     7
100
AcDbLine
 10
2031.708483596312
 20
3818.000030521302
 30
0.0
 11
1623.043168604608
 21
3818.000029163744
 31
0.0
  0
LINE
  5
E99
330
2
100
AcDbEntity
  8
0
  6
Continuous
 62
     9
100
AcDbLine
 10
1623.043168596304
 20
3820.50002916393
 30
0.0
 11
2031.708483596312
 21
3820.500030521488
 31
0.0
  0
LINE
  5
E9A
330
2
100
AcDbEntity
  8
0
  6
Continuous
 62
     9
100
AcDbLine
 10
2582.708483596259
 20
3820.500032351873
 30
0.0
 11
3342.000048222676
 21
3820.500034874186
 31
0.0
  0
LINE
  5
E9B
330
2
100
AcDbEntity
  8
0
  6
Continuous
 62
     9
100
AcDbLine
 10
3342.000048139627
 20
3845.500034874186
 30
0.0
 11
2582.708483596259
 21
3845.500032351873
 31
0.0
  0
LINE
  5
E9C
330
2
100
AcDbEntity
  8
0
  6
Continuous
 62
     9
100
AcDbLine
 10
2031.708483596312
 20
3845.500030521488
 30
0.0
 11
1623.043168513254
 21
3845.50002916393
 31
0.0
  0
LINE
  5
E9D
330
2
100
AcDbEntity
  8
0
  6
Continuous
 62
     7
100
AcDbLine
 10
1623.043168504948
 20
3848.000029163744
 30
0.0
 11
2031.708483596312
 21
3848.000030521302
 31
0.0
  0
LINE
  5
E9E
330
2
100
AcDbEntity
  8
0
  6
Continuous
 62
     7
100
AcDbLine
 10
2582.708483596259
 20
3848.000032351686
 30
0.0
 11
3342.000048131323
 21
3848.000034874
 31
0.0
  0
LINE
  5
E9F
330
2
100
AcDbEntity
  8
0
  6
Continuous
 62
     4
100
AcDbLine
 10
1582.000049673402
 20
2403.000029344623
 30
0.0
 11
1582.000049673402
 21
3883.000029344426
 31
0.0
  0
LINE
  5
EA0
330
2
100
AcDbEntity
  8
0
  6
Continuous
 62
     4
100
AcDbLine
 10
1582.000049673402
 20
3883.000029344426
 30
0.0
 11
2031.708483596312
 21
3883.000029344426
 31
0.0
  0
ENDSEC
  0
SECTION
  2
OBJECTS
  0
DICTIONARY
  5
7
330
0
100
AcDbDictionary
281
     1
  3
ACAD_COLOR
350
65C
  3
ACAD_GROUP
350
20
  3
ACAD_LAYOUT
350
B
  3
ACAD_MATERIAL
350
632
  3
ACAD_MLEADERSTYLE
350
681
  3
ACAD_MLINESTYLE
350
21
  3
ACAD_PLOTSETTINGS
350
22
  3
ACAD_PLOTSTYLENAME
350
6
  3
ACAD_SCALELIST
350
65F
  3
ACAD_TABLESTYLE
350
65D
  3
ACAD_VISUALSTYLE
350
64B
  3
ACDB_RECOMPOSE_DATA
350
6A0
  3
AcDbVariableDictionary
350
6A1
  3
ASE_INDEX_DICTIONARY
350
69B
  3
DWGPROPS
350
EC2
  0
DICTIONARY
  5
68A
330
4
100
AcDbDictionary
280
     1
281
     1
  3
ADSK_XREC_LAYER_RECONCILED
360
68B
  0
DICTIONARY
  5
AB6
330
2
100
AcDbDictionary
280
     1
281
     1
  3
ACAD_SORTENTS
360
AB7
  0
DICTIONARY
  5
65C
102
{ACAD_REACTORS
330
7
102
}
330
7
100
AcDbDictionary
281
     1
  0
DICTIONARY
  5
20
102
{ACAD_REACTORS
330
7
102
}
330
7
100
AcDbDictionary
281
     1
  0
DICTIONARY
  5
B
102
{ACAD_REACTORS
330
7
102
}
330
7
100
AcDbDictionary
281
     1
  3
Layout1
350
F
  3
Model
350
A
  0
DICTIONARY
  5
632
102
{ACAD_REACTORS
330
7
102
}
330
7
100
AcDbDictionary
281
     1
  3
ByBlock
350
63B
  3
ByLayer
350
633
  3
Global
350
643
  0
DICTIONARY
  5
681
102
{ACAD_REACTORS
330
7
102
}
330
7
100
AcDbDictionary
281
     1
  3
Standard
350
682
  0
DICTIONARY
  5
21
102
{ACAD_REACTORS
330
7
102
}
330
7
100
AcDbDictionary
281
     1
  3
Standard
350
23
  0
DICTIONARY
  5
22
102
{ACAD_REACTORS
330
7
102
}
330
7
100
AcDbDictionary
281
     1
  0
ACDBDICTIONARYWDFLT
  5
6
102
{ACAD_REACTORS
330
7
102
}
330
7
100
AcDbDictionary
281
     1
  3
Normal
350
5
100
AcDbDictionaryWithDefault
340
5
  0
DICTIONARY
  5
65F
102
{ACAD_REACTORS
330
7
102
}
330
7
100
AcDbDictionary
281
     1
  3
A0
350
660
  3
A1
350
661
  3
A2
350
662
  3
A3
350
663
  3
A4
350
664
  3
A5
350
665
  3
A6
350
666
  3
A7
350
667
  3
A8
350
668
  3
A9
350
669
  3
B0
350
66A
  3
B1
350
66B
  3
B2
350
66C
  3
B3
350
66D
  3
B4
350
66E
  3
B5
350
66F
  3
B6
350
670
  3
B7
350
671
  3
B8
350
672
  3
B9
350
673
  3
C0
350
674
  3
C1
350
675
  3
C2
350
676
  3
C3
350
677
  3
C4
350
678
  3
C5
350
679
  3
C6
350
67A
  3
C7
350
67B
  3
C8
350
67C
  3
C9
350
67D
  3
D0
350
67E
  3
D1
350
67F
  3
D2
350
680
  0
DICTIONARY
  5
65D
102
{ACAD_REACTORS
330
7
102
}
330
7
100
AcDbDictionary
281
     1
  3
Standard
350
65E
  0
DICTIONARY
  5
64B
102
{ACAD_REACTORS
330
7
102
}
330
7
100
AcDbDictionary
281
     1
  3
2dWireframe
350
651
  3
3D Hidden
350
653
  3
3dWireframe
350
652
  3
Basic
350
650
  3
Brighten
350
657
  3
ColorChange
350
65B
  3
Conceptual
350
654
  3
Dim
350
656
  3
Facepattern
350
65A
  3
Flat
350
64C
  3
FlatWithEdges
350
64D
  3
Gouraud
350
64E
  3
GouraudWithEdges
350
64F
  3
Linepattern
350
659
  3
Realistic
350
655
  3
Thicken
350
658
  0
XRECORD
  5
6A0
102
{ACAD_REACTORS
330
7
102
}
330
7
100
AcDbXrecord
280
     1
 90
        1
330
65E
  0
DICTIONARY
  5
6A1
102
{ACAD_REACTORS
330
7
102
}
330
7
100
AcDbDictionary
281
     1
  3
CANNOSCALE
350
6A5
  3
CMLEADERSTYLE
350
6A3
  3
CTABLESTYLE
350
6A2
  3
DIMASSOC
350
EA3
  3
INDEXCTL
350
EA2
  3
LIGHTINGUNITS
350
6A6
  3
MSLTSCALE
350
6A4
  3
SORTENTS
350
EA1
  0
DICTIONARY
  5
69B
102
{ACAD_REACTORS
330
7
102
}
330
7
100
AcDbDictionary
281
     1
  3
ASEBlockHierarchyIndexRecord
350
69D
1001
DCO15
1040
1678078617.738
  0
XRECORD
  5
EC2
102
{ACAD_REACTORS
330
7
102
}
330
7
100
AcDbXrecord
280
     1
  1
DWGPROPS COOKIE
  2

  3

  4

  6

  7

  8
renzo.ceresoli
  9

300
=
301
=
302
=
303
=
304
=
305
=
306
=
307
=
308
=
309
=
 40
0.0004723958333333
 41
2455315.382164607
 42
2455315.382636829
  1

 90
        0
  0
XRECORD
  5
68B
102
{ACAD_REACTORS
330
68A
102
}
330
68A
100
AcDbXrecord
280
     1
290
     1
  0
SORTENTSTABLE
  5
AB7
102
{ACAD_REACTORS
330
AB6
102
}
330
AB6
100
AcDbSortentsTable
330
2
331
C38
  5
E78
331
B49
  5
D89
331
DB8
  5
BC7
331
C52
  5
E92
331
CC9
  5
CBB
331
B63
  5
DA3
331
DDA
  5
BE9
331
C74
  5
C66
331
CEB
  5
CDD
331
B85
  5
DC5
331
C96
  5
C88
331
D0D
  5
B1C
331
BA7
  5
DE7
331
E1E
  5
C2D
331
CB8
  5
CAA
331
BC9
  5
E09
331
E38
  5
C47
331
ABA
  5
CFA
331
BE3
  5
E23
331
AF4
  5
D34
331
D6B
  5
B7A
331
E5A
  5
ACE
331
D49
  5
B58
331
ADC
  5
D1C
331
D2F
  5
B3E
331
C05
  5
E45
331
B16
  5
D56
331
D8D
  5
B9C
331
E7C
  5
AF0
331
DFC
  5
C0B
331
C27
  5
E67
331
C49
  5
E89
331
B38
  5
D78
331
DAF
  5
BBE
331
B5A
  5
D9A
331
DC9
  5
BD8
331
C63
  5
C55
331
B74
  5
DB4
331
CFC
  5
CEE
331
C85
  5
C77
331
B96
  5
DD6
331
CA7
  5
C99
331
D1E
  5
B2D
331
BB8
  5
DF8
331
E2F
  5
C3E
331
ACB
  5
D0B
331
D5A
  5
B69
331
BF4
  5
E34
331
B05
  5
D45
331
D7C
  5
B8B
331
E6B
  5
ADF
331
C16
  5
E56
331
B27
  5
D67
331
D9E
  5
BAD
331
E8D
  5
B01
331
E49
  5
ABD
331
E0D
  5
C1C
331
DEB
  5
BFA
331
CDA
  5
CCC
331
E9E
  5
B12
331
C50
  5
E90
331
B61
  5
DA1
331
DD8
  5
BE7
331
CE9
  5
CDB
331
C72
  5
C64
331
B83
  5
DC3
331
C94
  5
C86
331
D0B
  5
B1A
331
BA5
  5
DE5
331
E1C
  5
C2B
331
CB6
  5
CA8
331
BC7
  5
E07
331
E36
  5
C45
331
AB8
  5
CF8
331
BE1
  5
E21
331
AF2
  5
D32
331
D69
  5
B78
331
E58
  5
ACC
331
D47
  5
B56
331
ADA
  5
D1A
331
D2D
  5
B3C
331
DFA
  5
C09
331
C03
  5
E43
331
B14
  5
D54
331
D8B
  5
B9A
331
E7A
  5
AEE
331
C25
  5
E65
331
C47
  5
E87
331
B36
  5
D76
331
DAD
  5
BBC
331
B58
  5
D98
331
DC7
  5
BD6
331
C61
  5
C53
331
B72
  5
DB2
331
CFA
  5
CEC
331
C83
  5
C75
331
B94
  5
DD4
331
CA5
  5
C97
331
D1C
  5
B2B
331
BB6
  5
DF6
331
E2D
  5
C3C
331
CC7
  5
CB9
331
AC9
  5
D09
331
D58
  5
B67
331
E47
  5
ABB
331
BF2
  5
E32
331
B03
  5
D43
331
D7A
  5
B89
331
C14
  5
E54
331
C36
  5
E76
331
B25
  5
D65
331
D9C
  5
BAB
331
E8B
  5
AFF
331
E69
  5
ADD
331
D3E
  5
B4D
331
E0B
  5
C1A
331
B47
  5
D87
331
DE9
  5
BF8
331
CD8
  5
CCA
331
E9C
  5
B10
331
C70
  5
C62
331
B81
  5
DC1
331
DF8
  5
C07
331
C92
  5
C84
331
D09
  5
B18
331
BA3
  5
DE3
331
E1A
  5
C29
331
CB4
  5
CA6
331
BC5
  5
E05
331
E34
  5
C43
331
BDF
  5
E1F
331
AF0
  5
D30
331
D67
  5
B76
331
E56
  5
ACA
331
AD8
  5
D18
331
D45
  5
B54
331
C01
  5
E41
331
B12
  5
D52
331
D89
  5
B98
331
E78
  5
AEC
331
D2B
  5
B3A
331
C23
  5
E63
331
C45
  5
E85
331
B34
  5
D74
331
DAB
  5
BBA
331
E9A
  5
B0E
331
B56
  5
D96
331
DC5
  5
BD4
331
C5F
  5
E9F
331
B70
  5
DB0
331
DE7
  5
BF6
331
C81
  5
C73
331
B92
  5
DD2
331
CA3
  5
C95
331
D1A
  5
B29
331
BB4
  5
DF4
331
E2B
  5
C3A
331
CC5
  5
CB7
331
BD6
  5
E16
331
AC7
  5
D07
331
D56
  5
B65
331
E45
  5
AB9
331
BF0
  5
E30
331
B01
  5
D41
331
D78
  5
B87
331
E67
  5
ADB
331
C12
  5
E52
331
C34
  5
E74
331
B23
  5
D63
331
D9A
  5
BA9
331
E89
  5
AFD
331
D3C
  5
B4B
331
E09
  5
C18
331
B45
  5
D85
331
CF8
  5
CEA
331
CD6
  5
CC8
331
CE7
  5
CD9
331
DD6
  5
BE5
331
C90
  5
C82
331
BA1
  5
DE1
331
E18
  5
C27
331
CB2
  5
CA4
331
D29
  5
B38
331
BC3
  5
E03
331
E32
  5
C41
331
BDD
  5
E1D
331
AEE
  5
D2E
331
D65
  5
B74
331
E54
  5
AC8
331
AD6
  5
D16
331
BFF
  5
E3F
331
B10
  5
D50
331
D87
  5
B96
331
E76
  5
AEA
331
D43
  5
B52
331
C21
  5
E61
331
C43
  5
E83
331
B32
  5
D72
331
DA9
  5
BB8
331
E98
  5
B0C
331
B54
  5
D94
331
DC3
  5
BD2
331
C5D
  5
E9D
331
B6E
  5
DAE
331
DE5
  5
BF4
331
C7F
  5
C71
331
B90
  5
DD0
331
CA1
  5
C93
331
D18
  5
B27
331
BB2
  5
DF2
331
E29
  5
C38
331
CC3
  5
CB5
331
BD4
  5
E14
331
AC5
  5
D05
331
D54
  5
B63
331
E43
  5
AB5
331
BEE
  5
E2E
331
AFF
  5
D3F
331
D76
  5
B85
331
E65
  5
AD9
331
AE7
  5
D27
331
D3A
  5
B49
331
E07
  5
C16
331
C10
  5
E50
331
C32
  5
E72
331
B21
  5
D61
331
D98
  5
BA7
331
E87
  5
AFB
331
CF6
  5
CE8
331
CD4
  5
CC6
331
CE5
  5
CD7
331
DD4
  5
BE3
331
B7F
  5
DBF
331
DF6
  5
C05
331
D07
  5
B16
331
C6E
  5
C60
331
B43
  5
D83
331
CB0
  5
CA2
331
BC1
  5
E01
331
E30
  5
C3F
331
D41
  5
B50
331
BDB
  5
E1B
331
AEC
  5
D2C
331
D63
  5
B72
331
E52
  5
AC6
331
BFD
  5
E3D
331
E74
  5
AE8
331
B0E
  5
D4E
331
D85
  5
B94
331
C1F
  5
E5F
331
C41
  5
E81
331
B30
  5
D70
331
DA7
  5
BB6
331
E96
  5
B0A
331
B52
  5
D92
331
DC1
  5
BD0
331
C5B
  5
E9B
331
B6C
  5
DAC
331
DE3
  5
BF2
331
C7D
  5
C6F
331
B8E
  5
DCE
331
C9F
  5
C91
331
D16
  5
B25
331
BB0
  5
DF0
331
E27
  5
C36
331
CC1
  5
CB3
331
BD2
  5
E12
331
E41
  5
C50
331
AC3
  5
D03
331
BEC
  5
E2C
331
AFD
  5
D3D
331
D74
  5
B83
331
E63
  5
AD7
331
D52
  5
B61
331
AE5
  5
D25
331
D38
  5
B47
331
E05
  5
C14
331
C0E
  5
E4E
331
C30
  5
E70
331
B1F
  5
D5F
331
D96
  5
BA5
331
E85
  5
AF9
331
CF4
  5
CE6
331
CD2
  5
CC4
331
CE3
  5
CD5
331
DD2
  5
BE1
331
B7D
  5
DBD
331
DF4
  5
C03
331
C8E
  5
C80
331
D05
  5
CF7
331
B9F
  5
DDF
331
D27
  5
B36
331
E16
  5
C25
331
C6C
  5
C5E
331
B41
  5
D81
331
AD4
  5
D14
331
BD9
  5
E19
331
E50
  5
AC4
331
AEA
  5
D2A
331
D61
  5
B70
331
AD2
  5
D12
331
BFB
  5
E3B
331
B0C
  5
D4C
331
D83
  5
B92
331
E72
  5
AE6
331
C1D
  5
E5D
331
C3F
  5
E7F
331
B2E
  5
D6E
331
DA5
  5
BB4
331
E94
  5
B08
331
B50
  5
D90
331
DBF
  5
BCE
331
C59
  5
E99
331
B6A
  5
DAA
331
DE1
  5
BF0
331
C7B
  5
C6D
331
B8C
  5
DCC
331
C9D
  5
C8F
331
D14
  5
B23
331
BAE
  5
DEE
331
E25
  5
C34
331
CBF
  5
CB1
331
BD0
  5
E10
331
E3F
  5
C4E
331
AC1
  5
D01
331
BEA
  5
E2A
331
AFB
  5
D3B
331
D72
  5
B81
331
E61
  5
AD5
331
D50
  5
B5F
331
AE3
  5
D23
331
D36
  5
B45
331
E03
  5
C12
331
C0C
  5
E4C
331
C2E
  5
E6E
331
B1D
  5
D5D
331
D94
  5
BA3
331
E83
  5
AF7
331
CF2
  5
CE4
331
CD0
  5
CC2
331
B3F
  5
D7F
331
CE1
  5
CD3
331
DD0
  5
BDF
331
B7B
  5
DBB
331
DF2
  5
C01
331
C8C
  5
C7E
331
D03
  5
CF5
331
B9D
  5
DDD
331
BBF
  5
DFF
331
CAE
  5
CA0
331
D25
  5
B34
331
E14
  5
C23
331
C6A
  5
C5C
331
DB6
  5
BC5
331
AE8
  5
D28
331
AD0
  5
D10
331
BF9
  5
E39
331
B0A
  5
D4A
331
D81
  5
B90
331
E70
  5
AE4
331
C1B
  5
E5B
331
C3D
  5
E7D
331
B2C
  5
D6C
331
DA3
  5
BB2
331
E92
  5
B06
331
B4E
  5
D8E
331
DBD
  5
BCC
331
C57
  5
E97
331
B68
  5
DA8
331
DDF
  5
BEE
331
C79
  5
C6B
331
B8A
  5
DCA
331
C9B
  5
C8D
331
D12
  5
B21
331
BAC
  5
DEC
331
E23
  5
C32
331
CBD
  5
CAF
331
BCE
  5
E0E
331
E3D
  5
C4C
331
ABF
  5
CFF
331
BE8
  5
E28
331
AF9
  5
D39
331
D70
  5
B7F
331
E5F
  5
AD3
331
D4E
  5
B5D
331
AE1
  5
D21
331
D34
  5
B43
331
E01
  5
C10
331
C0A
  5
E4A
331
C2C
  5
E6C
331
B1B
  5
D5B
331
D92
  5
BA1
331
E81
  5
AF5
331
CF0
  5
CE2
331
CCE
  5
CC0
331
C4E
  5
E8E
331
B3D
  5
D7D
331
B5F
  5
D9F
331
DCE
  5
BDD
331
C68
  5
C5A
331
B79
  5
DB9
331
D01
  5
CF3
331
C8A
  5
C7C
331
B9B
  5
DDB
331
BBD
  5
DFD
331
CAC
  5
C9E
331
D23
  5
B32
331
D5F
  5
B6E
331
E4E
  5
AC2
331
E12
  5
C21
331
DF0
  5
BFF
331
CDF
  5
CD1
331
DB4
  5
BC3
331
B08
  5
D48
331
C19
  5
E59
331
E90
  5
B04
331
C3B
  5
E7B
331
B2A
  5
D6A
331
DA1
  5
BB0
331
B4C
  5
D8C
331
DBB
  5
BCA
331
C55
  5
E95
331
CCC
  5
CBE
331
B66
  5
DA6
331
DDD
  5
BEC
331
C77
  5
C69
331
B88
  5
DC8
331
C99
  5
C8B
331
D10
  5
B1F
331
BAA
  5
DEA
331
E21
  5
C30
331
CBB
  5
CAD
331
BCC
  5
E0C
331
E3B
  5
C4A
331
ABD
  5
CFD
331
BE6
  5
E26
331
AF7
  5
D37
331
D6E
  5
B7D
331
E5D
  5
AD1
331
D4C
  5
B5B
331
ADF
  5
D1F
331
D32
  5
B41
331
DFF
  5
C0E
331
C08
  5
E48
331
C2A
  5
E6A
331
B19
  5
D59
331
D90
  5
B9F
331
E7F
  5
AF3
331
CEE
  5
CE0
331
C4C
  5
E8C
331
B3B
  5
D7B
331
B5D
  5
D9D
331
DCC
  5
BDB
331
C66
  5
C58
331
B77
  5
DB7
331
CFF
  5
CF1
331
C88
  5
C7A
331
B99
  5
DD9
331
BBB
  5
DFB
331
CAA
  5
C9C
331
D21
  5
B30
331
ACE
  5
D0E
331
D5D
  5
B6C
331
E4C
  5
AC0
331
BF7
  5
E37
331
D7F
  5
B8E
331
E6E
  5
AE2
331
E10
  5
C1F
331
DEE
  5
BFD
331
CDD
  5
CCF
331
DB2
  5
BC1
331
C39
  5
E79
331
B28
  5
D68
331
B4A
  5
D8A
331
DB9
  5
BC8
331
C53
  5
E93
331
CCA
  5
CBC
331
B64
  5
DA4
331
DDB
  5
BEA
331
C75
  5
C67
331
CEC
  5
CDE
331
B86
  5
DC6
331
C97
  5
C89
331
D0E
  5
B1D
331
BA8
  5
DE8
331
E1F
  5
C2E
331
CB9
  5
CAB
331
BCA
  5
E0A
331
E39
  5
C48
331
ABB
  5
CFB
331
BE4
  5
E24
331
AF5
  5
D35
331
D6C
  5
B7B
331
E5B
  5
ACF
331
D4A
  5
B59
331
ADD
  5
D1D
331
D30
  5
B3F
331
C06
  5
E46
331
B17
  5
D57
331
D8E
  5
B9D
331
E7D
  5
AF1
331
DFD
  5
C0C
331
C28
  5
E68
331
C4A
  5
E8A
331
B39
  5
D79
331
DB0
  5
BBF
331
B5B
  5
D9B
331
DCA
  5
BD9
331
C64
  5
C56
331
B75
  5
DB5
331
CFD
  5
CEF
331
C86
  5
C78
331
B97
  5
DD7
331
BB9
  5
DF9
331
CA8
  5
C9A
331
D1F
  5
B2E
331
ACC
  5
D0C
331
D5B
  5
B6A
331
E4A
  5
ABE
331
BF5
  5
E35
331
B06
  5
D46
331
D7D
  5
B8C
331
C17
  5
E57
331
D9F
  5
BAE
331
E8E
  5
B02
331
E6C
  5
AE0
331
E0E
  5
C1D
331
DEC
  5
BFB
331
CDB
  5
CCD
331
E9F
  5
B13
331
B48
  5
D88
331
C51
  5
E91
331
CC8
  5
CBA
331
B62
  5
DA2
331
DD9
  5
BE8
331
CEA
  5
CDC
331
C73
  5
C65
331
B84
  5
DC4
331
C95
  5
C87
331
D0C
  5
B1B
331
BA6
  5
DE6
331
E1D
  5
C2C
331
CB7
  5
CA9
331
BC8
  5
E08
331
E37
  5
C46
331
AB9
  5
CF9
331
BE2
  5
E22
331
AF3
  5
D33
331
D6A
  5
B79
331
E59
  5
ACD
331
D48
  5
B57
331
ADB
  5
D1B
331
D2E
  5
B3D
331
DFB
  5
C0A
331
C04
  5
E44
331
B15
  5
D55
331
D8C
  5
B9B
331
E7B
  5
AEF
331
C26
  5
E66
331
C48
  5
E88
331
B37
  5
D77
331
DAE
  5
BBD
331
B59
  5
D99
331
DC8
  5
BD7
331
C62
  5
C54
331
B73
  5
DB3
331
CFB
  5
CED
331
C84
  5
C76
331
B95
  5
DD5
331
CA6
  5
C98
331
D1D
  5
B2C
331
BB7
  5
DF7
331
E2E
  5
C3D
331
ACA
  5
D0A
331
D59
  5
B68
331
BF3
  5
E33
331
B04
  5
D44
331
D7B
  5
B8A
331
E6A
  5
ADE
331
E48
  5
ABC
331
C15
  5
E55
331
C37
  5
E77
331
B26
  5
D66
331
D9D
  5
BAC
331
E8C
  5
B00
331
D3F
  5
B4E
331
E0C
  5
C1B
331
DEA
  5
BF9
331
CD9
  5
CCB
331
E9D
  5
B11
331
B60
  5
DA0
331
CE8
  5
CDA
331
C71
  5
C63
331
B82
  5
DC2
331
DF9
  5
C08
331
C93
  5
C85
331
BA4
  5
DE4
331
E1B
  5
C2A
331
D0A
  5
B19
331
CB5
  5
CA7
331
BC6
  5
E06
331
E35
  5
C44
331
BE0
  5
E20
331
AF1
  5
D31
331
D68
  5
B77
331
E57
  5
ACB
331
AD9
  5
D19
331
D46
  5
B55
331
C02
  5
E42
331
B13
  5
D53
331
D8A
  5
B99
331
E79
  5
AED
331
D2C
  5
B3B
331
C24
  5
E64
331
C46
  5
E86
331
B35
  5
D75
331
DAC
  5
BBB
331
E9B
  5
B0F
331
B57
  5
D97
331
DC6
  5
BD5
331
C60
  5
C52
331
B71
  5
DB1
331
CF9
  5
CEB
331
C82
  5
C74
331
B93
  5
DD3
331
CA4
  5
C96
331
D1B
  5
B2A
331
BB5
  5
DF5
331
E2C
  5
C3B
331
CC6
  5
CB8
331
BD7
  5
E17
331
AC8
  5
D08
331
D57
  5
B66
331
E46
  5
ABA
331
BF1
  5
E31
331
B02
  5
D42
331
D79
  5
B88
331
E68
  5
ADC
331
C13
  5
E53
331
C35
  5
E75
331
B24
  5
D64
331
D9B
  5
BAA
331
E8A
  5
AFE
331
D3D
  5
B4C
331
E0A
  5
C19
331
B46
  5
D86
331
DE8
  5
BF7
331
CD7
  5
CC9
331
DD7
  5
BE6
331
B80
  5
DC0
331
C91
  5
C83
331
D08
  5
B17
331
BA2
  5
DE2
331
E19
  5
C28
331
CB3
  5
CA5
331
BC4
  5
E04
331
E33
  5
C42
331
D2A
  5
B39
331
AB5
  5
EA0
331
BDE
  5
E1E
331
E55
  5
AC9
331
AEF
  5
D2F
331
D66
  5
B75
331
AD7
  5
D17
331
D44
  5
B53
331
C00
  5
E40
331
B11
  5
D51
331
D88
  5
B97
331
C22
  5
E62
331
C44
  5
E84
331
B33
  5
D73
331
DAA
  5
BB9
331
E99
  5
B0D
331
B55
  5
D95
331
DC4
  5
BD3
331
C5E
  5
E9E
331
B6F
  5
DAF
331
DE6
  5
BF5
331
C80
  5
C72
331
B91
  5
DD1
331
CA2
  5
C94
331
D19
  5
B28
331
BB3
  5
DF3
331
E2A
  5
C39
331
CC4
  5
CB6
331
BD5
  5
E15
331
AC6
  5
D06
331
D55
  5
B64
331
E44
  5
AB8
331
BEF
  5
E2F
331
B00
  5
D40
331
D77
  5
B86
331
E66
  5
ADA
331
C11
  5
E51
331
C33
  5
E73
331
B22
  5
D62
331
D99
  5
BA8
331
E88
  5
AFC
331
D3B
  5
B4A
331
E08
  5
C17
331
B44
  5
D84
331
CF7
  5
CE9
331
CD5
  5
CC7
331
CE6
  5
CD8
331
C6F
  5
C61
331
DF7
  5
C06
331
DD5
  5
BE4
331
E77
  5
AEB
331
BA0
  5
DE0
331
CB1
  5
CA3
331
D28
  5
B37
331
BC2
  5
E02
331
E31
  5
C40
331
BDC
  5
E1C
331
AED
  5
D2D
331
D64
  5
B73
331
E53
  5
AC7
331
AD5
  5
D15
331
D42
  5
B51
331
BFE
  5
E3E
331
B0F
  5
D4F
331
D86
  5
B95
331
C20
  5
E60
331
C42
  5
E82
331
B31
  5
D71
331
DA8
  5
BB7
331
E97
  5
B0B
331
B53
  5
D93
331
DC2
  5
BD1
331
C5C
  5
E9C
331
B6D
  5
DAD
331
DE4
  5
BF3
331
C7E
  5
C70
331
B8F
  5
DCF
331
CA0
  5
C92
331
D17
  5
B26
331
BB1
  5
DF1
331
E28
  5
C37
331
CC2
  5
CB4
331
BD3
  5
E13
331
E42
  5
C51
331
AC4
  5
D04
331
BED
  5
E2D
331
AFE
  5
D3E
331
D75
  5
B84
331
E64
  5
AD8
331
D53
  5
B62
331
AE6
  5
D26
331
D39
  5
B48
331
E06
  5
C15
331
C0F
  5
E4F
331
C31
  5
E71
331
B20
  5
D60
331
D97
  5
BA6
331
E86
  5
AFA
331
CF5
  5
CE7
331
CD3
  5
CC5
331
CE4
  5
CD6
331
DD3
  5
BE2
331
B7E
  5
DBE
331
DF5
  5
C04
331
C8F
  5
C81
331
E17
  5
C26
331
D06
  5
B15
331
C6D
  5
C5F
331
B42
  5
D82
331
E75
  5
AE9
331
BC0
  5
E00
331
D40
  5
B4F
331
BDA
  5
E1A
331
E51
  5
AC5
331
AEB
  5
D2B
331
AD3
  5
D13
331
BFC
  5
E3C
331
B0D
  5
D4D
331
D84
  5
B93
331
E73
  5
AE7
331
C1E
  5
E5E
331
C40
  5
E80
331
B2F
  5
D6F
331
DA6
  5
BB5
331
E95
  5
B09
331
B51
  5
D91
331
DC0
  5
BCF
331
C5A
  5
E9A
331
B6B
  5
DAB
331
DE2
  5
BF1
331
C7C
  5
C6E
331
B8D
  5
DCD
331
C9E
  5
C90
331
D15
  5
B24
331
BAF
  5
DEF
331
E26
  5
C35
331
CC0
  5
CB2
331
BD1
  5
E11
331
E40
  5
C4F
331
AC2
  5
D02
331
BEB
  5
E2B
331
AFC
  5
D3C
331
D73
  5
B82
331
E62
  5
AD6
331
D51
  5
B60
331
AE4
  5
D24
331
D37
  5
B46
331
E04
  5
C13
331
C0D
  5
E4D
331
C2F
  5
E6F
331
B1E
  5
D5E
331
D95
  5
BA4
331
E84
  5
AF8
331
CF3
  5
CE5
331
CD1
  5
CC3
331
B40
  5
D80
331
CE2
  5
CD4
331
DD1
  5
BE0
331
B7C
  5
DBC
331
DF3
  5
C02
331
C8D
  5
C7F
331
D04
  5
CF6
331
B9E
  5
DDE
331
CAF
  5
CA1
331
D26
  5
B35
331
E15
  5
C24
331
C6B
  5
C5D
331
DB7
  5
BC6
331
D62
  5
B71
331
BD8
  5
E18
331
AE9
  5
D29
331
D60
  5
B6F
331
AD1
  5
D11
331
BFA
  5
E3A
331
B0B
  5
D4B
331
D82
  5
B91
331
E71
  5
AE5
331
C1C
  5
E5C
331
C3E
  5
E7E
331
B2D
  5
D6D
331
DA4
  5
BB3
331
E93
  5
B07
331
B4F
  5
D8F
331
DBE
  5
BCD
331
C58
  5
E98
331
B69
  5
DA9
331
DE0
  5
BEF
331
C7A
  5
C6C
331
B8B
  5
DCB
331
C9C
  5
C8E
331
D13
  5
B22
331
BAD
  5
DED
331
E24
  5
C33
331
CBE
  5
CB0
331
BCF
  5
E0F
331
E3E
  5
C4D
331
AC0
  5
D00
331
BE9
  5
E29
331
AFA
  5
D3A
331
D71
  5
B80
331
E60
  5
AD4
331
D4F
  5
B5E
331
AE2
  5
D22
331
D35
  5
B44
331
E02
  5
C11
331
C0B
  5
E4B
331
C2D
  5
E6D
331
B1C
  5
D5C
331
D93
  5
BA2
331
E82
  5
AF6
331
CF1
  5
CE3
331
CCF
  5
CC1
331
C4F
  5
E8F
331
B3E
  5
D7E
331
CE0
  5
CD2
331
DCF
  5
BDE
331
B7A
  5
DBA
331
DF1
  5
C00
331
C8B
  5
C7D
331
D02
  5
CF4
331
B9C
  5
DDC
331
BBE
  5
DFE
331
CAD
  5
C9F
331
D24
  5
B33
331
E4F
  5
AC3
331
E13
  5
C22
331
C69
  5
C5B
331
DB5
  5
BC4
331
BF8
  5
E38
331
B09
  5
D49
331
D80
  5
B8F
331
C1A
  5
E5A
331
C3C
  5
E7C
331
B2B
  5
D6B
331
DA2
  5
BB1
331
E91
  5
B05
331
B4D
  5
D8D
331
DBC
  5
BCB
331
C56
  5
E96
331
CCD
  5
CBF
331
B67
  5
DA7
331
CEF
  5
CE1
331
C78
  5
C6A
331
B89
  5
DC9
331
C9A
  5
C8C
331
D11
  5
B20
331
BAB
  5
DEB
331
E22
  5
C31
331
CBC
  5
CAE
331
BCD
  5
E0D
331
E3C
  5
C4B
331
ABE
  5
CFE
331
BE7
  5
E27
331
AF8
  5
D38
331
D6F
  5
B7E
331
E5E
  5
AD2
331
D4D
  5
B5C
331
AE0
  5
D20
331
D33
  5
B42
331
C09
  5
E49
331
C2B
  5
E6B
331
B1A
  5
D5A
331
D91
  5
BA0
331
E80
  5
AF4
331
E00
  5
C0F
331
DDE
  5
BED
331
C4D
  5
E8D
331
B3C
  5
D7C
331
B5E
  5
D9E
331
DCD
  5
BDC
331
C67
  5
C59
331
B78
  5
DB8
331
D00
  5
CF2
331
C89
  5
C7B
331
B9A
  5
DDA
331
BBC
  5
DFC
331
CAB
  5
C9D
331
D22
  5
B31
331
ACF
  5
D0F
331
D5E
  5
B6D
331
E4D
  5
AC1
331
E6F
  5
AE3
331
E11
  5
C20
331
DEF
  5
BFE
331
CDE
  5
CD0
331
DB3
  5
BC2
331
C18
  5
E58
331
C3A
  5
E7A
331
B29
  5
D69
331
DA0
  5
BAF
331
B4B
  5
D8B
331
DBA
  5
BC9
331
C54
  5
E94
331
CCB
  5
CBD
331
B65
  5
DA5
331
DDC
  5
BEB
331
C76
  5
C68
331
B87
  5
DC7
331
C98
  5
C8A
331
D0F
  5
B1E
331
BA9
  5
DE9
331
E20
  5
C2F
331
CBA
  5
CAC
331
BCB
  5
E0B
331
E3A
  5
C49
331
ABC
  5
CFC
331
BE5
  5
E25
331
AF6
  5
D36
331
D6D
  5
B7C
331
E5C
  5
AD0
331
D4B
  5
B5A
331
ADE
  5
D1E
331
D31
  5
B40
331
DFE
  5
C0D
331
C07
  5
E47
331
B18
  5
D58
331
D8F
  5
B9E
331
E7E
  5
AF2
331
CED
  5
CDF
331
C29
  5
E69
331
C4B
  5
E8B
331
B3A
  5
D7A
331
DB1
  5
BC0
331
B5C
  5
D9C
331
DCB
  5
BDA
331
C65
  5
C57
331
B76
  5
DB6
331
CFE
  5
CF0
331
C87
  5
C79
331
B98
  5
DD8
331
BBA
  5
DFA
331
CA9
  5
C9B
331
D20
  5
B2F
331
ACD
  5
D0D
331
D5C
  5
B6B
331
E4B
  5
ABF
331
BF6
  5
E36
331
B07
  5
D47
331
D7E
  5
B8D
331
E8F
  5
B03
331
E6D
  5
AE1
331
E0F
  5
C1E
331
DED
  5
BFC
331
CDC
  5
CCE
331
EA0
  5
B14
  0
LAYOUT
  5
F
102
{ACAD_XDICTIONARY
360
EC5
102
}
102
{ACAD_REACTORS
330
B
102
}
330
B
100
AcDbPlotSettings
  1

  2
hp deskjet 930c series
  4

  6

 40
0.0
 41
0.0
 42
0.0
 43
0.0
 44
0.0
 45
0.0
 46
0.0
 47
0.0
 48
0.0
 49
0.0
140
0.0
141
0.0
142
1.0
143
1.0
 70
   688
 72
     0
 73
     0
 74
     5
  7
monochrome.ctb
 75
    16
147
1.0
148
0.0
149
0.0
100
AcDbLayout
  1
Layout1
 70
     1
 71
     1
 10
0.0
 20
0.0
 11
420.0
 21
297.0
 12
0.0
 22
0.0
 32
0.0
 14
1.000000000000000E+20
 24
1.000000000000000E+20
 34
1.000000000000000E+20
 15
-1.000000000000000E+20
 25
-1.000000000000000E+20
 35
-1.000000000000000E+20
146
0.0
 13
0.0
 23
0.0
 33
0.0
 16
1.0
 26
0.0
 36
0.0
 17
0.0
 27
1.0
 37
0.0
 76
     0
330
C
  0
LAYOUT
  5
A
102
{ACAD_XDICTIONARY
360
EC3
102
}
102
{ACAD_REACTORS
330
B
102
}
330
B
100
AcDbPlotSettings
  1

  2
HP DeskJet 1120C Printer
  4
A4
  6

 40
4.180416584014892
 41
13.49374103546142
 42
4.180404663085937
 43
3.757080078125
 44
209.9733276367187
 45
296.9259948730469
 46
0.0
 47
0.0
 48
232.1274484221087
 49
0.0
140
429.5274484221087
141
279.18
142
1.0
143
1.0
 70
 11952
 72
     1
 73
     0
 74
     4
  7
monochrome.ctb
 75
    16
147
1.0
148
-232.1274484221087
149
0.0
100
AcDbLayout
  1
Model
 70
     1
 71
     0
 10
0.0
 20
0.0
 11
12.0
 21
9.0
 12
0.0
 22
0.0
 32
0.0
 14
0.0
 24
0.0
 34
0.0
 15
0.0
 25
0.0
 35
0.0
146
0.0
 13
0.0
 23
0.0
 33
0.0
 16
1.0
 26
0.0
 36
0.0
 17
0.0
 27
1.0
 37
0.0
 76
     0
330
2
331
630
  0
MATERIAL
  5
63B
102
{ACAD_XDICTIONARY
360
63C
102
}
102
{ACAD_REACTORS
330
632
102
}
330
632
100
AcDbMaterial
  1
ByBlock
 72
     0
 43
0.0008202099737533
 43
0.0
 43
0.0
 43
0.0
 43
0.0
 43
0.0008202099737533
 43
0.0
 43
0.0
 43
0.0
 43
0.0
 43
1.0
 43
0.0
 43
0.0
 43
0.0
 43
0.0
 43
1.0
 77
     0
 47
0.0008202099737533
 47
0.0
 47
0.0
 47
0.0
 47
0.0
 47
0.0008202099737533
 47
0.0
 47
0.0
 47
0.0
 47
0.0
 47
1.0
 47
0.0
 47
0.0
 47
0.0
 47
0.0
 47
1.0
171
     0
 49
0.0008202099737533
 49
0.0
 49
0.0
 49
0.0
 49
0.0
 49
0.0008202099737533
 49
0.0
 49
0.0
 49
0.0
 49
0.0
 49
1.0
 49
0.0
 49
0.0
 49
0.0
 49
0.0
 49
1.0
175
     0
142
0.0008202099737533
142
0.0
142
0.0
142
0.0
142
0.0
142
0.0008202099737533
142
0.0
142
0.0
142
0.0
142
0.0
142
1.0
142
0.0
142
0.0
142
0.0
142
0.0
142
1.0
179
     0
144
0.0008202099737533
144
0.0
144
0.0
144
0.0
144
0.0
144
0.0008202099737533
144
0.0
144
0.0
144
0.0
144
0.0
144
1.0
144
0.0
144
0.0
144
0.0
144
0.0
144
1.0
147
0.0008202099737533
147
0.0
147
0.0
147
0.0
147
0.0
147
0.0008202099737533
147
0.0
147
0.0
147
0.0
147
0.0
147
1.0
147
0.0
147
0.0
147
0.0
147
0.0
147
1.0
  0
MATERIAL
  5
633
102
{ACAD_XDICTIONARY
360
634
102
}
102
{ACAD_REACTORS
330
632
102
}
330
632
100
AcDbMaterial
  1
ByLayer
 72
     0
 43
0.0008202099737533
 43
0.0
 43
0.0
 43
0.0
 43
0.0
 43
0.0008202099737533
 43
0.0
 43
0.0
 43
0.0
 43
0.0
 43
1.0
 43
0.0
 43
0.0
 43
0.0
 43
0.0
 43
1.0
 77
     0
 47
0.0008202099737533
 47
0.0
 47
0.0
 47
0.0
 47
0.0
 47
0.0008202099737533
 47
0.0
 47
0.0
 47
0.0
 47
0.0
 47
1.0
 47
0.0
 47
0.0
 47
0.0
 47
0.0
 47
1.0
171
     0
 49
0.0008202099737533
 49
0.0
 49
0.0
 49
0.0
 49
0.0
 49
0.0008202099737533
 49
0.0
 49
0.0
 49
0.0
 49
0.0
 49
1.0
 49
0.0
 49
0.0
 49
0.0
 49
0.0
 49
1.0
175
     0
142
0.0008202099737533
142
0.0
142
0.0
142
0.0
142
0.0
142
0.0008202099737533
142
0.0
142
0.0
142
0.0
142
0.0
142
1.0
142
0.0
142
0.0
142
0.0
142
0.0
142
1.0
179
     0
144
0.0008202099737533
144
0.0
144
0.0
144
0.0
144
0.0
144
0.0008202099737533
144
0.0
144
0.0
144
0.0
144
0.0
144
1.0
144
0.0
144
0.0
144
0.0
144
0.0
144
1.0
147
0.0008202099737533
147
0.0
147
0.0
147
0.0
147
0.0
147
0.0008202099737533
147
0.0
147
0.0
147
0.0
147
0.0
147
1.0
147
0.0
147
0.0
147
0.0
147
0.0
147
1.0
  0
MATERIAL
  5
643
102
{ACAD_XDICTIONARY
360
644
102
}
102
{ACAD_REACTORS
330
632
102
}
330
632
100
AcDbMaterial
  1
Global
 72
     0
 43
0.0008202099737533
 43
0.0
 43
0.0
 43
0.0
 43
0.0
 43
0.0008202099737533
 43
0.0
 43
0.0
 43
0.0
 43
0.0
 43
1.0
 43
0.0
 43
0.0
 43
0.0
 43
0.0
 43
1.0
 77
     0
 47
0.0008202099737533
 47
0.0
 47
0.0
 47
0.0
 47
0.0
 47
0.0008202099737533
 47
0.0
 47
0.0
 47
0.0
 47
0.0
 47
1.0
 47
0.0
 47
0.0
 47
0.0
 47
0.0
 47
1.0
171
     0
 49
0.0008202099737533
 49
0.0
 49
0.0
 49
0.0
 49
0.0
 49
0.0008202099737533
 49
0.0
 49
0.0
 49
0.0
 49
0.0
 49
1.0
 49
0.0
 49
0.0
 49
0.0
 49
0.0
 49
1.0
175
     0
142
0.0008202099737533
142
0.0
142
0.0
142
0.0
142
0.0
142
0.0008202099737533
142
0.0
142
0.0
142
0.0
142
0.0
142
1.0
142
0.0
142
0.0
142
0.0
142
0.0
142
1.0
179
     0
144
0.0008202099737533
144
0.0
144
0.0
144
0.0
144
0.0
144
0.0008202099737533
144
0.0
144
0.0
144
0.0
144
0.0
144
1.0
144
0.0
144
0.0
144
0.0
144
0.0
144
1.0
147
0.0008202099737533
147
0.0
147
0.0
147
0.0
147
0.0
147
0.0008202099737533
147
0.0
147
0.0
147
0.0
147
0.0
147
1.0
147
0.0
147
0.0
147
0.0
147
0.0
147
1.0
  0
MLEADERSTYLE
  5
682
102
{ACAD_REACTORS
330
681
102
}
330
681
100
AcDbMLeaderStyle
170
     2
171
     1
172
     0
 90
        2
 40
0.0
 41
0.0
173
     1
 91
-1056964608
340
15
 92
       -2
290
     1
 42
2.0
291
     1
 43
0.36
  3
Standard
 44
4.0
300

342
12
174
     1
178
     6
175
     1
176
     0
 93
-1056964608
 45
4.0
292
     0
297
     0
 46
4.0
 94
-1056964608
 47
1.0
 49
1.0
140
1.0
293
     1
141
0.0
294
     1
177
     0
142
1.0
295
     0
296
     0
143
0.125
1001
ACAD_MLEADERVER
1070
     2
  0
MLINESTYLE
  5
23
102
{ACAD_REACTORS
330
21
102
}
330
21
100
AcDbMlineStyle
  2
STANDARD
 70
     0
  3

 62
   256
 51
90.0
 52
90.0
 71
     2
 49
0.5
 62
   256
  6
BYLAYER
 49
-0.5
 62
   256
  6
BYLAYER
  0
ACDBPLACEHOLDER
  5
5
102
{ACAD_REACTORS
330
6
102
}
330
6
  0
SCALE
  5
660
102
{ACAD_REACTORS
330
65F
102
}
330
65F
100
AcDbScale
 70
     0
300
1:1
140
1.0
141
1.0
290
     1
  0
SCALE
  5
661
102
{ACAD_REACTORS
330
65F
102
}
330
65F
100
AcDbScale
 70
     0
300
1:2
140
1.0
141
2.0
290
     0
  0
SCALE
  5
662
102
{ACAD_REACTORS
330
65F
102
}
330
65F
100
AcDbScale
 70
     0
300
1:4
140
1.0
141
4.0
290
     0
  0
SCALE
  5
663
102
{ACAD_REACTORS
330
65F
102
}
330
65F
100
AcDbScale
 70
     0
300
1:5
140
1.0
141
5.0
290
     0
  0
SCALE
  5
664
102
{ACAD_REACTORS
330
65F
102
}
330
65F
100
AcDbScale
 70
     0
300
1:8
140
1.0
141
8.0
290
     0
  0
SCALE
  5
665
102
{ACAD_REACTORS
330
65F
102
}
330
65F
100
AcDbScale
 70
     0
300
1:10
140
1.0
141
10.0
290
     0
  0
SCALE
  5
666
102
{ACAD_REACTORS
330
65F
102
}
330
65F
100
AcDbScale
 70
     0
300
1:16
140
1.0
141
16.0
290
     0
  0
SCALE
  5
667
102
{ACAD_REACTORS
330
65F
102
}
330
65F
100
AcDbScale
 70
     0
300
1:20
140
1.0
141
20.0
290
     0
  0
SCALE
  5
668
102
{ACAD_REACTORS
330
65F
102
}
330
65F
100
AcDbScale
 70
     0
300
1:30
140
1.0
141
30.0
290
     0
  0
SCALE
  5
669
102
{ACAD_REACTORS
330
65F
102
}
330
65F
100
AcDbScale
 70
     0
300
1:40
140
1.0
141
40.0
290
     0
  0
SCALE
  5
66A
102
{ACAD_REACTORS
330
65F
102
}
330
65F
100
AcDbScale
 70
     0
300
1:50
140
1.0
141
50.0
290
     0
  0
SCALE
  5
66B
102
{ACAD_REACTORS
330
65F
102
}
330
65F
100
AcDbScale
 70
     0
300
1:100
140
1.0
141
100.0
290
     0
  0
SCALE
  5
66C
102
{ACAD_REACTORS
330
65F
102
}
330
65F
100
AcDbScale
 70
     0
300
2:1
140
2.0
141
1.0
290
     0
  0
SCALE
  5
66D
102
{ACAD_REACTORS
330
65F
102
}
330
65F
100
AcDbScale
 70
     0
300
4:1
140
4.0
141
1.0
290
     0
  0
SCALE
  5
66E
102
{ACAD_REACTORS
330
65F
102
}
330
65F
100
AcDbScale
 70
     0
300
8:1
140
8.0
141
1.0
290
     0
  0
SCALE
  5
66F
102
{ACAD_REACTORS
330
65F
102
}
330
65F
100
AcDbScale
 70
     0
300
10:1
140
10.0
141
1.0
290
     0
  0
SCALE
  5
670
102
{ACAD_REACTORS
330
65F
102
}
330
65F
100
AcDbScale
 70
     0
300
100:1
140
100.0
141
1.0
290
     0
  0
SCALE
  5
671
102
{ACAD_REACTORS
330
65F
102
}
330
65F
100
AcDbScale
 70
     0
300
1/128" = 1'-0"
140
0.0078125
141
12.0
290
     0
  0
SCALE
  5
672
102
{ACAD_REACTORS
330
65F
102
}
330
65F
100
AcDbScale
 70
     0
300
1/64" = 1'-0"
140
0.015625
141
12.0
290
     0
  0
SCALE
  5
673
102
{ACAD_REACTORS
330
65F
102
}
330
65F
100
AcDbScale
 70
     0
300
1/32" = 1'-0"
140
0.03125
141
12.0
290
     0
  0
SCALE
  5
674
102
{ACAD_REACTORS
330
65F
102
}
330
65F
100
AcDbScale
 70
     0
300
1/16" = 1'-0"
140
0.0625
141
12.0
290
     0
  0
SCALE
  5
675
102
{ACAD_REACTORS
330
65F
102
}
330
65F
100
AcDbScale
 70
     0
300
3/32" = 1'-0"
140
0.09375
141
12.0
290
     0
  0
SCALE
  5
676
102
{ACAD_REACTORS
330
65F
102
}
330
65F
100
AcDbScale
 70
     0
300
1/8" = 1'-0"
140
0.125
141
12.0
290
     0
  0
SCALE
  5
677
102
{ACAD_REACTORS
330
65F
102
}
330
65F
100
AcDbScale
 70
     0
300
3/16" = 1'-0"
140
0.1875
141
12.0
290
     0
  0
SCALE
  5
678
102
{ACAD_REACTORS
330
65F
102
}
330
65F
100
AcDbScale
 70
     0
300
1/4" = 1'-0"
140
0.25
141
12.0
290
     0
  0
SCALE
  5
679
102
{ACAD_REACTORS
330
65F
102
}
330
65F
100
AcDbScale
 70
     0
300
3/8" = 1'-0"
140
0.375
141
12.0
290
     0
  0
SCALE
  5
67A
102
{ACAD_REACTORS
330
65F
102
}
330
65F
100
AcDbScale
 70
     0
300
1/2" = 1'-0"
140
0.5
141
12.0
290
     0
  0
SCALE
  5
67B
102
{ACAD_REACTORS
330
65F
102
}
330
65F
100
AcDbScale
 70
     0
300
3/4" = 1'-0"
140
0.75
141
12.0
290
     0
  0
SCALE
  5
67C
102
{ACAD_REACTORS
330
65F
102
}
330
65F
100
AcDbScale
 70
     0
300
1" = 1'-0"
140
1.0
141
12.0
290
     0
  0
SCALE
  5
67D
102
{ACAD_REACTORS
330
65F
102
}
330
65F
100
AcDbScale
 70
     0
300
1-1/2" = 1'-0"
140
1.5
141
12.0
290
     0
  0
SCALE
  5
67E
102
{ACAD_REACTORS
330
65F
102
}
330
65F
100
AcDbScale
 70
     0
300
3" = 1'-0"
140
3.0
141
12.0
290
     0
  0
SCALE
  5
67F
102
{ACAD_REACTORS
330
65F
102
}
330
65F
100
AcDbScale
 70
     0
300
6" = 1'-0"
140
6.0
141
12.0
290
     0
  0
SCALE
  5
680
102
{ACAD_REACTORS
330
65F
102
}
330
65F
100
AcDbScale
 70
     0
300
1'-0" = 1'-0"
140
12.0
141
12.0
290
     0
  0
TABLESTYLE
  5
65E
102
{ACAD_XDICTIONARY
360
69E
102
}
102
{ACAD_REACTORS
330
65D
102
}
330
65D
100
AcDbTableStyle
  3
Standard
 70
     0
 71
     0
 40
1.5
 41
1.5
280
     0
281
     0
  7
Standard
140
4.5
170
     2
 62
     0
 63
     7
283
     0
274
    -2
284
     1
 64
     0
275
    -2
285
     1
 65
     0
276
    -2
286
     1
 66
     0
277
    -2
287
     1
 67
     0
278
    -2
288
     1
 68
     0
279
    -2
289
     1
 69
     0
  7
Standard
140
6.0
170
     5
 62
     0
 63
     7
283
     0
274
    -2
284
     1
 64
     0
275
    -2
285
     1
 65
     0
276
    -2
286
     1
 66
     0
277
    -2
287
     1
 67
     0
278
    -2
288
     1
 68
     0
279
    -2
289
     1
 69
     0
  7
Standard
140
4.5
170
     5
 62
     0
 63
     7
283
     0
274
    -2
284
     1
 64
     0
275
    -2
285
     1
 65
     0
276
    -2
286
     1
 66
     0
277
    -2
287
     1
 67
     0
278
    -2
288
     1
 68
     0
279
    -2
289
     1
 69
     0
  0
VISUALSTYLE
  5
651
102
{ACAD_REACTORS
330
64B
102
}
330
64B
100
AcDbVisualStyle
  2
2dWireframe
 70
     4
 71
     0
 72
     2
 73
     0
 90
        0
 40
-0.6
 41
-30.0
 62
     5
 63
     7
 74
     1
 91
        4
 64
     7
 65
   257
 75
     1
175
     1
 42
1.0
 92
        0
 66
   257
 43
1.0
 76
     1
 77
     6
 78
     2
 67
     7
 79
     5
170
     0
171
     0
290
     0
174
     0
 93
        1
 44
0.0
173
     0
291
     0
 45
0.0
1001
ACAD
1000
AcDbSavedByObjectVersion
1070
     0
  0
VISUALSTYLE
  5
653
102
{ACAD_REACTORS
330
64B
102
}
330
64B
100
AcDbVisualStyle
  2
3D Hidden
 70
     6
 71
     1
 72
     2
 73
     2
 90
        0
 40
-0.6
 41
-30.0
 62
     5
 63
     7
 74
     2
 91
        2
 64
     7
 65
   257
 75
     2
175
     1
 42
40.0
 92
        0
 66
   257
 43
1.0
 76
     1
 77
     6
 78
     2
 67
     7
 79
     3
170
     0
171
     0
290
     0
174
     0
 93
        1
 44
0.0
173
     0
291
     0
 45
0.0
1001
ACAD
1000
AcDbSavedByObjectVersion
1070
     0
  0
VISUALSTYLE
  5
652
102
{ACAD_REACTORS
330
64B
102
}
330
64B
100
AcDbVisualStyle
  2
3dWireframe
 70
     5
 71
     0
 72
     2
 73
     0
 90
        0
 40
-0.6
 41
-30.0
 62
     5
 63
     7
 74
     1
 91
        4
 64
     7
 65
   257
 75
     1
175
     1
 42
1.0
 92
        0
 66
   257
 43
1.0
 76
     1
 77
     6
 78
     2
 67
     7
 79
     5
170
     0
171
     0
290
     0
174
     0
 93
        1
 44
0.0
173
     0
291
     0
 45
0.0
1001
ACAD
1000
AcDbSavedByObjectVersion
1070
     0
  0
VISUALSTYLE
  5
650
102
{ACAD_REACTORS
330
64B
102
}
330
64B
100
AcDbVisualStyle
  2
Basic
 70
     7
 71
     1
 72
     0
 73
     1
 90
        0
 40
-0.6
 41
-30.0
 62
     5
 63
     7
 74
     0
 91
        4
 64
     7
 65
   257
 75
     1
175
     1
 42
1.0
 92
        8
 66
     7
 43
1.0
 76
     1
 77
     6
 78
     2
 67
     7
 79
     5
170
     0
171
     0
290
     0
174
     0
 93
        1
 44
0.0
173
     0
291
     1
 45
0.0
1001
ACAD
1000
AcDbSavedByObjectVersion
1070
     0
  0
VISUALSTYLE
  5
657
102
{ACAD_REACTORS
330
64B
102
}
330
64B
100
AcDbVisualStyle
  2
Brighten
 70
    12
 71
     2
 72
     2
 73
     0
 90
        0
 40
-0.6
 41
-30.0
 62
     5
 63
     7
 74
     1
 91
        4
 64
     7
 65
   257
 75
     1
175
     1
 42
1.0
 92
        8
 66
     7
 43
1.0
 76
     1
 77
     6
 78
     2
 67
     7
 79
     5
170
     0
171
     0
290
     0
174
     0
 93
        1
 44
50.0
173
     0
291
     1
 45
0.0
1001
ACAD
1000
AcDbSavedByObjectVersion
1070
     0
  0
VISUALSTYLE
  5
65B
102
{ACAD_REACTORS
330
64B
102
}
330
64B
100
AcDbVisualStyle
  2
ColorChange
 70
    16
 71
     2
 72
     2
 73
     3
 90
        0
 40
-0.6
 41
-30.0
 62
     5
 63
     8
 74
     1
 91
        4
 64
     7
 65
   257
 75
     1
175
     1
 42
1.0
 92
        8
 66
     8
 43
1.0
 76
     1
 77
     6
 78
     2
 67
     7
 79
     5
170
     0
171
     0
290
     0
174
     0
 93
        1
 44
0.0
173
     0
291
     1
 45
0.0
1001
ACAD
1000
AcDbSavedByObjectVersion
1070
     0
  0
VISUALSTYLE
  5
654
102
{ACAD_REACTORS
330
64B
102
}
330
64B
100
AcDbVisualStyle
  2
Conceptual
 70
     9
 71
     3
 72
     2
 73
     0
 90
        0
 40
-0.6
 41
-30.0
 62
     5
 63
     7
 74
     2
 91
        2
 64
     7
 65
   257
 75
     1
175
     1
 42
40.0
 92
        8
 66
     7
 43
1.0
 76
     1
 77
     6
 78
     2
 67
     7
 79
     3
170
     0
171
     0
290
     0
174
     0
 93
        1
 44
0.0
173
     0
291
     0
 45
0.0
1001
ACAD
1000
AcDbSavedByObjectVersion
1070
     0
  0
VISUALSTYLE
  5
656
102
{ACAD_REACTORS
330
64B
102
}
330
64B
100
AcDbVisualStyle
  2
Dim
 70
    11
 71
     2
 72
     2
 73
     0
 90
        0
 40
-0.6
 41
-30.0
 62
     5
 63
     7
 74
     1
 91
        4
 64
     7
 65
   257
 75
     1
175
     1
 42
1.0
 92
        8
 66
     7
 43
1.0
 76
     1
 77
     6
 78
     2
 67
     7
 79
     5
170
     0
171
     0
290
     0
174
     0
 93
        1
 44
-50.0
173
     0
291
     1
 45
0.0
1001
ACAD
1000
AcDbSavedByObjectVersion
1070
     0
  0
VISUALSTYLE
  5
65A
102
{ACAD_REACTORS
330
64B
102
}
330
64B
100
AcDbVisualStyle
  2
Facepattern
 70
    15
 71
     2
 72
     2
 73
     0
 90
        0
 40
-0.6
 41
-30.0
 62
     5
 63
     7
 74
     1
 91
        4
 64
     7
 65
   257
 75
     1
175
     1
 42
1.0
 92
        8
 66
     7
 43
1.0
 76
     1
 77
     6
 78
     2
 67
     7
 79
     5
170
     0
171
     0
290
     0
174
     0
 93
        1
 44
0.0
173
     0
291
     1
 45
0.0
1001
ACAD
1000
AcDbSavedByObjectVersion
1070
     0
  0
VISUALSTYLE
  5
64C
102
{ACAD_REACTORS
330
64B
102
}
330
64B
100
AcDbVisualStyle
  2
Flat
 70
     0
 71
     2
 72
     1
 73
     1
 90
        2
 40
-0.6
 41
30.0
 62
     5
 63
     7
 74
     0
 91
        4
 64
     7
 65
   257
 75
     1
175
     1
 42
1.0
 92
        8
 66
     7
 43
1.0
 76
     1
 77
     6
 78
     2
 67
     7
 79
     5
170
     0
171
     0
290
     0
174
     0
 93
       13
 44
0.0
173
     0
291
     1
 45
0.0
1001
ACAD
1000
AcDbSavedByObjectVersion
1070
     0
  0
VISUALSTYLE
  5
64D
102
{ACAD_REACTORS
330
64B
102
}
330
64B
100
AcDbVisualStyle
  2
FlatWithEdges
 70
     1
 71
     2
 72
     1
 73
     1
 90
        2
 40
-0.6
 41
30.0
 62
     5
 63
     7
 74
     1
 91
        4
 64
     7
 65
   257
 75
     1
175
     1
 42
1.0
 92
        0
 66
   257
 43
1.0
 76
     1
 77
     6
 78
     2
 67
     7
 79
     5
170
     0
171
     0
290
     0
174
     0
 93
       13
 44
0.0
173
     0
291
     1
 45
0.0
1001
ACAD
1000
AcDbSavedByObjectVersion
1070
     0
  0
VISUALSTYLE
  5
64E
102
{ACAD_REACTORS
330
64B
102
}
330
64B
100
AcDbVisualStyle
  2
Gouraud
 70
     2
 71
     2
 72
     2
 73
     1
 90
        2
 40
-0.6
 41
30.0
 62
     5
 63
     7
 74
     0
 91
        4
 64
     7
 65
   257
 75
     1
175
     1
 42
1.0
 92
        0
 66
     7
 43
1.0
 76
     1
 77
     6
 78
     2
 67
     7
 79
     5
170
     0
171
     0
290
     0
174
     0
 93
       13
 44
0.0
173
     0
291
     1
 45
0.0
1001
ACAD
1000
AcDbSavedByObjectVersion
1070
     0
  0
VISUALSTYLE
  5
64F
102
{ACAD_REACTORS
330
64B
102
}
330
64B
100
AcDbVisualStyle
  2
GouraudWithEdges
 70
     3
 71
     2
 72
     2
 73
     1
 90
        2
 40
-0.6
 41
30.0
 62
     5
 63
     7
 74
     1
 91
        4
 64
     7
 65
   257
 75
     1
175
     1
 42
1.0
 92
        0
 66
   257
 43
1.0
 76
     1
 77
     6
 78
     2
 67
     7
 79
     5
170
     0
171
     0
290
     0
174
     0
 93
       13
 44
0.0
173
     0
291
     1
 45
0.0
1001
ACAD
1000
AcDbSavedByObjectVersion
1070
     0
  0
VISUALSTYLE
  5
659
102
{ACAD_REACTORS
330
64B
102
}
330
64B
100
AcDbVisualStyle
  2
Linepattern
 70
    14
 71
     2
 72
     2
 73
     0
 90
        0
 40
-0.6
 41
-30.0
 62
     5
 63
     7
 74
     1
 91
        4
 64
     7
 65
   257
 75
     7
175
     7
 42
1.0
 92
        8
 66
     7
 43
1.0
 76
     1
 77
     6
 78
     2
 67
     7
 79
     5
170
     0
171
     0
290
     0
174
     0
 93
        1
 44
0.0
173
     0
291
     1
 45
0.0
1001
ACAD
1000
AcDbSavedByObjectVersion
1070
     0
  0
VISUALSTYLE
  5
655
102
{ACAD_REACTORS
330
64B
102
}
330
64B
100
AcDbVisualStyle
  2
Realistic
 70
     8
 71
     2
 72
     2
 73
     0
 90
        0
 40
-0.6
 41
-30.0
 62
     5
 63
     7
 74
     1
 91
        0
 64
     7
 65
   257
 75
     1
175
     1
 42
1.0
 92
        8
 66
     8
 43
1.0
 76
     1
 77
     6
 78
     2
 67
     7
 79
     5
170
     0
171
     0
290
     0
174
     0
 93
       13
 44
0.0
173
     0
291
     0
 45
0.0
1001
ACAD
1000
AcDbSavedByObjectVersion
1070
     0
  0
VISUALSTYLE
  5
658
102
{ACAD_REACTORS
330
64B
102
}
330
64B
100
AcDbVisualStyle
  2
Thicken
 70
    13
 71
     2
 72
     2
 73
     0
 90
        0
 40
-0.6
 41
-30.0
 62
     5
 63
     7
 74
     1
 91
        4
 64
     7
 65
   257
 75
     1
175
     1
 42
1.0
 92
       12
 66
     7
 43
1.0
 76
     1
 77
     6
 78
     2
 67
     7
 79
     5
170
     0
171
     0
290
     0
174
     0
 93
        1
 44
0.0
173
     0
291
     1
 45
0.0
1001
ACAD
1000
AcDbSavedByObjectVersion
1070
     0
  0
DICTIONARYVAR
  5
6A5
102
{ACAD_REACTORS
330
6A1
102
}
330
6A1
100
DictionaryVariables
280
     0
  1
1:1
  0
DICTIONARYVAR
  5
6A3
102
{ACAD_REACTORS
330
6A1
102
}
330
6A1
100
DictionaryVariables
280
     0
  1
STANDARD
  0
DICTIONARYVAR
  5
6A2
102
{ACAD_REACTORS
330
6A1
102
}
330
6A1
100
DictionaryVariables
280
     0
  1
STANDARD
  0
DICTIONARYVAR
  5
EA3
102
{ACAD_REACTORS
330
6A1
102
}
330
6A1
100
DictionaryVariables
280
     0
  1
1
  0
DICTIONARYVAR
  5
EA2
102
{ACAD_REACTORS
330
6A1
102
}
330
6A1
100
DictionaryVariables
280
     0
  1
0
  0
DICTIONARYVAR
  5
6A6
102
{ACAD_REACTORS
330
6A1
102
}
330
6A1
100
DictionaryVariables
280
     0
  1
0
  0
DICTIONARYVAR
  5
6A4
102
{ACAD_REACTORS
330
6A1
102
}
330
6A1
100
DictionaryVariables
280
     0
  1
0
  0
DICTIONARYVAR
  5
EA1
102
{ACAD_REACTORS
330
6A1
102
}
330
6A1
100
DictionaryVariables
280
     0
  1
127
  0
XRECORD
  5
69D
102
{ACAD_REACTORS
330
69B
102
}
330
69B
100
AcDbXrecord
280
     1
330
39
330
F2
  0
DICTIONARY
  5
EC5
330
F
100
AcDbDictionary
280
     1
281
     1
  3
ACAD_XREC_ROUNDTRIP
360
EC6
  0
DICTIONARY
  5
EC3
330
A
100
AcDbDictionary
280
     1
281
     1
  3
ACAD_XREC_ROUNDTRIP
360
EC4
  0
DICTIONARY
  5
63C
330
63B
100
AcDbDictionary
280
     1
281
     1
  3
ACAD_XREC_ROUNDTRIP
360
ECB
  3
BUMPTILE
360
63E
  3
DIFFUSETILE
360
63D
  3
OPACITYTILE
360
641
  3
REFLECTIONTILE
360
640
  3
REFRACTIONTILE
360
642
  3
SPECULARTILE
360
63F
  0
DICTIONARY
  5
634
330
633
100
AcDbDictionary
280
     1
281
     1
  3
ACAD_XREC_ROUNDTRIP
360
ECA
  3
BUMPTILE
360
636
  3
DIFFUSETILE
360
635
  3
OPACITYTILE
360
639
  3
REFLECTIONTILE
360
638
  3
REFRACTIONTILE
360
63A
  3
SPECULARTILE
360
637
  0
DICTIONARY
  5
644
330
643
100
AcDbDictionary
280
     1
281
     1
  3
ACAD_XREC_ROUNDTRIP
360
ECC
  3
BUMPTILE
360
646
  3
DIFFUSETILE
360
645
  3
OPACITYTILE
360
649
  3
REFLECTIONTILE
360
648
  3
REFRACTIONTILE
360
64A
  3
SPECULARTILE
360
647
  0
DICTIONARY
  5
69E
330
65E
100
AcDbDictionary
280
     1
281
     1
  3
ACAD_ROUNDTRIP_2008_TABLESTYLE_CELLSTYLEMAP
360
EC1
  3
ACAD_XREC_ROUNDTRIP
360
ECD
  0
XRECORD
  5
EC6
102
{ACAD_REACTORS
330
EC5
102
}
330
EC5
100
AcDbXrecord
280
     1
102
SHADEPLOT
 70
     0
102
SHADEPLOTRESLEVEL
 70
     2
102
SHADEPLOTCUSTOMDPI
 70
   300
  0
XRECORD
  5
EC4
102
{ACAD_REACTORS
330
EC3
102
}
330
EC3
100
AcDbXrecord
280
     1
102
SHADEPLOT
 70
     0
102
SHADEPLOTRESLEVEL
 70
     2
102
SHADEPLOTCUSTOMDPI
 70
   300
  0
XRECORD
  5
ECB
102
{ACAD_REACTORS
330
63C
102
}
330
63C
100
AcDbXrecord
280
     1
102
MATERIAL
148
0.0
149
0.0
149
0.0
 93
        0
 94
      127
282
     0
 72
     0
 77
     0
171
     0
175
     0
179
     0
273
     0
  0
XRECORD
  5
63E
102
{ACAD_REACTORS
330
63C
102
}
330
63C
100
AcDbXrecord
280
     1
270
     1
271
     1
  0
XRECORD
  5
63D
102
{ACAD_REACTORS
330
63C
102
}
330
63C
100
AcDbXrecord
280
     1
270
     1
271
     1
  0
XRECORD
  5
641
102
{ACAD_REACTORS
330
63C
102
}
330
63C
100
AcDbXrecord
280
     1
270
     1
271
     1
  0
XRECORD
  5
640
102
{ACAD_REACTORS
330
63C
102
}
330
63C
100
AcDbXrecord
280
     1
270
     1
271
     1
  0
XRECORD
  5
642
102
{ACAD_REACTORS
330
63C
102
}
330
63C
100
AcDbXrecord
280
     1
270
     1
271
     1
  0
XRECORD
  5
63F
102
{ACAD_REACTORS
330
63C
102
}
330
63C
100
AcDbXrecord
280
     1
270
     1
271
     1
  0
XRECORD
  5
ECA
102
{ACAD_REACTORS
330
634
102
}
330
634
100
AcDbXrecord
280
     1
102
MATERIAL
148
0.0
149
0.0
149
0.0
 93
        0
 94
      127
282
     0
 72
     0
 77
     0
171
     0
175
     0
179
     0
273
     0
  0
XRECORD
  5
636
102
{ACAD_REACTORS
330
634
102
}
330
634
100
AcDbXrecord
280
     1
270
     1
271
     1
  0
XRECORD
  5
635
102
{ACAD_REACTORS
330
634
102
}
330
634
100
AcDbXrecord
280
     1
270
     1
271
     1
  0
XRECORD
  5
639
102
{ACAD_REACTORS
330
634
102
}
330
634
100
AcDbXrecord
280
     1
270
     1
271
     1
  0
XRECORD
  5
638
102
{ACAD_REACTORS
330
634
102
}
330
634
100
AcDbXrecord
280
     1
270
     1
271
     1
  0
XRECORD
  5
63A
102
{ACAD_REACTORS
330
634
102
}
330
634
100
AcDbXrecord
280
     1
270
     1
271
     1
  0
XRECORD
  5
637
102
{ACAD_REACTORS
330
634
102
}
330
634
100
AcDbXrecord
280
     1
270
     1
271
     1
  0
XRECORD
  5
ECC
102
{ACAD_REACTORS
330
644
102
}
330
644
100
AcDbXrecord
280
     1
102
MATERIAL
148
0.0
149
0.0
149
0.0
 93
        0
 94
      127
282
     0
 72
     0
 77
     0
171
     0
175
     0
179
     0
273
     0
  0
XRECORD
  5
646
102
{ACAD_REACTORS
330
644
102
}
330
644
100
AcDbXrecord
280
     1
270
     1
271
     1
  0
XRECORD
  5
645
102
{ACAD_REACTORS
330
644
102
}
330
644
100
AcDbXrecord
280
     1
270
     1
271
     1
  0
XRECORD
  5
649
102
{ACAD_REACTORS
330
644
102
}
330
644
100
AcDbXrecord
280
     1
270
     1
271
     1
  0
XRECORD
  5
648
102
{ACAD_REACTORS
330
644
102
}
330
644
100
AcDbXrecord
280
     1
270
     1
271
     1
  0
XRECORD
  5
64A
102
{ACAD_REACTORS
330
644
102
}
330
644
100
AcDbXrecord
280
     1
270
     1
271
     1
  0
XRECORD
  5
647
102
{ACAD_REACTORS
330
644
102
}
330
644
100
AcDbXrecord
280
     1
270
     1
271
     1
  0
CELLSTYLEMAP
  5
EC1
102
{ACAD_REACTORS
330
69E
102
}
330
69E
100
AcDbCellStyleMap
 90
        3
300
CELLSTYLE
  1
TABLEFORMAT_BEGIN
 90
        5
170
     1
 91
        0
 92
    32768
 62
   257
 93
        1
300
CONTENTFORMAT
  1
CONTENTFORMAT_BEGIN
 90
        0
 91
        0
 92
      512
 93
        0
300

 40
0.0
140
1.0
 94
        5
 62
     0
340
12
144
6.0
309
CONTENTFORMAT_END
171
     1
301
MARGIN
  1
CELLMARGIN_BEGIN
 40
1.5
 40
1.5
 40
1.5
 40
1.5
 40
4.5
 40
4.5
309
CELLMARGIN_END
 94
        6
 95
        1
302
GRIDFORMAT
  1
GRIDFORMAT_BEGIN
 90
        0
 91
        1
 62
     0
 92
       -2
340
0
 93
        0
 40
1.125
309
GRIDFORMAT_END
 95
        2
302
GRIDFORMAT
  1
GRIDFORMAT_BEGIN
 90
        0
 91
        1
 62
     0
 92
       -2
340
0
 93
        0
 40
1.125
309
GRIDFORMAT_END
 95
        4
302
GRIDFORMAT
  1
GRIDFORMAT_BEGIN
 90
        0
 91
        1
 62
     0
 92
       -2
340
0
 93
        0
 40
1.125
309
GRIDFORMAT_END
 95
        8
302
GRIDFORMAT
  1
GRIDFORMAT_BEGIN
 90
        0
 91
        1
 62
     0
 92
       -2
340
0
 93
        0
 40
1.125
309
GRIDFORMAT_END
 95
       16
302
GRIDFORMAT
  1
GRIDFORMAT_BEGIN
 90
        0
 91
        1
 62
     0
 92
       -2
340
0
 93
        0
 40
1.125
309
GRIDFORMAT_END
 95
       32
302
GRIDFORMAT
  1
GRIDFORMAT_BEGIN
 90
        0
 91
        1
 62
     0
 92
       -2
340
0
 93
        0
 40
1.125
309
GRIDFORMAT_END
309
TABLEFORMAT_END
  1
CELLSTYLE_BEGIN
 90
        1
 91
        1
300
_TITLE
309
CELLSTYLE_END
300
CELLSTYLE
  1
TABLEFORMAT_BEGIN
 90
        5
170
     1
 91
        0
 92
        0
 62
   257
 93
        1
300
CONTENTFORMAT
  1
CONTENTFORMAT_BEGIN
 90
        0
 91
        0
 92
      512
 93
        0
300

 40
0.0
140
1.0
 94
        5
 62
     0
340
12
144
4.5
309
CONTENTFORMAT_END
171
     1
301
MARGIN
  1
CELLMARGIN_BEGIN
 40
1.5
 40
1.5
 40
1.5
 40
1.5
 40
4.5
 40
4.5
309
CELLMARGIN_END
 94
        6
 95
        1
302
GRIDFORMAT
  1
GRIDFORMAT_BEGIN
 90
        0
 91
        1
 62
     0
 92
       -2
340
0
 93
        0
 40
1.125
309
GRIDFORMAT_END
 95
        2
302
GRIDFORMAT
  1
GRIDFORMAT_BEGIN
 90
        0
 91
        1
 62
     0
 92
       -2
340
0
 93
        0
 40
1.125
309
GRIDFORMAT_END
 95
        4
302
GRIDFORMAT
  1
GRIDFORMAT_BEGIN
 90
        0
 91
        1
 62
     0
 92
       -2
340
0
 93
        0
 40
1.125
309
GRIDFORMAT_END
 95
        8
302
GRIDFORMAT
  1
GRIDFORMAT_BEGIN
 90
        0
 91
        1
 62
     0
 92
       -2
340
0
 93
        0
 40
1.125
309
GRIDFORMAT_END
 95
       16
302
GRIDFORMAT
  1
GRIDFORMAT_BEGIN
 90
        0
 91
        1
 62
     0
 92
       -2
340
0
 93
        0
 40
1.125
309
GRIDFORMAT_END
 95
       32
302
GRIDFORMAT
  1
GRIDFORMAT_BEGIN
 90
        0
 91
        1
 62
     0
 92
       -2
340
0
 93
        0
 40
1.125
309
GRIDFORMAT_END
309
TABLEFORMAT_END
  1
CELLSTYLE_BEGIN
 90
        2
 91
        1
300
_HEADER
309
CELLSTYLE_END
300
CELLSTYLE
  1
TABLEFORMAT_BEGIN
 90
        5
170
     1
 91
        0
 92
        0
 62
   257
 93
        1
300
CONTENTFORMAT
  1
CONTENTFORMAT_BEGIN
 90
        0
 91
        0
 92
      512
 93
        0
300

 40
0.0
140
1.0
 94
        2
 62
     0
340
12
144
4.5
309
CONTENTFORMAT_END
171
     1
301
MARGIN
  1
CELLMARGIN_BEGIN
 40
1.5
 40
1.5
 40
1.5
 40
1.5
 40
4.5
 40
4.5
309
CELLMARGIN_END
 94
        6
 95
        1
302
GRIDFORMAT
  1
GRIDFORMAT_BEGIN
 90
        0
 91
        1
 62
     0
 92
       -2
340
0
 93
        0
 40
1.125
309
GRIDFORMAT_END
 95
        2
302
GRIDFORMAT
  1
GRIDFORMAT_BEGIN
 90
        0
 91
        1
 62
     0
 92
       -2
340
0
 93
        0
 40
1.125
309
GRIDFORMAT_END
 95
        4
302
GRIDFORMAT
  1
GRIDFORMAT_BEGIN
 90
        0
 91
        1
 62
     0
 92
       -2
340
0
 93
        0
 40
1.125
309
GRIDFORMAT_END
 95
        8
302
GRIDFORMAT
  1
GRIDFORMAT_BEGIN
 90
        0
 91
        1
 62
     0
 92
       -2
340
0
 93
        0
 40
1.125
309
GRIDFORMAT_END
 95
       16
302
GRIDFORMAT
  1
GRIDFORMAT_BEGIN
 90
        0
 91
        1
 62
     0
 92
       -2
340
0
 93
        0
 40
1.125
309
GRIDFORMAT_END
 95
       32
302
GRIDFORMAT
  1
GRIDFORMAT_BEGIN
 90
        0
 91
        1
 62
     0
 92
       -2
340
0
 93
        0
 40
1.125
309
GRIDFORMAT_END
309
TABLEFORMAT_END
  1
CELLSTYLE_BEGIN
 90
        3
 91
        2
300
_DATA
309
CELLSTYLE_END
  0
XRECORD
  5
ECD
102
{ACAD_REACTORS
330
69E
102
}
330
69E
100
AcDbXrecord
280
     1
102
ACAD_ROUNDTRIP_PRE2007_TABLESTYLE
 90
      512
 91
        0
  1

 92
      512
 93
        0
  2

 94
      512
 95
        0
  3

  0
ENDSEC
  0
EOF
