  0
SECTION
  2
HEADER
  9
$ACADVER
  1
AC1015
  9
$ACADMAINTVER
 70
    20
  9
$DWGCODEPAGE
  3
ANSI_1252
  9
$INSBASE
 10
267.5068505439835
 20
0.0
 30
0.0
  9
$EXTMIN
 10
244.5856519597455
 20
139.3626869920936
 30
-0.0015258207003583
  9
$EXTMAX
 10
5346.782408587032
 20
4031.896007087821
 30
0.0000000349246037
  9
$LIMMIN
 10
0.0
 20
0.0
  9
$LIMMAX
 10
420.0
 20
297.0
  9
$ORTHOMODE
 70
     1
  9
$REGENMODE
 70
     1
  9
$FILLMODE
 70
     1
  9
$QTEXTMODE
 70
     0
  9
$MIRRTEXT
 70
     1
  9
$LTSCALE
 40
0.5
  9
$ATTMODE
 70
     1
  9
$TEXTSIZE
 40
5.86670481121007
  9
$TRACEWID
 40
1.0
  9
$TEXTSTYLE
  7
Standard
  9
$CLAYER
  8
0
  9
$CELTYPE
  6
ByLayer
  9
$CECOLOR
 62
   256
  9
$CELTSCALE
 40
1.0
  9
$DISPSILH
 70
     0
  9
$DIMSCALE
 40
1.0
  9
$DIMASZ
 40
2.5
  9
$DIMEXO
 40
0.0
  9
$DIMDLI
 40
3.75
  9
$DIMRND
 40
0.0
  9
$DIMDLE
 40
0.0
  9
$DIMEXE
 40
1.25
  9
$DIMTP
 40
0.0
  9
$DIMTM
 40
0.0
  9
$DIMTXT
 40
2.5
  9
$DIMCEN
 40
2.5
  9
$DIMTSZ
 40
0.0
  9
$DIMTOL
 70
     0
  9
$DIMLIM
 70
     0
  9
$DIMTIH
 70
     0
  9
$DIMTOH
 70
     0
  9
$DIMSE1
 70
     0
  9
$DIMSE2
 70
     0
  9
$DIMTAD
 70
     1
  9
$DIMZIN
 70
     8
  9
$DIMBLK
  1

  9
$DIMASO
 70
     1
  9
$DIMSHO
 70
     1
  9
$DIMPOST
  1

  9
$DIMAPOST
  1

  9
$DIMALT
 70
     0
  9
$DIMALTD
 70
     3
  9
$DIMALTF
 40
0.03937007874016
  9
$DIMLFAC
 40
1.0
  9
$DIMTOFL
 70
     1
  9
$DIMTVP
 40
0.0
  9
$DIMTIX
 70
     0
  9
$DIMSOXD
 70
     0
  9
$DIMSAH
 70
     0
  9
$DIMBLK1
  1

  9
$DIMBLK2
  1

  9
$DIMSTYLE
  2
ISO-25
  9
$DIMCLRD
 70
     3
  9
$DIMCLRE
 70
     3
  9
$DIMCLRT
 70
     0
  9
$DIMTFAC
 40
0.8
  9
$DIMGAP
 40
0.625
  9
$DIMJUST
 70
     0
  9
$DIMSD1
 70
     0
  9
$DIMSD2
 70
     0
  9
$DIMTOLJ
 70
     0
  9
$DIMTZIN
 70
     8
  9
$DIMALTZ
 70
     0
  9
$DIMALTTZ
 70
     0
  9
$DIMUPT
 70
     0
  9
$DIMDEC
 70
     2
  9
$DIMTDEC
 70
     2
  9
$DIMALTU
 70
     2
  9
$DIMALTTD
 70
     3
  9
$DIMTXSTY
  7
Standard
  9
$DIMAUNIT
 70
     0
  9
$DIMADEC
 70
     2
  9
$DIMALTRND
 40
0.0
  9
$DIMAZIN
 70
     2
  9
$DIMDSEP
 70
    44
  9
$DIMATFIT
 70
     3
  9
$DIMFRAC
 70
     0
  9
$DIMLDRBLK
  1

  9
$DIMLUNIT
 70
     2
  9
$DIMLWD
 70
    -2
  9
$DIMLWE
 70
    -2
  9
$DIMTMOVE
 70
     0
  9
$LUNITS
 70
     2
  9
$LUPREC
 70
     4
  9
$SKETCHINC
 40
1.0
  9
$FILLETRAD
 40
5.0
  9
$AUNITS
 70
     0
  9
$AUPREC
 70
     0
  9
$MENU
  1
.
  9
$ELEVATION
 40
0.0
  9
$PELEVATION
 40
0.0
  9
$THICKNESS
 40
0.0
  9
$LIMCHECK
 70
     0
  9
$CHAMFERA
 40
0.0
  9
$CHAMFERB
 40
0.0
  9
$CHAMFERC
 40
20.0
  9
$CHAMFERD
 40
0.0
  9
$SKPOLY
 70
     0
  9
$TDCREATE
 40
2455315.377439502
  9
$TDUCREATE
 40
2455315.294106169
  9
$TDUPDATE
 40
2455315.378082095
  9
$TDUUPDATE
 40
2455315.294748762
  9
$TDINDWG
 40
0.0006433218
  9
$TDUSRTIMER
 40
0.0006431366
  9
$USRTIMER
 70
     1
  9
$ANGBASE
 50
0.0
  9
$ANGDIR
 70
     0
  9
$PDMODE
 70
     0
  9
$PDSIZE
 40
0.0
  9
$PLINEWID
 40
0.0
  9
$SPLFRAME
 70
     0
  9
$SPLINETYPE
 70
     6
  9
$SPLINESEGS
 70
     8
  9
$HANDSEED
  5
1011
  9
$SURFTAB1
 70
     6
  9
$SURFTAB2
 70
     6
  9
$SURFTYPE
 70
     6
  9
$SURFU
 70
     6
  9
$SURFV
 70
     6
  9
$UCSBASE
  2

  9
$UCSNAME
  2

  9
$UCSORG
 10
0.0
 20
0.0
 30
0.0
  9
$UCSXDIR
 10
1.0
 20
0.0
 30
0.0
  9
$UCSYDIR
 10
0.0
 20
1.0
 30
0.0
  9
$UCSORTHOREF
  2

  9
$UCSORTHOVIEW
 70
     0
  9
$UCSORGTOP
 10
0.0
 20
0.0
 30
0.0
  9
$UCSORGBOTTOM
 10
0.0
 20
0.0
 30
0.0
  9
$UCSORGLEFT
 10
0.0
 20
0.0
 30
0.0
  9
$UCSORGRIGHT
 10
0.0
 20
0.0
 30
0.0
  9
$UCSORGFRONT
 10
0.0
 20
0.0
 30
0.0
  9
$UCSORGBACK
 10
0.0
 20
0.0
 30
0.0
  9
$PUCSBASE
  2

  9
$PUCSNAME
  2

  9
$PUCSORG
 10
0.0
 20
0.0
 30
0.0
  9
$PUCSXDIR
 10
1.0
 20
0.0
 30
0.0
  9
$PUCSYDIR
 10
0.0
 20
1.0
 30
0.0
  9
$PUCSORTHOREF
  2

  9
$PUCSORTHOVIEW
 70
     0
  9
$PUCSORGTOP
 10
0.0
 20
0.0
 30
0.0
  9
$PUCSORGBOTTOM
 10
0.0
 20
0.0
 30
0.0
  9
$PUCSORGLEFT
 10
0.0
 20
0.0
 30
0.0
  9
$PUCSORGRIGHT
 10
0.0
 20
0.0
 30
0.0
  9
$PUCSORGFRONT
 10
0.0
 20
0.0
 30
0.0
  9
$PUCSORGBACK
 10
0.0
 20
0.0
 30
0.0
  9
$USERI1
 70
     0
  9
$USERI2
 70
     0
  9
$USERI3
 70
     0
  9
$USERI4
 70
     0
  9
$USERI5
 70
     0
  9
$USERR1
 40
0.0
  9
$USERR2
 40
0.0
  9
$USERR3
 40
0.0
  9
$USERR4
 40
0.0
  9
$USERR5
 40
0.0
  9
$WORLDVIEW
 70
     1
  9
$SHADEDGE
 70
     3
  9
$SHADEDIF
 70
    70
  9
$TILEMODE
 70
     1
  9
$MAXACTVP
 70
    64
  9
$PINSBASE
 10
0.0
 20
0.0
 30
0.0
  9
$PLIMCHECK
 70
     0
  9
$PEXTMIN
 10
1.000000000000000E+20
 20
1.000000000000000E+20
 30
1.000000000000000E+20
  9
$PEXTMAX
 10
-1.000000000000000E+20
 20
-1.000000000000000E+20
 30
-1.000000000000000E+20
  9
$PLIMMIN
 10
0.0
 20
0.0
  9
$PLIMMAX
 10
420.0
 20
297.0
  9
$UNITMODE
 70
     0
  9
$VISRETAIN
 70
     1
  9
$PLINEGEN
 70
     0
  9
$PSLTSCALE
 70
     1
  9
$TREEDEPTH
 70
  3020
  9
$CMLSTYLE
  2
Standard
  9
$CMLJUST
 70
     0
  9
$CMLSCALE
 40
20.0
  9
$PROXYGRAPHICS
 70
     1
  9
$MEASUREMENT
 70
     1
  9
$CELWEIGHT
370
    -1
  9
$ENDCAPS
280
     0
  9
$JOINSTYLE
280
     0
  9
$LWDISPLAY
290
     0
  9
$INSUNITS
 70
     4
  9
$HYPERLINKBASE
  1

  9
$STYLESHEET
  1
monochrome.ctb
  9
$XEDIT
290
     1
  9
$CEPSNTYPE
380
     0
  9
$PSTYLEMODE
290
     1
  9
$FINGERPRINTGUID
  2
{6FD8BA60-06E4-431D-A99E-5CD9C2DF75DA}
  9
$VERSIONGUID
  2
{63F80100-1826-44C4-864C-9F40A096D8C9}
  9
$EXTNAMES
290
     1
  9
$PSVPSCALE
 40
0.0
  9
$OLESTARTUP
290
     0
  0
ENDSEC
  0
SECTION
  2
CLASSES
  0
CLASS
  1
ACDBDICTIONARYWDFLT
  2
AcDbDictionaryWithDefault
  3
ObjectDBX Classes
 90
        0
280
     0
281
     0
  0
CLASS
  1
ACDBPLACEHOLDER
  2
AcDbPlaceHolder
  3
ObjectDBX Classes
 90
        0
280
     0
281
     0
  0
CLASS
  1
LAYOUT
  2
AcDbLayout
  3
ObjectDBX Classes
 90
        0
280
     0
281
     0
  0
CLASS
  1
DICTIONARYVAR
  2
AcDbDictionaryVar
  3
ObjectDBX Classes
 90
        0
280
     0
281
     0
  0
CLASS
  1
MATERIAL
  2
AcDbMaterial
  3
ObjectDBX Classes
 90
     1153
280
     0
281
     0
  0
CLASS
  1
VISUALSTYLE
  2
AcDbVisualStyle
  3
ObjectDBX Classes
 90
     4095
280
     0
281
     0
  0
CLASS
  1
TABLESTYLE
  2
AcDbTableStyle
  3
ObjectDBX Classes
 90
     4095
280
     0
281
     0
  0
CLASS
  1
SCALE
  2
AcDbScale
  3
ObjectDBX Classes
 90
     1153
280
     0
281
     0
  0
CLASS
  1
MLEADERSTYLE
  2
AcDbMLeaderStyle
  3
ACDB_MLEADERSTYLE_CLASS
 90
     4095
280
     0
281
     0
  0
CLASS
  1
CELLSTYLEMAP
  2
AcDbCellStyleMap
  3
ObjectDBX Classes
 90
     1152
280
     0
281
     0
  0
CLASS
  1
SORTENTSTABLE
  2
AcDbSortentsTable
  3
ObjectDBX Classes
 90
        0
280
     0
281
     0
  0
ENDSEC
  0
SECTION
  2
TABLES
  0
TABLE
  2
VPORT
  5
19
330
0
100
AcDbSymbolTable
 70
     1
  0
VPORT
  5
630
330
19
100
AcDbSymbolTableRecord
100
AcDbViewportTableRecord
  2
*Active
 70
     0
 10
0.0
 20
0.0
 11
1.0
 21
1.0
 12
2754.534475731563
 22
2036.555631061358
 13
0.0
 23
0.0
 14
10.0
 24
10.0
 15
10.0
 25
10.0
 16
0.0
 26
0.0
 36
1.0
 17
0.0
 27
0.0
 37
0.0
 40
4404.060260960251
 41
1.611330698287219
 42
50.0
 43
0.0
 44
0.0
 50
0.0
 51
0.0
 71
     0
 72
   100
 73
     1
 74
     2
 75
     0
 76
     0
 77
     0
 78
     0
281
     0
 65
     1
110
0.0
120
0.0
130
0.0
111
1.0
121
0.0
131
0.0
112
0.0
122
1.0
132
0.0
 79
     0
146
0.0
  0
ENDTAB
  0
TABLE
  2
LTYPE
  5
14
330
0
100
AcDbSymbolTable
 70
     6
  0
LTYPE
  5
15
330
14
100
AcDbSymbolTableRecord
100
AcDbLinetypeTableRecord
  2
ByBlock
 70
     0
  3

 72
    65
 73
     0
 40
0.0
  0
LTYPE
  5
16
330
14
100
AcDbSymbolTableRecord
100
AcDbLinetypeTableRecord
  2
ByLayer
 70
     0
  3

 72
    65
 73
     0
 40
0.0
  0
LTYPE
  5
8
330
14
100
AcDbSymbolTableRecord
100
AcDbLinetypeTableRecord
  2
Continuous
 70
     0
  3
Solid line
 72
    65
 73
     0
 40
0.0
  0
ENDTAB
  0
TABLE
  2
LAYER
  5
10
330
0
100
AcDbSymbolTable
 70
     9
  0
LAYER
  5
4
102
{ACAD_XDICTIONARY
360
68A
102
}
330
10
100
AcDbSymbolTableRecord
100
AcDbLayerTableRecord
  2
0
 70
     0
 62
     7
  6
Continuous
370
    -3
390
5
  0
LAYER
  5
34
330
10
100
AcDbSymbolTableRecord
100
AcDbLayerTableRecord
  2
Defpoints
 70
     0
 62
     7
  6
Continuous
290
     0
370
    -3
390
5
  0
ENDTAB
  0
TABLE
  2
STYLE
  5
11
330
0
100
AcDbSymbolTable
 70
     6
  0
STYLE
  5
12
330
11
100
AcDbSymbolTableRecord
100
AcDbTextStyleTableRecord
  2
Standard
 70
     0
 40
0.0
 41
0.9
 50
0.0
 71
     0
 42
5.86670481121007
  3
simplex.shx
  4

  0
ENDTAB
  0
TABLE
  2
VIEW
  5
17
330
0
100
AcDbSymbolTable
 70
     0
  0
ENDTAB
  0
TABLE
  2
UCS
  5
18
330
0
100
AcDbSymbolTable
 70
     0
  0
ENDTAB
  0
TABLE
  2
APPID
  5
1B
330
0
100
AcDbSymbolTable
 70
     4
  0
APPID
  5
1C
330
1B
100
AcDbSymbolTableRecord
100
AcDbRegAppTableRecord
  2
ACAD
 70
     0
  0
APPID
  5
683
330
1B
100
AcDbSymbolTableRecord
100
AcDbRegAppTableRecord
  2
ACAD_MLEADERVER
 70
     0
  0
APPID
  5
69C
330
1B
100
AcDbSymbolTableRecord
100
AcDbRegAppTableRecord
  2
DCO15
 70
     0
  0
APPID
  5
FDE
330
1B
100
AcDbSymbolTableRecord
100
AcDbRegAppTableRecord
  2
ACAD_EXEMPT_FROM_CAD_STANDARDS
 70
     0
  0
ENDTAB
  0
TABLE
  2
DIMSTYLE
  5
1D
330
0
100
AcDbSymbolTable
 70
     3
100
AcDbDimStyleTable
 71
     1
340
1E
  0
DIMSTYLE
105
1E
330
1D
100
AcDbSymbolTableRecord
100
AcDbDimStyleTableRecord
  2
ISO-25
 70
     0
 41
2.5
 42
0.0
 43
3.75
 44
1.25
 73
     0
 74
     0
 77
     1
 78
     8
140
2.5
141
2.5
143
0.03937007874016
147
0.625
171
     3
172
     1
176
     3
177
     3
271
     2
272
     2
274
     3
278
    44
283
     0
284
     8
340
12
  0
DIMSTYLE
105
B00
330
1D
100
AcDbSymbolTableRecord
100
AcDbDimStyleTableRecord
  2
Standard
 70
     0
 41
1.25
 42
1.0
 44
0.75
 73
     0
 74
     0
 77
     1
140
2.5
146
0.8
147
1.25
176
     7
177
     7
178
     7
271
     2
340
12
  0
ENDTAB
  0
TABLE
  2
BLOCK_RECORD
  5
1
330
0
100
AcDbSymbolTable
 70
    38
  0
BLOCK_RECORD
  5
2
102
{ACAD_XDICTIONARY
360
B26
102
}
330
1
100
AcDbSymbolTableRecord
100
AcDbBlockTableRecord
  2
*Model_Space
340
A
  0
BLOCK_RECORD
  5
C
330
1
100
AcDbSymbolTableRecord
100
AcDbBlockTableRecord
  2
*Paper_Space
340
F
  0
ENDTAB
  0
ENDSEC
  0
SECTION
  2
BLOCKS
  0
BLOCK
  5
3
330
2
100
AcDbEntity
  8
0
100
AcDbBlockBegin
  2
*Model_Space
 70
     0
 10
0.0
 20
0.0
 30
0.0
  3
*Model_Space
  1

  0
ENDBLK
  5
9
330
2
100
AcDbEntity
  8
0
100
AcDbBlockEnd
  0
BLOCK
  5
D
330
C
100
AcDbEntity
 67
     1
  8
0
100
AcDbBlockBegin
  2
*Paper_Space
 70
     0
 10
0.0
 20
0.0
 30
0.0
  3
*Paper_Space
  1

  0
ENDBLK
  5
E
330
C
100
AcDbEntity
 67
     1
  8
0
100
AcDbBlockEnd
  0
ENDSEC
  0
SECTION
  2
ENTITIES
  0
TEXT
  5
B25
330
2
100
AcDbEntity
  8
0
 62
     7
100
AcDbText
 10
2402.500615269876
 20
3831.786508187609
 30
0.0
 40
200.0
  1
BZ09
 41
0.9
100
AcDbText
  0
ARC
  5
B28
330
2
100
AcDbEntity
  8
0
  6
Continuous
 62
     7
100
AcDbCircle
 10
3733.119230317908
 20
183.1199539345211
 30
0.0
 40
2.499999999999945
100
AcDbArc
 50
257.1466349346629
 51
269.9999999994008
  0
ARC
  5
B29
330
2
100
AcDbEntity
  8
0
  6
Continuous
 62
     7
100
AcDbCircle
 10
3733.119230317908
 20
183.1199539345211
 30
0.0
 40
2.500000000000138
100
AcDbArc
 50
90.00000000276186
 51
102.8808880233788
  0
ARC
  5
B2A
330
2
100
AcDbEntity
  8
0
  6
Continuous
 62
     7
100
AcDbCircle
 10
3733.119230317908
 20
183.1199539345211
 30
0.0
 40
2.500000000000389
100
AcDbArc
 50
77.16481768627693
 51
90.00000000276186
  0
ARC
  5
B2B
330
2
100
AcDbEntity
  8
0
  6
Continuous
 62
     7
100
AcDbCircle
 10
3763.119230317913
 20
183.1199539342133
 30
0.0
 40
2.500000000000389
100
AcDbArc
 50
257.1466349345838
 51
269.9999999994008
  0
ARC
  5
B2C
330
2
100
AcDbEntity
  8
0
  6
Continuous
 62
     7
100
AcDbCircle
 10
3763.119230317913
 20
183.1199539342133
 30
0.0
 40
2.499999999999656
100
AcDbArc
 50
90.00000000239706
 51
102.8808880233788
  0
ARC
  5
B2D
330
2
100
AcDbEntity
  8
0
  6
Continuous
 62
     7
100
AcDbCircle
 10
3763.119230317913
 20
183.1199539342133
 30
0.0
 40
2.499999999999945
100
AcDbArc
 50
77.16481768624863
 51
90.00000000239706
  0
ARC
  5
B2E
330
2
100
AcDbEntity
  8
0
  6
Continuous
 62
     7
100
AcDbCircle
 10
2003.119230318643
 20
183.119953933583
 30
0.0
 40
2.499999999999945
100
AcDbArc
 50
77.14663493426164
 51
89.99999999890567
  0
ARC
  5
B2F
330
2
100
AcDbEntity
  8
0
  6
Continuous
 62
     7
100
AcDbCircle
 10
2003.119230318643
 20
183.119953933583
 30
0.0
 40
2.499999999999888
100
AcDbArc
 50
269.9999999989578
 51
282.8808880227119
  0
ARC
  5
B30
330
2
100
AcDbEntity
  8
0
  6
Continuous
 62
     7
100
AcDbCircle
 10
2003.119230318643
 20
183.119953933583
 30
0.0
 40
2.499999999999945
100
AcDbArc
 50
257.1648176857682
 51
269.9999999989578
  0
ARC
  5
B31
330
2
100
AcDbEntity
  8
0
  6
Continuous
 62
     7
100
AcDbCircle
 10
1973.119230318643
 20
183.1199539341562
 30
0.0
 40
2.500000000000389
100
AcDbArc
 50
77.14663493426164
 51
89.99999999890567
  0
ARC
  5
B32
330
2
100
AcDbEntity
  8
0
  6
Continuous
 62
     7
100
AcDbCircle
 10
1973.119230318643
 20
183.1199539341562
 30
0.0
 40
2.499999999999616
100
AcDbArc
 50
269.9999999989578
 51
282.8808880226865
  0
ARC
  5
B33
330
2
100
AcDbEntity
  8
0
  6
Continuous
 62
     7
100
AcDbCircle
 10
1973.119230318643
 20
183.1199539341562
 30
0.0
 40
2.499999999999502
100
AcDbArc
 50
257.1648176857965
 51
269.9999999989578
  0
ARC
  5
B34
330
2
100
AcDbEntity
  8
0
  6
Continuous
 62
     9
100
AcDbCircle
 10
3763.118780087707
 20
183.1203919648771
 30
0.0
 40
3.000450262181134
100
AcDbArc
 50
271.5820883983915
 51
359.9916354851864
  0
LINE
  5
B35
330
2
100
AcDbEntity
  8
0
  6
Continuous
 62
     9
100
AcDbLine
 10
3763.201619947539
 20
180.121085489465
 30
0.0
 11
3763.105945396233
 21
180.1199833492189
 31
0.0
  0
ARC
  5
B36
330
2
100
AcDbEntity
  8
0
  6
Continuous
 62
     9
100
AcDbCircle
 10
3763.119537301987
 20
183.1199532545049
 30
0.0
 40
3.000000695419488
100
AcDbArc
 50
90.00586296204918
 51
269.7404128936688
  0
ARC
  5
B37
330
2
100
AcDbEntity
  8
0
  6
Continuous
 62
     9
100
AcDbCircle
 10
3733.118780087703
 20
183.1203919651852
 30
0.0
 40
3.000450262181801
100
AcDbArc
 50
271.5820884005287
 51
359.9916354851864
  0
LINE
  5
B38
330
2
100
AcDbEntity
  8
0
  6
Continuous
 62
     9
100
AcDbLine
 10
3733.201619947646
 20
180.1210854897758
 30
0.0
 11
3733.10594539621
 21
180.1199833495273
 31
0.0
  0
ARC
  5
B39
330
2
100
AcDbEntity
  8
0
  6
Continuous
 62
     9
100
AcDbCircle
 10
3733.119537301983
 20
183.1199532548119
 30
0.0
 40
3.000000695419574
100
AcDbArc
 50
90.00586296204918
 51
269.740412893304
  0
ARC
  5
B3A
330
2
100
AcDbEntity
  8
0
  6
Continuous
 62
     9
100
AcDbCircle
 10
1973.119680548868
 20
183.119515903493
 30
0.0
 40
3.000450262190018
100
AcDbArc
 50
91.58208841924354
 51
179.991635485017
  0
LINE
  5
B3B
330
2
100
AcDbEntity
  8
0
  6
Continuous
 62
     9
100
AcDbLine
 10
1973.036840687945
 20
186.1188223788829
 30
0.0
 11
1973.132515240516
 21
186.1199245191578
 31
0.0
  0
ARC
  5
B3C
330
2
100
AcDbEntity
  8
0
  6
Continuous
 62
     9
100
AcDbCircle
 10
1973.118923334579
 20
183.1199546138741
 30
0.0
 40
3.000000695419876
100
AcDbArc
 50
270.0058629612154
 51
89.74041289017739
  0
ARC
  5
B3D
330
2
100
AcDbEntity
  8
0
  6
Continuous
 62
     9
100
AcDbCircle
 10
2003.119680548869
 20
183.11951590292
 30
0.0
 40
3.000450262190018
100
AcDbArc
 50
91.58208842132895
 51
179.991635485017
  0
LINE
  5
B3E
330
2
100
AcDbEntity
  8
0
  6
Continuous
 62
     9
100
AcDbLine
 10
2003.036840687835
 20
186.1188223783072
 30
0.0
 11
2003.132515240535
 21
186.1199245185851
 31
0.0
  0
ARC
  5
B3F
330
2
100
AcDbEntity
  8
0
  6
Continuous
 62
     9
100
AcDbCircle
 10
2003.11892333458
 20
183.1199546133009
 30
0.0
 40
3.000000695419511
100
AcDbArc
 50
270.0058629611894
 51
89.74041288983867
  0
LINE
  5
B40
330
2
100
AcDbEntity
  8
0
  6
Continuous
 62
     7
100
AcDbLine
 10
2370.619230317889
 20
205.5199539346808
 30
0.0
 11
2345.619230317889
 21
205.5199539346891
 31
0.0
  0
LINE
  5
B41
330
2
100
AcDbEntity
  8
0
  6
Continuous
 62
     7
100
AcDbLine
 10
2370.619230317891
 20
211.2199539346812
 30
0.0
 11
2345.619230317891
 21
211.2199539346903
 31
0.0
  0
LINE
  5
B42
330
2
100
AcDbEntity
  8
0
  6
Continuous
 62
     7
100
AcDbLine
 10
2345.919230317891
 20
211.5199539346891
 30
0.0
 11
2370.319230317891
 21
211.51995393468
 31
0.0
  0
LINE
  5
B43
330
2
100
AcDbEntity
  8
0
  6
Continuous
 62
     7
100
AcDbLine
 10
2370.619222334797
 20
195.0199539346849
 30
0.0
 11
2345.619230317881
 21
195.0199539346849
 31
0.0
  0
LINE
  5
B44
330
2
100
AcDbEntity
  8
0
  6
Continuous
 62
     7
100
AcDbLine
 10
2365.119225847354
 20
193.5199539346849
 30
0.0
 11
2351.11923031788
 21
193.5199539346849
 31
0.0
  0
POLYLINE
  5
B45
330
2
100
AcDbEntity
  8
0
  6
Continuous
 62
     7
100
AcDb2dPolyline
 66
     1
 10
0.0
 20
0.0
 30
0.0
 40
0.5
 41
0.5
  0
VERTEX
  5
B46
330
B45
100
AcDbEntity
  8
0
 62
     7
100
AcDbVertex
100
AcDb2dVertex
 10
2365.119225847354
 20
193.5199539346849
 30
0.0
 42
-0.149596043097732
  0
VERTEX
  5
B47
330
B45
100
AcDbEntity
  8
0
 62
     7
100
AcDbVertex
100
AcDb2dVertex
 10
2357.862549070333
 20
190.6657141524981
 30
0.0
 42
-0.1355639570993221
  0
VERTEX
  5
B48
330
B45
100
AcDbEntity
  8
0
 62
     7
100
AcDbVertex
100
AcDb2dVertex
 10
2351.119234788407
 20
193.5199539346849
 30
0.0
  0
SEQEND
  5
B49
330
B45
100
AcDbEntity
  8
0
  0
LINE
  5
B4A
330
2
100
AcDbEntity
  8
0
  6
Continuous
 62
     7
100
AcDbLine
 10
2070.626466908385
 20
211.219953934652
 30
0.0
 11
2045.626466908386
 21
211.219953934652
 31
0.0
  0
LINE
  5
B4B
330
2
100
AcDbEntity
  8
0
  6
Continuous
 62
     7
100
AcDbLine
 10
2045.926466908385
 20
211.5199539346522
 30
0.0
 11
2070.326466908385
 21
211.5199539346522
 31
0.0
  0
LINE
  5
B4C
330
2
100
AcDbEntity
  8
0
  6
Continuous
 62
     7
100
AcDbLine
 10
2070.626466908385
 20
205.5199539346522
 30
0.0
 11
2045.626466908386
 21
205.5199539346522
 31
0.0
  0
LINE
  5
B4D
330
2
100
AcDbEntity
  8
0
  6
Continuous
 62
     7
100
AcDbLine
 10
2070.626422342586
 20
195.0199539346581
 30
0.0
 11
2045.626466908379
 21
195.0199539346472
 31
0.0
  0
LINE
  5
B4E
330
2
100
AcDbEntity
  8
0
  6
Continuous
 62
     7
100
AcDbLine
 10
2065.126441951536
 20
193.5199539346552
 30
0.0
 11
2051.12646690838
 21
193.519953934649
 31
0.0
  0
POLYLINE
  5
B4F
330
2
100
AcDbEntity
  8
0
  6
Continuous
 62
     7
100
AcDb2dPolyline
 66
     1
 10
0.0
 20
0.0
 30
0.0
 40
0.5
 41
0.5
  0
VERTEX
  5
B50
330
B4F
100
AcDbEntity
  8
0
 62
     7
100
AcDbVertex
100
AcDb2dVertex
 10
2065.126441951536
 20
193.5199539346542
 30
0.0
 42
-0.1489525630722994
  0
VERTEX
  5
B51
330
B4F
100
AcDbEntity
  8
0
 62
     7
100
AcDbVertex
100
AcDb2dVertex
 10
2057.859012300559
 20
190.66571415208
 30
0.0
 42
-0.136194795973948
  0
VERTEX
  5
B52
330
B4F
100
AcDbEntity
  8
0
 62
     7
100
AcDbVertex
100
AcDb2dVertex
 10
2051.126491865224
 20
193.5199539346511
 30
0.0
  0
SEQEND
  5
B53
330
B4F
100
AcDbEntity
  8
0
  0
LINE
  5
B54
330
2
100
AcDbEntity
  8
0
  6
Continuous
 62
     7
100
AcDbLine
 10
2954.876008857696
 20
161.5199539352352
 30
0.0
 11
2949.376008856789
 21
161.5199539352341
 31
0.0
  0
LINE
  5
B55
330
2
100
AcDbEntity
  8
0
  6
Continuous
 62
     7
100
AcDbLine
 10
2941.376008856789
 20
161.5199539352332
 30
0.0
 11
2935.876008857696
 21
161.5199539352322
 31
0.0
  0
LINE
  5
B56
330
2
100
AcDbEntity
  8
0
  6
Continuous
 62
     7
100
AcDbLine
 10
2935.376008857764
 20
161.519953934599
 30
0.0
 11
2941.376008856789
 21
161.5199539349801
 31
0.0
  0
LINE
  5
B57
330
2
100
AcDbEntity
  8
0
  6
Continuous
 62
     7
100
AcDbLine
 10
2949.376008856789
 20
161.5199539354869
 30
0.0
 11
2955.376008857763
 21
161.5199539358682
 31
0.0
  0
LINE
  5
B58
330
2
100
AcDbEntity
  8
0
  6
Continuous
 62
     7
100
AcDbLine
 10
2931.376008856788
 20
171.5199539341749
 30
0.0
 11
2933.431628474965
 21
171.5199539341749
 31
0.0
  0
LINE
  5
B59
330
2
100
AcDbEntity
  8
0
  6
Continuous
 62
     7
100
AcDbLine
 10
2933.431628474965
 20
171.5199539341749
 30
0.0
 11
2936.561072138799
 21
171.5199539341749
 31
0.0
  0
LINE
  5
B5A
330
2
100
AcDbEntity
  8
0
  6
Continuous
 62
     7
100
AcDbLine
 10
2936.561072138799
 20
171.5199539341749
 30
0.0
 11
2936.840133694877
 21
171.5199539341749
 31
0.0
  0
LINE
  5
B5B
330
2
100
AcDbEntity
  8
0
  6
Continuous
 62
     7
100
AcDbLine
 10
2936.840133694877
 20
171.5199539341749
 30
0.0
 11
2937.122883040249
 21
171.5199539341749
 31
0.0
  0
LINE
  5
B5C
330
2
100
AcDbEntity
  8
0
  6
Continuous
 62
     7
100
AcDbLine
 10
2937.122883040249
 20
171.5199539341749
 30
0.0
 11
2939.2009551491
 21
171.5199539341758
 31
0.0
  0
LINE
  5
B5D
330
2
100
AcDbEntity
  8
0
  6
Continuous
 62
     7
100
AcDbLine
 10
2939.2009551491
 20
171.5199539341758
 30
0.0
 11
2939.511731515498
 21
171.5199539341758
 31
0.0
  0
LINE
  5
B5E
330
2
100
AcDbEntity
  8
0
  6
Continuous
 62
     7
100
AcDbLine
 10
2939.511731515498
 20
171.5199539341758
 30
0.0
 11
2941.498795276033
 21
171.5199539341758
 31
0.0
  0
LINE
  5
B5F
330
2
100
AcDbEntity
  8
0
  6
Continuous
 62
     7
100
AcDbLine
 10
2945.432052722675
 20
171.5199539341758
 30
0.0
 11
2946.612447458834
 21
171.5199539341758
 31
0.0
  0
LINE
  5
B60
330
2
100
AcDbEntity
  8
0
  6
Continuous
 62
     7
100
AcDbLine
 10
2946.612447458834
 20
171.5199539341758
 30
0.0
 11
2950.25258837526
 21
171.5199539341772
 31
0.0
  0
LINE
  5
B61
330
2
100
AcDbEntity
  8
0
  6
Continuous
 62
     7
100
AcDbLine
 10
2950.25258837526
 20
171.5199539341772
 30
0.0
 11
2953.74542436763
 21
171.5199539341781
 31
0.0
  0
LINE
  5
B62
330
2
100
AcDbEntity
  8
0
  6
Continuous
 62
     7
100
AcDbLine
 10
2953.74542436763
 20
171.5199539341781
 30
0.0
 11
2955.376008856788
 21
171.5199539341781
 31
0.0
  0
LINE
  5
B63
330
2
100
AcDbEntity
  8
0
  6
Continuous
 62
     7
100
AcDbLine
 10
2932.876008856792
 20
140.0558523190388
 30
0.0
 11
2957.876008856792
 21
140.0558523190432
 31
0.0
  0
LINE
  5
B64
330
2
100
AcDbEntity
  8
0
  6
Continuous
 62
     7
100
AcDbLine
 10
2932.876008856792
 20
141.0199539341772
 30
0.0
 11
2957.876008856792
 21
141.0199539341811
 31
0.0
  0
LINE
  5
B65
330
2
100
AcDbEntity
  8
0
  6
Continuous
 62
     7
100
AcDbLine
 10
2934.876008856793
 20
139.5199539341772
 30
0.0
 11
2955.876008856792
 21
139.5199539341799
 31
0.0
  0
LINE
  5
B66
330
2
100
AcDbEntity
  8
0
  6
Continuous
 62
     7
100
AcDbLine
 10
2931.176008856788
 20
177.5199539341749
 30
0.0
 11
2955.576008856788
 21
177.5199539341781
 31
0.0
  0
LINE
  5
B67
330
2
100
AcDbEntity
  8
0
  6
Continuous
 62
     7
100
AcDbLine
 10
2955.876008856788
 20
177.2199539341782
 30
0.0
 11
2930.876008856788
 21
177.2199539341741
 31
0.0
  0
LINE
  5
B68
330
2
100
AcDbEntity
  8
0
  6
Continuous
 62
     7
100
AcDbLine
 10
2955.876008856789
 20
171.5199539341781
 30
0.0
 11
2930.876008856789
 21
171.5199539341749
 31
0.0
  0
LINE
  5
B69
330
2
100
AcDbEntity
  8
0
  6
Continuous
 62
     9
100
AcDbLine
 10
2957.87600885679
 20
157.0199539341811
 30
0.0
 11
2932.87600885679
 21
157.0199539341781
 31
0.0
  0
LINE
  5
B6A
330
2
100
AcDbEntity
  8
0
  6
Continuous
 62
     7
100
AcDbLine
 10
2933.37600885679
 20
157.5199539341772
 30
0.0
 11
2957.37600885679
 21
157.5199539341811
 31
0.0
  0
LINE
  5
B6B
330
2
100
AcDbEntity
  8
0
  6
Continuous
 62
     7
100
AcDbLine
 10
2932.87600885679
 20
156.3206891885461
 30
0.0
 11
2937.424742108263
 21
156.3206891885461
 31
0.0
  0
LINE
  5
B6C
330
2
100
AcDbEntity
  8
0
  6
Continuous
 62
     7
100
AcDbLine
 10
2937.424742108263
 20
156.3206891885461
 30
0.0
 11
2957.87600885679
 21
156.320689188549
 31
0.0
  0
LINE
  5
B6D
330
2
100
AcDbEntity
  8
0
  6
Continuous
 62
     7
100
AcDbLine
 10
2957.876008856792
 20
142.7192186798131
 30
0.0
 11
2932.876008856792
 21
142.7192186798093
 31
0.0
  0
LINE
  5
B6E
330
2
100
AcDbEntity
  8
0
  6
Continuous
 62
     9
100
AcDbLine
 10
2932.876008856792
 20
142.0199539341772
 30
0.0
 11
2937.424742108265
 21
142.0199539341781
 31
0.0
  0
LINE
  5
B6F
330
2
100
AcDbEntity
  8
0
  6
Continuous
 62
     9
100
AcDbLine
 10
2937.424742108265
 20
142.0199539341781
 30
0.0
 11
2957.876008856792
 21
142.0199539341811
 31
0.0
  0
LINE
  5
B70
330
2
100
AcDbEntity
  8
0
  6
Continuous
 62
     7
100
AcDbLine
 10
2957.376008856792
 20
141.5199539341811
 30
0.0
 11
2937.742792778206
 21
141.5199539341781
 31
0.0
  0
LINE
  5
B71
330
2
100
AcDbEntity
  8
0
  6
Continuous
 62
     7
100
AcDbLine
 10
2937.742792778206
 20
141.5199539341781
 30
0.0
 11
2933.376008856792
 21
141.5199539341772
 31
0.0
  0
LINE
  5
B72
330
2
100
AcDbEntity
  8
0
  6
Continuous
 62
     7
100
AcDbLine
 10
2957.87600885679
 20
161.5199539341811
 30
0.0
 11
2932.876008856789
 21
161.5199539341772
 31
0.0
  0
LINE
  5
B73
330
2
100
AcDbEntity
  8
0
  6
Continuous
 62
     7
100
AcDbLine
 10
2957.87600885679
 20
158.0199539341811
 30
0.0
 11
2932.87600885679
 21
158.0199539341772
 31
0.0
  0
LINE
  5
B74
330
2
100
AcDbEntity
  8
0
  6
Continuous
 62
     9
100
AcDbLine
 10
2951.37600885679
 20
157.5199539341799
 30
0.0
 11
2950.553758681565
 21
157.5199539341799
 31
0.0
  0
LINE
  5
B75
330
2
100
AcDbEntity
  8
0
  6
Continuous
 62
     9
100
AcDbLine
 10
2950.553758681565
 20
157.5199539341799
 30
0.0
 11
2948.613077056157
 21
157.519953934179
 31
0.0
  0
LINE
  5
B76
330
2
100
AcDbEntity
  8
0
  6
Continuous
 62
     9
100
AcDbLine
 10
2942.077530311117
 20
157.5199539341781
 30
0.0
 11
2939.37600885679
 21
157.5199539341781
 31
0.0
  0
LINE
  5
B77
330
2
100
AcDbEntity
  8
0
  6
Continuous
 62
     7
100
AcDbLine
 10
2554.876008856828
 20
161.5199539351781
 30
0.0
 11
2549.37600885679
 21
161.5199539351772
 31
0.0
  0
LINE
  5
B78
330
2
100
AcDbEntity
  8
0
  6
Continuous
 62
     7
100
AcDbLine
 10
2541.37600885679
 20
161.5199539351761
 30
0.0
 11
2535.876008856828
 21
161.5199539351752
 31
0.0
  0
LINE
  5
B79
330
2
100
AcDbEntity
  8
0
  6
Continuous
 62
     7
100
AcDbLine
 10
2535.376008856895
 20
161.5199539345421
 30
0.0
 11
2541.37600885679
 21
161.519953934923
 31
0.0
  0
LINE
  5
B7A
330
2
100
AcDbEntity
  8
0
  6
Continuous
 62
     7
100
AcDbLine
 10
2549.37600885679
 20
161.5199539354298
 30
0.0
 11
2555.376008856895
 21
161.5199539358111
 31
0.0
  0
LINE
  5
B7B
330
2
100
AcDbEntity
  8
0
  6
Continuous
 62
     7
100
AcDbLine
 10
2531.376008856788
 20
171.5199539341179
 30
0.0
 11
2531.857030595933
 21
171.5199539341179
 31
0.0
  0
LINE
  5
B7C
330
2
100
AcDbEntity
  8
0
  6
Continuous
 62
     7
100
AcDbLine
 10
2531.857030595933
 20
171.5199539341179
 30
0.0
 11
2533.826908790462
 21
171.5199539341179
 31
0.0
  0
LINE
  5
B7D
330
2
100
AcDbEntity
  8
0
  6
Continuous
 62
     7
100
AcDbLine
 10
2533.826908790462
 20
171.5199539341179
 30
0.0
 11
2537.407431338901
 21
171.5199539341192
 31
0.0
  0
LINE
  5
B7E
330
2
100
AcDbEntity
  8
0
  6
Continuous
 62
     7
100
AcDbLine
 10
2537.407431338901
 20
171.5199539341192
 30
0.0
 11
2539.200955149358
 21
171.5199539341192
 31
0.0
  0
LINE
  5
B7F
330
2
100
AcDbEntity
  8
0
  6
Continuous
 62
     7
100
AcDbLine
 10
2539.200955149358
 20
171.5199539341192
 30
0.0
 11
2541.319964990828
 21
171.5199539341192
 31
0.0
  0
LINE
  5
B80
330
2
100
AcDbEntity
  8
0
  6
Continuous
 62
     7
100
AcDbLine
 10
2545.432052722958
 20
171.5199539341201
 30
0.0
 11
2550.991185364768
 21
171.519953934121
 31
0.0
  0
LINE
  5
B81
330
2
100
AcDbEntity
  8
0
  6
Continuous
 62
     7
100
AcDbLine
 10
2550.991185364768
 20
171.519953934121
 30
0.0
 11
2551.246457090754
 21
171.519953934121
 31
0.0
  0
LINE
  5
B82
330
2
100
AcDbEntity
  8
0
  6
Continuous
 62
     7
100
AcDbLine
 10
2551.246457090754
 20
171.519953934121
 30
0.0
 11
2552.446419807327
 21
171.519953934121
 31
0.0
  0
LINE
  5
B83
330
2
100
AcDbEntity
  8
0
  6
Continuous
 62
     7
100
AcDbLine
 10
2552.446419807327
 20
171.519953934121
 30
0.0
 11
2555.376008856788
 21
171.519953934121
 31
0.0
  0
LINE
  5
B84
330
2
100
AcDbEntity
  8
0
  6
Continuous
 62
     7
100
AcDbLine
 10
2532.876008856793
 20
140.0558523189831
 30
0.0
 11
2557.876008856793
 21
140.0558523189861
 31
0.0
  0
LINE
  5
B85
330
2
100
AcDbEntity
  8
0
  6
Continuous
 62
     7
100
AcDbLine
 10
2532.876008856793
 20
141.0199539341211
 30
0.0
 11
2557.876008856793
 21
141.019953934124
 31
0.0
  0
LINE
  5
B86
330
2
100
AcDbEntity
  8
0
  6
Continuous
 62
     7
100
AcDbLine
 10
2534.876008856793
 20
139.5199539341211
 30
0.0
 11
2555.876008856794
 21
139.519953934124
 31
0.0
  0
LINE
  5
B87
330
2
100
AcDbEntity
  8
0
  6
Continuous
 62
     7
100
AcDbLine
 10
2531.176008856788
 20
177.5199539341179
 30
0.0
 11
2555.576008856788
 21
177.519953934122
 31
0.0
  0
LINE
  5
B88
330
2
100
AcDbEntity
  8
0
  6
Continuous
 62
     7
100
AcDbLine
 10
2555.876008856788
 20
177.2199539341211
 30
0.0
 11
2530.876008856788
 21
177.2199539341179
 31
0.0
  0
LINE
  5
B89
330
2
100
AcDbEntity
  8
0
  6
Continuous
 62
     7
100
AcDbLine
 10
2555.876008856789
 20
171.519953934121
 30
0.0
 11
2530.876008856789
 21
171.5199539341179
 31
0.0
  0
LINE
  5
B8A
330
2
100
AcDbEntity
  8
0
  6
Continuous
 62
     9
100
AcDbLine
 10
2557.876008856791
 20
157.019953934124
 30
0.0
 11
2532.876008856791
 21
157.019953934121
 31
0.0
  0
LINE
  5
B8B
330
2
100
AcDbEntity
  8
0
  6
Continuous
 62
     7
100
AcDbLine
 10
2533.376008856791
 20
157.5199539341211
 30
0.0
 11
2557.376008856791
 21
157.519953934124
 31
0.0
  0
LINE
  5
B8C
330
2
100
AcDbEntity
  8
0
  6
Continuous
 62
     7
100
AcDbLine
 10
2532.876008856791
 20
156.320689188489
 30
0.0
 11
2537.424742108485
 21
156.320689188489
 31
0.0
  0
LINE
  5
B8D
330
2
100
AcDbEntity
  8
0
  6
Continuous
 62
     7
100
AcDbLine
 10
2537.424742108485
 20
156.320689188489
 30
0.0
 11
2557.876008856791
 21
156.320689188492
 31
0.0
  0
LINE
  5
B8E
330
2
100
AcDbEntity
  8
0
  6
Continuous
 62
     7
100
AcDbLine
 10
2557.876008856793
 20
142.7192186797561
 30
0.0
 11
2532.876008856793
 21
142.7192186797531
 31
0.0
  0
LINE
  5
B8F
330
2
100
AcDbEntity
  8
0
  6
Continuous
 62
     9
100
AcDbLine
 10
2532.876008856793
 20
142.0199539341211
 30
0.0
 11
2537.424742108487
 21
142.0199539341211
 31
0.0
  0
LINE
  5
B90
330
2
100
AcDbEntity
  8
0
  6
Continuous
 62
     9
100
AcDbLine
 10
2537.424742108487
 20
142.0199539341211
 30
0.0
 11
2557.876008856793
 21
142.019953934124
 31
0.0
  0
LINE
  5
B91
330
2
100
AcDbEntity
  8
0
  6
Continuous
 62
     7
100
AcDbLine
 10
2557.376008856793
 20
141.519953934124
 30
0.0
 11
2537.742792778419
 21
141.5199539341211
 31
0.0
  0
LINE
  5
B92
330
2
100
AcDbEntity
  8
0
  6
Continuous
 62
     7
100
AcDbLine
 10
2537.742792778419
 20
141.5199539341211
 30
0.0
 11
2533.376008856793
 21
141.5199539341202
 31
0.0
  0
LINE
  5
B93
330
2
100
AcDbEntity
  8
0
  6
Continuous
 62
     7
100
AcDbLine
 10
2557.87600885679
 20
161.519953934124
 30
0.0
 11
2532.87600885679
 21
161.5199539341211
 31
0.0
  0
LINE
  5
B94
330
2
100
AcDbEntity
  8
0
  6
Continuous
 62
     7
100
AcDbLine
 10
2557.876008856791
 20
158.019953934124
 30
0.0
 11
2532.876008856791
 21
158.019953934121
 31
0.0
  0
LINE
  5
B95
330
2
100
AcDbEntity
  8
0
  6
Continuous
 62
     9
100
AcDbLine
 10
2551.376008856791
 20
157.5199539341231
 30
0.0
 11
2550.553758681636
 21
157.5199539341231
 31
0.0
  0
LINE
  5
B96
330
2
100
AcDbEntity
  8
0
  6
Continuous
 62
     9
100
AcDbLine
 10
2550.553758681636
 20
157.5199539341231
 30
0.0
 11
2548.613077056274
 21
157.5199539341231
 31
0.0
  0
LINE
  5
B97
330
2
100
AcDbEntity
  8
0
  6
Continuous
 62
     9
100
AcDbLine
 10
2542.077530311232
 20
157.519953934122
 30
0.0
 11
2540.93349306859
 21
157.5199539341211
 31
0.0
  0
LINE
  5
B98
330
2
100
AcDbEntity
  8
0
  6
Continuous
 62
     9
100
AcDbLine
 10
2540.93349306859
 20
157.5199539341211
 30
0.0
 11
2539.376008856792
 21
157.5199539341211
 31
0.0
  0
CIRCLE
  5
B99
330
2
100
AcDbEntity
  8
0
  6
Continuous
 62
     7
100
AcDbCircle
 10
3733.119230317911
 20
183.1199539345121
 30
0.0
 40
2.000000000001
  0
LINE
  5
B9A
330
2
100
AcDbEntity
  8
0
  6
Continuous
 62
     7
100
AcDbLine
 10
3732.253204914111
 20
181.6199539345211
 30
0.0
 11
3731.387179510341
 21
183.11995393453
 31
0.0
  0
LINE
  5
B9B
330
2
100
AcDbEntity
  8
0
  6
Continuous
 62
     7
100
AcDbLine
 10
3733.985255721679
 20
181.6199539345032
 30
0.0
 11
3732.253204914111
 21
181.6199539345211
 31
0.0
  0
LINE
  5
B9C
330
2
100
AcDbEntity
  8
0
  6
Continuous
 62
     7
100
AcDbLine
 10
3734.85128112548
 20
183.1199539344938
 30
0.0
 11
3733.985255721679
 21
181.6199539345032
 31
0.0
  0
LINE
  5
B9D
330
2
100
AcDbEntity
  8
0
  6
Continuous
 62
     7
100
AcDbLine
 10
3733.985255721711
 20
184.6199539345041
 30
0.0
 11
3734.85128112548
 21
183.1199539344938
 31
0.0
  0
LINE
  5
B9E
330
2
100
AcDbEntity
  8
0
  6
Continuous
 62
     7
100
AcDbLine
 10
3732.253204914141
 20
184.6199539345221
 30
0.0
 11
3733.985255721711
 21
184.6199539345041
 31
0.0
  0
LINE
  5
B9F
330
2
100
AcDbEntity
  8
0
  6
Continuous
 62
     7
100
AcDbLine
 10
3731.387179510341
 20
183.11995393453
 30
0.0
 11
3732.253204914141
 21
184.6199539345221
 31
0.0
  0
CIRCLE
  5
BA0
330
2
100
AcDbEntity
  8
0
  6
Continuous
 62
     7
100
AcDbCircle
 10
3763.119230317914
 20
183.1199539342049
 30
0.0
 40
2.000000000000889
  0
LINE
  5
BA1
330
2
100
AcDbEntity
  8
0
  6
Continuous
 62
     7
100
AcDbLine
 10
3762.253204914114
 20
181.6199539342142
 30
0.0
 11
3761.387179510345
 21
183.1199539342228
 31
0.0
  0
LINE
  5
BA2
330
2
100
AcDbEntity
  8
0
  6
Continuous
 62
     7
100
AcDbLine
 10
3763.985255721683
 20
181.619953934196
 30
0.0
 11
3762.253204914114
 21
181.6199539342142
 31
0.0
  0
LINE
  5
BA3
330
2
100
AcDbEntity
  8
0
  6
Continuous
 62
     7
100
AcDbLine
 10
3764.851281125483
 20
183.1199539341869
 30
0.0
 11
3763.985255721683
 21
181.619953934196
 31
0.0
  0
LINE
  5
BA4
330
2
100
AcDbEntity
  8
0
  6
Continuous
 62
     7
100
AcDbLine
 10
3763.985255721714
 20
184.619953934196
 30
0.0
 11
3764.851281125483
 21
183.1199539341869
 31
0.0
  0
LINE
  5
BA5
330
2
100
AcDbEntity
  8
0
  6
Continuous
 62
     7
100
AcDbLine
 10
3762.253204914145
 20
184.6199539342142
 30
0.0
 11
3763.985255721714
 21
184.619953934196
 31
0.0
  0
LINE
  5
BA6
330
2
100
AcDbEntity
  8
0
  6
Continuous
 62
     7
100
AcDbLine
 10
3761.387179510345
 20
183.1199539342228
 30
0.0
 11
3762.253204914145
 21
184.6199539342142
 31
0.0
  0
LINE
  5
BA7
330
2
100
AcDbEntity
  8
0
  6
Continuous
 62
     7
100
AcDbLine
 10
3728.119230317691
 20
171.1199539349661
 30
0.0
 11
3768.119230317697
 21
171.119953934555
 31
0.0
  0
LINE
  5
BA8
330
2
100
AcDbEntity
  8
0
  6
Continuous
 62
     7
100
AcDbLine
 10
3728.119230317938
 20
195.1199539349659
 30
0.0
 11
3768.119230317944
 21
195.1199539345548
 31
0.0
  0
LINE
  5
BA9
330
2
100
AcDbEntity
  8
0
  6
Continuous
 62
     7
100
AcDbLine
 10
3768.119230317697
 20
171.1199539345518
 30
0.0
 11
3768.119230317944
 21
195.1199539345589
 31
0.0
  0
LINE
  5
BAA
330
2
100
AcDbEntity
  8
0
  6
Continuous
 62
     7
100
AcDbLine
 10
3733.119230317934
 20
185.6199539345221
 30
0.0
 11
3733.674599706006
 21
185.5574864661532
 31
0.0
  0
ARC
  5
BAB
330
2
100
AcDbEntity
  8
0
  6
Continuous
 62
     7
100
AcDbCircle
 10
3733.119216761951
 20
183.1199429991081
 30
0.0
 40
2.50001367361824
100
AcDbArc
 50
0.6207682054426103
 51
77.16454037731648
  0
ARC
  5
BAC
330
2
100
AcDbEntity
  8
0
  6
Continuous
 62
     7
100
AcDbCircle
 10
3733.119230317917
 20
183.119953934515
 30
0.0
 40
2.499999999993828
100
AcDbArc
 50
269.5059798227534
 51
0.6205209650772772
  0
LINE
  5
BAD
330
2
100
AcDbEntity
  8
0
  6
Continuous
 62
     7
100
AcDbLine
 10
3733.097674888343
 20
180.6200468635572
 30
0.0
 11
3732.563087883213
 21
180.6825976634081
 31
0.0
  0
ARC
  5
BAE
330
2
100
AcDbEntity
  8
0
  6
Continuous
 62
     7
100
AcDbCircle
 10
3733.119230317913
 20
183.1199539345211
 30
0.0
 40
2.500000000000651
100
AcDbArc
 50
102.8809276611352
 51
257.1466160002789
  0
LINE
  5
BAF
330
2
100
AcDbEntity
  8
0
  6
Continuous
 62
     7
100
AcDbLine
 10
3732.561916243138
 20
185.557042571002
 30
0.0
 11
3733.119230317934
 21
185.6199539345221
 31
0.0
  0
LINE
  5
BB0
330
2
100
AcDbEntity
  8
0
  6
Continuous
 62
     7
100
AcDbLine
 10
3763.119230317938
 20
185.6199539342133
 30
0.0
 11
3763.674599706019
 21
185.5574864658431
 31
0.0
  0
ARC
  5
BB1
330
2
100
AcDbEntity
  8
0
  6
Continuous
 62
     7
100
AcDbCircle
 10
3763.119216761954
 20
183.1199429988012
 30
0.0
 40
2.500013673618048
100
AcDbArc
 50
0.6207682051039138
 51
77.16454037710168
  0
ARC
  5
BB2
330
2
100
AcDbEntity
  8
0
  6
Continuous
 62
     7
100
AcDbCircle
 10
3763.119230317921
 20
183.1199539342071
 30
0.0
 40
2.499999999993886
100
AcDbArc
 50
269.5059798229358
 51
0.6205209647385807
  0
LINE
  5
BB3
330
2
100
AcDbEntity
  8
0
  6
Continuous
 62
     7
100
AcDbLine
 10
3763.097674888355
 20
180.6200468632491
 30
0.0
 11
3762.563087883222
 21
180.6825976630989
 31
0.0
  0
ARC
  5
BB4
330
2
100
AcDbEntity
  8
0
  6
Continuous
 62
     7
100
AcDbCircle
 10
3763.119230317916
 20
183.1199539342133
 30
0.0
 40
2.500000000000765
100
AcDbArc
 50
102.8809276609487
 51
257.1466160004117
  0
LINE
  5
BB5
330
2
100
AcDbEntity
  8
0
  6
Continuous
 62
     7
100
AcDbLine
 10
3762.56191624315
 20
185.5570425706951
 30
0.0
 11
3763.119230317938
 21
185.6199539342133
 31
0.0
  0
LINE
  5
BB6
330
2
100
AcDbEntity
  8
0
  6
Continuous
 62
     7
100
AcDbLine
 10
3728.119230317691
 20
171.119953934962
 30
0.0
 11
3728.119230317938
 21
195.1199539349691
 31
0.0
  0
CIRCLE
  5
BB7
330
2
100
AcDbEntity
  8
0
  6
Continuous
 62
     7
100
AcDbCircle
 10
2003.119230318652
 20
183.1199539335741
 30
0.0
 40
2.000000000000223
  0
LINE
  5
BB8
330
2
100
AcDbEntity
  8
0
  6
Continuous
 62
     7
100
AcDbLine
 10
2003.985255722466
 20
184.619953933558
 30
0.0
 11
2004.851281126222
 21
183.1199539335412
 31
0.0
  0
LINE
  5
BB9
330
2
100
AcDbEntity
  8
0
  6
Continuous
 62
     7
100
AcDbLine
 10
2002.253204914897
 20
184.6199539335909
 30
0.0
 11
2003.985255722466
 21
184.619953933558
 31
0.0
  0
LINE
  5
BBA
330
2
100
AcDbEntity
  8
0
  6
Continuous
 62
     7
100
AcDbLine
 10
2001.387179511083
 20
183.119953933608
 30
0.0
 11
2002.253204914897
 21
184.6199539335909
 31
0.0
  0
LINE
  5
BBB
330
2
100
AcDbEntity
  8
0
  6
Continuous
 62
     7
100
AcDbLine
 10
2002.253204914839
 20
181.619953933591
 30
0.0
 11
2001.387179511083
 21
183.119953933608
 31
0.0
  0
LINE
  5
BBC
330
2
100
AcDbEntity
  8
0
  6
Continuous
 62
     7
100
AcDbLine
 10
2003.985255722408
 20
181.6199539335573
 30
0.0
 11
2002.253204914839
 21
181.619953933591
 31
0.0
  0
LINE
  5
BBD
330
2
100
AcDbEntity
  8
0
  6
Continuous
 62
     7
100
AcDbLine
 10
2004.851281126222
 20
183.1199539335412
 30
0.0
 11
2003.985255722408
 21
181.6199539335573
 31
0.0
  0
CIRCLE
  5
BBE
330
2
100
AcDbEntity
  8
0
  6
Continuous
 62
     7
100
AcDbCircle
 10
1973.119230318652
 20
183.1199539341483
 30
0.0
 40
2.000000000000111
  0
LINE
  5
BBF
330
2
100
AcDbEntity
  8
0
  6
Continuous
 62
     7
100
AcDbLine
 10
1973.985255722465
 20
184.6199539341312
 30
0.0
 11
1974.851281126221
 21
183.1199539341139
 31
0.0
  0
LINE
  5
BC0
330
2
100
AcDbEntity
  8
0
  6
Continuous
 62
     7
100
AcDbLine
 10
1972.253204914896
 20
184.6199539341639
 30
0.0
 11
1973.985255722465
 21
184.6199539341312
 31
0.0
  0
LINE
  5
BC1
330
2
100
AcDbEntity
  8
0
  6
Continuous
 62
     7
100
AcDbLine
 10
1971.387179511083
 20
183.1199539341812
 30
0.0
 11
1972.253204914896
 21
184.6199539341639
 31
0.0
  0
LINE
  5
BC2
330
2
100
AcDbEntity
  8
0
  6
Continuous
 62
     7
100
AcDbLine
 10
1972.253204914839
 20
181.6199539341639
 30
0.0
 11
1971.387179511083
 21
183.1199539341812
 31
0.0
  0
LINE
  5
BC3
330
2
100
AcDbEntity
  8
0
  6
Continuous
 62
     7
100
AcDbLine
 10
1973.985255722407
 20
181.6199539341312
 30
0.0
 11
1972.253204914839
 21
181.6199539341639
 31
0.0
  0
LINE
  5
BC4
330
2
100
AcDbEntity
  8
0
  6
Continuous
 62
     7
100
AcDbLine
 10
1974.851281126221
 20
183.1199539341139
 30
0.0
 11
1973.985255722407
 21
181.6199539341312
 31
0.0
  0
LINE
  5
BC5
330
2
100
AcDbEntity
  8
0
  6
Continuous
 62
     7
100
AcDbLine
 10
2008.119230318427
 20
195.1199539338831
 30
0.0
 11
1968.119230318427
 21
195.1199539346471
 31
0.0
  0
LINE
  5
BC6
330
2
100
AcDbEntity
  8
0
  6
Continuous
 62
     7
100
AcDbLine
 10
2008.119230318427
 20
195.1199539338831
 30
0.0
 11
2008.119230317969
 21
171.119953933882
 31
0.0
  0
LINE
  5
BC7
330
2
100
AcDbEntity
  8
0
  6
Continuous
 62
     7
100
AcDbLine
 10
2008.119230317969
 20
171.119953933882
 30
0.0
 11
1968.119230317968
 21
171.1199539346471
 31
0.0
  0
LINE
  5
BC8
330
2
100
AcDbEntity
  8
0
  6
Continuous
 62
     7
100
AcDbLine
 10
1968.119230318427
 20
195.1199539346471
 30
0.0
 11
1968.119230317968
 21
171.119953934646
 31
0.0
  0
LINE
  5
BC9
330
2
100
AcDbEntity
  8
0
  6
Continuous
 62
     7
100
AcDbLine
 10
2003.119230318595
 20
180.619953933583
 30
0.0
 11
2002.563860930517
 21
180.6824214019573
 31
0.0
  0
ARC
  5
BCA
330
2
100
AcDbEntity
  8
0
  6
Continuous
 62
     7
100
AcDbCircle
 10
2003.119243874584
 20
183.119964868969
 30
0.0
 40
2.500013673589728
100
AcDbArc
 50
180.620768754065
 51
257.1645403768898
  0
ARC
  5
BCB
330
2
100
AcDbEntity
  8
0
  6
Continuous
 62
     7
100
AcDbCircle
 10
2003.119230318652
 20
183.119953933583
 30
0.0
 40
2.500000000000265
100
AcDbArc
 50
89.50597910892129
 51
180.6205215141425
  0
LINE
  5
BCC
330
2
100
AcDbEntity
  8
0
  6
Continuous
 62
     7
100
AcDbLine
 10
2003.140785779371
 20
185.6198610042781
 30
0.0
 11
2003.675372753348
 21
185.5573102046942
 31
0.0
  0
ARC
  5
BCD
330
2
100
AcDbEntity
  8
0
  6
Continuous
 62
     7
100
AcDbCircle
 10
2003.119230318656
 20
183.119953933583
 30
0.0
 40
2.499999999997166
100
AcDbArc
 50
282.8809276599059
 51
77.14661600044002
  0
LINE
  5
BCE
330
2
100
AcDbEntity
  8
0
  6
Continuous
 62
     7
100
AcDbLine
 10
2003.676544393377
 20
180.6828652970941
 30
0.0
 11
2003.119230318595
 21
180.619953933583
 31
0.0
  0
LINE
  5
BCF
330
2
100
AcDbEntity
  8
0
  6
Continuous
 62
     7
100
AcDbLine
 10
1973.119230318594
 20
180.6199539341573
 30
0.0
 11
1972.563860930517
 21
180.68242140253
 31
0.0
  0
ARC
  5
BD0
330
2
100
AcDbEntity
  8
0
  6
Continuous
 62
     7
100
AcDbCircle
 10
1973.119243874583
 20
183.1199648695422
 30
0.0
 40
2.500013673588951
100
AcDbArc
 50
180.6207687540259
 51
257.1645403769152
  0
ARC
  5
BD1
330
2
100
AcDbEntity
  8
0
  6
Continuous
 62
     7
100
AcDbCircle
 10
1973.119230318652
 20
183.1199539341562
 30
0.0
 40
2.50000000000025
100
AcDbArc
 50
89.50597910894733
 51
180.6205215141165
  0
LINE
  5
BD2
330
2
100
AcDbEntity
  8
0
  6
Continuous
 62
     7
100
AcDbLine
 10
1973.14078577937
 20
185.6198610048523
 30
0.0
 11
1973.675372753346
 21
185.557310205266
 31
0.0
  0
ARC
  5
BD3
330
2
100
AcDbEntity
  8
0
  6
Continuous
 62
     7
100
AcDbCircle
 10
1973.119230318656
 20
183.1199539341562
 30
0.0
 40
2.499999999996993
100
AcDbArc
 50
282.8809276598521
 51
77.14661600046543
  0
LINE
  5
BD4
330
2
100
AcDbEntity
  8
0
  6
Continuous
 62
     7
100
AcDbLine
 10
1973.676544393374
 20
180.682865297666
 30
0.0
 11
1973.119230318594
 21
180.6199539341573
 31
0.0
  0
LINE
  5
BD5
330
2
100
AcDbEntity
  8
0
  6
Continuous
 62
     7
100
AcDbLine
 10
1968.119230317714
 20
173.6199539348911
 30
0.0
 11
1968.119230317896
 21
183.1021016648299
 31
0.0
  0
LINE
  5
BD6
330
2
100
AcDbEntity
  8
0
  6
Continuous
 62
     7
100
AcDbLine
 10
1968.119230317896
 20
183.1021016648299
 30
0.0
 11
1968.119230318077
 21
192.6199539348911
 31
0.0
  0
LINE
  5
BD7
330
2
100
AcDbEntity
  8
0
  6
Continuous
 62
     7
100
AcDbLine
 10
1968.119230317455
 20
173.069953837828
 30
0.0
 11
1968.11923031745
 21
173.148412933629
 31
0.0
  0
LINE
  5
BD8
330
2
100
AcDbEntity
  8
0
  6
Continuous
 62
     9
100
AcDbLine
 10
2448.119230317841
 20
157.5199538684442
 30
0.0
 11
1968.119230317841
 21
157.5199538382219
 31
0.0
  0
LINE
  5
BD9
330
2
100
AcDbEntity
  8
0
  6
Continuous
 62
     7
100
AcDbLine
 10
2448.119230318001
 20
156.51995386838
 30
0.0
 11
2448.119230317938
 21
157.5199538684442
 31
0.0
  0
LINE
  5
BDA
330
2
100
AcDbEntity
  8
0
  6
Continuous
 62
     7
100
AcDbLine
 10
2448.119230318001
 20
156.51995386838
 30
0.0
 11
1968.119230318
 21
156.5199538381573
 31
0.0
  0
LINE
  5
BDB
330
2
100
AcDbEntity
  8
0
  6
Continuous
 62
     7
100
AcDbLine
 10
1968.119230318
 20
156.5199538381573
 30
0.0
 11
1968.119230317938
 21
157.5199538382219
 31
0.0
  0
LINE
  5
BDC
330
2
100
AcDbEntity
  8
0
  6
Continuous
 62
     9
100
AcDbLine
 10
2448.119230317825
 20
157.7699538684442
 30
0.0
 11
1968.119230317825
 21
157.7699538382219
 31
0.0
  0
LINE
  5
BDD
330
2
100
AcDbEntity
  8
0
  6
Continuous
 62
     7
100
AcDbLine
 10
1968.119230317841
 20
157.5199538382219
 30
0.0
 11
1968.119230317825
 21
157.7699538382219
 31
0.0
  0
LINE
  5
BDE
330
2
100
AcDbEntity
  8
0
  6
Continuous
 62
     7
100
AcDbLine
 10
2448.119230317841
 20
157.5199538684442
 30
0.0
 11
2448.119230317825
 21
157.7699538684442
 31
0.0
  0
LINE
  5
BDF
330
2
100
AcDbEntity
  8
0
  6
Continuous
 62
     7
100
AcDbLine
 10
2448.119230317859
 20
158.76995386838
 30
0.0
 11
1968.119230317859
 21
158.7699538381582
 31
0.0
  0
LINE
  5
BE0
330
2
100
AcDbEntity
  8
0
  6
Continuous
 62
     7
100
AcDbLine
 10
1968.119230317922
 20
157.7699538382219
 30
0.0
 11
1968.119230317859
 21
158.7699538381582
 31
0.0
  0
LINE
  5
BE1
330
2
100
AcDbEntity
  8
0
  6
Continuous
 62
     7
100
AcDbLine
 10
2448.119230317922
 20
157.7699538684442
 30
0.0
 11
2448.119230317859
 21
158.76995386838
 31
0.0
  0
LINE
  5
BE2
330
2
100
AcDbEntity
  8
0
  6
Continuous
 62
     7
100
AcDbLine
 10
2442.376008835856
 20
172.0699538676979
 30
0.0
 11
2008.119230318164
 21
172.069953840356
 31
0.0
  0
LINE
  5
BE3
330
2
100
AcDbEntity
  8
0
  6
Continuous
 62
     7
100
AcDbLine
 10
1968.119230317505
 20
172.069953837838
 30
0.0
 11
1968.119230317437
 21
173.148412933629
 31
0.0
  0
LINE
  5
BE4
330
2
100
AcDbEntity
  8
0
  6
Continuous
 62
     7
100
AcDbLine
 10
2448.119230317461
 20
172.7727712021831
 30
0.0
 11
2448.119230317439
 21
173.1199539347851
 31
0.0
  0
LINE
  5
BE5
330
2
100
AcDbEntity
  8
0
  6
Continuous
 62
     9
100
AcDbLine
 10
2448.119230316179
 20
194.1484129637451
 30
0.0
 11
2442.969692328964
 21
194.1484129634209
 31
0.0
  0
LINE
  5
BE6
330
2
100
AcDbEntity
  8
0
  6
Continuous
 62
     9
100
AcDbLine
 10
2442.376008848408
 20
194.1484129633841
 30
0.0
 11
2367.423580072474
 21
194.1484129586651
 31
0.0
  0
LINE
  5
BE7
330
2
100
AcDbEntity
  8
0
  6
Continuous
 62
     9
100
AcDbLine
 10
2348.814880567584
 20
194.1484129574933
 30
0.0
 11
2067.43081659382
 21
194.1484129397759
 31
0.0
  0
LINE
  5
BE8
330
2
100
AcDbEntity
  8
0
  6
Continuous
 62
     9
100
AcDbLine
 10
2048.822117227206
 20
194.1484129386049
 30
0.0
 11
2008.119230318587
 21
194.1484129360422
 31
0.0
  0
LINE
  5
BE9
330
2
100
AcDbEntity
  8
0
  6
Continuous
 62
     7
100
AcDbLine
 10
2448.119230316236
 20
193.1199539347851
 30
0.0
 11
2448.119230316179
 21
194.1484129637451
 31
0.0
  0
LINE
  5
BEA
330
2
100
AcDbEntity
  8
0
  6
Continuous
 62
     7
100
AcDbLine
 10
1968.119230316275
 20
194.1484129335231
 30
0.0
 11
1968.119230316217
 21
195.0699538377307
 31
0.0
  0
LINE
  5
BEB
330
2
100
AcDbEntity
  8
0
  6
Continuous
 62
     7
100
AcDbLine
 10
2448.119230316275
 20
194.1484129637451
 30
0.0
 11
2448.119230316217
 21
195.0699538679541
 31
0.0
  0
LINE
  5
BEC
330
2
100
AcDbEntity
  8
0
  6
Continuous
 62
     9
100
AcDbLine
 10
2448.119230315631
 20
207.7885476812653
 30
0.0
 11
2370.61923031789
 21
207.7885476763859
 31
0.0
  0
LINE
  5
BED
330
2
100
AcDbEntity
  8
0
  6
Continuous
 62
     9
100
AcDbLine
 10
2345.61923031789
 20
207.788547674812
 30
0.0
 11
2070.626466908386
 21
207.788547657497
 31
0.0
  0
LINE
  5
BEE
330
2
100
AcDbEntity
  8
0
  6
Continuous
 62
     9
100
AcDbLine
 10
2045.626466908385
 20
207.7885476559231
 30
0.0
 11
1968.119230315631
 21
207.7885476510433
 31
0.0
  0
LINE
  5
BEF
330
2
100
AcDbEntity
  8
0
  6
Continuous
 62
     9
100
AcDbLine
 10
2448.119230315612
 20
206.7051972404838
 30
0.0
 11
2370.619230317889
 21
206.7051972356053
 31
0.0
  0
LINE
  5
BF0
330
2
100
AcDbEntity
  8
0
  6
Continuous
 62
     9
100
AcDbLine
 10
2345.619230317889
 20
206.7051972340309
 30
0.0
 11
2070.626466908386
 21
206.705197216716
 31
0.0
  0
LINE
  5
BF1
330
2
100
AcDbEntity
  8
0
  6
Continuous
 62
     9
100
AcDbLine
 10
2045.626466908385
 20
206.7051972151421
 30
0.0
 11
1968.119230315611
 21
206.7051972102622
 31
0.0
  0
LINE
  5
BF2
330
2
100
AcDbEntity
  8
0
  6
Continuous
 62
     7
100
AcDbLine
 10
1968.119230315707
 20
206.7051972102622
 30
0.0
 11
1968.119230315639
 21
207.7885476510433
 31
0.0
  0
LINE
  5
BF3
330
2
100
AcDbEntity
  8
0
  6
Continuous
 62
     7
100
AcDbLine
 10
2448.119230315708
 20
206.7051972404838
 30
0.0
 11
2448.11923031564
 21
207.7885476812653
 31
0.0
  0
LINE
  5
BF4
330
2
100
AcDbEntity
  8
0
  6
Continuous
 62
     9
100
AcDbLine
 10
2448.119230315629
 20
206.4561485659601
 30
0.0
 11
2370.619230317889
 21
206.4561485610811
 31
0.0
  0
LINE
  5
BF5
330
2
100
AcDbEntity
  8
0
  6
Continuous
 62
     9
100
AcDbLine
 10
2345.619230317889
 20
206.4561485595064
 30
0.0
 11
2070.626466908386
 21
206.4561485421918
 31
0.0
  0
LINE
  5
BF6
330
2
100
AcDbEntity
  8
0
  6
Continuous
 62
     9
100
AcDbLine
 10
2045.626466908385
 20
206.4561485406184
 30
0.0
 11
1968.119230315629
 21
206.4561485357381
 31
0.0
  0
LINE
  5
BF7
330
2
100
AcDbEntity
  8
0
  6
Continuous
 62
     7
100
AcDbLine
 10
1968.119230315629
 20
206.4561485357381
 30
0.0
 11
1968.119230315611
 21
206.7051972102622
 31
0.0
  0
LINE
  5
BF8
330
2
100
AcDbEntity
  8
0
  6
Continuous
 62
     7
100
AcDbLine
 10
2448.119230315629
 20
206.4561485659601
 30
0.0
 11
2448.119230315612
 21
206.7051972404838
 31
0.0
  0
LINE
  5
BF9
330
2
100
AcDbEntity
  8
0
  6
Continuous
 62
     7
100
AcDbLine
 10
2448.119230315783
 20
205.5433043086441
 30
0.0
 11
2448.119230315726
 21
206.4561485659601
 31
0.0
  0
LINE
  5
BFA
330
2
100
AcDbEntity
  8
0
  6
Continuous
 62
     7
100
AcDbLine
 10
1968.119230315783
 20
205.543304278422
 30
0.0
 11
1968.119230315725
 21
206.4561485357381
 31
0.0
  0
LINE
  5
BFB
330
2
100
AcDbEntity
  8
0
  6
Continuous
 62
     9
100
AcDbLine
 10
2448.119230316637
 20
208.754129400294
 30
0.0
 11
2370.61923031789
 21
208.7541293954141
 31
0.0
  0
LINE
  5
BFC
330
2
100
AcDbEntity
  8
0
  6
Continuous
 62
     9
100
AcDbLine
 10
2345.61923031789
 20
208.7541293938398
 30
0.0
 11
2070.626466908386
 21
208.7541293765253
 31
0.0
  0
LINE
  5
BFD
330
2
100
AcDbEntity
  8
0
  6
Continuous
 62
     9
100
AcDbLine
 10
2045.626466908385
 20
208.7541293749509
 30
0.0
 11
1968.119230316637
 21
208.754129370071
 31
0.0
  0
LINE
  5
BFE
330
2
100
AcDbEntity
  8
0
  6
Continuous
 62
     7
100
AcDbLine
 10
1968.119230315631
 20
207.7885476510433
 30
0.0
 11
1968.119230316637
 21
208.754129370071
 31
0.0
  0
LINE
  5
BFF
330
2
100
AcDbEntity
  8
0
  6
Continuous
 62
     7
100
AcDbLine
 10
2448.119230315631
 20
207.7885476812653
 30
0.0
 11
2448.119230316637
 21
208.754129400294
 31
0.0
  0
LINE
  5
C00
330
2
100
AcDbEntity
  8
0
  6
Continuous
 62
     7
100
AcDbLine
 10
1968.119230316645
 20
208.754129370071
 30
0.0
 11
1968.119230316645
 21
208.757934671974
 31
0.0
  0
LINE
  5
C01
330
2
100
AcDbEntity
  8
0
  6
Continuous
 62
     7
100
AcDbLine
 10
2448.119230316646
 20
208.754129400294
 30
0.0
 11
2448.119230316646
 21
208.7579347021974
 31
0.0
  0
LINE
  5
C02
330
2
100
AcDbEntity
  8
0
  6
Continuous
 62
     7
100
AcDbLine
 10
1968.119230319793
 20
158.7699538381582
 30
0.0
 11
1968.119230319015
 21
171.1199539346471
 31
0.0
  0
LINE
  5
C03
330
2
100
AcDbEntity
  8
0
  6
Continuous
 62
     7
100
AcDbLine
 10
2448.119230319793
 20
158.76995386838
 30
0.0
 11
2448.119230319699
 21
160.2671366971121
 31
0.0
  0
LINE
  5
C04
330
2
100
AcDbEntity
  8
0
  6
Continuous
 62
     7
100
AcDbLine
 10
2448.119230319636
 20
161.2685090430771
 30
0.0
 11
2448.119230319557
 21
162.5199539331029
 31
0.0
  0
LINE
  5
C05
330
2
100
AcDbEntity
  8
0
  6
Continuous
 62
     7
100
AcDbLine
 10
2448.119230319053
 20
170.5199539331029
 30
0.0
 11
2448.119230318975
 21
171.771398856071
 31
0.0
  0
LINE
  5
C06
330
2
100
AcDbEntity
  8
0
  6
Continuous
 62
     7
100
AcDbLine
 10
1968.119230317504
 20
195.1199539346471
 30
0.0
 11
1968.119230317416
 21
196.5199539330087
 31
0.0
  0
LINE
  5
C07
330
2
100
AcDbEntity
  8
0
  6
Continuous
 62
     7
100
AcDbLine
 10
1968.119230316912
 20
204.5199539330087
 30
0.0
 11
1968.119230316315
 21
205.543304278422
 31
0.0
  0
LINE
  5
C08
330
2
100
AcDbEntity
  8
0
  6
Continuous
 62
     7
100
AcDbLine
 10
2448.119230317507
 20
195.0699538679541
 30
0.0
 11
2448.119230317416
 21
196.5199539330087
 31
0.0
  0
LINE
  5
C09
330
2
100
AcDbEntity
  8
0
  6
Continuous
 62
     7
100
AcDbLine
 10
2448.119230316912
 20
204.5199539330087
 30
0.0
 11
2448.119230316315
 21
205.5433043086441
 31
0.0
  0
LINE
  5
C0A
330
2
100
AcDbEntity
  8
0
  6
Continuous
 62
     7
100
AcDbLine
 10
1968.119230317813
 20
956.5199538366242
 30
0.0
 11
3768.119230317799
 21
956.5199538366242
 31
0.0
  0
LINE
  5
C0B
330
2
100
AcDbEntity
  8
0
  6
Continuous
 62
     9
100
AcDbLine
 10
2018.119230317811
 20
906.5199538366419
 30
0.0
 11
3718.1192303178
 21
906.5199538366419
 31
0.0
  0
LINE
  5
C0C
330
2
100
AcDbEntity
  8
0
  6
Continuous
 62
     9
100
AcDbLine
 10
2018.119230317811
 20
208.7579346751222
 30
0.0
 11
2018.119230317811
 21
906.5199538366419
 31
0.0
  0
LINE
  5
C0D
330
2
100
AcDbEntity
  8
0
  6
Continuous
 62
     9
100
AcDbLine
 10
3718.1192303178
 20
206.519953836897
 30
0.0
 11
2448.119230316787
 21
206.519953836897
 31
0.0
  0
LINE
  5
C0E
330
2
100
AcDbEntity
  8
0
  6
Continuous
 62
     9
100
AcDbLine
 10
3718.1192303178
 20
906.5199538366419
 30
0.0
 11
3718.1192303178
 21
206.519953836897
 31
0.0
  0
LINE
  5
C0F
330
2
100
AcDbEntity
  8
0
  6
Continuous
 62
     7
100
AcDbLine
 10
1968.119230317813
 20
208.757934671974
 30
0.0
 11
1968.119230317813
 21
956.5199538366242
 31
0.0
  0
LINE
  5
C10
330
2
100
AcDbEntity
  8
0
  6
Continuous
 62
     7
100
AcDbLine
 10
3768.119230317799
 20
156.5199538369152
 30
0.0
 11
2973.376008856352
 21
156.5199538369152
 31
0.0
  0
LINE
  5
C11
330
2
100
AcDbEntity
  8
0
  6
Continuous
 62
     7
100
AcDbLine
 10
2932.876008856796
 20
156.5199538369152
 30
0.0
 11
2557.876008856792
 21
156.5199538369152
 31
0.0
  0
LINE
  5
C12
330
2
100
AcDbEntity
  8
0
  6
Continuous
 62
     7
100
AcDbLine
 10
2532.87600885679
 20
156.5199538369152
 30
0.0
 11
2448.119230318021
 21
156.5199538369152
 31
0.0
  0
LINE
  5
C13
330
2
100
AcDbEntity
  8
0
  6
Continuous
 62
     7
100
AcDbLine
 10
3768.119230317799
 20
956.5199538366242
 30
0.0
 11
3768.119230317799
 21
195.1199539345548
 31
0.0
  0
LINE
  5
C14
330
2
100
AcDbEntity
  8
0
  6
Continuous
 62
     7
100
AcDbLine
 10
3768.119230317747
 20
171.1199539348422
 30
0.0
 11
3768.119230317799
 21
156.5199538369152
 31
0.0
  0
LINE
  5
C15
330
2
100
AcDbEntity
  8
0
  6
Continuous
 62
     7
100
AcDbLine
 10
2068.119230317793
 20
256.5199538336583
 30
0.0
 11
2020.357211157781
 21
208.7579346736629
 31
0.0
  0
LINE
  5
C16
330
2
100
AcDbEntity
  8
0
  6
Continuous
 62
     7
100
AcDbLine
 10
2068.119230317812
 20
256.519953833676
 30
0.0
 11
3668.119230317799
 21
256.519953833676
 31
0.0
  0
LINE
  5
C17
330
2
100
AcDbEntity
  8
0
  6
Continuous
 62
     7
100
AcDbLine
 10
3718.119230316198
 20
206.5199538352958
 30
0.0
 11
3668.119230317819
 21
256.5199538336583
 31
0.0
  0
LINE
  5
C18
330
2
100
AcDbEntity
  8
0
  6
Continuous
 62
     7
100
AcDbLine
 10
2068.119230317812
 20
856.5199538334582
 30
0.0
 11
2068.119230317812
 21
256.519953833676
 31
0.0
  0
LINE
  5
C19
330
2
100
AcDbEntity
  8
0
  6
Continuous
 62
     7
100
AcDbLine
 10
2068.119230317793
 20
856.5199538334773
 30
0.0
 11
2018.11923031621
 21
906.5199538350407
 31
0.0
  0
LINE
  5
C1A
330
2
100
AcDbEntity
  8
0
  6
Continuous
 62
     7
100
AcDbLine
 10
3668.119230317799
 20
256.519953833676
 30
0.0
 11
3668.119230317799
 21
856.5199538334573
 31
0.0
  0
LINE
  5
C1B
330
2
100
AcDbEntity
  8
0
  6
Continuous
 62
     7
100
AcDbLine
 10
3718.119230319401
 20
906.5199538350402
 30
0.0
 11
3668.119230317819
 21
856.5199538334764
 31
0.0
  0
LINE
  5
C1C
330
2
100
AcDbEntity
  8
0
  6
Continuous
 62
     7
100
AcDbLine
 10
3668.119230317799
 20
856.5199538334573
 30
0.0
 11
2068.119230317812
 21
856.5199538334582
 31
0.0
  0
LINE
  5
C1D
330
2
100
AcDbEntity
  8
0
  6
Continuous
 62
     9
100
AcDbLine
 10
2268.11923031781
 20
456.5199538079841
 30
0.0
 11
3468.119230317802
 21
456.5199538079841
 31
0.0
  0
LINE
  5
C1E
330
2
100
AcDbEntity
  8
0
  6
Continuous
 62
     7
100
AcDbLine
 10
3668.119230317726
 20
256.5199538209413
 30
0.0
 11
3468.119230324206
 21
456.5199538143888
 31
0.0
  0
LINE
  5
C1F
330
2
100
AcDbEntity
  8
0
  6
Continuous
 62
     7
100
AcDbLine
 10
2068.119230317885
 20
256.5199538209422
 30
0.0
 11
2268.119230311405
 21
456.5199538143888
 31
0.0
  0
LINE
  5
C20
330
2
100
AcDbEntity
  8
0
  6
Continuous
 62
     7
100
AcDbLine
 10
2268.119230324214
 20
656.519953814316
 30
0.0
 11
2068.119230317886
 21
856.519953820573
 31
0.0
  0
LINE
  5
C21
330
2
100
AcDbEntity
  8
0
  6
Continuous
 62
     9
100
AcDbLine
 10
2268.11923031781
 20
656.5199538079109
 30
0.0
 11
2268.11923031781
 21
456.5199538079841
 31
0.0
  0
LINE
  5
C22
330
2
100
AcDbEntity
  8
0
  6
Continuous
 62
     9
100
AcDbLine
 10
3468.119230317802
 20
456.5199538079841
 30
0.0
 11
3468.119230317802
 21
656.5199538079109
 31
0.0
  0
LINE
  5
C23
330
2
100
AcDbEntity
  8
0
  6
Continuous
 62
     7
100
AcDbLine
 10
3468.119230311396
 20
656.519953814316
 30
0.0
 11
3668.119230317726
 21
856.519953820573
 31
0.0
  0
LINE
  5
C24
330
2
100
AcDbEntity
  8
0
  6
Continuous
 62
     9
100
AcDbLine
 10
3468.119230317802
 20
656.5199538079109
 30
0.0
 11
2268.11923031781
 21
656.5199538079109
 31
0.0
  0
LINE
  5
C25
330
2
100
AcDbEntity
  8
0
  6
Continuous
 62
     9
100
AcDbLine
 10
2972.37600885629
 20
143.519953957604
 30
0.0
 11
2972.376008856287
 21
162.5199539576031
 31
0.0
  0
LINE
  5
C26
330
2
100
AcDbEntity
  8
0
  6
Continuous
 62
     7
100
AcDbLine
 10
2973.37600885635
 20
162.5199539576563
 30
0.0
 11
2973.376008856353
 21
143.5199539576563
 31
0.0
  0
LINE
  5
C27
330
2
100
AcDbEntity
  8
0
  6
Continuous
 62
     9
100
AcDbLine
 10
2972.37600885629
 20
143.5199539576549
 30
0.0
 11
2973.376008856353
 21
143.5199539576563
 31
0.0
  0
LINE
  5
C28
330
2
100
AcDbEntity
  8
0
  6
Continuous
 62
     9
100
AcDbLine
 10
2954.376008856288
 20
158.0199539338901
 30
0.0
 11
2954.376008856288
 21
157.519953933915
 31
0.0
  0
LINE
  5
C29
330
2
100
AcDbEntity
  8
0
  6
Continuous
 62
     9
100
AcDbLine
 10
2957.259164870668
 20
143.519953957601
 30
0.0
 11
2972.37600885629
 21
143.519953957604
 31
0.0
  0
ARC
  5
C2A
330
2
100
AcDbEntity
  8
0
  6
Continuous
 62
     7
100
AcDbCircle
 10
2972.376008856353
 20
143.5199539576549
 30
0.0
 40
1.000000000000111
100
AcDbArc
 50
270.0
 51
0.0
  0
LINE
  5
C2B
330
2
100
AcDbEntity
  8
0
  6
Continuous
 62
     9
100
AcDbLine
 10
2972.376008856353
 20
143.519953957604
 30
0.0
 11
2972.376008856353
 21
142.5199539576563
 31
0.0
  0
LINE
  5
C2C
330
2
100
AcDbEntity
  8
0
  6
Continuous
 62
     7
100
AcDbLine
 10
2972.376008856353
 20
142.5199539576563
 30
0.0
 11
2957.876008856786
 21
142.5199539576531
 31
0.0
  0
LINE
  5
C2D
330
2
100
AcDbEntity
  8
0
  6
Continuous
 62
     7
100
AcDbLine
 10
2953.376008856351
 20
157.5199539338812
 30
0.0
 11
2953.376008856351
 21
158.0199539338591
 31
0.0
  0
LINE
  5
C2E
330
2
100
AcDbEntity
  8
0
  6
Continuous
 62
     9
100
AcDbLine
 10
2972.37600885692
 20
170.519953957081
 30
0.0
 11
2972.376008857017
 21
173.1199539348408
 31
0.0
  0
LINE
  5
C2F
330
2
100
AcDbEntity
  8
0
  6
Continuous
 62
     7
100
AcDbLine
 10
2973.376008857016
 20
173.1199539348408
 30
0.0
 11
2973.37600885692
 21
170.5199539571151
 31
0.0
  0
LINE
  5
C30
330
2
100
AcDbEntity
  8
0
  6
Continuous
 62
     7
100
AcDbLine
 10
2442.376008829004
 20
160.019953952665
 30
0.0
 11
2443.402702523623
 21
160.0199539520822
 31
0.0
  0
LINE
  5
C31
330
2
100
AcDbEntity
  8
0
  6
Continuous
 62
     7
100
AcDbLine
 10
2442.376008836395
 20
173.019953952665
 30
0.0
 11
2442.376008829004
 21
160.019953952665
 31
0.0
  0
LINE
  5
C32
330
2
100
AcDbEntity
  8
0
  6
Continuous
 62
     7
100
AcDbLine
 10
2442.376008851177
 20
199.0199539526661
 30
0.0
 11
2442.376008849756
 21
196.5199539330087
 31
0.0
  0
LINE
  5
C33
330
2
100
AcDbEntity
  8
0
  6
Continuous
 62
     7
100
AcDbLine
 10
2442.376008849756
 20
196.5199539330087
 30
0.0
 11
2442.376008836395
 21
173.019953952665
 31
0.0
  0
LINE
  5
C34
330
2
100
AcDbEntity
  8
0
  6
Continuous
 62
     7
100
AcDbLine
 10
2442.876008851178
 20
199.0199539523823
 30
0.0
 11
2442.376008851177
 21
199.0199539526661
 31
0.0
  0
LINE
  5
C35
330
2
100
AcDbEntity
  8
0
  6
Continuous
 62
     7
100
AcDbLine
 10
2443.375981906231
 20
173.021354320703
 30
0.0
 11
2442.924085773205
 21
196.5199539330087
 31
0.0
  0
LINE
  5
C36
330
2
100
AcDbEntity
  8
0
  6
Continuous
 62
     7
100
AcDbLine
 10
2442.924085773205
 20
196.5199539330087
 30
0.0
 11
2442.876008851178
 21
199.0199539523823
 31
0.0
  0
LINE
  5
C37
330
2
100
AcDbEntity
  8
0
  6
Continuous
 62
     7
100
AcDbLine
 10
2454.414031024862
 20
172.4428746724861
 30
0.0
 11
2443.375981906231
 21
173.021354320703
 31
0.0
  0
LINE
  5
C38
330
2
100
AcDbEntity
  8
0
  6
Continuous
 62
     7
100
AcDbLine
 10
2454.382629450775
 20
171.8436969516508
 30
0.0
 11
2454.414031024862
 21
172.4428746724861
 31
0.0
  0
ARC
  5
C39
330
2
100
AcDbEntity
  8
0
  6
Continuous
 62
     7
100
AcDbCircle
 10
2453.983177636886
 20
171.8646313343749
 30
0.0
 40
0.4000000000001886
100
AcDbArc
 50
266.9999999674331
 51
356.9999999674201
  0
LINE
  5
C3A
330
2
100
AcDbEntity
  8
0
  6
Continuous
 62
     7
100
AcDbLine
 10
2452.863750765964
 20
171.5227490729771
 30
0.0
 11
2453.962243254161
 21
171.4651795204852
 31
0.0
  0
LINE
  5
C3B
330
2
100
AcDbEntity
  8
0
  6
Continuous
 62
     7
100
AcDbLine
 10
2452.874217957326
 20
171.722474979922
 30
0.0
 11
2452.863750765964
 21
171.5227490729771
 31
0.0
  0
LINE
  5
C3C
330
2
100
AcDbEntity
  8
0
  6
Continuous
 62
     7
100
AcDbLine
 10
2449.878329353152
 20
171.8794828503539
 30
0.0
 11
2452.874217957326
 21
171.722474979922
 31
0.0
  0
LINE
  5
C3D
330
2
100
AcDbEntity
  8
0
  6
Continuous
 62
     7
100
AcDbLine
 10
2449.867862161789
 20
171.679756943409
 30
0.0
 11
2449.878329353152
 21
171.8794828503539
 31
0.0
  0
LINE
  5
C3E
330
2
100
AcDbEntity
  8
0
  6
Continuous
 62
     7
100
AcDbLine
 10
2446.871973557615
 20
171.8367648138412
 30
0.0
 11
2449.867862161789
 21
171.679756943409
 31
0.0
  0
LINE
  5
C3F
330
2
100
AcDbEntity
  8
0
  6
Continuous
 62
     7
100
AcDbLine
 10
2446.867147015764
 20
171.46255997365
 30
0.0
 11
2446.871973557615
 21
171.8367648138412
 31
0.0
  0
ARC
  5
C40
330
2
100
AcDbEntity
  8
0
  6
Continuous
 62
     7
100
AcDbCircle
 10
2446.46728814787
 20
171.4519352022491
 30
0.0
 40
0.3999999999997422
100
AcDbArc
 50
266.9999999674331
 51
1.522065413242965
  0
LINE
  5
C41
330
2
100
AcDbEntity
  8
0
  6
Continuous
 62
     7
100
AcDbLine
 10
2446.246627858201
 20
171.062950579721
 30
0.0
 11
2446.446353765146
 21
171.0524833883589
 31
0.0
  0
ARC
  5
C42
330
2
100
AcDbEntity
  8
0
  6
Continuous
 62
     7
100
AcDbCircle
 10
2446.267562240925
 20
171.4624023936119
 30
0.0
 40
0.3999999999999982
100
AcDbArc
 50
181.5220654130476
 51
266.9999999674331
  0
LINE
  5
C43
330
2
100
AcDbEntity
  8
0
  6
Continuous
 62
     7
100
AcDbLine
 10
2445.87334402289
 20
171.8891007706511
 30
0.0
 11
2445.867703373032
 21
171.451777622213
 31
0.0
  0
LINE
  5
C44
330
2
100
AcDbEntity
  8
0
  6
Continuous
 62
     7
100
AcDbLine
 10
2443.376008835827
 20
172.0199805633542
 30
0.0
 11
2445.87334402289
 21
171.8891007706511
 31
0.0
  0
LINE
  5
C45
330
2
100
AcDbEntity
  8
0
  6
Continuous
 62
     7
100
AcDbLine
 10
2443.376008829573
 20
161.0199273408391
 30
0.0
 11
2443.376008830426
 21
162.5199539331029
 31
0.0
  0
LINE
  5
C46
330
2
100
AcDbEntity
  8
0
  6
Continuous
 62
     7
100
AcDbLine
 10
2443.376008830426
 20
162.5199539331029
 30
0.0
 11
2443.376008834974
 21
170.519953933102
 31
0.0
  0
LINE
  5
C47
330
2
100
AcDbEntity
  8
0
  6
Continuous
 62
     7
100
AcDbLine
 10
2443.376008834974
 20
170.519953933102
 30
0.0
 11
2443.376008835827
 21
172.0199805633542
 31
0.0
  0
LINE
  5
C48
330
2
100
AcDbEntity
  8
0
  6
Continuous
 62
     7
100
AcDbLine
 10
2445.873344016785
 20
161.1508071307021
 30
0.0
 11
2443.376008829573
 21
161.0199273408391
 31
0.0
  0
LINE
  5
C49
330
2
100
AcDbEntity
  8
0
  6
Continuous
 62
     7
100
AcDbLine
 10
2445.868110421392
 20
161.5565711250249
 30
0.0
 11
2445.873344016785
 21
161.1508071307021
 31
0.0
  0
ARC
  5
C4A
330
2
100
AcDbEntity
  8
0
  6
Continuous
 62
     7
100
AcDbCircle
 10
2446.267562235306
 20
161.5775055072938
 30
0.0
 40
0.4000000000003661
100
AcDbArc
 50
92.99999996741787
 51
182.9999999673008
  0
LINE
  5
C4B
330
2
100
AcDbEntity
  8
0
  6
Continuous
 62
     7
100
AcDbLine
 10
2446.446353759992
 20
161.987424512343
 30
0.0
 11
2446.246627853035
 21
161.9769573212081
 31
0.0
  0
ARC
  5
C4C
330
2
100
AcDbEntity
  8
0
  6
Continuous
 62
     7
100
AcDbCircle
 10
2446.467288142262
 20
161.5879726984301
 30
0.0
 40
0.4000000000000158
100
AcDbArc
 50
2.999999967521958
 51
92.99999996744389
  0
LINE
  5
C4D
330
2
100
AcDbEntity
  8
0
  6
Continuous
 62
     7
100
AcDbLine
 10
2446.871973551569
 20
161.2031430863781
 30
0.0
 11
2446.866739956176
 21
161.6089070806999
 31
0.0
  0
LINE
  5
C4E
330
2
100
AcDbEntity
  8
0
  6
Continuous
 62
     7
100
AcDbLine
 10
2449.867862155923
 20
161.360150953403
 30
0.0
 11
2446.871973551569
 21
161.2031430863781
 31
0.0
  0
LINE
  5
C4F
330
2
100
AcDbEntity
  8
0
  6
Continuous
 62
     7
100
AcDbLine
 10
2449.878329347058
 20
161.160425046447
 30
0.0
 11
2449.867862155923
 21
161.360150953403
 31
0.0
  0
LINE
  5
C50
330
2
100
AcDbEntity
  8
0
  6
Continuous
 62
     7
100
AcDbLine
 10
2452.87421795141
 20
161.3174329134722
 30
0.0
 11
2449.878329347058
 21
161.160425046447
 31
0.0
  0
LINE
  5
C51
330
2
100
AcDbEntity
  8
0
  6
Continuous
 62
     7
100
AcDbLine
 10
2452.863750760275
 20
161.5171588204289
 30
0.0
 11
2452.87421795141
 21
161.3174329134722
 31
0.0
  0
LINE
  5
C52
330
2
100
AcDbEntity
  8
0
  6
Continuous
 62
     7
100
AcDbLine
 10
2453.962243248538
 20
161.5747283716721
 30
0.0
 11
2452.863750760275
 21
161.5171588204289
 31
0.0
  0
ARC
  5
C53
330
2
100
AcDbEntity
  8
0
  6
Continuous
 62
     7
100
AcDbCircle
 10
2453.983177630809
 20
161.175276557758
 30
0.0
 40
0.3999999999999693
100
AcDbArc
 50
2.999999967404871
 51
92.99999996741787
  0
LINE
  5
C54
330
2
100
AcDbEntity
  8
0
  6
Continuous
 62
     7
100
AcDbLine
 10
2454.414031018127
 20
160.5970332191573
 30
0.0
 11
2454.382629444722
 21
161.1962109400281
 31
0.0
  0
LINE
  5
C55
330
2
100
AcDbEntity
  8
0
  6
Continuous
 62
     7
100
AcDbLine
 10
2443.402702523623
 20
160.0199539520822
 30
0.0
 11
2454.414031018127
 21
160.5970332191573
 31
0.0
  0
LINE
  5
C56
330
2
100
AcDbEntity
  8
0
  6
Continuous
 62
     4
100
AcDbLine
 10
2443.376008856785
 20
170.519953933102
 30
0.0
 11
2993.376008856785
 21
170.5199539331802
 31
0.0
  0
LINE
  5
C57
330
2
100
AcDbEntity
  8
0
  6
Continuous
 62
     4
100
AcDbLine
 10
2993.376008856785
 20
170.5199539331802
 30
0.0
 11
2993.376008856786
 21
162.5199539331802
 31
0.0
  0
LINE
  5
C58
330
2
100
AcDbEntity
  8
0
  6
Continuous
 62
     4
100
AcDbLine
 10
2993.376008856786
 20
162.5199539331802
 30
0.0
 11
2443.376008856786
 21
162.5199539331029
 31
0.0
  0
LINE
  5
C59
330
2
100
AcDbEntity
  8
0
  6
Continuous
 62
     4
100
AcDbLine
 10
2443.376008856786
 20
162.5199539331029
 30
0.0
 11
2443.376008856785
 21
170.519953933102
 31
0.0
  0
LINE
  5
C5A
330
2
100
AcDbEntity
  8
0
  6
Continuous
 62
     4
100
AcDbLine
 10
1968.11923031788
 20
196.5199539330087
 30
0.0
 11
2442.376008849756
 21
196.5199539330087
 31
0.0
  0
LINE
  5
C5B
330
2
100
AcDbEntity
  8
0
  6
Continuous
 62
     4
100
AcDbLine
 10
2442.376008849756
 20
196.5199539330087
 30
0.0
 11
2442.924085773205
 21
196.5199539330087
 31
0.0
  0
LINE
  5
C5C
330
2
100
AcDbEntity
  8
0
  6
Continuous
 62
     4
100
AcDbLine
 10
2442.924085773205
 20
196.5199539330087
 30
0.0
 11
2448.11923031788
 21
196.5199539330087
 31
0.0
  0
LINE
  5
C5D
330
2
100
AcDbEntity
  8
0
  6
Continuous
 62
     4
100
AcDbLine
 10
1968.11923031788
 20
204.5199539330087
 30
0.0
 11
1968.11923031788
 21
196.5199539330087
 31
0.0
  0
LINE
  5
C5E
330
2
100
AcDbEntity
  8
0
  6
Continuous
 62
     4
100
AcDbLine
 10
2448.11923031788
 20
204.5199539330087
 30
0.0
 11
1968.11923031788
 21
204.5199539330087
 31
0.0
  0
LINE
  5
C5F
330
2
100
AcDbEntity
  8
0
  6
Continuous
 62
     4
100
AcDbLine
 10
2448.11923031788
 20
196.5199539330087
 30
0.0
 11
2448.11923031788
 21
204.5199539330087
 31
0.0
  0
LINE
  5
C60
330
2
100
AcDbEntity
  8
0
  6
Continuous
 62
     7
100
AcDbLine
 10
2346.119230317889
 20
205.519953933931
 30
0.0
 11
2346.119230317952
 21
204.5199539339324
 31
0.0
  0
LINE
  5
C61
330
2
100
AcDbEntity
  8
0
  6
Continuous
 62
     7
100
AcDbLine
 10
2370.119230317952
 20
204.5199539354389
 30
0.0
 11
2370.119230317889
 21
205.519953935439
 31
0.0
  0
LINE
  5
C62
330
2
100
AcDbEntity
  8
0
  6
Continuous
 62
     7
100
AcDbLine
 10
2370.619230317889
 20
205.5199539346808
 30
0.0
 11
2370.619230317891
 21
211.2199539346812
 31
0.0
  0
LINE
  5
C63
330
2
100
AcDbEntity
  8
0
  6
Continuous
 62
     7
100
AcDbLine
 10
2345.619230317891
 20
211.2199539346903
 30
0.0
 11
2345.619230317889
 21
205.5199539346891
 31
0.0
  0
LINE
  5
C64
330
2
100
AcDbEntity
  8
0
  6
Continuous
 62
     7
100
AcDbLine
 10
2370.619230317891
 20
211.2199539346812
 30
0.0
 11
2370.319230317891
 21
211.5199539346809
 31
0.0
  0
LINE
  5
C65
330
2
100
AcDbEntity
  8
0
  6
Continuous
 62
     7
100
AcDbLine
 10
2345.919230317891
 20
211.5199539346891
 30
0.0
 11
2345.619230317891
 21
211.2199539346903
 31
0.0
  0
LINE
  5
C66
330
2
100
AcDbEntity
  8
0
  6
Continuous
 62
     7
100
AcDbLine
 10
2370.619230317881
 20
195.0199539346849
 30
0.0
 11
2370.619230317881
 21
196.5199539346849
 31
0.0
  0
LINE
  5
C67
330
2
100
AcDbEntity
  8
0
  6
Continuous
 62
     7
100
AcDbLine
 10
2345.619230317881
 20
196.5199539346849
 30
0.0
 11
2345.619230317881
 21
195.0199539346863
 31
0.0
  0
LINE
  5
C68
330
2
100
AcDbEntity
  8
0
  6
Continuous
 62
     7
100
AcDbLine
 10
2345.619230317881
 20
195.0199539346863
 30
0.0
 11
2351.11923031788
 21
193.5199539346849
 31
0.0
  0
LINE
  5
C69
330
2
100
AcDbEntity
  8
0
  6
Continuous
 62
     7
100
AcDbLine
 10
2365.119230317881
 20
193.5199539346849
 30
0.0
 11
2370.619230317881
 21
195.0199539346849
 31
0.0
  0
LINE
  5
C6A
330
2
100
AcDbEntity
  8
0
  6
Continuous
 62
     7
100
AcDbLine
 10
2046.126466908385
 20
205.5199539338941
 30
0.0
 11
2046.126466908448
 21
204.5199539338942
 31
0.0
  0
LINE
  5
C6B
330
2
100
AcDbEntity
  8
0
  6
Continuous
 62
     7
100
AcDbLine
 10
2070.126466908448
 20
204.5199539354103
 30
0.0
 11
2070.126466908385
 21
205.5199539354103
 31
0.0
  0
LINE
  5
C6C
330
2
100
AcDbEntity
  8
0
  6
Continuous
 62
     7
100
AcDbLine
 10
2070.626466908386
 20
211.219953934652
 30
0.0
 11
2070.326466908385
 21
211.5199539346522
 31
0.0
  0
LINE
  5
C6D
330
2
100
AcDbEntity
  8
0
  6
Continuous
 62
     7
100
AcDbLine
 10
2045.926466908385
 20
211.5199539346522
 30
0.0
 11
2045.626466908385
 21
211.219953934652
 31
0.0
  0
LINE
  5
C6E
330
2
100
AcDbEntity
  8
0
  6
Continuous
 62
     7
100
AcDbLine
 10
2070.626466908386
 20
205.5199539346522
 30
0.0
 11
2070.626466908386
 21
211.219953934652
 31
0.0
  0
LINE
  5
C6F
330
2
100
AcDbEntity
  8
0
  6
Continuous
 62
     7
100
AcDbLine
 10
2045.626466908385
 20
211.219953934652
 30
0.0
 11
2045.626466908385
 21
205.5199539346522
 31
0.0
  0
LINE
  5
C70
330
2
100
AcDbEntity
  8
0
  6
Continuous
 62
     7
100
AcDbLine
 10
2070.626466908379
 20
195.0199539346581
 30
0.0
 11
2070.626466908379
 21
196.5199539346572
 31
0.0
  0
LINE
  5
C71
330
2
100
AcDbEntity
  8
0
  6
Continuous
 62
     7
100
AcDbLine
 10
2045.626466908379
 20
196.5199539346472
 30
0.0
 11
2045.626466908379
 21
195.0199539346472
 31
0.0
  0
LINE
  5
C72
330
2
100
AcDbEntity
  8
0
  6
Continuous
 62
     7
100
AcDbLine
 10
2045.626466908379
 20
195.0199539346472
 30
0.0
 11
2051.12646690838
 21
193.519953934649
 31
0.0
  0
LINE
  5
C73
330
2
100
AcDbEntity
  8
0
  6
Continuous
 62
     7
100
AcDbLine
 10
2065.12646690838
 20
193.5199539346552
 30
0.0
 11
2070.626466908379
 21
195.0199539346581
 31
0.0
  0
LINE
  5
C74
330
2
100
AcDbEntity
  8
0
  6
Continuous
 62
     7
100
AcDbLine
 10
2937.87600885799
 20
158.0199539338439
 30
0.0
 11
2937.876008858021
 21
157.519953933865
 31
0.0
  0
LINE
  5
C75
330
2
100
AcDbEntity
  8
0
  6
Continuous
 62
     7
100
AcDbLine
 10
2952.876008858014
 20
157.5199539338671
 30
0.0
 11
2952.876008857982
 21
158.0199539338462
 31
0.0
  0
LINE
  5
C76
330
2
100
AcDbEntity
  8
0
  6
Continuous
 62
     7
100
AcDbLine
 10
2933.376008856795
 20
162.519953934175
 30
0.0
 11
2933.376008856795
 21
161.5199539341749
 31
0.0
  0
LINE
  5
C77
330
2
100
AcDbEntity
  8
0
  6
Continuous
 62
     7
100
AcDbLine
 10
2957.376008856784
 20
161.519953934179
 30
0.0
 11
2957.376008856784
 21
162.519953934179
 31
0.0
  0
LINE
  5
C78
330
2
100
AcDbEntity
  8
0
  6
Continuous
 62
     7
100
AcDbLine
 10
2931.376008856794
 20
171.5199539341749
 30
0.0
 11
2931.376008856794
 21
170.519953934174
 31
0.0
  0
LINE
  5
C79
330
2
100
AcDbEntity
  8
0
  6
Continuous
 62
     7
100
AcDbLine
 10
2955.376008856783
 20
170.5199539341781
 30
0.0
 11
2955.376008856783
 21
171.5199539341781
 31
0.0
  0
LINE
  5
C7A
330
2
100
AcDbEntity
  8
0
  6
Continuous
 62
     7
100
AcDbLine
 10
2932.876008856798
 20
141.0199539341772
 30
0.0
 11
2932.876008856798
 21
140.0558523190388
 31
0.0
  0
LINE
  5
C7B
330
2
100
AcDbEntity
  8
0
  6
Continuous
 62
     7
100
AcDbLine
 10
2957.876008856787
 20
140.0558523190432
 30
0.0
 11
2957.876008856786
 21
141.0199539341811
 31
0.0
  0
LINE
  5
C7C
330
2
100
AcDbEntity
  8
0
  6
Continuous
 62
     7
100
AcDbLine
 10
2932.876008856798
 20
140.0558523190388
 30
0.0
 11
2934.876008856798
 21
139.5199539341772
 31
0.0
  0
LINE
  5
C7D
330
2
100
AcDbEntity
  8
0
  6
Continuous
 62
     7
100
AcDbLine
 10
2955.876008856788
 20
139.5199539341799
 30
0.0
 11
2957.876008856787
 21
140.0558523190432
 31
0.0
  0
LINE
  5
C7E
330
2
100
AcDbEntity
  8
0
  6
Continuous
 62
     7
100
AcDbLine
 10
2939.876008856795
 20
141.5199539338209
 30
0.0
 11
2939.876008856795
 21
141.0199539341781
 31
0.0
  0
LINE
  5
C7F
330
2
100
AcDbEntity
  8
0
  6
Continuous
 62
     7
100
AcDbLine
 10
2950.87600885679
 20
141.0199539341799
 30
0.0
 11
2950.87600885679
 21
141.5199539338232
 31
0.0
  0
LINE
  5
C80
330
2
100
AcDbEntity
  8
0
  6
Continuous
 62
     7
100
AcDbLine
 10
2955.876008856782
 20
177.2199539341782
 30
0.0
 11
2955.576008856782
 21
177.5199539341781
 31
0.0
  0
LINE
  5
C81
330
2
100
AcDbEntity
  8
0
  6
Continuous
 62
     7
100
AcDbLine
 10
2931.176008856794
 20
177.5199539341749
 30
0.0
 11
2930.876008856794
 21
177.2199539341741
 31
0.0
  0
LINE
  5
C82
330
2
100
AcDbEntity
  8
0
  6
Continuous
 62
     7
100
AcDbLine
 10
2955.876008856783
 20
171.5199539341781
 30
0.0
 11
2955.876008856782
 21
177.2199539341782
 31
0.0
  0
LINE
  5
C83
330
2
100
AcDbEntity
  8
0
  6
Continuous
 62
     7
100
AcDbLine
 10
2930.876008856794
 20
177.2199539341741
 30
0.0
 11
2930.876008856795
 21
171.5199539341749
 31
0.0
  0
ARC
  5
C84
330
2
100
AcDbEntity
  8
0
  6
Continuous
 62
     7
100
AcDbCircle
 10
2933.376008856801
 20
157.0199539341781
 30
0.0
 40
0.5000000000001671
100
AcDbArc
 50
90.00000000031267
 51
180.0
  0
ARC
  5
C85
330
2
100
AcDbEntity
  8
0
  6
Continuous
 62
     7
100
AcDbCircle
 10
2957.376008856779
 20
157.0199539341811
 30
0.0
 40
0.4999999999999451
100
AcDbArc
 50
0.0
 51
89.99999999968734
  0
LINE
  5
C86
330
2
100
AcDbEntity
  8
0
  6
Continuous
 62
     7
100
AcDbLine
 10
2932.876008856796
 20
157.0199539341781
 30
0.0
 11
2932.876008856796
 21
156.3206891885461
 31
0.0
  0
LINE
  5
C87
330
2
100
AcDbEntity
  8
0
  6
Continuous
 62
     7
100
AcDbLine
 10
2957.876008856784
 20
156.320689188549
 30
0.0
 11
2957.876008856784
 21
157.0199539341811
 31
0.0
  0
ARC
  5
C88
330
2
100
AcDbEntity
  8
0
  6
Continuous
 62
     7
100
AcDbCircle
 10
2965.876008856771
 20
149.519953934182
 30
0.0
 40
10.50000000000001
100
AcDbArc
 50
139.632406455789
 51
220.3675935442377
  0
ARC
  5
C89
330
2
100
AcDbEntity
  8
0
  6
Continuous
 62
     7
100
AcDbCircle
 10
2924.87600885681
 20
149.5199539341759
 30
0.0
 40
10.49999999999979
100
AcDbArc
 50
319.632406455789
 51
40.36759354423775
  0
LINE
  5
C8A
330
2
100
AcDbEntity
  8
0
  6
Continuous
 62
     7
100
AcDbLine
 10
2932.876008856798
 20
142.7192186798093
 30
0.0
 11
2932.876008856798
 21
142.0199539341772
 31
0.0
  0
LINE
  5
C8B
330
2
100
AcDbEntity
  8
0
  6
Continuous
 62
     7
100
AcDbLine
 10
2957.876008856786
 20
142.0199539341811
 30
0.0
 11
2957.876008856786
 21
142.7192186798131
 31
0.0
  0
ARC
  5
C8C
330
2
100
AcDbEntity
  8
0
  6
Continuous
 62
     7
100
AcDbCircle
 10
2957.376008856781
 20
142.0199539341811
 30
0.0
 40
0.4999999999999451
100
AcDbArc
 50
270.0000000003127
 51
0.0
  0
ARC
  5
C8D
330
2
100
AcDbEntity
  8
0
  6
Continuous
 62
     7
100
AcDbCircle
 10
2933.376008856803
 20
142.0199539341772
 30
0.0
 40
0.4999999999999451
100
AcDbArc
 50
180.0
 51
269.9999999996874
  0
LINE
  5
C8E
330
2
100
AcDbEntity
  8
0
  6
Continuous
 62
     7
100
AcDbLine
 10
2957.876008856784
 20
158.0199539341811
 30
0.0
 11
2957.876008856784
 21
161.5199539341811
 31
0.0
  0
LINE
  5
C8F
330
2
100
AcDbEntity
  8
0
  6
Continuous
 62
     7
100
AcDbLine
 10
2932.876008856795
 20
161.5199539341772
 30
0.0
 11
2932.876008856796
 21
158.0199539341772
 31
0.0
  0
ARC
  5
C90
330
2
100
AcDbEntity
  8
0
  6
Continuous
 62
     7
100
AcDbCircle
 10
2938.876008856796
 20
157.5199539341781
 30
0.0
 40
0.4999999999997229
100
AcDbArc
 50
0.0
 51
90.00000000018239
  0
ARC
  5
C91
330
2
100
AcDbEntity
  8
0
  6
Continuous
 62
     7
100
AcDbCircle
 10
2951.876008856784
 20
157.5199539341799
 30
0.0
 40
0.4999999999999451
100
AcDbArc
 50
89.99999999984366
 51
180.0
  0
LINE
  5
C92
330
2
100
AcDbEntity
  8
0
  6
Continuous
 62
     7
100
AcDbLine
 10
2537.876008857117
 20
158.0199539337868
 30
0.0
 11
2537.876008857149
 21
157.5199539338082
 31
0.0
  0
LINE
  5
C93
330
2
100
AcDbEntity
  8
0
  6
Continuous
 62
     7
100
AcDbLine
 10
2552.87600885715
 20
157.51995393381
 30
0.0
 11
2552.876008857118
 21
158.0199539337891
 31
0.0
  0
LINE
  5
C94
330
2
100
AcDbEntity
  8
0
  6
Continuous
 62
     7
100
AcDbLine
 10
2533.37600885679
 20
162.5199539341192
 30
0.0
 11
2533.37600885679
 21
161.5199539341179
 31
0.0
  0
LINE
  5
C95
330
2
100
AcDbEntity
  8
0
  6
Continuous
 62
     7
100
AcDbLine
 10
2557.376008856792
 20
161.519953934122
 30
0.0
 11
2557.376008856791
 21
162.519953934122
 31
0.0
  0
LINE
  5
C96
330
2
100
AcDbEntity
  8
0
  6
Continuous
 62
     7
100
AcDbLine
 10
2531.376008856788
 20
171.5199539341179
 30
0.0
 11
2531.376008856788
 21
170.5199539341179
 31
0.0
  0
LINE
  5
C97
330
2
100
AcDbEntity
  8
0
  6
Continuous
 62
     7
100
AcDbLine
 10
2555.37600885679
 20
170.519953934121
 30
0.0
 11
2555.376008856789
 21
171.519953934121
 31
0.0
  0
LINE
  5
C98
330
2
100
AcDbEntity
  8
0
  6
Continuous
 62
     7
100
AcDbLine
 10
2532.876008856792
 20
141.0199539341211
 30
0.0
 11
2532.876008856792
 21
140.0558523189831
 31
0.0
  0
LINE
  5
C99
330
2
100
AcDbEntity
  8
0
  6
Continuous
 62
     7
100
AcDbLine
 10
2557.876008856795
 20
140.0558523189861
 30
0.0
 11
2557.876008856795
 21
141.019953934124
 31
0.0
  0
LINE
  5
C9A
330
2
100
AcDbEntity
  8
0
  6
Continuous
 62
     7
100
AcDbLine
 10
2532.876008856792
 20
140.0558523189831
 30
0.0
 11
2534.876008856793
 21
139.5199539341211
 31
0.0
  0
LINE
  5
C9B
330
2
100
AcDbEntity
  8
0
  6
Continuous
 62
     7
100
AcDbLine
 10
2555.876008856794
 20
139.519953934124
 30
0.0
 11
2557.876008856795
 21
140.0558523189861
 31
0.0
  0
LINE
  5
C9C
330
2
100
AcDbEntity
  8
0
  6
Continuous
 62
     7
100
AcDbLine
 10
2539.876008856793
 20
141.5199539337652
 30
0.0
 11
2539.876008856793
 21
141.0199539341211
 31
0.0
  0
LINE
  5
C9D
330
2
100
AcDbEntity
  8
0
  6
Continuous
 62
     7
100
AcDbLine
 10
2550.876008856794
 20
141.0199539341231
 30
0.0
 11
2550.876008856794
 21
141.519953933767
 31
0.0
  0
LINE
  5
C9E
330
2
100
AcDbEntity
  8
0
  6
Continuous
 62
     7
100
AcDbLine
 10
2555.876008856789
 20
177.2199539341211
 30
0.0
 11
2555.576008856789
 21
177.519953934122
 31
0.0
  0
LINE
  5
C9F
330
2
100
AcDbEntity
  8
0
  6
Continuous
 62
     7
100
AcDbLine
 10
2531.176008856788
 20
177.5199539341179
 30
0.0
 11
2530.876008856787
 21
177.2199539341179
 31
0.0
  0
LINE
  5
CA0
330
2
100
AcDbEntity
  8
0
  6
Continuous
 62
     7
100
AcDbLine
 10
2555.87600885679
 20
171.519953934121
 30
0.0
 11
2555.876008856789
 21
177.2199539341211
 31
0.0
  0
LINE
  5
CA1
330
2
100
AcDbEntity
  8
0
  6
Continuous
 62
     7
100
AcDbLine
 10
2530.876008856787
 20
177.2199539341179
 30
0.0
 11
2530.876008856788
 21
171.5199539341179
 31
0.0
  0
ARC
  5
CA2
330
2
100
AcDbEntity
  8
0
  6
Continuous
 62
     7
100
AcDbCircle
 10
2533.376008856789
 20
157.019953934121
 30
0.0
 40
0.4999999999997229
100
AcDbArc
 50
89.99999999994789
 51
180.0
  0
ARC
  5
CA3
330
2
100
AcDbEntity
  8
0
  6
Continuous
 62
     7
100
AcDbCircle
 10
2557.376008856793
 20
157.019953934124
 30
0.0
 40
0.5000000000000006
100
AcDbArc
 50
0.0
 51
90.00000000007814
  0
LINE
  5
CA4
330
2
100
AcDbEntity
  8
0
  6
Continuous
 62
     7
100
AcDbLine
 10
2532.87600885679
 20
157.019953934121
 30
0.0
 11
2532.87600885679
 21
156.320689188489
 31
0.0
  0
LINE
  5
CA5
330
2
100
AcDbEntity
  8
0
  6
Continuous
 62
     7
100
AcDbLine
 10
2557.876008856792
 20
156.320689188492
 30
0.0
 11
2557.876008856792
 21
157.019953934124
 31
0.0
  0
ARC
  5
CA6
330
2
100
AcDbEntity
  8
0
  6
Continuous
 62
     7
100
AcDbCircle
 10
2565.876008856796
 20
149.5199539341249
 30
0.0
 40
10.49999999999991
100
AcDbArc
 50
139.6324064558356
 51
220.3675935441911
  0
ARC
  5
CA7
330
2
100
AcDbEntity
  8
0
  6
Continuous
 62
     7
100
AcDbCircle
 10
2524.876008856788
 20
149.5199539341201
 30
0.0
 40
10.49999999999977
100
AcDbArc
 50
319.6324064558357
 51
40.3675935441911
  0
LINE
  5
CA8
330
2
100
AcDbEntity
  8
0
  6
Continuous
 62
     7
100
AcDbLine
 10
2532.876008856792
 20
142.7192186797531
 30
0.0
 11
2532.876008856792
 21
142.0199539341211
 31
0.0
  0
LINE
  5
CA9
330
2
100
AcDbEntity
  8
0
  6
Continuous
 62
     7
100
AcDbLine
 10
2557.876008856795
 20
142.019953934124
 30
0.0
 11
2557.876008856795
 21
142.7192186797561
 31
0.0
  0
ARC
  5
CAA
330
2
100
AcDbEntity
  8
0
  6
Continuous
 62
     7
100
AcDbCircle
 10
2557.376008856795
 20
142.019953934124
 30
0.0
 40
0.4999999999999451
100
AcDbArc
 50
269.9999999999479
 51
0.0
  0
ARC
  5
CAB
330
2
100
AcDbEntity
  8
0
  6
Continuous
 62
     7
100
AcDbCircle
 10
2533.376008856791
 20
142.0199539341211
 30
0.0
 40
0.5000000000000006
100
AcDbArc
 50
180.0
 51
270.0000000000782
  0
LINE
  5
CAC
330
2
100
AcDbEntity
  8
0
  6
Continuous
 62
     7
100
AcDbLine
 10
2557.876008856792
 20
158.019953934124
 30
0.0
 11
2557.876008856792
 21
161.519953934124
 31
0.0
  0
LINE
  5
CAD
330
2
100
AcDbEntity
  8
0
  6
Continuous
 62
     7
100
AcDbLine
 10
2532.876008856789
 20
161.5199539341211
 30
0.0
 11
2532.87600885679
 21
158.019953934121
 31
0.0
  0
ARC
  5
CAE
330
2
100
AcDbEntity
  8
0
  6
Continuous
 62
     7
100
AcDbCircle
 10
2538.87600885679
 20
157.5199539341211
 30
0.0
 40
0.4999999999997229
100
AcDbArc
 50
0.0
 51
89.99999999997395
  0
ARC
  5
CAF
330
2
100
AcDbEntity
  8
0
  6
Continuous
 62
     7
100
AcDbCircle
 10
2551.876008856792
 20
157.5199539341231
 30
0.0
 40
0.5000000000000006
100
AcDbArc
 50
90.00000000002605
 51
180.0
  0
LINE
  5
CB0
330
2
100
AcDbEntity
  8
0
  6
Continuous
 62
     7
100
AcDbLine
 10
2008.119230318259
 20
173.119953934739
 30
0.0
 11
2442.376008836453
 21
173.1199539347851
 31
0.0
  0
LINE
  5
CB1
330
2
100
AcDbEntity
  8
0
  6
Continuous
 62
     7
100
AcDbLine
 10
2443.374085759862
 20
173.1199539347851
 30
0.0
 11
2530.876008856788
 21
173.119953934794
 31
0.0
  0
LINE
  5
CB2
330
2
100
AcDbEntity
  8
0
  6
Continuous
 62
     7
100
AcDbLine
 10
2555.87600885679
 20
173.1199539347969
 30
0.0
 11
2930.876008856794
 21
173.119953934837
 31
0.0
  0
LINE
  5
CB3
330
2
100
AcDbEntity
  8
0
  6
Continuous
 62
     7
100
AcDbLine
 10
2955.876008856783
 20
173.119953934839
 30
0.0
 11
3728.119230317764
 21
173.11995393492
 31
0.0
  0
LINE
  5
CB4
330
2
100
AcDbEntity
  8
0
  6
Continuous
 62
     7
100
AcDbLine
 10
2051.703547950975
 20
193.1199539347442
 30
0.0
 11
2008.119230318641
 21
193.119953934739
 31
0.0
  0
LINE
  5
CB5
330
2
100
AcDbEntity
  8
0
  6
Continuous
 62
     7
100
AcDbLine
 10
2351.70060025289
 20
193.1199539347749
 30
0.0
 11
2064.5345094771
 21
193.1199539347451
 31
0.0
  0
LINE
  5
CB6
330
2
100
AcDbEntity
  8
0
  6
Continuous
 62
     7
100
AcDbLine
 10
3728.119230317969
 20
193.11995393492
 30
0.0
 11
2442.989470386622
 21
193.1199539347851
 31
0.0
  0
LINE
  5
CB7
330
2
100
AcDbEntity
  8
0
  6
Continuous
 62
     7
100
AcDbLine
 10
2442.376008847823
 20
193.1199539347851
 30
0.0
 11
2364.53160136937
 21
193.1199539347772
 31
0.0
  0
LINE
  5
CB8
330
2
100
AcDbEntity
  8
0
  6
Continuous
 62
     7
100
AcDbLine
 10
2448.119230316217
 20
195.0699538679541
 30
0.0
 11
2442.951970389022
 21
195.069953867629
 31
0.0
  0
LINE
  5
CB9
330
2
100
AcDbEntity
  8
0
  6
Continuous
 62
     7
100
AcDbLine
 10
2442.376008848932
 20
195.0699538675922
 30
0.0
 11
2370.619230317881
 21
195.0699538630738
 31
0.0
  0
LINE
  5
CBA
330
2
100
AcDbEntity
  8
0
  6
Continuous
 62
     7
100
AcDbLine
 10
2345.619230317881
 20
195.0699538615004
 30
0.0
 11
2070.626466908379
 21
195.0699538441849
 31
0.0
  0
LINE
  5
CBB
330
2
100
AcDbEntity
  8
0
  6
Continuous
 62
     7
100
AcDbLine
 10
2045.626466908379
 20
195.069953842612
 30
0.0
 11
2008.119230318468
 21
195.06995384025
 31
0.0
  0
LINE
  5
CBC
330
2
100
AcDbEntity
  8
0
  6
Continuous
 62
     7
100
AcDbLine
 10
1968.119230315783
 20
205.543304278422
 30
0.0
 11
2045.626466908385
 21
205.543304283302
 31
0.0
  0
LINE
  5
CBD
330
2
100
AcDbEntity
  8
0
  6
Continuous
 62
     7
100
AcDbLine
 10
2070.626466908386
 20
205.5433042848758
 30
0.0
 11
2345.619230317889
 21
205.5433043021903
 31
0.0
  0
LINE
  5
CBE
330
2
100
AcDbEntity
  8
0
  6
Continuous
 62
     7
100
AcDbLine
 10
2370.619230317889
 20
205.5433043037638
 30
0.0
 11
2448.119230315783
 21
205.5433043086441
 31
0.0
  0
LINE
  5
CBF
330
2
100
AcDbEntity
  8
0
  6
Continuous
 62
     7
100
AcDbLine
 10
2448.119230316646
 20
208.7579347021974
 30
0.0
 11
2370.61923031789
 21
208.7579346973171
 31
0.0
  0
LINE
  5
CC0
330
2
100
AcDbEntity
  8
0
  6
Continuous
 62
     7
100
AcDbLine
 10
2345.61923031789
 20
208.7579346957423
 30
0.0
 11
2070.626466908386
 21
208.7579346784278
 31
0.0
  0
LINE
  5
CC1
330
2
100
AcDbEntity
  8
0
  6
Continuous
 62
     7
100
AcDbLine
 10
2045.626466908386
 20
208.7579346768543
 30
0.0
 11
1968.119230316645
 21
208.757934671974
 31
0.0
  0
LINE
  5
CC2
330
2
100
AcDbEntity
  8
0
  6
Continuous
 62
     7
100
AcDbLine
 10
316.319230365998
 20
3581.519953907301
 30
0.0
 11
316.3192303665387
 21
3606.519953907301
 31
0.0
  0
LINE
  5
CC3
330
2
100
AcDbEntity
  8
0
  6
Continuous
 62
     7
100
AcDbLine
 10
316.6192303665312
 20
3606.219953907295
 30
0.0
 11
316.619230366005
 21
3581.819953907294
 31
0.0
  0
LINE
  5
CC4
330
2
100
AcDbEntity
  8
0
  6
Continuous
 62
     7
100
AcDbLine
 10
310.6192303659991
 20
3581.519953907425
 30
0.0
 11
310.619230366538
 21
3606.519953907425
 31
0.0
  0
LINE
  5
CC5
330
2
100
AcDbEntity
  8
0
  6
Continuous
 62
     7
100
AcDbLine
 10
310.6192303666548
 20
3582.519927724643
 30
0.0
 11
310.6192303664297
 21
3589.219953907424
 31
0.0
  0
LINE
  5
CC6
330
2
100
AcDbEntity
  8
0
  6
Continuous
 62
     7
100
AcDbLine
 10
310.6192303664297
 20
3589.219953907424
 30
0.0
 11
310.6192303661078
 21
3598.819953907423
 31
0.0
  0
LINE
  5
CC7
330
2
100
AcDbEntity
  8
0
  6
Continuous
 62
     7
100
AcDbLine
 10
310.6192303661078
 20
3598.819953907423
 30
0.0
 11
310.6192303660041
 21
3601.937404627705
 31
0.0
  0
LINE
  5
CC8
330
2
100
AcDbEntity
  8
0
  6
Continuous
 62
     7
100
AcDbLine
 10
310.6192303660041
 20
3601.937404627705
 30
0.0
 11
310.6192303658668
 21
3606.019953907426
 31
0.0
  0
LINE
  5
CC9
330
2
100
AcDbEntity
  8
0
  6
Continuous
 62
     7
100
AcDbLine
 10
310.6192303658668
 20
3606.019953907424
 30
0.0
 11
310.6192303658499
 21
3606.519953907424
 31
0.0
  0
LINE
  5
CCA
330
2
100
AcDbEntity
  8
0
  6
Continuous
 62
     7
100
AcDbLine
 10
310.6192303658499
 20
3606.519953907424
 30
0.0
 11
310.6192303658168
 21
3607.51992772464
 31
0.0
  0
LINE
  5
CCB
330
2
100
AcDbEntity
  8
0
  6
Continuous
 62
     7
100
AcDbLine
 10
316.3192303658498
 20
3606.51995390799
 30
0.0
 11
316.3192303658161
 21
3607.519927724832
 31
0.0
  0
LINE
  5
CCC
330
2
100
AcDbEntity
  8
0
  6
Continuous
 62
     7
100
AcDbLine
 10
316.6192303658267
 20
3607.219927724842
 30
0.0
 11
316.6192303658604
 21
3606.219953907968
 31
0.0
  0
LINE
  5
CCD
330
2
100
AcDbEntity
  8
0
  6
Continuous
 62
     7
100
AcDbLine
 10
266.6192303671351
 20
3566.519953908202
 30
0.0
 11
266.6192303668168
 21
3576.019953908421
 31
0.0
  0
LINE
  5
CCE
330
2
100
AcDbEntity
  8
0
  6
Continuous
 62
     7
100
AcDbLine
 10
266.6192303668168
 20
3576.019953908421
 30
0.0
 11
266.6192303664989
 21
3585.519953908201
 31
0.0
  0
LINE
  5
CCF
330
2
100
AcDbEntity
  8
0
  6
Continuous
 62
     7
100
AcDbLine
 10
264.6192303665662
 20
3583.525800745236
 30
0.0
 11
264.6192303670691
 21
3568.514107071034
 31
0.0
  0
LINE
  5
CD0
330
2
100
AcDbEntity
  8
0
  6
Continuous
 62
     7
100
AcDbLine
 10
266.059230366483
 20
3586.019953908183
 30
0.0
 11
266.0592303671519
 21
3566.019953908185
 31
0.0
  0
LINE
  5
CD1
330
2
100
AcDbEntity
  8
0
  6
Continuous
 62
     7
100
AcDbLine
 10
266.6192303664829
 20
3586.019953908202
 30
0.0
 11
266.6192303671519
 21
3566.019953908201
 31
0.0
  0
LINE
  5
CD2
330
2
100
AcDbEntity
  8
0
  6
Continuous
 62
     9
100
AcDbLine
 10
247.1192303665671
 20
3583.51995390755
 30
0.0
 11
247.1192303670682
 21
3568.51995390755
 31
0.0
  0
LINE
  5
CD3
330
2
100
AcDbEntity
  8
0
  6
Continuous
 62
     7
100
AcDbLine
 10
246.619230366583
 20
3583.019953907533
 30
0.0
 11
246.619230367051
 21
3569.019953907532
 31
0.0
  0
LINE
  5
CD4
330
2
100
AcDbEntity
  8
0
  6
Continuous
 62
     7
100
AcDbLine
 10
276.6192303661291
 20
3626.019953908473
 30
0.0
 11
276.6192303654853
 21
3605.092411956962
 31
0.0
  0
LINE
  5
CD5
330
2
100
AcDbEntity
  8
0
  6
Continuous
 62
     7
100
AcDbLine
 10
276.6192303674488
 20
3563.51995390849
 30
0.0
 11
276.6192303670309
 21
3576.01995390878
 31
0.0
  0
LINE
  5
CD6
330
2
100
AcDbEntity
  8
0
  6
Continuous
 62
     7
100
AcDbLine
 10
282.3192303674491
 20
3563.519953908682
 30
0.0
 11
282.3192303670307
 21
3576.01995390897
 31
0.0
  0
LINE
  5
CD7
330
2
100
AcDbEntity
  8
0
  6
Continuous
 62
     7
100
AcDbLine
 10
276.6192303670309
 20
3576.01995390878
 30
0.0
 11
276.619230366613
 21
3588.519953908491
 31
0.0
  0
LINE
  5
CD8
330
2
100
AcDbEntity
  8
0
  6
Continuous
 62
     7
100
AcDbLine
 10
282.3192303670307
 20
3576.01995390897
 30
0.0
 11
282.3192303667793
 21
3583.570551762511
 31
0.0
  0
LINE
  5
CD9
330
2
100
AcDbEntity
  8
0
  6
Continuous
 62
     7
100
AcDbLine
 10
282.3192303667029
 20
3585.822393046561
 30
0.0
 11
282.3192303666992
 21
3585.945921210377
 31
0.0
  0
LINE
  5
CDA
330
2
100
AcDbEntity
  8
0
  6
Continuous
 62
     7
100
AcDbLine
 10
282.6192303667062
 20
3585.735027589319
 30
0.0
 11
282.6192303667099
 21
3585.614598223698
 31
0.0
  0
LINE
  5
CDB
330
2
100
AcDbEntity
  8
0
  6
Continuous
 62
     7
100
AcDbLine
 10
282.619230366784
 20
3583.406754330166
 30
0.0
 11
282.6192303670309
 21
3576.019953908973
 31
0.0
  0
LINE
  5
CDC
330
2
100
AcDbEntity
  8
0
  6
Continuous
 62
     7
100
AcDbLine
 10
282.6192303670309
 20
3576.019953908973
 30
0.0
 11
282.6192303674389
 21
3563.819953908691
 31
0.0
  0
LINE
  5
CDD
330
2
100
AcDbEntity
  8
0
  6
Continuous
 62
     7
100
AcDbLine
 10
244.6192303654111
 20
3624.519953907495
 30
0.0
 11
244.6192303661141
 21
3603.519953907496
 31
0.0
  0
LINE
  5
CDE
330
2
100
AcDbEntity
  8
0
  6
Continuous
 62
     7
100
AcDbLine
 10
245.155128750207
 20
3626.519953907514
 30
0.0
 11
245.1551287510429
 21
3601.519953907514
 31
0.0
  0
LINE
  5
CDF
330
2
100
AcDbEntity
  8
0
  6
Continuous
 62
     7
100
AcDbLine
 10
246.1192303653452
 20
3626.519953907546
 30
0.0
 11
246.119230366181
 21
3601.519953907545
 31
0.0
  0
LINE
  5
CE0
330
2
100
AcDbEntity
  8
0
  6
Continuous
 62
     7
100
AcDbLine
 10
276.6192303660578
 20
3605.092411959124
 30
0.0
 11
276.6192303657599
 21
3614.019953908718
 31
0.0
  0
LINE
  5
CE1
330
2
100
AcDbEntity
  8
0
  6
Continuous
 62
     7
100
AcDbLine
 10
282.3192303661581
 20
3602.093986110241
 30
0.0
 11
282.319230366084
 21
3604.319953659648
 31
0.0
  0
LINE
  5
CE2
330
2
100
AcDbEntity
  8
0
  6
Continuous
 62
     7
100
AcDbLine
 10
282.319230365812
 20
3612.46935555649
 30
0.0
 11
282.3192303657602
 21
3614.01995390891
 31
0.0
  0
LINE
  5
CE3
330
2
100
AcDbEntity
  8
0
  6
Continuous
 62
     7
100
AcDbLine
 10
282.3192303657602
 20
3614.01995390891
 30
0.0
 11
282.3192303653418
 21
3626.519953908727
 31
0.0
  0
LINE
  5
CE4
330
2
100
AcDbEntity
  8
0
  6
Continuous
 62
     7
100
AcDbLine
 10
276.6192303657599
 20
3614.019953908718
 30
0.0
 11
276.619230365342
 21
3626.519953908537
 31
0.0
  0
LINE
  5
CE5
330
2
100
AcDbEntity
  8
0
  6
Continuous
 62
     7
100
AcDbLine
 10
282.619230365352
 20
3626.219953908738
 30
0.0
 11
282.6192303657599
 21
3614.019953908914
 31
0.0
  0
LINE
  5
CE6
330
2
100
AcDbEntity
  8
0
  6
Continuous
 62
     7
100
AcDbLine
 10
282.6192303657599
 20
3614.019953908914
 30
0.0
 11
282.6192303658059
 21
3612.633152988872
 31
0.0
  0
LINE
  5
CE7
330
2
100
AcDbEntity
  8
0
  6
Continuous
 62
     7
100
AcDbLine
 10
282.6192303660837
 20
3604.319953659658
 30
0.0
 11
282.6192303661519
 21
3602.304879731359
 31
0.0
  0
LINE
  5
CE8
330
2
100
AcDbEntity
  8
0
  6
Continuous
 62
     7
100
AcDbLine
 10
247.8184951118128
 20
3601.519953907601
 30
0.0
 11
247.8184951117182
 21
3604.374884851667
 31
0.0
  0
LINE
  5
CE9
330
2
100
AcDbEntity
  8
0
  6
Continuous
 62
     9
100
AcDbLine
 10
247.1192303653452
 20
3626.519953907579
 30
0.0
 11
247.119230366181
 21
3601.519953907579
 31
0.0
  0
LINE
  5
CEA
330
2
100
AcDbEntity
  8
0
  6
Continuous
 62
     7
100
AcDbLine
 10
247.8184951117182
 20
3604.374884851667
 30
0.0
 11
247.818495110977
 21
3626.519953907602
 31
0.0
  0
LINE
  5
CEB
330
2
100
AcDbEntity
  8
0
  6
Continuous
 62
     7
100
AcDbLine
 10
246.6192303661637
 20
3602.019953907563
 30
0.0
 11
246.6192303653611
 21
3626.019953907563
 31
0.0
  0
LINE
  5
CEC
330
2
100
AcDbEntity
  8
0
  6
Continuous
 62
     7
100
AcDbLine
 10
261.419965619712
 20
3626.519953908058
 30
0.0
 11
261.4199656205478
 21
3601.519953908058
 31
0.0
  0
LINE
  5
CED
330
2
100
AcDbEntity
  8
0
  6
Continuous
 62
     9
100
AcDbLine
 10
262.119230366181
 20
3601.519953908081
 30
0.0
 11
262.119230366086
 21
3604.374884852146
 31
0.0
  0
LINE
  5
CEE
330
2
100
AcDbEntity
  8
0
  6
Continuous
 62
     9
100
AcDbLine
 10
262.119230366086
 20
3604.374884852146
 30
0.0
 11
262.1192303653452
 21
3626.519953908081
 31
0.0
  0
LINE
  5
CEF
330
2
100
AcDbEntity
  8
0
  6
Continuous
 62
     7
100
AcDbLine
 10
262.6192303653611
 20
3626.019953908097
 30
0.0
 11
262.6192303660719
 21
3604.760687614398
 31
0.0
  0
LINE
  5
CF0
330
2
100
AcDbEntity
  8
0
  6
Continuous
 62
     7
100
AcDbLine
 10
262.6192303660719
 20
3604.760687614398
 30
0.0
 11
262.6192303661637
 21
3602.019953908097
 31
0.0
  0
LINE
  5
CF1
330
2
100
AcDbEntity
  8
0
  6
Continuous
 62
     7
100
AcDbLine
 10
266.619230366181
 20
3601.519953908231
 30
0.0
 11
266.6192303653452
 21
3626.519953908233
 31
0.0
  0
LINE
  5
CF2
330
2
100
AcDbEntity
  8
0
  6
Continuous
 62
     7
100
AcDbLine
 10
263.119230366181
 20
3601.519953908114
 30
0.0
 11
263.1192303653452
 21
3626.519953908115
 31
0.0
  0
LINE
  5
CF3
330
2
100
AcDbEntity
  8
0
  6
Continuous
 62
     7
100
AcDbLine
 10
290.2192303657889
 20
3614.019953659958
 30
0.0
 11
288.2100131245711
 21
3614.019953659891
 31
0.0
  0
LINE
  5
CF4
330
2
100
AcDbEntity
  8
0
  6
Continuous
 62
     7
100
AcDbLine
 10
288.2100131245711
 20
3614.019953659891
 30
0.0
 11
286.2192303657871
 21
3614.019953659823
 31
0.0
  0
LINE
  5
CF5
330
2
100
AcDbEntity
  8
0
  6
Continuous
 62
     7
100
AcDbLine
 10
288.9692303661231
 20
3604.019953659913
 30
0.0
 11
288.2192303659012
 21
3604.01995365989
 31
0.0
  0
LINE
  5
CF6
330
2
100
AcDbEntity
  8
0
  6
Continuous
 62
     7
100
AcDbLine
 10
288.2192303659012
 20
3604.01995365989
 30
0.0
 11
287.4692303661232
 21
3604.019953659866
 31
0.0
  0
ARC
  5
CF7
330
2
100
AcDbEntity
  8
0
  6
Continuous
 62
     7
100
AcDbCircle
 10
288.2192303664069
 20
3594.019953659848
 30
0.0
 40
10.10000000000069
100
AcDbArc
 50
153.0104244514169
 51
26.98957555242841
  0
LINE
  5
CF8
330
2
100
AcDbEntity
  8
0
  6
Continuous
 62
     7
100
AcDbLine
 10
297.2192303662528
 20
3598.603620314698
 30
0.0
 11
297.2192303661291
 21
3602.319953660151
 31
0.0
  0
ARC
  5
CF9
330
2
100
AcDbEntity
  8
0
  6
Continuous
 62
     7
100
AcDbCircle
 10
295.2192303661291
 20
3602.319953660085
 30
0.0
 40
2.000000000000223
100
AcDbArc
 50
0.0000000019280777
 51
90.00000000192807
  0
LINE
  5
CFA
330
2
100
AcDbEntity
  8
0
  6
Continuous
 62
     7
100
AcDbLine
 10
295.2192303660618
 20
3604.319953660084
 30
0.0
 11
281.2192303660618
 21
3604.319953659616
 31
0.0
  0
ARC
  5
CFB
330
2
100
AcDbEntity
  8
0
  6
Continuous
 62
     7
100
AcDbCircle
 10
281.2192303661291
 20
3602.319953659615
 30
0.0
 40
1.999999999999779
100
AcDbArc
 50
90.00000000192807
 51
180.0000000019281
  0
LINE
  5
CFC
330
2
100
AcDbEntity
  8
0
  6
Continuous
 62
     7
100
AcDbLine
 10
279.2192303661291
 20
3602.319953659548
 30
0.0
 11
279.2192303662537
 21
3598.603620314094
 31
0.0
  0
LINE
  5
CFD
330
2
100
AcDbEntity
  8
0
  6
Continuous
 62
     7
100
AcDbLine
 10
300.2192303661391
 20
3602.019953660252
 30
0.0
 11
300.2192303664078
 21
3594.019953660251
 31
0.0
  0
ARC
  5
CFE
330
2
100
AcDbEntity
  8
0
  6
Continuous
 62
     7
100
AcDbCircle
 10
288.2192303664069
 20
3594.019953659848
 30
0.0
 40
12.00000000000045
100
AcDbArc
 50
180.0000000019281
 51
0.0000000019150501
  0
LINE
  5
CFF
330
2
100
AcDbEntity
  8
0
  6
Continuous
 62
     7
100
AcDbLine
 10
276.2192303664069
 20
3594.019953659447
 30
0.0
 11
276.2192303661391
 21
3602.019953659447
 31
0.0
  0
ARC
  5
D00
330
2
100
AcDbEntity
  8
0
  6
Continuous
 62
     7
100
AcDbCircle
 10
288.2192303661391
 20
3602.019953659849
 30
0.0
 40
12.00000000000001
100
AcDbArc
 50
0.0000000019150501
 51
180.000000001915
  0
CIRCLE
  5
D01
330
2
100
AcDbEntity
  8
0
  6
Continuous
 62
     7
100
AcDbCircle
 10
288.2192303664319
 20
3594.019953659844
 30
0.0
 40
9.500000000005393
  0
ARC
  5
D02
330
2
100
AcDbEntity
  8
0
  6
Continuous
 62
     7
100
AcDbCircle
 10
288.2192303664369
 20
3594.019953659848
 30
0.0
 40
10.00000000000063
100
AcDbArc
 50
270.7016609554516
 51
89.89233049530655
  0
ARC
  5
D03
330
2
100
AcDbEntity
  8
0
  6
Continuous
 62
     7
100
AcDbCircle
 10
288.2192303664369
 20
3594.019953659848
 30
0.0
 40
9.999999999999067
100
AcDbArc
 50
89.89233049530655
 51
270.7016609554516
  0
CIRCLE
  5
D04
330
2
100
AcDbEntity
  8
0
  6
Continuous
 62
     7
100
AcDbCircle
 10
288.2192303664319
 20
3594.019953659844
 30
0.0
 40
3.200000000002312
  0
LINE
  5
D05
330
2
100
AcDbEntity
  8
0
  6
Continuous
 62
     7
100
AcDbLine
 10
285.6192302986183
 20
2142.019953956735
 30
0.0
 11
284.917689815969
 21
2143.458325103569
 31
0.0
  0
LINE
  5
D06
330
2
100
AcDbEntity
  8
0
  6
Continuous
 62
     7
100
AcDbLine
 10
284.917689815969
 20
2143.458325103569
 30
0.0
 11
278.1692302995971
 21
2157.294717576977
 31
0.0
  0
LINE
  5
D07
330
2
100
AcDbEntity
  8
0
  6
Continuous
 62
     7
100
AcDbLine
 10
278.1692302995971
 20
2157.294717576977
 30
0.0
 11
278.1692302996348
 21
2157.884729719048
 31
0.0
  0
ARC
  5
D08
330
2
100
AcDbEntity
  8
0
  6
Continuous
 62
     7
100
AcDbCircle
 10
278.2942302996348
 20
2157.88472971904
 30
0.0
 40
0.1250000000001528
100
AcDbArc
 50
85.49999999634385
 51
179.9999999963392
  0
LINE
  5
D09
330
2
100
AcDbEntity
  8
0
  6
Continuous
 62
     7
100
AcDbLine
 10
278.3040376866093
 20
2158.009344385757
 30
0.0
 11
299.0379138404337
 21
2156.377552942023
 31
0.0
  0
ARC
  5
D0A
330
2
100
AcDbEntity
  8
0
  6
Continuous
 62
     7
100
AcDbCircle
 10
299.0281064534602
 20
2156.252938275308
 30
0.0
 40
0.1249999999993165
100
AcDbArc
 50
352.499999996257
 51
85.49999999623892
  0
LINE
  5
D0B
330
2
100
AcDbEntity
  8
0
  6
Continuous
 62
     7
100
AcDbLine
 10
299.1520370611302
 20
2156.236622501272
 30
0.0
 11
297.429213735712
 21
2143.150480148199
 31
0.0
  0
LINE
  5
D0C
330
2
100
AcDbEntity
  8
0
  6
Continuous
 62
     7
100
AcDbLine
 10
297.429213735712
 20
2143.150480148199
 30
0.0
 11
297.2803771388462
 21
2142.019953955988
 31
0.0
  0
LINE
  5
D0D
330
2
100
AcDbEntity
  8
0
  6
Continuous
 62
     7
100
AcDbLine
 10
278.2476893954349
 20
2159.01687129094
 30
0.0
 11
299.2476893953299
 21
2157.364135446277
 31
0.0
  0
ARC
  5
D0E
330
2
100
AcDbEntity
  8
0
  6
Continuous
 62
     7
100
AcDbCircle
 10
299.1692302995371
 20
2156.367218112549
 30
0.0
 40
0.9999999999997747
100
AcDbArc
 50
352.4999999963474
 51
85.49999999631788
  0
LINE
  5
D0F
330
2
100
AcDbEntity
  8
0
  6
Continuous
 62
     7
100
AcDbLine
 10
300.1606751609029
 20
2156.236691920266
 30
0.0
 11
298.439263171685
 21
2143.161269729942
 31
0.0
  0
ARC
  5
D10
330
2
100
AcDbEntity
  8
0
  6
Continuous
 62
     7
100
AcDbCircle
 10
298.563193779356
 20
2143.144953955906
 30
0.0
 40
0.1250000000001528
100
AcDbArc
 50
172.4999999963345
 51
269.9999999963262
  0
LINE
  5
D11
330
2
100
AcDbEntity
  8
0
  6
Continuous
 62
     7
100
AcDbLine
 10
298.5631937793483
 20
2143.019953955906
 30
0.0
 11
312.7207975711471
 21
2143.019953954998
 31
0.0
  0
ARC
  5
D12
330
2
100
AcDbEntity
  8
0
  6
Continuous
 62
     7
100
AcDbCircle
 10
312.720797571154
 20
2143.144953954999
 30
0.0
 40
0.1249999999998954
100
AcDbArc
 50
269.9999999963262
 51
4.999999996311283
  0
LINE
  5
D13
330
2
100
AcDbEntity
  8
0
  6
Continuous
 62
     7
100
AcDbLine
 10
312.8453219084168
 20
2143.155848422835
 30
0.0
 11
311.902523882587
 21
2153.93207917695
 31
0.0
  0
ARC
  5
D14
330
2
100
AcDbEntity
  8
0
  6
Continuous
 62
     7
100
AcDbCircle
 10
311.7779995453247
 20
2153.921184709115
 30
0.0
 40
0.1249999999998954
100
AcDbArc
 50
4.99999999633724
 51
94.9999999963124
  0
ARC
  5
D15
330
2
100
AcDbEntity
  8
0
  6
Continuous
 62
     7
100
AcDbCircle
 10
311.7779995453247
 20
2153.921184709115
 30
0.0
 40
0.1249999999998954
100
AcDbArc
 50
94.99999999633837
 51
184.9999999963113
  0
LINE
  5
D16
330
2
100
AcDbEntity
  8
0
  6
Continuous
 62
     7
100
AcDbLine
 10
311.6534752080629
 20
2153.910290241279
 30
0.0
 11
312.078359453647
 21
2149.053841088054
 31
0.0
  0
LINE
  5
D17
330
2
100
AcDbEntity
  8
0
  6
Continuous
 62
     7
100
AcDbLine
 10
312.078359453647
 20
2149.053841088054
 30
0.0
 11
311.082164755549
 21
2148.966685345371
 31
0.0
  0
LINE
  5
D18
330
2
100
AcDbEntity
  8
0
  6
Continuous
 62
     7
100
AcDbLine
 10
311.082164755549
 20
2148.966685345371
 30
0.0
 11
310.64638604213
 21
2153.947658835857
 31
0.0
  0
ARC
  5
D19
330
2
100
AcDbEntity
  8
0
  6
Continuous
 62
     7
100
AcDbCircle
 10
311.6425807402279
 20
2154.034814578541
 30
0.0
 40
1.000000000000125
100
AcDbArc
 50
94.99999999633837
 51
184.9999999963502
  0
LINE
  5
D1A
330
2
100
AcDbEntity
  8
0
  6
Continuous
 62
     7
100
AcDbLine
 10
311.5554249975439
 20
2155.03100927664
 30
0.0
 11
311.8044736720681
 21
2155.052798212309
 31
0.0
  0
ARC
  5
D1B
330
2
100
AcDbEntity
  8
0
  6
Continuous
 62
     7
100
AcDbCircle
 10
311.8916294147521
 20
2154.056603514212
 30
0.0
 40
1.000000000000087
100
AcDbArc
 50
4.999999996324261
 51
94.99999999633837
  0
LINE
  5
D1C
330
2
100
AcDbEntity
  8
0
  6
Continuous
 62
     7
100
AcDbLine
 10
312.8878241128491
 20
2154.143759256896
 30
0.0
 11
313.8534058318778
 21
2143.107109697674
 31
0.0
  0
ARC
  5
D1D
330
2
100
AcDbEntity
  8
0
  6
Continuous
 62
     7
100
AcDbCircle
 10
312.8572111337803
 20
2143.019953954991
 30
0.0
 40
1.000000000000087
100
AcDbArc
 50
269.9999999963262
 51
4.999999996324261
  0
ARC
  5
D1E
330
2
100
AcDbEntity
  8
0
  6
Continuous
 62
     7
100
AcDbCircle
 10
298.4206585970769
 20
2143.019953955915
 30
0.0
 40
0.9999999999998896
100
AcDbArc
 50
172.4999999963474
 51
269.9999999963262
  0
LINE
  5
D1F
330
2
100
AcDbEntity
  8
0
  6
Continuous
 62
     7
100
AcDbLine
 10
297.429213735712
 20
2143.150480148199
 30
0.0
 11
299.1520370611302
 21
2156.236622501272
 31
0.0
  0
ARC
  5
D20
330
2
100
AcDbEntity
  8
0
  6
Continuous
 62
     7
100
AcDbCircle
 10
299.0281064534602
 20
2156.252938275308
 30
0.0
 40
0.1249999999993165
100
AcDbArc
 50
352.499999996257
 51
85.49999999623892
  0
LINE
  5
D21
330
2
100
AcDbEntity
  8
0
  6
Continuous
 62
     7
100
AcDbLine
 10
299.0379138404337
 20
2156.377552942023
 30
0.0
 11
278.3040376866093
 21
2158.009344385757
 31
0.0
  0
ARC
  5
D22
330
2
100
AcDbEntity
  8
0
  6
Continuous
 62
     7
100
AcDbCircle
 10
278.2942302996348
 20
2157.88472971904
 30
0.0
 40
0.1250000000001528
100
AcDbArc
 50
85.49999999631788
 51
179.9999999963392
  0
LINE
  5
D23
330
2
100
AcDbEntity
  8
0
  6
Continuous
 62
     7
100
AcDbLine
 10
278.1692302996348
 20
2157.884729719048
 30
0.0
 11
278.1692302995971
 21
2157.294717576977
 31
0.0
  0
LINE
  5
D24
330
2
100
AcDbEntity
  8
0
  6
Continuous
 62
     7
100
AcDbLine
 10
278.1692302995971
 20
2157.294717576977
 30
0.0
 11
284.917689815969
 21
2143.458325103569
 31
0.0
  0
ARC
  5
D25
330
2
100
AcDbEntity
  8
0
  6
Continuous
 62
     7
100
AcDbCircle
 10
284.018895769641
 20
2143.019953956837
 30
0.0
 40
1.000000000000357
100
AcDbArc
 50
269.9999999963262
 51
25.99999999631978
  0
LINE
  5
D26
330
2
100
AcDbEntity
  8
0
  6
Continuous
 62
     7
100
AcDbLine
 10
261.6192302986828
 20
2143.019953958273
 30
0.0
 11
261.6192302999639
 21
2163.019953958272
 31
0.0
  0
ARC
  5
D27
330
2
100
AcDbEntity
  8
0
  6
Continuous
 62
     7
100
AcDbCircle
 10
262.619230299963
 20
2163.019953958208
 30
0.0
 40
0.9999999999998896
100
AcDbArc
 50
89.99999999632622
 51
179.9999999963392
  0
LINE
  5
D28
330
2
100
AcDbEntity
  8
0
  6
Continuous
 62
     7
100
AcDbLine
 10
262.619230300028
 20
2164.019953958208
 30
0.0
 11
262.8692303000271
 21
2164.019953958192
 31
0.0
  0
ARC
  5
D29
330
2
100
AcDbEntity
  8
0
  6
Continuous
 62
     7
100
AcDbCircle
 10
262.8692302999639
 20
2163.019953958191
 30
0.0
 40
1.000000000000333
100
AcDbArc
 50
359.9999999963262
 51
89.99999999632622
  0
LINE
  5
D2A
330
2
100
AcDbEntity
  8
0
  6
Continuous
 62
     7
100
AcDbLine
 10
263.8692302999639
 20
2163.019953958126
 30
0.0
 11
263.8692302996428
 21
2158.019953958127
 31
0.0
  0
LINE
  5
D2B
330
2
100
AcDbEntity
  8
0
  6
Continuous
 62
     7
100
AcDbLine
 10
263.8692302996428
 20
2158.019953958127
 30
0.0
 11
262.8692302996442
 21
2158.019953958191
 31
0.0
  0
LINE
  5
D2C
330
2
100
AcDbEntity
  8
0
  6
Continuous
 62
     7
100
AcDbLine
 10
262.8692302996442
 20
2158.019953958191
 30
0.0
 11
262.8692302999561
 21
2162.894953958192
 31
0.0
  0
ARC
  5
D2D
330
2
100
AcDbEntity
  8
0
  6
Continuous
 62
     7
100
AcDbCircle
 10
262.7442302999561
 20
2162.894953958199
 30
0.0
 40
0.1249999999997087
100
AcDbArc
 50
359.9999999963262
 51
89.99999999632622
  0
ARC
  5
D2E
330
2
100
AcDbEntity
  8
0
  6
Continuous
 62
     7
100
AcDbCircle
 10
262.7442302999561
 20
2162.894953958199
 30
0.0
 40
0.1250000000001528
100
AcDbArc
 50
89.99999999635228
 51
179.9999999963392
  0
LINE
  5
D2F
330
2
100
AcDbEntity
  8
0
  6
Continuous
 62
     7
100
AcDbLine
 10
262.6192302999552
 20
2162.894953958208
 30
0.0
 11
262.6192302986901
 21
2143.144953958208
 31
0.0
  0
ARC
  5
D30
330
2
100
AcDbEntity
  8
0
  6
Continuous
 62
     7
100
AcDbCircle
 10
262.7442302986901
 20
2143.1449539582
 30
0.0
 40
0.1250000000001528
100
AcDbArc
 50
179.9999999963392
 51
269.9999999963262
  0
LINE
  5
D31
330
2
100
AcDbEntity
  8
0
  6
Continuous
 62
     7
100
AcDbLine
 10
262.7442302986828
 20
2143.0199539582
 30
0.0
 11
283.8188539535117
 21
2143.019953956851
 31
0.0
  0
ARC
  5
D32
330
2
100
AcDbEntity
  8
0
  6
Continuous
 62
     7
100
AcDbCircle
 10
283.8188539535199
 20
2143.14495395685
 30
0.0
 40
0.1249999999997698
100
AcDbArc
 50
269.9999999964044
 51
25.99999999641318
  0
LINE
  5
D33
330
2
100
AcDbEntity
  8
0
  6
Continuous
 62
     7
100
AcDbLine
 10
283.9312032093112
 20
2143.199750350191
 30
0.0
 11
277.1692302995821
 21
2157.063849385916
 31
0.0
  0
LINE
  5
D34
330
2
100
AcDbEntity
  8
0
  6
Continuous
 62
     7
100
AcDbLine
 10
277.1692302995821
 20
2157.063849385916
 30
0.0
 11
277.1692302996439
 21
2158.019953957276
 31
0.0
  0
ARC
  5
D35
330
2
100
AcDbEntity
  8
0
  6
Continuous
 62
     7
100
AcDbCircle
 10
278.1692302996439
 20
2158.019953957212
 30
0.0
 40
1.000000000000333
100
AcDbArc
 50
85.49999999634385
 51
179.9999999963392
  0
ARC
  5
D36
330
2
100
AcDbEntity
  8
0
  6
Continuous
 62
     7
100
AcDbCircle
 10
262.6192302986829
 20
2143.019953958208
 30
0.0
 40
0.9999999999998896
100
AcDbArc
 50
179.9999999963392
 51
269.9999999963262
  0
LINE
  5
D37
330
2
100
AcDbEntity
  8
0
  6
Continuous
 62
     7
100
AcDbLine
 10
1061.619230232981
 20
1592.019953860823
 30
0.0
 11
1061.619230268207
 21
2142.019953860627
 31
0.0
  0
LINE
  5
D38
330
2
100
AcDbEntity
  8
0
  6
Continuous
 62
     7
100
AcDbLine
 10
1061.619230232981
 20
1592.019953860823
 30
0.0
 11
261.619230233272
 21
1592.019953912062
 31
0.0
  0
LINE
  5
D39
330
2
100
AcDbEntity
  8
0
  6
Continuous
 62
     7
100
AcDbLine
 10
261.619230233272
 20
1592.019953912062
 30
0.0
 11
261.619230268499
 21
2142.019953911868
 31
0.0
  0
LINE
  5
D3A
330
2
100
AcDbEntity
  8
0
  6
Continuous
 62
     7
100
AcDbLine
 10
1061.619230268207
 20
2142.019953860627
 30
0.0
 11
261.619230268499
 21
2142.019953911868
 31
0.0
  0
LINE
  5
D3B
330
2
100
AcDbEntity
  8
0
  6
Continuous
 62
     9
100
AcDbLine
 10
247.6192303901771
 20
2889.019953907762
 30
0.0
 11
248.6192303901771
 21
2889.019953907816
 31
0.0
  0
LINE
  5
D3C
330
2
100
AcDbEntity
  8
0
  6
Continuous
 62
     9
100
AcDbLine
 10
248.6192303902289
 20
2888.019953907815
 30
0.0
 11
248.6192303901771
 21
2889.019953907876
 31
0.0
  0
ARC
  5
D3D
330
2
100
AcDbEntity
  8
0
  6
Continuous
 62
     7
100
AcDbCircle
 10
248.6192303901771
 20
2889.019953907816
 30
0.0
 40
0.9999999999998896
100
AcDbArc
 50
180.0000000029963
 51
270.0000000029963
  0
LINE
  5
D3E
330
2
100
AcDbEntity
  8
0
  6
Continuous
 62
     7
100
AcDbLine
 10
267.6192303902299
 20
2888.019953908804
 30
0.0
 11
248.6192303902289
 21
2888.019953907815
 31
0.0
  0
LINE
  5
D3F
330
2
100
AcDbEntity
  8
0
  6
Continuous
 62
     9
100
AcDbLine
 10
248.6192303901771
 20
2889.019953907876
 30
0.0
 11
267.6192303901771
 21
2889.019953908867
 31
0.0
  0
LINE
  5
D40
330
2
100
AcDbEntity
  8
0
  6
Continuous
 62
     7
100
AcDbLine
 10
247.6192303901771
 20
2889.019953907762
 30
0.0
 11
247.619230389239
 21
2907.019953907763
 31
0.0
  0
LINE
  5
D41
330
2
100
AcDbEntity
  8
0
  6
Continuous
 62
     9
100
AcDbLine
 10
247.619230389239
 20
2907.019953907763
 30
0.0
 11
248.6192303892399
 21
2907.019953907815
 31
0.0
  0
LINE
  5
D42
330
2
100
AcDbEntity
  8
0
  6
Continuous
 62
     9
100
AcDbLine
 10
248.6192303892399
 20
2907.019953907877
 30
0.0
 11
248.6192303901771
 21
2889.019953907876
 31
0.0
  0
LINE
  5
D43
330
2
100
AcDbEntity
  8
0
  6
Continuous
 62
     9
100
AcDbLine
 10
267.619230389239
 20
2907.019953908869
 30
0.0
 11
248.6192303892399
 21
2907.019953907877
 31
0.0
  0
CIRCLE
  5
D44
330
2
100
AcDbEntity
  8
0
  6
Continuous
 62
     7
100
AcDbCircle
 10
257.6192303897092
 20
2898.019953908346
 30
0.0
 40
7.14142842854315
  0
LINE
  5
D45
330
2
100
AcDbEntity
  8
0
  6
Continuous
 62
     9
100
AcDbLine
 10
248.6192303891871
 20
2908.019953907814
 30
0.0
 11
248.619230389239
 21
2907.019953907877
 31
0.0
  0
ARC
  5
D46
330
2
100
AcDbEntity
  8
0
  6
Continuous
 62
     7
100
AcDbCircle
 10
248.619230389239
 20
2907.019953907815
 30
0.0
 40
1.000000000000333
100
AcDbArc
 50
90.00000000297028
 51
180.0000000029833
  0
LINE
  5
D47
330
2
100
AcDbEntity
  8
0
  6
Continuous
 62
     7
100
AcDbLine
 10
248.6192303891871
 20
2908.019953907814
 30
0.0
 11
267.6192303891871
 21
2908.019953908805
 31
0.0
  0
ARC
  5
D48
330
2
100
AcDbEntity
  8
0
  6
Continuous
 62
     7
100
AcDbCircle
 10
294.6192303900089
 20
2889.019953909933
 30
0.0
 40
0.9999999999998896
100
AcDbArc
 50
270.0000000040646
 51
0.0000000040776238
  0
LINE
  5
D49
330
2
100
AcDbEntity
  8
0
  6
Continuous
 62
     9
100
AcDbLine
 10
294.6192303900089
 20
2889.019953909933
 30
0.0
 11
294.6192303900798
 21
2888.019953909933
 31
0.0
  0
LINE
  5
D4A
330
2
100
AcDbEntity
  8
0
  6
Continuous
 62
     9
100
AcDbLine
 10
294.619230389972
 20
2889.019953909933
 30
0.0
 11
295.6192303900088
 21
2889.019953910004
 31
0.0
  0
LINE
  5
D4B
330
2
100
AcDbEntity
  8
0
  6
Continuous
 62
     9
100
AcDbLine
 10
294.619230389972
 20
2889.019953909933
 30
0.0
 11
294.6192303886988
 21
2907.019953909935
 31
0.0
  0
LINE
  5
D4C
330
2
100
AcDbEntity
  8
0
  6
Continuous
 62
     9
100
AcDbLine
 10
294.6192303886988
 20
2907.019953909935
 30
0.0
 11
295.6192303887351
 21
2907.019953910005
 31
0.0
  0
LINE
  5
D4D
330
2
100
AcDbEntity
  8
0
  6
Continuous
 62
     7
100
AcDbLine
 10
295.6192303887351
 20
2907.019953910005
 30
0.0
 11
295.6192303900088
 21
2889.019953910004
 31
0.0
  0
ARC
  5
D4E
330
2
100
AcDbEntity
  8
0
  6
Continuous
 62
     7
100
AcDbCircle
 10
294.6192303887351
 20
2907.019953909935
 30
0.0
 40
0.9999999999994455
100
AcDbArc
 50
0.0000000040515687
 51
90.00000000403856
  0
LINE
  5
D4F
330
2
100
AcDbEntity
  8
0
  6
Continuous
 62
     9
100
AcDbLine
 10
294.6192303886651
 20
2908.019953909933
 30
0.0
 11
294.6192303887351
 21
2907.019953909935
 31
0.0
  0
LINE
  5
D50
330
2
100
AcDbEntity
  8
0
  6
Continuous
 62
     7
100
AcDbLine
 10
294.6192303900798
 20
2888.019953909933
 30
0.0
 11
275.6192303900798
 21
2888.019953908588
 31
0.0
  0
LINE
  5
D51
330
2
100
AcDbEntity
  8
0
  6
Continuous
 62
     9
100
AcDbLine
 10
275.619230389972
 20
2889.019953908589
 30
0.0
 11
294.619230389972
 21
2889.019953909933
 31
0.0
  0
LINE
  5
D52
330
2
100
AcDbEntity
  8
0
  6
Continuous
 62
     9
100
AcDbLine
 10
294.6192303886988
 20
2907.019953909935
 30
0.0
 11
275.6192303886987
 21
2907.019953908589
 31
0.0
  0
CIRCLE
  5
D53
330
2
100
AcDbEntity
  8
0
  6
Continuous
 62
     7
100
AcDbCircle
 10
285.6192303893349
 20
2898.019953909296
 30
0.0
 40
7.14142842854315
  0
LINE
  5
D54
330
2
100
AcDbEntity
  8
0
  6
Continuous
 62
     7
100
AcDbLine
 10
275.6192303886637
 20
2908.019953908589
 30
0.0
 11
294.6192303886651
 21
2908.019953909933
 31
0.0
  0
LINE
  5
D55
330
2
100
AcDbEntity
  8
0
  6
Continuous
 62
     7
100
AcDbLine
 10
277.542151104069
 20
3644.019953908499
 30
0.0
 11
277.5421511046543
 21
3626.519953908511
 31
0.0
  0
LINE
  5
D56
330
2
100
AcDbEntity
  8
0
  6
Continuous
 62
     7
100
AcDbLine
 10
277.5421511059239
 20
3588.54273005063
 30
0.0
 11
277.5421511059249
 21
3588.519953908444
 31
0.0
  0
LINE
  5
D57
330
2
100
AcDbEntity
  8
0
  6
Continuous
 62
     7
100
AcDbLine
 10
277.5421511067611
 20
3563.519953908441
 30
0.0
 11
277.5421511286818
 21
2908.019953908724
 31
0.0
  0
LINE
  5
D58
330
2
100
AcDbEntity
  8
0
  6
Continuous
 62
     7
100
AcDbLine
 10
277.5421511293512
 20
2888.019953908724
 30
0.0
 11
277.542151153395
 21
2169.019953908499
 31
0.0
  0
LINE
  5
D59
330
2
100
AcDbEntity
  8
0
  6
Continuous
 62
     7
100
AcDbLine
 10
278.1206307522861
 20
3644.019953908517
 30
0.0
 11
278.1206307528719
 21
3626.519953908531
 31
0.0
  0
LINE
  5
D5A
330
2
100
AcDbEntity
  8
0
  6
Continuous
 62
     7
100
AcDbLine
 10
278.1206307539528
 20
3594.188137688048
 30
0.0
 11
278.1206307539651
 21
3593.851769630975
 31
0.0
  0
LINE
  5
D5B
330
2
100
AcDbEntity
  8
0
  6
Continuous
 62
     7
100
AcDbLine
 10
278.1206307549787
 20
3563.519953908461
 30
0.0
 11
278.1206307768989
 21
2908.019953908766
 31
0.0
  0
LINE
  5
D5C
330
2
100
AcDbEntity
  8
0
  6
Continuous
 62
     7
100
AcDbLine
 10
278.1206307775678
 20
2888.019953908765
 30
0.0
 11
278.1206308016117
 21
2169.019953908516
 31
0.0
  0
LINE
  5
D5D
330
2
100
AcDbEntity
  8
0
  6
Continuous
 62
     7
100
AcDbLine
 10
277.542151104069
 20
3644.019953908499
 30
0.0
 11
278.1206307522861
 21
3644.019953908517
 31
0.0
  0
LINE
  5
D5E
330
2
100
AcDbEntity
  8
0
  6
Continuous
 62
     7
100
AcDbLine
 10
277.542151153395
 20
2169.019953908499
 30
0.0
 11
278.1206308016117
 21
2169.019953908516
 31
0.0
  0
LINE
  5
D5F
330
2
100
AcDbEntity
  8
0
  6
Continuous
 62
     9
100
AcDbLine
 10
276.9429733832339
 20
3644.019953908479
 30
0.0
 11
276.9429733838188
 21
3626.519953908491
 31
0.0
  0
LINE
  5
D60
330
2
100
AcDbEntity
  8
0
  6
Continuous
 62
     9
100
AcDbLine
 10
276.9429733850429
 20
3589.915562293246
 30
0.0
 11
276.9429733850902
 21
3588.519953908424
 31
0.0
  0
LINE
  5
D61
330
2
100
AcDbEntity
  8
0
  6
Continuous
 62
     9
100
AcDbLine
 10
276.9429733859269
 20
3563.519953908422
 30
0.0
 11
276.9429734078467
 21
2908.019953908682
 31
0.0
  0
LINE
  5
D62
330
2
100
AcDbEntity
  8
0
  6
Continuous
 62
     9
100
AcDbLine
 10
276.9429734085161
 20
2888.019953908683
 30
0.0
 11
276.94297343256
 21
2169.019953908478
 31
0.0
  0
LINE
  5
D63
330
2
100
AcDbEntity
  8
0
  6
Continuous
 62
     7
100
AcDbLine
 10
276.9429733832339
 20
3644.019953908479
 30
0.0
 11
277.542151104069
 21
3644.019953908499
 31
0.0
  0
LINE
  5
D64
330
2
100
AcDbEntity
  8
0
  6
Continuous
 62
     7
100
AcDbLine
 10
276.94297343256
 20
2169.019953908478
 30
0.0
 11
277.542151153395
 21
2169.019953908499
 31
0.0
  0
LINE
  5
D65
330
2
100
AcDbEntity
  8
0
  6
Continuous
 62
     7
100
AcDbLine
 10
265.6963096507407
 20
3644.019953908103
 30
0.0
 11
265.6963096513259
 21
3626.519953908098
 31
0.0
  0
LINE
  5
D66
330
2
100
AcDbEntity
  8
0
  6
Continuous
 62
     7
100
AcDbLine
 10
265.6963096521622
 20
3601.519953908097
 30
0.0
 11
265.696309652702
 21
3585.391356792721
 31
0.0
  0
LINE
  5
D67
330
2
100
AcDbEntity
  8
0
  6
Continuous
 62
     7
100
AcDbLine
 10
265.6963096533277
 20
3566.648551023372
 30
0.0
 11
265.6963096753539
 21
2908.019953908706
 31
0.0
  0
LINE
  5
D68
330
2
100
AcDbEntity
  8
0
  6
Continuous
 62
     7
100
AcDbLine
 10
265.6963096760219
 20
2888.019953908703
 30
0.0
 11
265.6963097000671
 21
2169.019953908102
 31
0.0
  0
LINE
  5
D69
330
2
100
AcDbEntity
  8
0
  6
Continuous
 62
     9
100
AcDbLine
 10
266.2954873716107
 20
3644.019953908123
 30
0.0
 11
266.295487372196
 21
3626.519953908118
 31
0.0
  0
LINE
  5
D6A
330
2
100
AcDbEntity
  8
0
  6
Continuous
 62
     9
100
AcDbLine
 10
266.2954873730332
 20
3601.519953908115
 30
0.0
 11
266.2954873735507
 21
3586.019953908068
 31
0.0
  0
LINE
  5
D6B
330
2
100
AcDbEntity
  8
0
  6
Continuous
 62
     9
100
AcDbLine
 10
266.2954873742196
 20
3566.019953908067
 30
0.0
 11
266.2954873962239
 21
2908.019953908736
 31
0.0
  0
LINE
  5
D6C
330
2
100
AcDbEntity
  8
0
  6
Continuous
 62
     9
100
AcDbLine
 10
266.2954873968929
 20
2888.019953908736
 30
0.0
 11
266.2954874209372
 21
2169.019953908122
 31
0.0
  0
LINE
  5
D6D
330
2
100
AcDbEntity
  8
0
  6
Continuous
 62
     7
100
AcDbLine
 10
265.6963096507407
 20
3644.019953908103
 30
0.0
 11
266.2954873716107
 21
3644.019953908123
 31
0.0
  0
LINE
  5
D6E
330
2
100
AcDbEntity
  8
0
  6
Continuous
 62
     7
100
AcDbLine
 10
265.6963097000671
 20
2169.019953908102
 30
0.0
 11
266.2954874209372
 21
2169.019953908122
 31
0.0
  0
LINE
  5
D6F
330
2
100
AcDbEntity
  8
0
  6
Continuous
 62
     7
100
AcDbLine
 10
265.1192303836651
 20
3644.019953908081
 30
0.0
 11
265.1192303842499
 21
3626.519953908079
 31
0.0
  0
LINE
  5
D70
330
2
100
AcDbEntity
  8
0
  6
Continuous
 62
     7
100
AcDbLine
 10
265.1192303850858
 20
3601.519953908076
 30
0.0
 11
265.1192303856601
 21
3584.391826182133
 31
0.0
  0
LINE
  5
D71
330
2
100
AcDbEntity
  8
0
  6
Continuous
 62
     7
100
AcDbLine
 10
265.119230386219
 20
3567.648081633922
 30
0.0
 11
265.1192304082779
 21
2908.019953908674
 31
0.0
  0
LINE
  5
D72
330
2
100
AcDbEntity
  8
0
  6
Continuous
 62
     7
100
AcDbLine
 10
265.1192304089468
 20
2888.019953908674
 30
0.0
 11
265.1192304329911
 21
2169.019953908081
 31
0.0
  0
LINE
  5
D73
330
2
100
AcDbEntity
  8
0
  6
Continuous
 62
     7
100
AcDbLine
 10
265.1192303836651
 20
3644.019953908081
 30
0.0
 11
265.6963096507407
 21
3644.019953908103
 31
0.0
  0
LINE
  5
D74
330
2
100
AcDbEntity
  8
0
  6
Continuous
 62
     7
100
AcDbLine
 10
265.1192304329911
 20
2169.019953908081
 30
0.0
 11
265.6963097000671
 21
2169.019953908102
 31
0.0
  0
LINE
  5
D75
330
2
100
AcDbEntity
  8
0
  6
Continuous
 62
     7
100
AcDbLine
 10
276.563907765958
 20
3644.019953908467
 30
0.0
 11
276.9429733832339
 21
3644.019953908479
 31
0.0
  0
LINE
  5
D76
330
2
100
AcDbEntity
  8
0
  6
Continuous
 62
     7
100
AcDbLine
 10
276.5639078152849
 20
2169.019953908465
 30
0.0
 11
276.94297343256
 21
2169.019953908478
 31
0.0
  0
LINE
  5
D77
330
2
100
AcDbEntity
  8
0
  6
Continuous
 62
     7
100
AcDbLine
 10
266.2954873716107
 20
3644.019953908123
 30
0.0
 11
266.674552989341
 21
3644.019953908136
 31
0.0
  0
LINE
  5
D78
330
2
100
AcDbEntity
  8
0
  6
Continuous
 62
     7
100
AcDbLine
 10
266.2954874209372
 20
2169.019953908122
 30
0.0
 11
266.6745530386679
 21
2169.019953908136
 31
0.0
  0
LINE
  5
D79
330
2
100
AcDbEntity
  8
0
  6
Continuous
 62
     7
100
AcDbLine
 10
276.5618364052329
 20
3644.019953908465
 30
0.0
 11
276.561836405835
 21
3626.019953908418
 31
0.0
  0
LINE
  5
D7A
330
2
100
AcDbEntity
  8
0
  6
Continuous
 62
     7
100
AcDbLine
 10
276.5618364070001
 20
3591.172996323466
 30
0.0
 11
276.5618364071051
 21
3588.019953908411
 31
0.0
  0
LINE
  5
D7B
330
2
100
AcDbEntity
  8
0
  6
Continuous
 62
     7
100
AcDbLine
 10
276.5618364079078
 20
3564.01995390841
 30
0.0
 11
276.5618364298461
 21
2908.019953908656
 31
0.0
  0
LINE
  5
D7C
330
2
100
AcDbEntity
  8
0
  6
Continuous
 62
     7
100
AcDbLine
 10
276.5618364305142
 20
2888.019953908654
 30
0.0
 11
276.561836454559
 21
2169.019953908464
 31
0.0
  0
LINE
  5
D7D
330
2
100
AcDbEntity
  8
0
  6
Continuous
 62
     7
100
AcDbLine
 10
276.5618364052329
 20
3644.019953908465
 30
0.0
 11
276.563907765958
 21
3644.019953908465
 31
0.0
  0
LINE
  5
D7E
330
2
100
AcDbEntity
  8
0
  6
Continuous
 62
     7
100
AcDbLine
 10
276.561836454559
 20
2169.019953908464
 30
0.0
 11
276.563907815284
 21
2169.019953908465
 31
0.0
  0
LINE
  5
D7F
330
2
100
AcDbEntity
  8
0
  6
Continuous
 62
     7
100
AcDbLine
 10
266.708183512284
 20
3644.019953908136
 30
0.0
 11
266.7081835128852
 21
3626.019953908133
 31
0.0
  0
LINE
  5
D80
330
2
100
AcDbEntity
  8
0
  6
Continuous
 62
     7
100
AcDbLine
 10
266.7081835136887
 20
3602.019953908131
 30
0.0
 11
266.7081835142399
 21
3585.519953908081
 31
0.0
  0
LINE
  5
D81
330
2
100
AcDbEntity
  8
0
  6
Continuous
 62
     7
100
AcDbLine
 10
266.7081835148751
 20
3566.51995390808
 30
0.0
 11
266.7081835368967
 21
2908.019953908756
 31
0.0
  0
LINE
  5
D82
330
2
100
AcDbEntity
  8
0
  6
Continuous
 62
     7
100
AcDbLine
 10
266.7081835375661
 20
2888.019953908758
 30
0.0
 11
266.70818356161
 21
2169.019953908136
 31
0.0
  0
LINE
  5
D83
330
2
100
AcDbEntity
  8
0
  6
Continuous
 62
     7
100
AcDbLine
 10
266.674552989341
 20
3644.019953908133
 30
0.0
 11
266.708183512284
 21
3644.019953908136
 31
0.0
  0
LINE
  5
D84
330
2
100
AcDbEntity
  8
0
  6
Continuous
 62
     7
100
AcDbLine
 10
266.6745530386679
 20
2169.019953908134
 30
0.0
 11
266.70818356161
 21
2169.019953908136
 31
0.0
  0
LINE
  5
D85
330
2
100
AcDbEntity
  8
0
  6
Continuous
 62
     7
100
AcDbLine
 10
276.1512116338331
 20
3644.019953908451
 30
0.0
 11
276.5618364052329
 21
3644.019953908465
 31
0.0
  0
LINE
  5
D86
330
2
100
AcDbEntity
  8
0
  6
Continuous
 62
     7
100
AcDbLine
 10
276.1512116831591
 20
2169.019953908452
 30
0.0
 11
276.561836454559
 21
2169.019953908464
 31
0.0
  0
LINE
  5
D87
330
2
100
AcDbEntity
  8
0
  6
Continuous
 62
     7
100
AcDbLine
 10
266.708183512284
 20
3644.019953908136
 30
0.0
 11
267.0872491300129
 21
3644.019953908149
 31
0.0
  0
LINE
  5
D88
330
2
100
AcDbEntity
  8
0
  6
Continuous
 62
     7
100
AcDbLine
 10
266.70818356161
 20
2169.019953908136
 30
0.0
 11
267.0872491793389
 21
2169.019953908147
 31
0.0
  0
LINE
  5
D89
330
2
100
AcDbEntity
  8
0
  6
Continuous
 62
     7
100
AcDbLine
 10
267.0872491300129
 20
3644.019953908148
 30
0.0
 11
267.619230364764
 21
3644.019953908164
 31
0.0
  0
LINE
  5
D8A
330
2
100
AcDbEntity
  8
0
  6
Continuous
 62
     7
100
AcDbLine
 10
275.619230364764
 20
3644.019953908432
 30
0.0
 11
276.1512116338331
 21
3644.019953908451
 31
0.0
  0
LINE
  5
D8B
330
2
100
AcDbEntity
  8
0
  6
Continuous
 62
     7
100
AcDbLine
 10
267.0872491793389
 20
2169.019953908147
 30
0.0
 11
267.61923041409
 21
2169.019953908165
 31
0.0
  0
LINE
  5
D8C
330
2
100
AcDbEntity
  8
0
  6
Continuous
 62
     7
100
AcDbLine
 10
275.61923041409
 20
2169.019953908432
 30
0.0
 11
276.1512116831591
 21
2169.01995390845
 31
0.0
  0
LINE
  5
D8D
330
2
100
AcDbEntity
  8
0
  6
Continuous
 62
     7
100
AcDbLine
 10
278.1206307522861
 20
3644.019953908517
 30
0.0
 11
301.619230364593
 21
3644.019953909302
 31
0.0
  0
LINE
  5
D8E
330
2
100
AcDbEntity
  8
0
  6
Continuous
 62
     7
100
AcDbLine
 10
278.1206308016117
 20
2169.019953908516
 30
0.0
 11
301.6192304140113
 21
2169.019953909302
 31
0.0
  0
LINE
  5
D8F
330
2
100
AcDbEntity
  8
0
  6
Continuous
 62
     4
100
AcDbLine
 10
275.619230364764
 20
3644.01995390851
 30
0.0
 11
267.619230364764
 21
3644.019953908244
 31
0.0
  0
LINE
  5
D90
330
2
100
AcDbEntity
  8
0
  6
Continuous
 62
     4
100
AcDbLine
 10
275.619230364764
 20
3644.01995390851
 30
0.0
 11
275.619230414658
 21
2152.01995390851
 31
0.0
  0
LINE
  5
D91
330
2
100
AcDbEntity
  8
0
  6
Continuous
 62
     4
100
AcDbLine
 10
267.619230364764
 20
3644.019953908244
 30
0.0
 11
267.619230414658
 21
2152.019953908244
 31
0.0
  0
LINE
  5
D92
330
2
100
AcDbEntity
  8
0
  6
Continuous
 62
     4
100
AcDbLine
 10
275.619230414658
 20
2152.01995390851
 30
0.0
 11
267.619230414658
 21
2152.019953908244
 31
0.0
  0
LINE
  5
D93
330
2
100
AcDbEntity
  8
0
  6
Continuous
 62
     4
100
AcDbLine
 10
301.619230414849
 20
2144.019953909303
 30
0.0
 11
301.619230364593
 21
3644.019953909302
 31
0.0
  0
LINE
  5
D94
330
2
100
AcDbEntity
  8
0
  6
Continuous
 62
     4
100
AcDbLine
 10
301.619230414849
 20
2144.019953909303
 30
0.0
 11
309.619230414849
 21
2144.019953909571
 31
0.0
  0
LINE
  5
D95
330
2
100
AcDbEntity
  8
0
  6
Continuous
 62
     4
100
AcDbLine
 10
309.619230414849
 20
2144.019953909571
 30
0.0
 11
309.619230364593
 21
3644.019953909571
 31
0.0
  0
LINE
  5
D96
330
2
100
AcDbEntity
  8
0
  6
Continuous
 62
     4
100
AcDbLine
 10
301.619230364593
 20
3644.019953909302
 30
0.0
 11
309.619230364593
 21
3644.019953909571
 31
0.0
  0
LINE
  5
D97
330
2
100
AcDbEntity
  8
0
  6
Continuous
 62
     9
100
AcDbLine
 10
290.7192303657971
 20
3613.756668254279
 30
0.0
 11
290.7192303657962
 21
3613.769953659976
 31
0.0
  0
LINE
  5
D98
330
2
100
AcDbEntity
  8
0
  6
Continuous
 62
     9
100
AcDbLine
 10
285.7192303657962
 20
3613.769953659808
 30
0.0
 11
285.7192303657971
 21
3613.756746857268
 31
0.0
  0
LINE
  5
D99
330
2
100
AcDbEntity
  8
0
  6
Continuous
 62
     9
100
AcDbLine
 10
285.219235375801
 20
3613.639114992607
 30
0.0
 11
285.219235375801
 21
3613.638904991962
 31
0.0
  0
LINE
  5
D9A
330
2
100
AcDbEntity
  8
0
  6
Continuous
 62
     9
100
AcDbLine
 10
291.219225355801
 20
3613.638904992136
 30
0.0
 11
291.219225355801
 21
3613.639071032143
 31
0.0
  0
LINE
  5
D9B
330
2
100
AcDbEntity
  8
0
  6
Continuous
 62
     7
100
AcDbLine
 10
310.619230366528
 20
3606.019953907426
 30
0.0
 11
309.619230366528
 21
3606.019953907446
 31
0.0
  0
LINE
  5
D9C
330
2
100
AcDbEntity
  8
0
  6
Continuous
 62
     7
100
AcDbLine
 10
309.6192303660091
 20
3582.019953907446
 30
0.0
 11
310.6192303660078
 21
3582.019953907425
 31
0.0
  0
LINE
  5
D9D
330
2
100
AcDbEntity
  8
0
  6
Continuous
 62
     7
100
AcDbLine
 10
316.319230365998
 20
3581.519953907301
 30
0.0
 11
316.619230366005
 21
3581.819953907294
 31
0.0
  0
LINE
  5
D9E
330
2
100
AcDbEntity
  8
0
  6
Continuous
 62
     7
100
AcDbLine
 10
316.6192303665312
 20
3606.219953907295
 30
0.0
 11
316.3192303665387
 21
3606.519953907301
 31
0.0
  0
LINE
  5
D9F
330
2
100
AcDbEntity
  8
0
  6
Continuous
 62
     7
100
AcDbLine
 10
310.6192303659991
 20
3581.519953907425
 30
0.0
 11
316.319230365998
 21
3581.519953907301
 31
0.0
  0
LINE
  5
DA0
330
2
100
AcDbEntity
  8
0
  6
Continuous
 62
     7
100
AcDbLine
 10
316.3192303665387
 20
3606.519953907301
 30
0.0
 11
310.619230366538
 21
3606.519953907425
 31
0.0
  0
LINE
  5
DA1
330
2
100
AcDbEntity
  8
0
  6
Continuous
 62
     7
100
AcDbLine
 10
310.6192303658358
 20
3607.019927724643
 30
0.0
 11
309.6192303658359
 21
3607.01992772461
 31
0.0
  0
LINE
  5
DA2
330
2
100
AcDbEntity
  8
0
  6
Continuous
 62
     7
100
AcDbLine
 10
316.3192303658161
 20
3607.519927724832
 30
0.0
 11
310.6192303658168
 21
3607.519927724641
 31
0.0
  0
LINE
  5
DA3
330
2
100
AcDbEntity
  8
0
  6
Continuous
 62
     7
100
AcDbLine
 10
316.6192303658267
 20
3607.219927724842
 30
0.0
 11
316.3192303658161
 21
3607.519927724832
 31
0.0
  0
LINE
  5
DA4
330
2
100
AcDbEntity
  8
0
  6
Continuous
 62
     7
100
AcDbLine
 10
275.6192303674329
 20
3564.019953908463
 30
0.0
 11
276.619230367432
 21
3564.019953908498
 31
0.0
  0
LINE
  5
DA5
330
2
100
AcDbEntity
  8
0
  6
Continuous
 62
     7
100
AcDbLine
 10
276.6192303666289
 20
3588.019953908485
 30
0.0
 11
275.6192303666289
 21
3588.01995390845
 31
0.0
  0
LINE
  5
DA6
330
2
100
AcDbEntity
  8
0
  6
Continuous
 62
     7
100
AcDbLine
 10
267.6192303664989
 20
3585.519953908232
 30
0.0
 11
266.6192303664989
 21
3585.519953908197
 31
0.0
  0
LINE
  5
DA7
330
2
100
AcDbEntity
  8
0
  6
Continuous
 62
     7
100
AcDbLine
 10
266.6192303671351
 20
3566.519953908207
 30
0.0
 11
267.6192303671351
 21
3566.51995390824
 31
0.0
  0
LINE
  5
DA8
330
2
100
AcDbEntity
  8
0
  6
Continuous
 62
     7
100
AcDbLine
 10
266.059230366483
 20
3586.019953908178
 30
0.0
 11
264.6192303665662
 21
3583.525800745232
 31
0.0
  0
LINE
  5
DA9
330
2
100
AcDbEntity
  8
0
  6
Continuous
 62
     7
100
AcDbLine
 10
264.6192303670691
 20
3568.514107071037
 30
0.0
 11
266.0592303671519
 21
3566.019953908188
 31
0.0
  0
LINE
  5
DAA
330
2
100
AcDbEntity
  8
0
  6
Continuous
 62
     7
100
AcDbLine
 10
266.6192303664829
 20
3586.019953908198
 30
0.0
 11
266.059230366483
 21
3586.019953908178
 31
0.0
  0
LINE
  5
DAB
330
2
100
AcDbEntity
  8
0
  6
Continuous
 62
     7
100
AcDbLine
 10
266.0592303671519
 20
3566.019953908188
 30
0.0
 11
266.6192303671519
 21
3566.019953908207
 31
0.0
  0
ARC
  5
DAC
330
2
100
AcDbEntity
  8
0
  6
Continuous
 62
     7
100
AcDbCircle
 10
247.119230366583
 20
3583.019953907544
 30
0.0
 40
0.4999999999997229
100
AcDbArc
 50
90.00000000192807
 51
180.0000000017457
  0
ARC
  5
DAD
330
2
100
AcDbEntity
  8
0
  6
Continuous
 62
     7
100
AcDbCircle
 10
247.1192303670518
 20
3569.019953907556
 30
0.0
 40
0.5000000000001671
100
AcDbArc
 50
180.0000000021365
 51
270.0000000019802
  0
LINE
  5
DAE
330
2
100
AcDbEntity
  8
0
  6
Continuous
 62
     7
100
AcDbLine
 10
264.6192303665662
 20
3583.51995390813
 30
0.0
 11
247.1192303665671
 21
3583.519953907547
 31
0.0
  0
LINE
  5
DAF
330
2
100
AcDbEntity
  8
0
  6
Continuous
 62
     7
100
AcDbLine
 10
247.1192303670682
 20
3568.519953907554
 30
0.0
 11
264.6192303670682
 21
3568.519953908138
 31
0.0
  0
LINE
  5
DB0
330
2
100
AcDbEntity
  8
0
  6
Continuous
 62
     7
100
AcDbLine
 10
267.6192303653593
 20
3626.019953908259
 30
0.0
 11
266.6192303653602
 21
3626.019953908226
 31
0.0
  0
LINE
  5
DB1
330
2
100
AcDbEntity
  8
0
  6
Continuous
 62
     7
100
AcDbLine
 10
266.6192303661628
 20
3602.019953908236
 30
0.0
 11
267.6192303661619
 21
3602.01995390827
 31
0.0
  0
LINE
  5
DB2
330
2
100
AcDbEntity
  8
0
  6
Continuous
 62
     7
100
AcDbLine
 10
276.6192303661291
 20
3626.019953908468
 30
0.0
 11
275.6192303661292
 21
3626.019953908497
 31
0.0
  0
LINE
  5
DB3
330
2
100
AcDbEntity
  8
0
  6
Continuous
 62
     7
100
AcDbLine
 10
275.6192303653911
 20
3602.019953908509
 30
0.0
 11
276.2192303661391
 21
3602.019953908492
 31
0.0
  0
LINE
  5
DB4
330
2
100
AcDbEntity
  8
0
  6
Continuous
 62
     7
100
AcDbLine
 10
276.6192303674488
 20
3563.519953908497
 30
0.0
 11
282.3192303674491
 21
3563.519953908688
 31
0.0
  0
LINE
  5
DB5
330
2
100
AcDbEntity
  8
0
  6
Continuous
 62
     7
100
AcDbLine
 10
279.8675836589751
 20
3588.519953908595
 30
0.0
 11
279.7481027710901
 21
3588.519953908591
 31
0.0
  0
LINE
  5
DB6
330
2
100
AcDbEntity
  8
0
  6
Continuous
 62
     7
100
AcDbLine
 10
277.5538657343209
 20
3588.519953908516
 30
0.0
 11
276.619230366613
 21
3588.519953908484
 31
0.0
  0
LINE
  5
DB7
330
2
100
AcDbEntity
  8
0
  6
Continuous
 62
     7
100
AcDbLine
 10
282.3192303674491
 20
3563.519953908688
 30
0.0
 11
282.6192303674389
 21
3563.819953908697
 31
0.0
  0
LINE
  5
DB8
330
2
100
AcDbEntity
  8
0
  6
Continuous
 62
     7
100
AcDbLine
 10
245.155128750207
 20
3626.519953907508
 30
0.0
 11
244.6192303654111
 21
3624.519953907491
 31
0.0
  0
LINE
  5
DB9
330
2
100
AcDbEntity
  8
0
  6
Continuous
 62
     7
100
AcDbLine
 10
244.6192303661141
 20
3603.5199539075
 30
0.0
 11
245.1551287510429
 21
3601.519953907519
 31
0.0
  0
LINE
  5
DBA
330
2
100
AcDbEntity
  8
0
  6
Continuous
 62
     7
100
AcDbLine
 10
246.1192303653452
 20
3626.519953907541
 30
0.0
 11
245.155128750207
 21
3626.519953907508
 31
0.0
  0
LINE
  5
DBB
330
2
100
AcDbEntity
  8
0
  6
Continuous
 62
     7
100
AcDbLine
 10
245.1551287510429
 20
3601.519953907519
 30
0.0
 11
246.119230366181
 21
3601.519953907552
 31
0.0
  0
LINE
  5
DBC
330
2
100
AcDbEntity
  8
0
  6
Continuous
 62
     7
100
AcDbLine
 10
246.6192303655798
 20
3619.519953907561
 30
0.0
 11
246.1192303655789
 21
3619.519953907543
 31
0.0
  0
LINE
  5
DBD
330
2
100
AcDbEntity
  8
0
  6
Continuous
 62
     7
100
AcDbLine
 10
246.1192303659468
 20
3608.51995390755
 30
0.0
 11
246.6192303659482
 21
3608.519953907565
 31
0.0
  0
LINE
  5
DBE
330
2
100
AcDbEntity
  8
0
  6
Continuous
 62
     7
100
AcDbLine
 10
279.2192303661559
 20
3601.519953908628
 30
0.0
 11
281.6048523701243
 21
3601.519953908709
 31
0.0
  0
LINE
  5
DBF
330
2
100
AcDbEntity
  8
0
  6
Continuous
 62
     7
100
AcDbLine
 10
282.3192303653418
 20
3626.519953908722
 30
0.0
 11
276.619230365342
 21
3626.519953908531
 31
0.0
  0
LINE
  5
DC0
330
2
100
AcDbEntity
  8
0
  6
Continuous
 62
     7
100
AcDbLine
 10
282.619230365352
 20
3626.219953908731
 30
0.0
 11
282.3192303653418
 21
3626.519953908722
 31
0.0
  0
LINE
  5
DC1
330
2
100
AcDbEntity
  8
0
  6
Continuous
 62
     7
100
AcDbLine
 10
247.818495110977
 20
3626.519953907596
 30
0.0
 11
247.1192303653452
 21
3626.519953907574
 31
0.0
  0
LINE
  5
DC2
330
2
100
AcDbEntity
  8
0
  6
Continuous
 62
     7
100
AcDbLine
 10
247.119230366181
 20
3601.519953907585
 30
0.0
 11
247.8184951118128
 21
3601.519953907609
 31
0.0
  0
ARC
  5
DC3
330
2
100
AcDbEntity
  8
0
  6
Continuous
 62
     7
100
AcDbCircle
 10
247.1192303661637
 20
3602.019953907591
 30
0.0
 40
0.4999999999997229
100
AcDbArc
 50
180.0000000022407
 51
270.000000001902
  0
ARC
  5
DC4
330
2
100
AcDbEntity
  8
0
  6
Continuous
 62
     7
100
AcDbCircle
 10
247.119230365362
 20
3626.019953907568
 30
0.0
 40
0.4999999999997229
100
AcDbArc
 50
90.00000000187595
 51
180.0000000015763
  0
ARC
  5
DC5
330
2
100
AcDbEntity
  8
0
  6
Continuous
 62
     7
100
AcDbCircle
 10
254.6192303664489
 20
3593.519953907849
 30
0.0
 40
10.49999999999972
100
AcDbArc
 50
49.63240645769388
 51
130.3675935461326
  0
ARC
  5
DC6
330
2
100
AcDbEntity
  8
0
  6
Continuous
 62
     7
100
AcDbCircle
 10
254.6192303650769
 20
3634.519953907812
 30
0.0
 40
10.49999999999972
100
AcDbArc
 50
229.6324064576939
 51
310.3675935461327
  0
LINE
  5
DC7
330
2
100
AcDbEntity
  8
0
  6
Continuous
 62
     7
100
AcDbLine
 10
262.1192303653452
 20
3626.519953908076
 30
0.0
 11
261.419965619712
 21
3626.519953908051
 31
0.0
  0
LINE
  5
DC8
330
2
100
AcDbEntity
  8
0
  6
Continuous
 62
     7
100
AcDbLine
 10
261.4199656205478
 20
3601.519953908063
 30
0.0
 11
262.119230366181
 21
3601.519953908085
 31
0.0
  0
ARC
  5
DC9
330
2
100
AcDbEntity
  8
0
  6
Continuous
 62
     7
100
AcDbCircle
 10
262.1192303653611
 20
3626.01995390807
 30
0.0
 40
0.5000000000001671
100
AcDbArc
 50
0.0000000022407389
 51
90.00000000190203
  0
ARC
  5
DCA
330
2
100
AcDbEntity
  8
0
  6
Continuous
 62
     7
100
AcDbCircle
 10
262.1192303661637
 20
3602.019953908092
 30
0.0
 40
0.4999999999997229
100
AcDbArc
 50
270.0000000018759
 51
0.0000000015763338
  0
LINE
  5
DCB
330
2
100
AcDbEntity
  8
0
  6
Continuous
 62
     7
100
AcDbLine
 10
263.119230366181
 20
3601.51995390812
 30
0.0
 11
266.619230366181
 21
3601.519953908238
 31
0.0
  0
LINE
  5
DCC
330
2
100
AcDbEntity
  8
0
  6
Continuous
 62
     7
100
AcDbLine
 10
266.6192303653452
 20
3626.519953908227
 30
0.0
 11
263.1192303653452
 21
3626.519953908108
 31
0.0
  0
ARC
  5
DCD
330
2
100
AcDbEntity
  8
0
  6
Continuous
 62
     7
100
AcDbCircle
 10
262.6192303655457
 20
3620.51995390809
 30
0.0
 40
0.4999999999997229
100
AcDbArc
 50
270.0000000019281
 51
0.0000000021365185
  0
ARC
  5
DCE
330
2
100
AcDbEntity
  8
0
  6
Continuous
 62
     7
100
AcDbCircle
 10
262.61923036598
 20
3607.519953908103
 30
0.0
 40
0.5000000000006111
100
AcDbArc
 50
0.0000000017587195
 51
90.00000000192807
  0
LINE
  5
DCF
330
2
100
AcDbEntity
  8
0
  6
Continuous
 62
     7
100
AcDbLine
 10
290.7192303657403
 20
3613.769953660002
 30
0.0
 11
290.219230365788
 21
3614.019953659958
 31
0.0
  0
LINE
  5
DD0
330
2
100
AcDbEntity
  8
0
  6
Continuous
 62
     7
100
AcDbLine
 10
286.219230365788
 20
3614.019953659823
 30
0.0
 11
285.7192303657403
 21
3613.769953659779
 31
0.0
  0
LINE
  5
DD1
330
2
100
AcDbEntity
  8
0
  6
Continuous
 62
     7
100
AcDbLine
 10
287.169230366153
 20
3604.319953659815
 30
0.0
 11
287.4692303661232
 21
3604.019953659866
 31
0.0
  0
LINE
  5
DD2
330
2
100
AcDbEntity
  8
0
  6
Continuous
 62
     7
100
AcDbLine
 10
288.9692303661231
 20
3604.019953659913
 30
0.0
 11
289.2692303660742
 21
3604.319953659884
 31
0.0
  0
LINE
  5
DD3
330
2
100
AcDbEntity
  8
0
  6
Continuous
 62
     7
100
AcDbLine
 10
276.563907765958
 20
3644.019953908467
 30
0.0
 11
276.5639077665601
 21
3626.019953908419
 31
0.0
  0
LINE
  5
DD4
330
2
100
AcDbEntity
  8
0
  6
Continuous
 62
     7
100
AcDbLine
 10
276.563907767726
 20
3591.164528352269
 30
0.0
 11
276.5639077678311
 21
3588.019953908411
 31
0.0
  0
LINE
  5
DD5
330
2
100
AcDbEntity
  8
0
  6
Continuous
 62
     7
100
AcDbLine
 10
276.5639077686328
 20
3564.01995390841
 30
0.0
 11
276.5639077905707
 21
2908.019953908656
 31
0.0
  0
LINE
  5
DD6
330
2
100
AcDbEntity
  8
0
  6
Continuous
 62
     7
100
AcDbLine
 10
276.5639077912401
 20
2888.019953908656
 30
0.0
 11
276.563907815284
 21
2169.019953908465
 31
0.0
  0
LINE
  5
DD7
330
2
100
AcDbEntity
  8
0
  6
Continuous
 62
     7
100
AcDbLine
 10
266.6745530386679
 20
2169.019953908136
 30
0.0
 11
266.6745530146231
 21
2888.019953908756
 31
0.0
  0
LINE
  5
DD8
330
2
100
AcDbEntity
  8
0
  6
Continuous
 62
     7
100
AcDbLine
 10
266.6745530139542
 20
2908.019953908754
 30
0.0
 11
266.6745529919331
 21
3566.519953908078
 31
0.0
  0
LINE
  5
DD9
330
2
100
AcDbEntity
  8
0
  6
Continuous
 62
     7
100
AcDbLine
 10
266.6745529912982
 20
3585.51995390808
 30
0.0
 11
266.6745529907462
 21
3602.019953908129
 31
0.0
  0
LINE
  5
DDA
330
2
100
AcDbEntity
  8
0
  6
Continuous
 62
     7
100
AcDbLine
 10
266.6745529899431
 20
3626.019953908132
 30
0.0
 11
266.674552989341
 21
3644.019953908136
 31
0.0
  0
LINE
  5
DDB
330
2
100
AcDbEntity
  8
0
  6
Continuous
 62
     7
100
AcDbLine
 10
276.1512116338331
 20
3644.019953908451
 30
0.0
 11
276.1512116344352
 21
3626.019953908431
 31
0.0
  0
LINE
  5
DDC
330
2
100
AcDbEntity
  8
0
  6
Continuous
 62
     7
100
AcDbLine
 10
276.1512116352378
 20
3602.01995390843
 30
0.0
 11
276.1512116357049
 21
3588.019953908398
 31
0.0
  0
LINE
  5
DDD
330
2
100
AcDbEntity
  8
0
  6
Continuous
 62
     7
100
AcDbLine
 10
276.1512116365079
 20
3564.019953908394
 30
0.0
 11
276.1512116584459
 21
2908.019953908626
 31
0.0
  0
LINE
  5
DDE
330
2
100
AcDbEntity
  8
0
  6
Continuous
 62
     7
100
AcDbLine
 10
276.1512116591148
 20
2888.019953908626
 30
0.0
 11
276.1512116831591
 21
2169.019953908452
 31
0.0
  0
LINE
  5
DDF
330
2
100
AcDbEntity
  8
0
  6
Continuous
 62
     7
100
AcDbLine
 10
267.0872491793389
 20
2169.019953908147
 30
0.0
 11
267.087249155295
 21
2888.019953908777
 31
0.0
  0
LINE
  5
DE0
330
2
100
AcDbEntity
  8
0
  6
Continuous
 62
     7
100
AcDbLine
 10
267.0872491546261
 20
2908.019953908777
 30
0.0
 11
267.0872491326049
 21
3566.519953908092
 31
0.0
  0
LINE
  5
DE1
330
2
100
AcDbEntity
  8
0
  6
Continuous
 62
     7
100
AcDbLine
 10
267.0872491319688
 20
3585.519953908093
 30
0.0
 11
267.0872491314171
 21
3602.019953908142
 31
0.0
  0
LINE
  5
DE2
330
2
100
AcDbEntity
  8
0
  6
Continuous
 62
     7
100
AcDbLine
 10
267.087249130615
 20
3626.019953908146
 30
0.0
 11
267.0872491300129
 21
3644.019953908149
 31
0.0
  0
LINE
  5
DE3
330
2
100
AcDbEntity
  8
0
  6
Continuous
 62
     7
100
AcDbLine
 10
5280.619230267025
 20
3606.519953907425
 30
0.0
 11
5280.619230267025
 21
3606.51972470668
 31
0.0
  0
LINE
  5
DE4
330
2
100
AcDbEntity
  8
0
  6
Continuous
 62
     7
100
AcDbLine
 10
5280.619230267025
 20
3606.51972470668
 30
0.0
 11
5280.619230267169
 21
3599.819927724641
 31
0.0
  0
LINE
  5
DE5
330
2
100
AcDbEntity
  8
0
  6
Continuous
 62
     7
100
AcDbLine
 10
5280.619230267169
 20
3599.819927724641
 30
0.0
 11
5280.619230267297
 21
3593.8709135871
 31
0.0
  0
LINE
  5
DE6
330
2
100
AcDbEntity
  8
0
  6
Continuous
 62
     7
100
AcDbLine
 10
5274.919230267543
 20
3582.519927724201
 30
0.0
 11
5274.919230267563
 21
3581.519953907301
 31
0.0
  0
LINE
  5
DE7
330
2
100
AcDbEntity
  8
0
  6
Continuous
 62
     7
100
AcDbLine
 10
5280.619230267297
 20
3593.8709135871
 30
0.0
 11
5280.619230267377
 21
3590.219927724643
 31
0.0
  0
LINE
  5
DE8
330
2
100
AcDbEntity
  8
0
  6
Continuous
 62
     7
100
AcDbLine
 10
5280.619230267377
 20
3590.219927724643
 30
0.0
 11
5280.61923026753
 21
3583.019927724643
 31
0.0
  0
LINE
  5
DE9
330
2
100
AcDbEntity
  8
0
  6
Continuous
 62
     7
100
AcDbLine
 10
5280.61923026753
 20
3583.019927724643
 30
0.0
 11
5280.619230267543
 21
3582.519927724643
 31
0.0
  0
LINE
  5
DEA
330
2
100
AcDbEntity
  8
0
  6
Continuous
 62
     7
100
AcDbLine
 10
5280.619230267543
 20
3582.519927724643
 30
0.0
 11
5280.619230267564
 21
3581.519953907425
 31
0.0
  0
LINE
  5
DEB
330
2
100
AcDbEntity
  8
0
  6
Continuous
 62
     7
100
AcDbLine
 10
5274.619230267557
 20
3581.819953907294
 30
0.0
 11
5274.619230267536
 21
3582.819927724227
 31
0.0
  0
LINE
  5
DEC
330
2
100
AcDbEntity
  8
0
  6
Continuous
 62
     7
100
AcDbLine
 10
5304.619230267354
 20
3591.248672623085
 30
0.0
 11
5304.619230267338
 21
3592.019927723948
 31
0.0
  0
LINE
  5
DED
330
2
100
AcDbEntity
  8
0
  6
Continuous
 62
     7
100
AcDbLine
 10
5305.619230267315
 20
3593.019927723859
 30
0.0
 11
5305.619230267334
 21
3592.154478104662
 31
0.0
  0
LINE
  5
DEE
330
2
100
AcDbEntity
  8
0
  6
Continuous
 62
     7
100
AcDbLine
 10
5291.11923026691
 20
3582.519927727616
 30
0.0
 11
5291.119230266875
 21
3581.519953908451
 31
0.0
  0
LINE
  5
DEF
330
2
100
AcDbEntity
  8
0
  6
Continuous
 62
     7
100
AcDbLine
 10
5292.619230267093
 20
3588.03330209623
 30
0.0
 11
5292.61923026706
 21
3587.019953908399
 31
0.0
  0
LINE
  5
DF0
330
2
100
AcDbEntity
  8
0
  6
Continuous
 62
     7
100
AcDbLine
 10
5295.477797455035
 20
3601.019953908305
 30
0.0
 11
5294.465563169348
 21
3599.804951661818
 31
0.0
  0
LINE
  5
DF1
330
2
100
AcDbEntity
  8
0
  6
Continuous
 62
     7
100
AcDbLine
 10
5280.619230267746
 20
3607.51992772464
 30
0.0
 11
5280.619230267323
 21
3594.851637315404
 31
0.0
  0
LINE
  5
DF2
330
2
100
AcDbEntity
  8
0
  6
Continuous
 62
     7
100
AcDbLine
 10
5274.919230267745
 20
3607.519927724832
 30
0.0
 11
5274.919230267322
 21
3594.851637315595
 31
0.0
  0
LINE
  5
DF3
330
2
100
AcDbEntity
  8
0
  6
Continuous
 62
     7
100
AcDbLine
 10
5274.919230267322
 20
3594.851637315595
 30
0.0
 11
5274.919230266909
 21
3582.519927724835
 31
0.0
  0
LINE
  5
DF4
330
2
100
AcDbEntity
  8
0
  6
Continuous
 62
     7
100
AcDbLine
 10
5280.619230267323
 20
3594.851637315404
 30
0.0
 11
5280.619230266908
 21
3582.519927724643
 31
0.0
  0
LINE
  5
DF5
330
2
100
AcDbEntity
  8
0
  6
Continuous
 62
     7
100
AcDbLine
 10
5274.619230266917
 20
3582.819927724845
 30
0.0
 11
5274.619230267322
 21
3594.855676285427
 31
0.0
  0
LINE
  5
DF6
330
2
100
AcDbEntity
  8
0
  6
Continuous
 62
     7
100
AcDbLine
 10
5274.619230267322
 20
3594.855676285427
 30
0.0
 11
5274.619230267735
 21
3607.219927724842
 31
0.0
  0
LINE
  5
DF7
330
2
100
AcDbEntity
  8
0
  6
Continuous
 62
     7
100
AcDbLine
 10
5304.619230267228
 20
3592.019927723838
 30
0.0
 11
5304.619230267387
 21
3596.791235207055
 31
0.0
  0
LINE
  5
DF8
330
2
100
AcDbEntity
  8
0
  6
Continuous
 62
     7
100
AcDbLine
 10
5305.619230267355
 20
3595.885429725362
 30
0.0
 11
5305.61923026726
 21
3593.019927723805
 31
0.0
  0
LINE
  5
DF9
330
2
100
AcDbEntity
  8
0
  6
Continuous
 62
     7
100
AcDbLine
 10
5291.119230268434
 20
3607.519927725089
 30
0.0
 11
5291.119230268083
 21
3603.565916404571
 31
0.0
  0
LINE
  5
DFA
330
2
100
AcDbEntity
  8
0
  6
Continuous
 62
     7
100
AcDbLine
 10
5291.119230267103
 20
3592.473991431164
 30
0.0
 11
5291.119230266218
 21
3582.519927725089
 31
0.0
  0
LINE
  5
DFB
330
2
100
AcDbEntity
  8
0
  6
Continuous
 62
     7
100
AcDbLine
 10
5292.619230266708
 20
3588.033302096834
 30
0.0
 11
5292.619230266707
 21
3588.019927724957
 31
0.0
  0
LINE
  5
DFC
330
2
100
AcDbEntity
  8
0
  6
Continuous
 62
     7
100
AcDbLine
 10
5293.216040017853
 20
3591.600663281174
 30
0.0
 11
5293.578192690652
 21
3590.732007791617
 31
0.0
  0
ARC
  5
DFD
330
2
100
AcDbEntity
  8
0
  6
Continuous
 62
     7
100
AcDbCircle
 10
5302.934218420887
 20
3594.81366044906
 30
0.0
 40
10.36960950305641
100
AcDbArc
 50
135.9774804681842
 51
149.2861086032261
  0
LINE
  5
DFE
330
2
100
AcDbEntity
  8
0
  6
Continuous
 62
     7
100
AcDbLine
 10
5326.619230266552
 20
3568.51410707091
 30
0.0
 11
5326.619230266802
 21
3576.019953908009
 31
0.0
  0
LINE
  5
DFF
330
2
100
AcDbEntity
  8
0
  6
Continuous
 62
     7
100
AcDbLine
 10
5326.619230266802
 20
3576.019953908009
 30
0.0
 11
5326.619230267053
 21
3583.525800745111
 31
0.0
  0
LINE
  5
E00
330
2
100
AcDbEntity
  8
0
  6
Continuous
 62
     9
100
AcDbLine
 10
5344.119230266552
 20
3568.519953907426
 30
0.0
 11
5344.119230266802
 21
3576.019953907425
 31
0.0
  0
LINE
  5
E01
330
2
100
AcDbEntity
  8
0
  6
Continuous
 62
     9
100
AcDbLine
 10
5344.119230266802
 20
3576.019953907425
 30
0.0
 11
5344.119230267054
 21
3583.519953907426
 31
0.0
  0
LINE
  5
E02
330
2
100
AcDbEntity
  8
0
  6
Continuous
 62
     7
100
AcDbLine
 10
5344.61923026657
 20
3569.019953907409
 30
0.0
 11
5344.619230266802
 21
3576.019953907409
 31
0.0
  0
LINE
  5
E03
330
2
100
AcDbEntity
  8
0
  6
Continuous
 62
     7
100
AcDbLine
 10
5344.619230266802
 20
3576.019953907409
 30
0.0
 11
5344.619230267037
 21
3583.019953907409
 31
0.0
  0
LINE
  5
E04
330
2
100
AcDbEntity
  8
0
  6
Continuous
 62
     7
100
AcDbLine
 10
5346.083331882577
 20
3601.51995390741
 30
0.0
 11
5346.083331882994
 21
3614.019953907409
 31
0.0
  0
LINE
  5
E05
330
2
100
AcDbEntity
  8
0
  6
Continuous
 62
     7
100
AcDbLine
 10
5345.119230267439
 20
3601.519953907442
 30
0.0
 11
5345.119230267858
 21
3614.019953907442
 31
0.0
  0
LINE
  5
E06
330
2
100
AcDbEntity
  8
0
  6
Continuous
 62
     7
100
AcDbLine
 10
5346.083331882994
 20
3614.019953907409
 30
0.0
 11
5346.083331883413
 21
3626.51995390741
 31
0.0
  0
LINE
  5
E07
330
2
100
AcDbEntity
  8
0
  6
Continuous
 62
     7
100
AcDbLine
 10
5345.119230267858
 20
3614.019953907442
 30
0.0
 11
5345.119230268275
 21
3626.519953907442
 31
0.0
  0
LINE
  5
E08
330
2
100
AcDbEntity
  8
0
  6
Continuous
 62
     7
100
AcDbLine
 10
5346.619230267505
 20
3603.519953907392
 30
0.0
 11
5346.619230267857
 21
3614.019953907392
 31
0.0
  0
LINE
  5
E09
330
2
100
AcDbEntity
  8
0
  6
Continuous
 62
     7
100
AcDbLine
 10
5346.619230267857
 20
3614.019953907392
 30
0.0
 11
5346.619230268209
 21
3624.519953907392
 31
0.0
  0
LINE
  5
E0A
330
2
100
AcDbEntity
  8
0
  6
Continuous
 62
     9
100
AcDbLine
 10
5329.119230268274
 20
3626.519953907977
 30
0.0
 11
5329.119230267439
 21
3601.519953907977
 31
0.0
  0
LINE
  5
E0B
330
2
100
AcDbEntity
  8
0
  6
Continuous
 62
     7
100
AcDbLine
 10
5328.619230267456
 20
3602.019953907996
 30
0.0
 11
5328.619230268258
 21
3626.019953907995
 31
0.0
  0
LINE
  5
E0C
330
2
100
AcDbEntity
  8
0
  6
Continuous
 62
     7
100
AcDbLine
 10
5329.818495013071
 20
3601.519953907955
 30
0.0
 11
5329.818495013811
 21
3623.665022964072
 31
0.0
  0
LINE
  5
E0D
330
2
100
AcDbEntity
  8
0
  6
Continuous
 62
     7
100
AcDbLine
 10
5329.818495013811
 20
3623.665022964072
 30
0.0
 11
5329.818495013907
 21
3626.519953907955
 31
0.0
  0
LINE
  5
E0E
330
2
100
AcDbEntity
  8
0
  6
Continuous
 62
     7
100
AcDbLine
 10
5343.419965522643
 20
3626.5199539075
 30
0.0
 11
5343.419965521805
 21
3601.5199539075
 31
0.0
  0
LINE
  5
E0F
330
2
100
AcDbEntity
  8
0
  6
Continuous
 62
     9
100
AcDbLine
 10
5344.119230267438
 20
3601.519953907477
 30
0.0
 11
5344.11923026818
 21
3623.665022963594
 31
0.0
  0
LINE
  5
E10
330
2
100
AcDbEntity
  8
0
  6
Continuous
 62
     9
100
AcDbLine
 10
5344.11923026818
 20
3623.665022963594
 30
0.0
 11
5344.119230268276
 21
3626.519953907477
 31
0.0
  0
LINE
  5
E11
330
2
100
AcDbEntity
  8
0
  6
Continuous
 62
     7
100
AcDbLine
 10
5344.619230268257
 20
3626.019953907459
 30
0.0
 11
5344.619230268166
 21
3623.279220201332
 31
0.0
  0
LINE
  5
E12
330
2
100
AcDbEntity
  8
0
  6
Continuous
 62
     7
100
AcDbLine
 10
5344.619230268166
 20
3623.279220201332
 30
0.0
 11
5344.619230267455
 21
3602.019953907458
 31
0.0
  0
LINE
  5
E13
330
2
100
AcDbEntity
  8
0
  6
Continuous
 62
     7
100
AcDbLine
 10
5328.119230268276
 20
3626.519953908011
 30
0.0
 11
5328.119230267646
 21
3607.704014680123
 31
0.0
  0
LINE
  5
E14
330
2
100
AcDbEntity
  8
0
  6
Continuous
 62
     7
100
AcDbLine
 10
5328.119230267646
 20
3607.704014680123
 30
0.0
 11
5328.119230267438
 21
3601.51995390801
 31
0.0
  0
LINE
  5
E15
330
2
100
AcDbEntity
  8
0
  6
Continuous
 62
     7
100
AcDbLine
 10
5303.769230267494
 20
3604.019953914908
 30
0.0
 11
5303.01923026748
 21
3604.019953914932
 31
0.0
  0
LINE
  5
E16
330
2
100
AcDbEntity
  8
0
  6
Continuous
 62
     7
100
AcDbLine
 10
5303.01923026748
 20
3604.019953914932
 30
0.0
 11
5302.269230267495
 21
3604.019953914958
 31
0.0
  0
LINE
  5
E17
330
2
100
AcDbEntity
  8
0
  6
Continuous
 62
     7
100
AcDbLine
 10
5305.019230267832
 20
3614.019953914865
 30
0.0
 11
5303.019230267794
 21
3614.019953914932
 31
0.0
  0
LINE
  5
E18
330
2
100
AcDbEntity
  8
0
  6
Continuous
 62
     7
100
AcDbLine
 10
5303.019230267794
 20
3614.019953914932
 30
0.0
 11
5301.019230267832
 21
3614.019953915001
 31
0.0
  0
ARC
  5
E19
330
2
100
AcDbEntity
  8
0
  6
Continuous
 62
     7
100
AcDbCircle
 10
5303.019230267063
 20
3594.01995391512
 30
0.0
 40
10.10000000000003
100
AcDbArc
 50
153.0104244475716
 51
26.98957554857146
  0
LINE
  5
E1A
330
2
100
AcDbEntity
  8
0
  6
Continuous
 62
     7
100
AcDbLine
 10
5312.019230267218
 20
3598.603620569365
 30
0.0
 11
5312.019230267343
 21
3602.319953914818
 31
0.0
  0
ARC
  5
E1B
330
2
100
AcDbEntity
  8
0
  6
Continuous
 62
     7
100
AcDbCircle
 10
5310.019230267342
 20
3602.319953914885
 30
0.0
 40
2.000000000000223
100
AcDbArc
 50
359.9999999980719
 51
89.99999999807192
  0
LINE
  5
E1C
330
2
100
AcDbEntity
  8
0
  6
Continuous
 62
     7
100
AcDbLine
 10
5310.01923026741
 20
3604.319953914885
 30
0.0
 11
5296.019230267409
 21
3604.319953915357
 31
0.0
  0
ARC
  5
E1D
330
2
100
AcDbEntity
  8
0
  6
Continuous
 62
     7
100
AcDbCircle
 10
5296.019230267344
 20
3602.319953915355
 30
0.0
 40
2.000000000000667
100
AcDbArc
 50
89.99999999807192
 51
179.9999999980719
  0
LINE
  5
E1E
330
2
100
AcDbEntity
  8
0
  6
Continuous
 62
     7
100
AcDbLine
 10
5294.019230267343
 20
3602.319953915423
 30
0.0
 11
5294.019230267219
 21
3598.603620569972
 31
0.0
  0
LINE
  5
E1F
330
2
100
AcDbEntity
  8
0
  6
Continuous
 62
     7
100
AcDbLine
 10
5315.019230267332
 20
3602.019953914718
 30
0.0
 11
5315.019230267063
 21
3594.019953914719
 31
0.0
  0
LINE
  5
E20
330
2
100
AcDbEntity
  8
0
  6
Continuous
 62
     7
100
AcDbLine
 10
5291.019230267063
 20
3594.019953915525
 30
0.0
 11
5291.019230267333
 21
3602.019953915525
 31
0.0
  0
ARC
  5
E21
330
2
100
AcDbEntity
  8
0
  6
Continuous
 62
     7
100
AcDbCircle
 10
5303.019230267334
 20
3602.019953915121
 30
0.0
 40
12.00000000000001
100
AcDbArc
 50
359.9999999980719
 51
179.9999999980719
  0
ARC
  5
E22
330
2
100
AcDbEntity
  8
0
  6
Continuous
 62
     7
100
AcDbCircle
 10
5303.019230267063
 20
3594.01995391512
 30
0.0
 40
11.99999999999956
100
AcDbArc
 50
179.9999999980719
 51
359.9999999980719
  0
CIRCLE
  5
E23
330
2
100
AcDbEntity
  8
0
  6
Continuous
 62
     7
100
AcDbCircle
 10
5303.019230267087
 20
3594.019953915116
 30
0.0
 40
9.500000000000063
  0
ARC
  5
E24
330
2
100
AcDbEntity
  8
0
  6
Continuous
 62
     7
100
AcDbCircle
 10
5303.019230267098
 20
3594.019953915099
 30
0.0
 40
9.999999999999234
100
AcDbArc
 50
270.7016609751509
 51
89.8923304914504
  0
ARC
  5
E25
330
2
100
AcDbEntity
  8
0
  6
Continuous
 62
     7
100
AcDbCircle
 10
5303.019230267098
 20
3594.019953915099
 30
0.0
 40
10.00000000000029
100
AcDbArc
 50
89.8923304914504
 51
270.7016609751509
  0
CIRCLE
  5
E26
330
2
100
AcDbEntity
  8
0
  6
Continuous
 62
     7
100
AcDbCircle
 10
5303.019230267087
 20
3594.019953915116
 30
0.0
 40
3.200000000000535
  0
LINE
  5
E27
330
2
100
AcDbEntity
  8
0
  6
Continuous
 62
     9
100
AcDbLine
 10
5293.119230267215
 20
3596.01995391593
 30
0.0
 11
5293.119230267228
 21
3595.43062751127
 31
0.0
  0
LINE
  5
E28
330
2
100
AcDbEntity
  8
0
  6
Continuous
 62
     9
100
AcDbLine
 10
5293.119230267289
 20
3592.609280314983
 30
0.0
 11
5293.119230267302
 21
3592.019953913886
 31
0.0
  0
LINE
  5
E29
330
2
100
AcDbEntity
  8
0
  6
Continuous
 62
     9
100
AcDbLine
 10
5294.219230267156
 20
3598.769690748014
 30
0.0
 11
5294.219230267129
 21
3600.019604417663
 31
0.0
  0
LINE
  5
E2A
330
2
100
AcDbEntity
  8
0
  6
Continuous
 62
     9
100
AcDbLine
 10
5294.219230267129
 20
3600.019604417663
 30
0.0
 11
5294.219230267129
 21
3600.019953902443
 31
0.0
  0
LINE
  5
E2B
330
2
100
AcDbEntity
  8
0
  6
Continuous
 62
     7
100
AcDbLine
 10
5294.419230267132
 20
3599.819953902447
 30
0.0
 11
5294.419230267132
 21
3599.819616067161
 31
0.0
  0
LINE
  5
E2C
330
2
100
AcDbEntity
  8
0
  6
Continuous
 62
     7
100
AcDbLine
 10
5294.419230267132
 20
3599.819616067161
 30
0.0
 11
5294.419230267148
 21
3599.122894188906
 31
0.0
  0
LINE
  5
E2D
330
2
100
AcDbEntity
  8
0
  6
Continuous
 62
     7
100
AcDbLine
 10
5302.919230267328
 20
3590.821516796765
 30
0.0
 11
5302.91923026719
 21
3597.218391033463
 31
0.0
  0
LINE
  5
E2E
330
2
100
AcDbEntity
  8
0
  6
Continuous
 62
     7
100
AcDbLine
 10
5303.919230267192
 20
3597.090784421641
 30
0.0
 11
5303.919230267325
 21
3590.949123408633
 31
0.0
  0
LINE
  5
E2F
330
2
100
AcDbEntity
  8
0
  6
Continuous
 62
     7
100
AcDbLine
 10
5294.419230267092
 20
3599.819616024331
 30
0.0
 11
5294.419230267109
 21
3599.122894242278
 31
0.0
  0
LINE
  5
E30
330
2
100
AcDbEntity
  8
0
  6
Continuous
 62
     7
100
AcDbLine
 10
5292.086423602655
 20
2156.236622454859
 30
0.0
 11
5293.809246928074
 21
2143.150480101786
 31
0.0
  0
LINE
  5
E31
330
2
100
AcDbEntity
  8
0
  6
Continuous
 62
     7
100
AcDbLine
 10
5293.809246928074
 20
2143.150480101786
 30
0.0
 11
5293.95808352494
 21
2142.019953909575
 31
0.0
  0
ARC
  5
E32
330
2
100
AcDbEntity
  8
0
  6
Continuous
 62
     7
100
AcDbCircle
 10
5292.210354210325
 20
2156.252938228895
 30
0.0
 40
0.1250000000002019
100
AcDbArc
 50
94.50000000373407
 51
187.5000000037171
  0
LINE
  5
E33
330
2
100
AcDbEntity
  8
0
  6
Continuous
 62
     7
100
AcDbLine
 10
5312.934422977176
 20
2158.009344339344
 30
0.0
 11
5292.200546823352
 21
2156.377552895611
 31
0.0
  0
ARC
  5
E34
330
2
100
AcDbEntity
  8
0
  6
Continuous
 62
     7
100
AcDbCircle
 10
5312.944230364151
 20
2157.884729672627
 30
0.0
 40
0.1250000000001528
100
AcDbArc
 50
0.0000000036607421
 51
94.50000000365614
  0
LINE
  5
E35
330
2
100
AcDbEntity
  8
0
  6
Continuous
 62
     7
100
AcDbLine
 10
5313.069230364189
 20
2157.294717530564
 30
0.0
 11
5313.06923036415
 21
2157.884729672635
 31
0.0
  0
LINE
  5
E36
330
2
100
AcDbEntity
  8
0
  6
Continuous
 62
     7
100
AcDbLine
 10
5305.619230365167
 20
2142.019953910321
 30
0.0
 11
5306.320770847817
 21
2143.458325057157
 31
0.0
  0
LINE
  5
E37
330
2
100
AcDbEntity
  8
0
  6
Continuous
 62
     7
100
AcDbLine
 10
5306.320770847817
 20
2143.458325057157
 30
0.0
 11
5313.069230364189
 21
2157.294717530564
 31
0.0
  0
LINE
  5
E38
330
2
100
AcDbEntity
  8
0
  6
Continuous
 62
     7
100
AcDbLine
 10
5293.95808352494
 20
2142.019953909575
 30
0.0
 11
5305.619230365167
 21
2142.019953910321
 31
0.0
  0
LINE
  5
E39
330
2
100
AcDbEntity
  8
0
  6
Continuous
 62
     7
100
AcDbLine
 10
5314.069230364203
 20
2157.063849339504
 30
0.0
 11
5314.069230364141
 21
2158.019953910863
 31
0.0
  0
LINE
  5
E3A
330
2
100
AcDbEntity
  8
0
  6
Continuous
 62
     7
100
AcDbLine
 10
5307.307257454475
 20
2143.199750303779
 30
0.0
 11
5314.069230364203
 21
2157.063849339504
 31
0.0
  0
ARC
  5
E3B
330
2
100
AcDbEntity
  8
0
  6
Continuous
 62
     7
100
AcDbCircle
 10
5307.419606710266
 20
2143.144953910437
 30
0.0
 40
0.1250000000001528
100
AcDbArc
 50
154.0000000036568
 51
270.0000000036738
  0
LINE
  5
E3C
330
2
100
AcDbEntity
  8
0
  6
Continuous
 62
     7
100
AcDbLine
 10
5328.494230365102
 20
2143.019953911787
 30
0.0
 11
5307.419606710274
 21
2143.019953910437
 31
0.0
  0
ARC
  5
E3D
330
2
100
AcDbEntity
  8
0
  6
Continuous
 62
     7
100
AcDbCircle
 10
5328.494230365095
 20
2143.144953911787
 30
0.0
 40
0.1249999999997087
100
AcDbArc
 50
270.0000000036738
 51
0.0000000036607421
  0
LINE
  5
E3E
330
2
100
AcDbEntity
  8
0
  6
Continuous
 62
     7
100
AcDbLine
 10
5328.61923036383
 20
2162.894953911795
 30
0.0
 11
5328.619230365093
 21
2143.144953911795
 31
0.0
  0
ARC
  5
E3F
330
2
100
AcDbEntity
  8
0
  6
Continuous
 62
     7
100
AcDbCircle
 10
5328.49423036383
 20
2162.894953911788
 30
0.0
 40
0.1249999999997087
100
AcDbArc
 50
0.0000000036737697
 51
90.00000000367377
  0
ARC
  5
E40
330
2
100
AcDbEntity
  8
0
  6
Continuous
 62
     7
100
AcDbCircle
 10
5328.49423036383
 20
2162.894953911788
 30
0.0
 40
0.1250000000001528
100
AcDbArc
 50
90.00000000369983
 51
180.0000000036607
  0
LINE
  5
E41
330
2
100
AcDbEntity
  8
0
  6
Continuous
 62
     7
100
AcDbLine
 10
5328.369230364142
 20
2158.019953911779
 30
0.0
 11
5328.369230363829
 21
2162.894953911779
 31
0.0
  0
LINE
  5
E42
330
2
100
AcDbEntity
  8
0
  6
Continuous
 62
     7
100
AcDbLine
 10
5327.369230364141
 20
2158.019953911715
 30
0.0
 11
5328.369230364142
 21
2158.019953911779
 31
0.0
  0
LINE
  5
E43
330
2
100
AcDbEntity
  8
0
  6
Continuous
 62
     7
100
AcDbLine
 10
5327.369230363822
 20
2163.019953911716
 30
0.0
 11
5327.369230364141
 21
2158.019953911715
 31
0.0
  0
ARC
  5
E44
330
2
100
AcDbEntity
  8
0
  6
Continuous
 62
     7
100
AcDbCircle
 10
5328.369230363822
 20
2163.01995391178
 30
0.0
 40
1.000000000000333
100
AcDbArc
 50
90.00000000367377
 51
180.0000000036607
  0
LINE
  5
E45
330
2
100
AcDbEntity
  8
0
  6
Continuous
 62
     7
100
AcDbLine
 10
5328.619230363758
 20
2164.019953911795
 30
0.0
 11
5328.369230363756
 21
2164.019953911779
 31
0.0
  0
ARC
  5
E46
330
2
100
AcDbEntity
  8
0
  6
Continuous
 62
     7
100
AcDbCircle
 10
5328.619230363821
 20
2163.019953911795
 30
0.0
 40
0.9999999999998896
100
AcDbArc
 50
0.0000000036607421
 51
90.00000000367377
  0
LINE
  5
E47
330
2
100
AcDbEntity
  8
0
  6
Continuous
 62
     7
100
AcDbLine
 10
5329.619230365103
 20
2143.019953911859
 30
0.0
 11
5329.619230363822
 21
2163.019953911858
 31
0.0
  0
ARC
  5
E48
330
2
100
AcDbEntity
  8
0
  6
Continuous
 62
     7
100
AcDbCircle
 10
5328.619230365103
 20
2143.019953911795
 30
0.0
 40
0.9999999999998896
100
AcDbArc
 50
270.0000000036738
 51
0.0000000036607421
  0
LINE
  5
E49
330
2
100
AcDbEntity
  8
0
  6
Continuous
 62
     7
100
AcDbLine
 10
5307.219564894207
 20
2142.019953910424
 30
0.0
 11
5328.619230365166
 21
2142.019953911795
 31
0.0
  0
ARC
  5
E4A
330
2
100
AcDbEntity
  8
0
  6
Continuous
 62
     7
100
AcDbCircle
 10
5307.219564894143
 20
2143.019953910425
 30
0.0
 40
0.9999999999999598
100
AcDbArc
 50
154.0000000036685
 51
270.0000000036738
  0
LINE
  5
E4B
330
2
100
AcDbEntity
  8
0
  6
Continuous
 62
     7
100
AcDbLine
 10
5313.069230364189
 20
2157.294717530564
 30
0.0
 11
5306.320770847817
 21
2143.458325057157
 31
0.0
  0
LINE
  5
E4C
330
2
100
AcDbEntity
  8
0
  6
Continuous
 62
     7
100
AcDbLine
 10
5313.06923036415
 20
2157.884729672635
 30
0.0
 11
5313.069230364189
 21
2157.294717530564
 31
0.0
  0
ARC
  5
E4D
330
2
100
AcDbEntity
  8
0
  6
Continuous
 62
     7
100
AcDbCircle
 10
5312.944230364151
 20
2157.884729672627
 30
0.0
 40
0.1250000000002019
100
AcDbArc
 50
0.0000000037128523
 51
94.50000000373407
  0
LINE
  5
E4E
330
2
100
AcDbEntity
  8
0
  6
Continuous
 62
     7
100
AcDbLine
 10
5292.200546823352
 20
2156.377552895611
 30
0.0
 11
5312.934422977176
 21
2158.009344339344
 31
0.0
  0
ARC
  5
E4F
330
2
100
AcDbEntity
  8
0
  6
Continuous
 62
     7
100
AcDbCircle
 10
5292.210354210325
 20
2156.252938228895
 30
0.0
 40
0.1250000000001643
100
AcDbArc
 50
94.500000003839
 51
187.5000000038368
  0
LINE
  5
E50
330
2
100
AcDbEntity
  8
0
  6
Continuous
 62
     7
100
AcDbLine
 10
5293.809246928074
 20
2143.150480101786
 30
0.0
 11
5292.086423602655
 21
2156.236622454859
 31
0.0
  0
ARC
  5
E51
330
2
100
AcDbEntity
  8
0
  6
Continuous
 62
     7
100
AcDbCircle
 10
5292.817802066707
 20
2143.019953909502
 30
0.0
 40
0.9999999999998896
100
AcDbArc
 50
270.0000000036738
 51
7.500000003652583
  0
LINE
  5
E52
330
2
100
AcDbEntity
  8
0
  6
Continuous
 62
     7
100
AcDbLine
 10
5278.381249530069
 20
2142.019953908576
 30
0.0
 11
5292.817802066773
 21
2142.019953909502
 31
0.0
  0
ARC
  5
E53
330
2
100
AcDbEntity
  8
0
  6
Continuous
 62
     7
100
AcDbCircle
 10
5278.381249530005
 20
2143.019953908577
 30
0.0
 40
0.9999999999996443
100
AcDbArc
 50
175.0000000036757
 51
270.0000000036738
  0
LINE
  5
E54
330
2
100
AcDbEntity
  8
0
  6
Continuous
 62
     7
100
AcDbLine
 10
5278.350636550936
 20
2154.143759210484
 30
0.0
 11
5277.385054831908
 21
2143.107109651261
 31
0.0
  0
ARC
  5
E55
330
2
100
AcDbEntity
  8
0
  6
Continuous
 62
     7
100
AcDbCircle
 10
5279.346831249033
 20
2154.0566034678
 30
0.0
 40
1.000000000000087
100
AcDbArc
 50
85.00000000366162
 51
175.0000000036757
  0
LINE
  5
E56
330
2
100
AcDbEntity
  8
0
  6
Continuous
 62
     7
100
AcDbLine
 10
5279.683035666241
 20
2155.031009230227
 30
0.0
 11
5279.433986991716
 21
2155.052798165897
 31
0.0
  0
ARC
  5
E57
330
2
100
AcDbEntity
  8
0
  6
Continuous
 62
     7
100
AcDbCircle
 10
5279.595879923558
 20
2154.034814532128
 30
0.0
 40
0.9999999999996832
100
AcDbArc
 50
355.0000000036498
 51
85.00000000363568
  0
LINE
  5
E58
330
2
100
AcDbEntity
  8
0
  6
Continuous
 62
     7
100
AcDbLine
 10
5280.156295908234
 20
2148.966685298958
 30
0.0
 11
5280.592074621655
 21
2153.947658789444
 31
0.0
  0
LINE
  5
E59
330
2
100
AcDbEntity
  8
0
  6
Continuous
 62
     7
100
AcDbLine
 10
5279.160101210138
 20
2149.053841041641
 30
0.0
 11
5280.156295908234
 21
2148.966685298958
 31
0.0
  0
LINE
  5
E5A
330
2
100
AcDbEntity
  8
0
  6
Continuous
 62
     7
100
AcDbLine
 10
5279.584985455723
 20
2153.910290194867
 30
0.0
 11
5279.160101210138
 21
2149.053841041641
 31
0.0
  0
ARC
  5
E5B
330
2
100
AcDbEntity
  8
0
  6
Continuous
 62
     7
100
AcDbCircle
 10
5279.460461118461
 20
2153.921184662702
 30
0.0
 40
0.1249999999998954
100
AcDbArc
 50
355.0000000037146
 51
85.00000000368757
  0
ARC
  5
E5C
330
2
100
AcDbEntity
  8
0
  6
Continuous
 62
     7
100
AcDbCircle
 10
5279.460461118461
 20
2153.921184662702
 30
0.0
 40
0.1249999999998954
100
AcDbArc
 50
85.00000000366162
 51
175.0000000036887
  0
LINE
  5
E5D
330
2
100
AcDbEntity
  8
0
  6
Continuous
 62
     7
100
AcDbLine
 10
5278.393138755369
 20
2143.155848376422
 30
0.0
 11
5279.335936781198
 21
2153.932079130537
 31
0.0
  0
ARC
  5
E5E
330
2
100
AcDbEntity
  8
0
  6
Continuous
 62
     7
100
AcDbCircle
 10
5278.517663092631
 20
2143.144953908587
 30
0.0
 40
0.1250000000001528
100
AcDbArc
 50
175.0000000036757
 51
270.0000000036738
  0
LINE
  5
E5F
330
2
100
AcDbEntity
  8
0
  6
Continuous
 62
     7
100
AcDbLine
 10
5292.675266884437
 20
2143.019953909493
 30
0.0
 11
5278.517663092639
 21
2143.019953908587
 31
0.0
  0
ARC
  5
E60
330
2
100
AcDbEntity
  8
0
  6
Continuous
 62
     7
100
AcDbCircle
 10
5292.67526688443
 20
2143.144953909493
 30
0.0
 40
0.1250000000001063
100
AcDbArc
 50
270.0000000036216
 51
7.500000003639669
  0
LINE
  5
E61
330
2
100
AcDbEntity
  8
0
  6
Continuous
 62
     7
100
AcDbLine
 10
5291.077785502881
 20
2156.236691873853
 30
0.0
 11
5292.7991974921
 21
2143.161269683529
 31
0.0
  0
ARC
  5
E62
330
2
100
AcDbEntity
  8
0
  6
Continuous
 62
     7
100
AcDbCircle
 10
5292.069230364248
 20
2156.367218066136
 30
0.0
 40
0.9999999999997747
100
AcDbArc
 50
94.50000000368211
 51
187.5000000036526
  0
LINE
  5
E63
330
2
100
AcDbEntity
  8
0
  6
Continuous
 62
     7
100
AcDbLine
 10
5312.990771268349
 20
2159.016871244528
 30
0.0
 11
5291.990771268456
 21
2157.364135399865
 31
0.0
  0
ARC
  5
E64
330
2
100
AcDbEntity
  8
0
  6
Continuous
 62
     7
100
AcDbCircle
 10
5313.069230364141
 20
2158.019953910798
 30
0.0
 40
0.9999999999998896
100
AcDbArc
 50
0.0000000036607421
 51
94.50000000365614
  0
LINE
  5
E65
330
2
100
AcDbEntity
  8
0
  6
Continuous
 62
     7
100
AcDbLine
 10
5329.61923040029
 20
1592.019953912062
 30
0.0
 11
5329.619230365064
 21
2142.019953911868
 31
0.0
  0
LINE
  5
E66
330
2
100
AcDbEntity
  8
0
  6
Continuous
 62
     7
100
AcDbLine
 10
4529.619230400582
 20
1592.019953860823
 30
0.0
 11
4529.619230365355
 21
2142.019953860627
 31
0.0
  0
LINE
  5
E67
330
2
100
AcDbEntity
  8
0
  6
Continuous
 62
     7
100
AcDbLine
 10
5329.619230365064
 20
2142.019953911868
 30
0.0
 11
5328.619230365166
 21
2142.019953911803
 31
0.0
  0
LINE
  5
E68
330
2
100
AcDbEntity
  8
0
  6
Continuous
 62
     7
100
AcDbLine
 10
5328.619230365166
 20
2142.019953911803
 30
0.0
 11
5307.219564894223
 21
2142.019953910432
 31
0.0
  0
LINE
  5
E69
330
2
100
AcDbEntity
  8
0
  6
Continuous
 62
     7
100
AcDbLine
 10
5307.219564894223
 20
2142.019953910432
 30
0.0
 11
5305.61923036517
 21
2142.019953910329
 31
0.0
  0
LINE
  5
E6A
330
2
100
AcDbEntity
  8
0
  6
Continuous
 62
     7
100
AcDbLine
 10
5305.61923036517
 20
2142.019953910329
 30
0.0
 11
5293.958083524938
 21
2142.019953909583
 31
0.0
  0
LINE
  5
E6B
330
2
100
AcDbEntity
  8
0
  6
Continuous
 62
     7
100
AcDbLine
 10
5293.958083524938
 20
2142.019953909583
 30
0.0
 11
5292.817802066799
 21
2142.01995390951
 31
0.0
  0
LINE
  5
E6C
330
2
100
AcDbEntity
  8
0
  6
Continuous
 62
     7
100
AcDbLine
 10
5292.817802066799
 20
2142.01995390951
 30
0.0
 11
5278.381249530107
 21
2142.019953908584
 31
0.0
  0
LINE
  5
E6D
330
2
100
AcDbEntity
  8
0
  6
Continuous
 62
     7
100
AcDbLine
 10
5278.381249530107
 20
2142.019953908584
 30
0.0
 11
4529.619230365355
 21
2142.019953860627
 31
0.0
  0
LINE
  5
E6E
330
2
100
AcDbEntity
  8
0
  6
Continuous
 62
     7
100
AcDbLine
 10
5329.61923040029
 20
1592.019953912062
 30
0.0
 11
4529.619230400582
 21
1592.019953860823
 31
0.0
  0
LINE
  5
E6F
330
2
100
AcDbEntity
  8
0
  6
Continuous
 62
     7
100
AcDbLine
 10
5326.119230224701
 20
2908.019953907538
 30
0.0
 11
5342.619230244379
 21
2908.019953906679
 31
0.0
  0
LINE
  5
E70
330
2
100
AcDbEntity
  8
0
  6
Continuous
 62
     9
100
AcDbLine
 10
5342.619230244379
 20
2908.019953906679
 30
0.0
 11
5342.619230244326
 21
2907.019953906617
 31
0.0
  0
LINE
  5
E71
330
2
100
AcDbEntity
  8
0
  6
Continuous
 62
     9
100
AcDbLine
 10
5342.619230244326
 20
2907.019953906617
 30
0.0
 11
5326.119230224668
 21
2907.019953907477
 31
0.0
  0
ARC
  5
E72
330
2
100
AcDbEntity
  8
0
  6
Continuous
 62
     7
100
AcDbCircle
 10
5342.619230244326
 20
2907.01995390668
 30
0.0
 40
0.9999999999994455
100
AcDbArc
 50
359.9999999970167
 51
89.99999999702971
  0
LINE
  5
E73
330
2
100
AcDbEntity
  8
0
  6
Continuous
 62
     9
100
AcDbLine
 10
5342.619230244326
 20
2907.01995390668
 30
0.0
 11
5343.619230244326
 21
2907.019953906626
 31
0.0
  0
LINE
  5
E74
330
2
100
AcDbEntity
  8
0
  6
Continuous
 62
     9
100
AcDbLine
 10
5342.619230243388
 20
2889.019953906617
 30
0.0
 11
5342.619230244326
 21
2907.019953906617
 31
0.0
  0
LINE
  5
E75
330
2
100
AcDbEntity
  8
0
  6
Continuous
 62
     9
100
AcDbLine
 10
5326.119230224065
 20
2889.019953907475
 30
0.0
 11
5342.619230243388
 21
2889.019953906617
 31
0.0
  0
CIRCLE
  5
E76
330
2
100
AcDbEntity
  8
0
  6
Continuous
 62
     7
100
AcDbCircle
 10
5333.619230243858
 20
2898.019953907085
 30
0.0
 40
7.14142842854315
  0
LINE
  5
E77
330
2
100
AcDbEntity
  8
0
  6
Continuous
 62
     7
100
AcDbLine
 10
5343.619230244326
 20
2907.019953906626
 30
0.0
 11
5343.619230243388
 21
2889.019953906627
 31
0.0
  0
LINE
  5
E78
330
2
100
AcDbEntity
  8
0
  6
Continuous
 62
     9
100
AcDbLine
 10
5342.619230243388
 20
2889.01995390668
 30
0.0
 11
5343.619230243388
 21
2889.019953906627
 31
0.0
  0
LINE
  5
E79
330
2
100
AcDbEntity
  8
0
  6
Continuous
 62
     7
100
AcDbLine
 10
5342.619230243336
 20
2888.01995390668
 30
0.0
 11
5326.119230224032
 21
2888.019953907541
 31
0.0
  0
LINE
  5
E7A
330
2
100
AcDbEntity
  8
0
  6
Continuous
 62
     9
100
AcDbLine
 10
5342.619230243388
 20
2889.019953906617
 30
0.0
 11
5342.619230243336
 21
2888.01995390668
 31
0.0
  0
ARC
  5
E7B
330
2
100
AcDbEntity
  8
0
  6
Continuous
 62
     7
100
AcDbCircle
 10
5342.619230243388
 20
2889.01995390668
 30
0.0
 40
0.9999999999998896
100
AcDbArc
 50
269.9999999970037
 51
359.9999999970037
  0
LINE
  5
E7C
330
2
100
AcDbEntity
  8
0
  6
Continuous
 62
     9
100
AcDbLine
 10
5313.119230249314
 20
3644.019953908515
 30
0.0
 11
5313.119230248126
 21
3608.499923080786
 31
0.0
  0
LINE
  5
E7D
330
2
100
AcDbEntity
  8
0
  6
Continuous
 62
     9
100
AcDbLine
 10
5313.119230247425
 20
3587.539984748783
 30
0.0
 11
5313.119230199988
 21
2169.019953908516
 31
0.0
  0
LINE
  5
E7E
330
2
100
AcDbEntity
  8
0
  6
Continuous
 62
     7
100
AcDbLine
 10
5326.119230249314
 20
3644.019953908081
 30
0.0
 11
5326.119230199989
 21
2169.01995390808
 31
0.0
  0
LINE
  5
E7F
330
2
100
AcDbEntity
  8
0
  6
Continuous
 62
     7
100
AcDbLine
 10
5313.119230199988
 20
2169.019953908516
 30
0.0
 11
5326.119230199989
 21
2169.019953908081
 31
0.0
  0
LINE
  5
E80
330
2
100
AcDbEntity
  8
0
  6
Continuous
 62
     7
100
AcDbLine
 10
5313.119230249314
 20
3644.019953908515
 30
0.0
 11
5326.119230249314
 21
3644.019953908081
 31
0.0
  0
LINE
  5
E81
330
2
100
AcDbEntity
  8
0
  6
Continuous
 62
     7
100
AcDbLine
 10
5289.619230219552
 20
2169.019953909302
 30
0.0
 11
5313.119230199988
 21
2169.019953908516
 31
0.0
  0
LINE
  5
E82
330
2
100
AcDbEntity
  8
0
  6
Continuous
 62
     7
100
AcDbLine
 10
5289.619230268971
 20
3644.019953909302
 30
0.0
 11
5313.119230249314
 21
3644.019953908515
 31
0.0
  0
LINE
  5
E83
330
2
100
AcDbEntity
  8
0
  6
Continuous
 62
     4
100
AcDbLine
 10
5323.61923021955
 20
2169.019953908165
 30
0.0
 11
5323.619230218982
 21
2152.019953908164
 31
0.0
  0
LINE
  5
E84
330
2
100
AcDbEntity
  8
0
  6
Continuous
 62
     4
100
AcDbLine
 10
5323.619230218982
 20
2152.019953908164
 30
0.0
 11
5315.619230218982
 21
2152.019953908432
 31
0.0
  0
LINE
  5
E85
330
2
100
AcDbEntity
  8
0
  6
Continuous
 62
     4
100
AcDbLine
 10
5315.61923021955
 20
2169.019953908432
 30
0.0
 11
5315.619230218982
 21
2152.019953908432
 31
0.0
  0
LINE
  5
E86
330
2
100
AcDbEntity
  8
0
  6
Continuous
 62
     4
100
AcDbLine
 10
5289.619230218714
 20
2144.019953909303
 30
0.0
 11
5289.619230268971
 21
3644.019953909302
 31
0.0
  0
LINE
  5
E87
330
2
100
AcDbEntity
  8
0
  6
Continuous
 62
     4
100
AcDbLine
 10
5281.619230218714
 20
2144.019953909571
 30
0.0
 11
5289.619230218714
 21
2144.019953909303
 31
0.0
  0
LINE
  5
E88
330
2
100
AcDbEntity
  8
0
  6
Continuous
 62
     4
100
AcDbLine
 10
5281.619230218714
 20
2144.019953909571
 30
0.0
 11
5281.619230268971
 21
3644.019953909571
 31
0.0
  0
LINE
  5
E89
330
2
100
AcDbEntity
  8
0
  6
Continuous
 62
     4
100
AcDbLine
 10
5281.619230268971
 20
3644.019953909571
 30
0.0
 11
5289.619230268971
 21
3644.019953909302
 31
0.0
  0
LINE
  5
E8A
330
2
100
AcDbEntity
  8
0
  6
Continuous
 62
     9
100
AcDbLine
 10
5303.919250267218
 20
3591.519953907926
 30
0.0
 11
5305.016728693664
 21
3591.519953907953
 31
0.0
  0
LINE
  5
E8B
330
2
100
AcDbEntity
  8
0
  6
Continuous
 62
     9
100
AcDbLine
 10
5303.919230267455
 20
3592.519927723861
 30
0.0
 11
5305.119230267242
 21
3592.519927723822
 31
0.0
  0
LINE
  5
E8C
330
2
100
AcDbEntity
  8
0
  6
Continuous
 62
     9
100
AcDbLine
 10
5305.519230267822
 20
3613.756668509154
 30
0.0
 11
5305.519230267822
 21
3613.769953914848
 31
0.0
  0
LINE
  5
E8D
330
2
100
AcDbEntity
  8
0
  6
Continuous
 62
     9
100
AcDbLine
 10
5300.519230267823
 20
3613.769953915015
 30
0.0
 11
5300.519230267823
 21
3613.756747112476
 31
0.0
  0
LINE
  5
E8E
330
2
100
AcDbEntity
  8
0
  6
Continuous
 62
     9
100
AcDbLine
 10
5300.019235277819
 20
3613.639071287169
 30
0.0
 11
5300.019235277819
 21
3613.638905247443
 31
0.0
  0
LINE
  5
E8F
330
2
100
AcDbEntity
  8
0
  6
Continuous
 62
     9
100
AcDbLine
 10
5306.019225257819
 20
3613.638905247193
 30
0.0
 11
5306.019225257819
 21
3613.639115247631
 31
0.0
  0
LINE
  5
E90
330
2
100
AcDbEntity
  8
0
  6
Continuous
 62
     7
100
AcDbLine
 10
5280.619230267554
 20
3582.019953907425
 30
0.0
 11
5281.619230267554
 21
3582.019953907446
 31
0.0
  0
LINE
  5
E91
330
2
100
AcDbEntity
  8
0
  6
Continuous
 62
     7
100
AcDbLine
 10
5274.919230267563
 20
3581.519953907301
 30
0.0
 11
5280.619230267564
 21
3581.519953907425
 31
0.0
  0
LINE
  5
E92
330
2
100
AcDbEntity
  8
0
  6
Continuous
 62
     7
100
AcDbLine
 10
5274.619230267557
 20
3581.819953907294
 30
0.0
 11
5274.919230267563
 21
3581.519953907301
 31
0.0
  0
LINE
  5
E93
330
2
100
AcDbEntity
  8
0
  6
Continuous
 62
     7
100
AcDbLine
 10
5303.919249642117
 20
3591.019953907927
 30
0.0
 11
5304.132783120297
 21
3591.019953907934
 31
0.0
  0
LINE
  5
E94
330
2
100
AcDbEntity
  8
0
  6
Continuous
 62
     7
100
AcDbLine
 10
5291.119230266875
 20
3581.519953908451
 30
0.0
 11
5292.61923026706
 21
3587.019953908399
 31
0.0
  0
LINE
  5
E95
330
2
100
AcDbEntity
  8
0
  6
Continuous
 62
     7
100
AcDbLine
 10
5289.619230266875
 20
3581.5199539085
 30
0.0
 11
5291.119230266875
 21
3581.519953908451
 31
0.0
  0
LINE
  5
E96
330
2
100
AcDbEntity
  8
0
  6
Continuous
 62
     7
100
AcDbLine
 10
5295.477043224618
 20
3601.019953908305
 30
0.0
 11
5294.626863970396
 21
3601.019953908333
 31
0.0
  0
LINE
  5
E97
330
2
100
AcDbEntity
  8
0
  6
Continuous
 62
     7
100
AcDbLine
 10
5292.61923026706
 20
3587.019953908399
 30
0.0
 11
5293.272435927097
 21
3587.019953908378
 31
0.0
  0
LINE
  5
E98
330
2
100
AcDbEntity
  8
0
  6
Continuous
 62
     7
100
AcDbLine
 10
5280.619230266927
 20
3583.019927724643
 30
0.0
 11
5281.619230266927
 21
3583.01992772461
 31
0.0
  0
LINE
  5
E99
330
2
100
AcDbEntity
  8
0
  6
Continuous
 62
     7
100
AcDbLine
 10
5281.619230267726
 20
3607.01992772461
 30
0.0
 11
5280.619230267728
 21
3607.019927724643
 31
0.0
  0
LINE
  5
E9A
330
2
100
AcDbEntity
  8
0
  6
Continuous
 62
     7
100
AcDbLine
 10
5280.619230267746
 20
3607.519927724641
 30
0.0
 11
5274.919230267745
 21
3607.519927724832
 31
0.0
  0
LINE
  5
E9B
330
2
100
AcDbEntity
  8
0
  6
Continuous
 62
     7
100
AcDbLine
 10
5274.919230266909
 20
3582.519927724835
 30
0.0
 11
5280.619230266908
 21
3582.519927724643
 31
0.0
  0
LINE
  5
E9C
330
2
100
AcDbEntity
  8
0
  6
Continuous
 62
     7
100
AcDbLine
 10
5274.919230267745
 20
3607.519927724832
 30
0.0
 11
5274.619230267735
 21
3607.219927724842
 31
0.0
  0
LINE
  5
E9D
330
2
100
AcDbEntity
  8
0
  6
Continuous
 62
     7
100
AcDbLine
 10
5274.619230266917
 20
3582.819927724845
 30
0.0
 11
5274.919230266909
 21
3582.519927724835
 31
0.0
  0
LINE
  5
E9E
330
2
100
AcDbEntity
  8
0
  6
Continuous
 62
     7
100
AcDbLine
 10
5303.919230267452
 20
3592.019927723863
 30
0.0
 11
5304.619230267228
 21
3592.019927723838
 31
0.0
  0
LINE
  5
E9F
330
2
100
AcDbEntity
  8
0
  6
Continuous
 62
     7
100
AcDbLine
 10
5304.619230267228
 20
3592.019927723838
 30
0.0
 11
5305.119230267242
 21
3592.519927723822
 31
0.0
  0
LINE
  5
EA0
330
2
100
AcDbEntity
  8
0
  6
Continuous
 62
     7
100
AcDbLine
 10
5305.119230267242
 20
3592.519927723822
 30
0.0
 11
5305.61923026726
 21
3593.019927723805
 31
0.0
  0
LINE
  5
EA1
330
2
100
AcDbEntity
  8
0
  6
Continuous
 62
     7
100
AcDbLine
 10
5291.119230268434
 20
3607.519927725089
 30
0.0
 11
5289.619230268434
 21
3607.519927725221
 31
0.0
  0
LINE
  5
EA2
330
2
100
AcDbEntity
  8
0
  6
Continuous
 62
     7
100
AcDbLine
 10
5289.619230266218
 20
3582.519927725222
 30
0.0
 11
5291.119230266218
 21
3582.519927725088
 31
0.0
  0
LINE
  5
EA3
330
2
100
AcDbEntity
  8
0
  6
Continuous
 62
     7
100
AcDbLine
 10
5291.119230266218
 20
3582.519927725088
 30
0.0
 11
5292.619230266707
 21
3588.019927724956
 31
0.0
  0
LINE
  5
EA4
330
2
100
AcDbEntity
  8
0
  6
Continuous
 62
     7
100
AcDbLine
 10
5291.607282166848
 20
3605.730404096949
 30
0.0
 11
5291.119230268434
 21
3607.519927725089
 31
0.0
  0
LINE
  5
EA5
330
2
100
AcDbEntity
  8
0
  6
Continuous
 62
     7
100
AcDbLine
 10
5295.477043911667
 20
3602.019927724703
 30
0.0
 11
5294.019230267333
 21
3602.019927724832
 31
0.0
  0
LINE
  5
EA6
330
2
100
AcDbEntity
  8
0
  6
Continuous
 62
     7
100
AcDbLine
 10
5292.619230266707
 20
3588.019927724956
 30
0.0
 11
5292.626940542593
 21
3588.019927724955
 31
0.0
  0
LINE
  5
EA7
330
2
100
AcDbEntity
  8
0
  6
Continuous
 62
     7
100
AcDbLine
 10
5294.894595769751
 20
3588.019927724754
 30
0.0
 11
5295.019249908757
 21
3588.019927724744
 31
0.0
  0
LINE
  5
EA8
330
2
100
AcDbEntity
  8
0
  6
Continuous
 62
     7
100
AcDbLine
 10
5326.11923024676
 20
3567.648081632912
 30
0.0
 11
5326.619230266552
 21
3568.51410707091
 31
0.0
  0
LINE
  5
EA9
330
2
100
AcDbEntity
  8
0
  6
Continuous
 62
     7
100
AcDbLine
 10
5326.619230267053
 20
3583.525800745113
 30
0.0
 11
5326.119230247321
 21
3584.391826183144
 31
0.0
  0
LINE
  5
EAA
330
2
100
AcDbEntity
  8
0
  6
Continuous
 62
     7
100
AcDbLine
 10
5326.619230266552
 20
3568.519953908011
 30
0.0
 11
5344.119230266552
 21
3568.519953907426
 31
0.0
  0
LINE
  5
EAB
330
2
100
AcDbEntity
  8
0
  6
Continuous
 62
     7
100
AcDbLine
 10
5344.119230267054
 20
3583.519953907427
 30
0.0
 11
5326.619230267053
 21
3583.519953908011
 31
0.0
  0
ARC
  5
EAC
330
2
100
AcDbEntity
  8
0
  6
Continuous
 62
     7
100
AcDbCircle
 10
5344.11923026657
 20
3569.019953907424
 30
0.0
 40
0.4999999999997229
100
AcDbArc
 50
269.999999998124
 51
359.9999999981371
  0
ARC
  5
EAD
330
2
100
AcDbEntity
  8
0
  6
Continuous
 62
     7
100
AcDbCircle
 10
5344.119230267037
 20
3583.019953907427
 30
0.0
 40
0.4999999999997229
100
AcDbArc
 50
359.9999999980719
 51
89.99999999809798
  0
LINE
  5
EAE
330
2
100
AcDbEntity
  8
0
  6
Continuous
 62
     7
100
AcDbLine
 10
5345.119230267439
 20
3601.519953907442
 30
0.0
 11
5346.083331882577
 21
3601.51995390741
 31
0.0
  0
LINE
  5
EAF
330
2
100
AcDbEntity
  8
0
  6
Continuous
 62
     7
100
AcDbLine
 10
5346.083331883413
 20
3626.519953907413
 30
0.0
 11
5345.119230268275
 21
3626.519953907444
 31
0.0
  0
LINE
  5
EB0
330
2
100
AcDbEntity
  8
0
  6
Continuous
 62
     7
100
AcDbLine
 10
5346.083331882577
 20
3601.51995390741
 30
0.0
 11
5346.619230267505
 21
3603.519953907392
 31
0.0
  0
LINE
  5
EB1
330
2
100
AcDbEntity
  8
0
  6
Continuous
 62
     7
100
AcDbLine
 10
5346.619230268209
 20
3624.519953907394
 30
0.0
 11
5346.083331883413
 21
3626.519953907413
 31
0.0
  0
LINE
  5
EB2
330
2
100
AcDbEntity
  8
0
  6
Continuous
 62
     7
100
AcDbLine
 10
5344.619230267675
 20
3608.519953907458
 30
0.0
 11
5345.119230267673
 21
3608.519953907442
 31
0.0
  0
LINE
  5
EB3
330
2
100
AcDbEntity
  8
0
  6
Continuous
 62
     7
100
AcDbLine
 10
5345.119230268041
 20
3619.519953907444
 30
0.0
 11
5344.619230268042
 21
3619.519953907459
 31
0.0
  0
ARC
  5
EB4
330
2
100
AcDbEntity
  8
0
  6
Continuous
 62
     7
100
AcDbCircle
 10
5329.119230267455
 20
3602.019953907976
 30
0.0
 40
0.5000000000001671
100
AcDbArc
 50
179.9999999979677
 51
269.9999999980198
  0
ARC
  5
EB5
330
2
100
AcDbEntity
  8
0
  6
Continuous
 62
     7
100
AcDbCircle
 10
5329.119230268258
 20
3626.01995390798
 30
0.0
 40
0.4999999999997229
100
AcDbArc
 50
89.99999999807192
 51
179.999999998124
  0
LINE
  5
EB6
330
2
100
AcDbEntity
  8
0
  6
Continuous
 62
     7
100
AcDbLine
 10
5329.119230267439
 20
3601.519953907977
 30
0.0
 11
5329.818495013071
 21
3601.519953907953
 31
0.0
  0
LINE
  5
EB7
330
2
100
AcDbEntity
  8
0
  6
Continuous
 62
     7
100
AcDbLine
 10
5329.818495013907
 20
3626.519953907956
 30
0.0
 11
5329.119230268274
 21
3626.519953907978
 31
0.0
  0
ARC
  5
EB8
330
2
100
AcDbEntity
  8
0
  6
Continuous
 62
     7
100
AcDbCircle
 10
5336.619230268543
 20
3634.519953907732
 30
0.0
 40
10.49999999999992
100
AcDbArc
 50
229.6324064539041
 51
310.3675935422694
  0
ARC
  5
EB9
330
2
100
AcDbEntity
  8
0
  6
Continuous
 62
     7
100
AcDbCircle
 10
5336.619230267172
 20
3593.519953907724
 30
0.0
 40
10.50000000000021
100
AcDbArc
 50
49.63240645390406
 51
130.3675935422694
  0
LINE
  5
EBA
330
2
100
AcDbEntity
  8
0
  6
Continuous
 62
     7
100
AcDbLine
 10
5343.419965521805
 20
3601.5199539075
 30
0.0
 11
5344.119230267438
 21
3601.519953907475
 31
0.0
  0
LINE
  5
EBB
330
2
100
AcDbEntity
  8
0
  6
Continuous
 62
     7
100
AcDbLine
 10
5344.119230268276
 20
3626.519953907478
 30
0.0
 11
5343.419965522643
 21
3626.519953907501
 31
0.0
  0
ARC
  5
EBC
330
2
100
AcDbEntity
  8
0
  6
Continuous
 62
     7
100
AcDbCircle
 10
5344.119230268257
 20
3626.019953907477
 30
0.0
 40
0.5000000000001671
100
AcDbArc
 50
359.9999999979677
 51
89.99999999801982
  0
ARC
  5
EBD
330
2
100
AcDbEntity
  8
0
  6
Continuous
 62
     7
100
AcDbCircle
 10
5344.119230267455
 20
3602.019953907475
 30
0.0
 40
0.4999999999997229
100
AcDbArc
 50
269.9999999980719
 51
359.999999998124
  0
LINE
  5
EBE
330
2
100
AcDbEntity
  8
0
  6
Continuous
 62
     7
100
AcDbLine
 10
5328.119230268276
 20
3626.519953908012
 30
0.0
 11
5326.119230248728
 21
3626.519953908079
 31
0.0
  0
LINE
  5
EBF
330
2
100
AcDbEntity
  8
0
  6
Continuous
 62
     7
100
AcDbLine
 10
5326.119230247893
 20
3601.519953908076
 30
0.0
 11
5328.119230267438
 21
3601.51995390801
 31
0.0
  0
ARC
  5
EC0
330
2
100
AcDbEntity
  8
0
  6
Continuous
 62
     7
100
AcDbCircle
 10
5328.619230267641
 20
3607.519953907992
 30
0.0
 40
0.5000000000001671
100
AcDbArc
 50
89.99999999809798
 51
179.9999999980719
  0
ARC
  5
EC1
330
2
100
AcDbEntity
  8
0
  6
Continuous
 62
     7
100
AcDbCircle
 10
5328.619230268074
 20
3620.519953907996
 30
0.0
 40
0.4999999999997229
100
AcDbArc
 50
179.999999998137
 51
269.999999998124
  0
LINE
  5
EC2
330
2
100
AcDbEntity
  8
0
  6
Continuous
 62
     7
100
AcDbLine
 10
5301.969230267317
 20
3604.319953915155
 30
0.0
 11
5302.269230267495
 21
3604.019953914958
 31
0.0
  0
LINE
  5
EC3
330
2
100
AcDbEntity
  8
0
  6
Continuous
 62
     7
100
AcDbLine
 10
5303.769230267494
 20
3604.019953914908
 30
0.0
 11
5304.069230267694
 21
3604.319953915086
 31
0.0
  0
LINE
  5
EC4
330
2
100
AcDbEntity
  8
0
  6
Continuous
 62
     7
100
AcDbLine
 10
5305.519230267822
 20
3613.769953914848
 30
0.0
 11
5305.019230267832
 21
3614.019953914865
 31
0.0
  0
LINE
  5
EC5
330
2
100
AcDbEntity
  8
0
  6
Continuous
 62
     7
100
AcDbLine
 10
5301.019230267832
 20
3614.019953915001
 30
0.0
 11
5300.519230267823
 21
3613.769953915015
 31
0.0
  0
LINE
  5
EC6
330
2
100
AcDbEntity
  8
0
  6
Continuous
 62
     7
100
AcDbLine
 10
5294.219230267129
 20
3600.019953902443
 30
0.0
 11
5294.019230267266
 21
3600.019953902439
 31
0.0
  0
ARC
  5
EC7
330
2
100
AcDbEntity
  8
0
  6
Continuous
 62
     7
100
AcDbCircle
 10
5294.219230267134
 20
3599.819953902444
 30
0.0
 40
0.199999999999978
100
AcDbArc
 50
0.0000000012767001
 51
90.00000000130276
  0
ARC
  5
EC8
330
2
100
AcDbEntity
  8
0
  6
Continuous
 62
     9
100
AcDbCircle
 10
3763.119230318009
 20
3625.639359798357
 30
0.0
 40
12.00044036486366
100
AcDbArc
 50
255.5230553832431
 51
284.4769446157901
  0
ARC
  5
EC9
330
2
100
AcDbEntity
  8
0
  6
Continuous
 62
     9
100
AcDbCircle
 10
3733.119230318002
 20
3625.639359798594
 30
0.0
 40
12.00044036486282
100
AcDbArc
 50
255.5230553832716
 51
284.4769446158153
  0
ARC
  5
ECA
330
2
100
AcDbEntity
  8
0
  6
Continuous
 62
     9
100
AcDbCircle
 10
1973.119230319127
 20
3625.639360053039
 30
0.0
 40
12.00044036452265
100
AcDbArc
 50
255.5230553809554
 51
284.4769446143366
  0
ARC
  5
ECB
330
2
100
AcDbEntity
  8
0
  6
Continuous
 62
     9
100
AcDbCircle
 10
2003.119230319125
 20
3625.642373636881
 30
0.0
 40
12.00335828673736
100
AcDbArc
 50
255.5266514386781
 51
284.4733485565602
  0
ARC
  5
ECC
330
2
100
AcDbEntity
  8
0
  6
Continuous
 62
     7
100
AcDbCircle
 10
2358.119230317881
 20
3594.01995390845
 30
0.0
 40
12.50000000000051
100
AcDbArc
 50
53.13010197434031
 51
126.8698980093023
  0
ARC
  5
ECD
330
2
100
AcDbEntity
  8
0
  6
Continuous
 62
     7
100
AcDbCircle
 10
2358.119230317881
 20
3594.01995390845
 30
0.0
 40
12.50000000000003
100
AcDbArc
 50
233.1301027175986
 51
306.8698972660231
  0
ARC
  5
ECE
330
2
100
AcDbEntity
  8
0
  6
Continuous
 62
     7
100
AcDbCircle
 10
2058.12646690838
 20
3595.019927725088
 30
0.0
 40
12.5000000000002
100
AcDbArc
 50
46.05465333107637
 51
133.9453466525607
  0
ARC
  5
ECF
330
2
100
AcDbEntity
  8
0
  6
Continuous
 62
     7
100
AcDbCircle
 10
2058.12646690838
 20
3595.019927725088
 30
0.0
 40
12.49999999999978
100
AcDbArc
 50
241.6421107940624
 51
298.3578891895641
  0
ARC
  5
ED0
330
2
100
AcDbEntity
  8
0
  6
Continuous
 62
     7
100
AcDbCircle
 10
2945.376008859001
 20
3576.01995390755
 30
0.0
 40
7.499999999999951
100
AcDbArc
 50
180.0000000013288
 51
0.0000000013288103
  0
CIRCLE
  5
ED1
330
2
100
AcDbEntity
  8
0
  6
Continuous
 62
     9
100
AcDbCircle
 10
2945.376008859032
 20
3576.019953907533
 30
0.0
 40
7.000000000000006
  0
ARC
  5
ED2
330
2
100
AcDbEntity
  8
0
  6
Continuous
 62
     7
100
AcDbCircle
 10
2945.376008859001
 20
3576.01995390755
 30
0.0
 40
7.499999999999951
100
AcDbArc
 50
0.0000000013157827
 51
180.0000000013288
  0
LINE
  5
ED3
330
2
100
AcDbEntity
  8
0
  6
Continuous
 62
     7
100
AcDbLine
 10
2946.126008859148
 20
3571.021848281934
 30
0.0
 11
2946.126008858917
 21
3581.018059533165
 31
0.0
  0
LINE
  5
ED4
330
2
100
AcDbEntity
  8
0
  6
Continuous
 62
     7
100
AcDbLine
 10
2946.126008858917
 20
3581.018059533165
 30
0.0
 11
2944.626008858918
 21
3581.018059533132
 31
0.0
  0
LINE
  5
ED5
330
2
100
AcDbEntity
  8
0
  6
Continuous
 62
     7
100
AcDbLine
 10
2944.626008859147
 20
3571.0218482819
 30
0.0
 11
2944.626008858918
 21
3581.018059533132
 31
0.0
  0
LINE
  5
ED6
330
2
100
AcDbEntity
  8
0
  6
Continuous
 62
     7
100
AcDbLine
 10
2944.626008859147
 20
3571.0218482819
 30
0.0
 11
2946.126008859148
 21
3571.021848281934
 31
0.0
  0
LINE
  5
ED7
330
2
100
AcDbEntity
  8
0
  6
Continuous
 62
     9
100
AcDbLine
 10
2944.626008858886
 20
3576.894953907583
 30
0.0
 11
2946.126008858885
 21
3576.894953907616
 31
0.0
  0
LINE
  5
ED8
330
2
100
AcDbEntity
  8
0
  6
Continuous
 62
     9
100
AcDbLine
 10
2944.626008858925
 20
3575.144953907584
 30
0.0
 11
2946.126008858925
 21
3575.144953907618
 31
0.0
  0
CIRCLE
  5
ED9
330
2
100
AcDbEntity
  8
0
  6
Continuous
 62
     7
100
AcDbCircle
 10
2945.376008857799
 20
3576.019953908183
 30
0.0
 40
10.00000000000001
  0
CIRCLE
  5
EDA
330
2
100
AcDbEntity
  8
0
  6
Continuous
 62
     7
100
AcDbCircle
 10
2945.376008856793
 20
3614.019953907494
 30
0.0
 40
10.49999999999995
  0
CIRCLE
  5
EDB
330
2
100
AcDbEntity
  8
0
  6
Continuous
 62
     7
100
AcDbCircle
 10
2945.376008856792
 20
3614.019953907514
 30
0.0
 40
12.49999999999995
  0
LINE
  5
EDC
330
2
100
AcDbEntity
  8
0
  6
Continuous
 62
     7
100
AcDbLine
 10
2946.126008856907
 20
3609.021848281898
 30
0.0
 11
2946.126008856677
 21
3619.018059533129
 31
0.0
  0
LINE
  5
EDD
330
2
100
AcDbEntity
  8
0
  6
Continuous
 62
     7
100
AcDbLine
 10
2946.126008856677
 20
3619.018059533129
 30
0.0
 11
2944.626008856678
 21
3619.018059533094
 31
0.0
  0
LINE
  5
EDE
330
2
100
AcDbEntity
  8
0
  6
Continuous
 62
     7
100
AcDbLine
 10
2944.626008856908
 20
3609.021848281864
 30
0.0
 11
2944.626008856678
 21
3619.018059533094
 31
0.0
  0
LINE
  5
EDF
330
2
100
AcDbEntity
  8
0
  6
Continuous
 62
     7
100
AcDbLine
 10
2944.626008856908
 20
3609.021848281864
 30
0.0
 11
2946.126008856907
 21
3609.021848281898
 31
0.0
  0
LINE
  5
EE0
330
2
100
AcDbEntity
  8
0
  6
Continuous
 62
     9
100
AcDbLine
 10
2944.626008856772
 20
3614.894953907545
 30
0.0
 11
2946.126008856772
 21
3614.894953907579
 31
0.0
  0
LINE
  5
EE1
330
2
100
AcDbEntity
  8
0
  6
Continuous
 62
     9
100
AcDbLine
 10
2944.626008856813
 20
3613.144953907546
 30
0.0
 11
2946.126008856812
 21
3613.144953907579
 31
0.0
  0
ARC
  5
EE2
330
2
100
AcDbEntity
  8
0
  6
Continuous
 62
     7
100
AcDbCircle
 10
2545.376008858132
 20
3576.019953907425
 30
0.0
 40
7.500000000000007
100
AcDbArc
 50
180.000000000013
 51
0.0000000000130276
  0
CIRCLE
  5
EE3
330
2
100
AcDbEntity
  8
0
  6
Continuous
 62
     9
100
AcDbCircle
 10
2545.376008858164
 20
3576.019953907409
 30
0.0
 40
7.000000000000006
  0
ARC
  5
EE4
330
2
100
AcDbEntity
  8
0
  6
Continuous
 62
     7
100
AcDbCircle
 10
2545.376008858132
 20
3576.019953907425
 30
0.0
 40
7.500000000000007
100
AcDbArc
 50
0.0
 51
180.000000000013
  0
LINE
  5
EE5
330
2
100
AcDbEntity
  8
0
  6
Continuous
 62
     7
100
AcDbLine
 10
2546.126008858164
 20
3571.021848281791
 30
0.0
 11
2546.126008858163
 21
3581.018059533028
 31
0.0
  0
LINE
  5
EE6
330
2
100
AcDbEntity
  8
0
  6
Continuous
 62
     7
100
AcDbLine
 10
2546.126008858163
 20
3581.018059533028
 30
0.0
 11
2544.626008858163
 21
3581.018059533028
 31
0.0
  0
LINE
  5
EE7
330
2
100
AcDbEntity
  8
0
  6
Continuous
 62
     7
100
AcDbLine
 10
2544.626008858165
 20
3571.021848281791
 30
0.0
 11
2544.626008858163
 21
3581.018059533028
 31
0.0
  0
LINE
  5
EE8
330
2
100
AcDbEntity
  8
0
  6
Continuous
 62
     7
100
AcDbLine
 10
2544.626008858165
 20
3571.021848281791
 30
0.0
 11
2546.126008858164
 21
3571.021848281791
 31
0.0
  0
LINE
  5
EE9
330
2
100
AcDbEntity
  8
0
  6
Continuous
 62
     9
100
AcDbLine
 10
2544.626008858037
 20
3576.894953907476
 30
0.0
 11
2546.126008858037
 21
3576.894953907476
 31
0.0
  0
LINE
  5
EEA
330
2
100
AcDbEntity
  8
0
  6
Continuous
 62
     9
100
AcDbLine
 10
2544.626008858037
 20
3575.144953907475
 30
0.0
 11
2546.126008858037
 21
3575.144953907476
 31
0.0
  0
CIRCLE
  5
EEB
330
2
100
AcDbEntity
  8
0
  6
Continuous
 62
     7
100
AcDbCircle
 10
2545.376008856931
 20
3576.019953908059
 30
0.0
 40
10.00000000000001
  0
CIRCLE
  5
EEC
330
2
100
AcDbEntity
  8
0
  6
Continuous
 62
     7
100
AcDbCircle
 10
2545.376008856794
 20
3614.019953907392
 30
0.0
 40
10.50000000000001
  0
CIRCLE
  5
EED
330
2
100
AcDbEntity
  8
0
  6
Continuous
 62
     7
100
AcDbCircle
 10
2545.376008856794
 20
3614.019953907411
 30
0.0
 40
12.50000000000001
  0
LINE
  5
EEE
330
2
100
AcDbEntity
  8
0
  6
Continuous
 62
     7
100
AcDbLine
 10
2546.126008856794
 20
3609.021848281774
 30
0.0
 11
2546.126008856793
 21
3619.01805953301
 31
0.0
  0
LINE
  5
EEF
330
2
100
AcDbEntity
  8
0
  6
Continuous
 62
     7
100
AcDbLine
 10
2546.126008856793
 20
3619.01805953301
 30
0.0
 11
2544.626008856793
 21
3619.01805953301
 31
0.0
  0
LINE
  5
EF0
330
2
100
AcDbEntity
  8
0
  6
Continuous
 62
     7
100
AcDbLine
 10
2544.626008856794
 20
3609.021848281774
 30
0.0
 11
2544.626008856793
 21
3619.01805953301
 31
0.0
  0
LINE
  5
EF1
330
2
100
AcDbEntity
  8
0
  6
Continuous
 62
     7
100
AcDbLine
 10
2544.626008856794
 20
3609.021848281774
 30
0.0
 11
2546.126008856794
 21
3609.021848281774
 31
0.0
  0
LINE
  5
EF2
330
2
100
AcDbEntity
  8
0
  6
Continuous
 62
     9
100
AcDbLine
 10
2544.626008856793
 20
3614.894953907461
 30
0.0
 11
2546.126008856793
 21
3614.894953907461
 31
0.0
  0
LINE
  5
EF3
330
2
100
AcDbEntity
  8
0
  6
Continuous
 62
     9
100
AcDbLine
 10
2544.626008856794
 20
3613.144953907458
 30
0.0
 11
2546.126008856794
 21
3613.144953907458
 31
0.0
  0
LINE
  5
EF4
330
2
100
AcDbEntity
  8
0
  6
Continuous
 62
     7
100
AcDbLine
 10
3735.119230317911
 20
3614.019953660112
 30
0.0
 11
3733.119230317889
 21
3614.019953660128
 31
0.0
  0
LINE
  5
EF5
330
2
100
AcDbEntity
  8
0
  6
Continuous
 62
     7
100
AcDbLine
 10
3733.119230317889
 20
3614.019953660128
 30
0.0
 11
3731.11923031791
 21
3614.019953660144
 31
0.0
  0
LINE
  5
EF6
330
2
100
AcDbEntity
  8
0
  6
Continuous
 62
     7
100
AcDbLine
 10
3765.119230317915
 20
3614.019953659875
 30
0.0
 11
3763.119230317894
 21
3614.019953659891
 31
0.0
  0
LINE
  5
EF7
330
2
100
AcDbEntity
  8
0
  6
Continuous
 62
     7
100
AcDbLine
 10
3763.119230317894
 20
3614.019953659891
 30
0.0
 11
3761.119230317913
 21
3614.019953659906
 31
0.0
  0
LINE
  5
EF8
330
2
100
AcDbEntity
  8
0
  6
Continuous
 62
     7
100
AcDbLine
 10
3735.619230317911
 20
3614.019953660108
 30
0.0
 11
3733.674089305168
 21
3613.769756573105
 31
0.0
  0
LINE
  5
EF9
330
2
100
AcDbEntity
  8
0
  6
Continuous
 62
     7
100
AcDbLine
 10
3733.674089305168
 20
3613.769756573105
 30
0.0
 11
3732.562232613527
 21
3613.769857763602
 31
0.0
  0
LINE
  5
EFA
330
2
100
AcDbEntity
  8
0
  6
Continuous
 62
     7
100
AcDbLine
 10
3732.562232613527
 20
3613.769857763602
 30
0.0
 11
3730.61923031791
 21
3614.019953660147
 31
0.0
  0
LINE
  5
EFB
330
2
100
AcDbEntity
  8
0
  6
Continuous
 62
     7
100
AcDbLine
 10
3765.619230317915
 20
3614.01995365987
 30
0.0
 11
3763.67408930518
 21
3613.769756572867
 31
0.0
  0
LINE
  5
EFC
330
2
100
AcDbEntity
  8
0
  6
Continuous
 62
     7
100
AcDbLine
 10
3763.67408930518
 20
3613.769756572867
 30
0.0
 11
3762.562232613536
 21
3613.769857763365
 31
0.0
  0
LINE
  5
EFD
330
2
100
AcDbEntity
  8
0
  6
Continuous
 62
     7
100
AcDbLine
 10
3762.562232613536
 20
3613.769857763365
 30
0.0
 11
3760.619230317914
 21
3614.01995365991
 31
0.0
  0
LINE
  5
EFE
330
2
100
AcDbEntity
  8
0
  6
Continuous
 62
     9
100
AcDbLine
 10
3728.119230317691
 20
3602.019953659765
 30
0.0
 11
3768.119230317697
 21
3602.019953659447
 31
0.0
  0
LINE
  5
EFF
330
2
100
AcDbEntity
  8
0
  6
Continuous
 62
     7
100
AcDbLine
 10
3728.119230317815
 20
3602.019953659765
 30
0.0
 11
3728.11923031791
 21
3614.019953660171
 31
0.0
  0
LINE
  5
F00
330
2
100
AcDbEntity
  8
0
  6
Continuous
 62
     7
100
AcDbLine
 10
3768.11923031782
 20
3602.019953659447
 30
0.0
 11
3768.119230317915
 21
3614.019953659855
 31
0.0
  0
LINE
  5
F01
330
2
100
AcDbEntity
  8
0
  6
Continuous
 62
     9
100
AcDbLine
 10
3728.119230317628
 20
3594.019953659763
 30
0.0
 11
3768.119230317634
 21
3594.019953659447
 31
0.0
  0
LINE
  5
F02
330
2
100
AcDbEntity
  8
0
  6
Continuous
 62
     7
100
AcDbLine
 10
3728.119230317628
 20
3594.019953659763
 30
0.0
 11
3728.119230317691
 21
3602.019953659765
 31
0.0
  0
LINE
  5
F03
330
2
100
AcDbEntity
  8
0
  6
Continuous
 62
     7
100
AcDbLine
 10
3768.119230317634
 20
3594.019953659447
 30
0.0
 11
3768.119230317697
 21
3602.019953659447
 31
0.0
  0
LINE
  5
F04
330
2
100
AcDbEntity
  8
0
  6
Continuous
 62
     7
100
AcDbLine
 10
3728.119230317656
 20
3582.019953660163
 30
0.0
 11
3728.119230317751
 21
3594.019953659763
 31
0.0
  0
LINE
  5
F05
330
2
100
AcDbEntity
  8
0
  6
Continuous
 62
     7
100
AcDbLine
 10
3768.119230317662
 20
3582.019953659845
 30
0.0
 11
3768.119230317757
 21
3594.019953659447
 31
0.0
  0
LINE
  5
F06
330
2
100
AcDbEntity
  8
0
  6
Continuous
 62
     7
100
AcDbLine
 10
3768.11923031783
 20
3603.519953659847
 30
0.0
 11
3768.11923031783
 21
3603.405769038348
 31
0.0
  0
LINE
  5
F07
330
2
100
AcDbEntity
  8
0
  6
Continuous
 62
     7
100
AcDbLine
 10
3768.11923031768
 20
3584.533924146163
 30
0.0
 11
3768.11923031768
 21
3584.519953659841
 31
0.0
  0
LINE
  5
F08
330
2
100
AcDbEntity
  8
0
  6
Continuous
 62
     7
100
AcDbLine
 10
2005.119230318653
 20
3614.019953913722
 30
0.0
 11
2001.119230318652
 21
3614.019953913872
 31
0.0
  0
LINE
  5
F09
330
2
100
AcDbEntity
  8
0
  6
Continuous
 62
     7
100
AcDbLine
 10
1975.119230318652
 20
3614.019953914858
 30
0.0
 11
1971.119230318652
 21
3614.019953915008
 31
0.0
  0
LINE
  5
F0A
330
2
100
AcDbEntity
  8
0
  6
Continuous
 62
     7
100
AcDbLine
 10
2008.119230318652
 20
3614.019953913607
 30
0.0
 11
2008.119230318198
 21
3602.019953913203
 31
0.0
  0
LINE
  5
F0B
330
2
100
AcDbEntity
  8
0
  6
Continuous
 62
     7
100
AcDbLine
 10
1968.119230318652
 20
3614.01995391512
 30
0.0
 11
1968.119230318197
 21
3602.019953914718
 31
0.0
  0
LINE
  5
F0C
330
2
100
AcDbEntity
  8
0
  6
Continuous
 62
     7
100
AcDbLine
 10
2005.619230318652
 20
3614.019953913702
 30
0.0
 11
2003.679716829693
 21
3613.770023918978
 31
0.0
  0
LINE
  5
F0D
330
2
100
AcDbEntity
  8
0
  6
Continuous
 62
     7
100
AcDbLine
 10
2003.679716829693
 20
3613.770023918978
 30
0.0
 11
2003.119230318596
 21
3613.756648508018
 31
0.0
  0
LINE
  5
F0E
330
2
100
AcDbEntity
  8
0
  6
Continuous
 62
     7
100
AcDbLine
 10
2000.619230318652
 20
3614.019953913889
 30
0.0
 11
2000.621640108344
 21
3614.019452105845
 31
0.0
  0
LINE
  5
F0F
330
2
100
AcDbEntity
  8
0
  6
Continuous
 62
     7
100
AcDbLine
 10
1975.619230318652
 20
3614.019953914837
 30
0.0
 11
1973.679716829692
 21
3613.770023920115
 31
0.0
  0
LINE
  5
F10
330
2
100
AcDbEntity
  8
0
  6
Continuous
 62
     7
100
AcDbLine
 10
1973.679716829692
 20
3613.770023920115
 30
0.0
 11
1973.119230318594
 21
3613.756648509153
 31
0.0
  0
LINE
  5
F11
330
2
100
AcDbEntity
  8
0
  6
Continuous
 62
     7
100
AcDbLine
 10
1970.619230318652
 20
3614.019953915026
 30
0.0
 11
1970.621640109436
 21
3614.019452106753
 31
0.0
  0
LINE
  5
F12
330
2
100
AcDbEntity
  8
0
  6
Continuous
 62
     9
100
AcDbLine
 10
2008.119230317969
 20
3602.019953913203
 30
0.0
 11
1968.119230317968
 21
3602.019953914718
 31
0.0
  0
LINE
  5
F13
330
2
100
AcDbEntity
  8
0
  6
Continuous
 62
     7
100
AcDbLine
 10
2003.119230318596
 20
3613.756648508018
 30
0.0
 11
2002.566881556783
 21
3613.769638554383
 31
0.0
  0
LINE
  5
F14
330
2
100
AcDbEntity
  8
0
  6
Continuous
 62
     7
100
AcDbLine
 10
2002.566881556783
 20
3613.769638554383
 30
0.0
 11
2000.619230318652
 21
3614.019953913889
 31
0.0
  0
LINE
  5
F15
330
2
100
AcDbEntity
  8
0
  6
Continuous
 62
     7
100
AcDbLine
 10
1973.119230318594
 20
3613.756648509153
 30
0.0
 11
1972.566881556783
 21
3613.76963855552
 31
0.0
  0
LINE
  5
F16
330
2
100
AcDbEntity
  8
0
  6
Continuous
 62
     7
100
AcDbLine
 10
1972.566881556783
 20
3613.76963855552
 30
0.0
 11
1970.619230318652
 21
3614.019953915026
 31
0.0
  0
LINE
  5
F17
330
2
100
AcDbEntity
  8
0
  6
Continuous
 62
     9
100
AcDbLine
 10
2008.119230317666
 20
3594.019953913203
 30
0.0
 11
1968.119230317665
 21
3594.019953914719
 31
0.0
  0
LINE
  5
F18
330
2
100
AcDbEntity
  8
0
  6
Continuous
 62
     7
100
AcDbLine
 10
1968.119230317968
 20
3602.019953914718
 30
0.0
 11
1968.119230317665
 21
3594.019953914719
 31
0.0
  0
LINE
  5
F19
330
2
100
AcDbEntity
  8
0
  6
Continuous
 62
     7
100
AcDbLine
 10
2008.119230317969
 20
3602.019953913203
 30
0.0
 11
2008.119230317666
 21
3594.019953913203
 31
0.0
  0
LINE
  5
F1A
330
2
100
AcDbEntity
  8
0
  6
Continuous
 62
     7
100
AcDbLine
 10
1968.119230317894
 20
3594.019953914719
 30
0.0
 11
1968.11923031744
 21
3582.01995391512
 31
0.0
  0
LINE
  5
F1B
330
2
100
AcDbEntity
  8
0
  6
Continuous
 62
     7
100
AcDbLine
 10
2008.119230317895
 20
3594.019953913203
 30
0.0
 11
2008.119230317441
 21
3582.019953913607
 31
0.0
  0
LINE
  5
F1C
330
2
100
AcDbEntity
  8
0
  6
Continuous
 62
     7
100
AcDbLine
 10
1968.119230317536
 20
3584.519953915116
 30
0.0
 11
1968.11923031756
 21
3585.144557841748
 31
0.0
  0
LINE
  5
F1D
330
2
100
AcDbEntity
  8
0
  6
Continuous
 62
     7
100
AcDbLine
 10
1968.119230318268
 20
3602.019953914718
 30
0.0
 11
1968.119230318338
 21
3603.519937141231
 31
0.0
  0
LINE
  5
F1E
330
2
100
AcDbEntity
  8
0
  6
Continuous
 62
     9
100
AcDbLine
 10
2448.119230319934
 20
2143.019953958273
 30
0.0
 11
1968.119230319934
 21
2143.019953911859
 31
0.0
  0
LINE
  5
F1F
330
2
100
AcDbEntity
  8
0
  6
Continuous
 62
     7
100
AcDbLine
 10
2448.119230319969
 20
2142.019953958208
 30
0.0
 11
2448.119230319872
 21
2143.019953958273
 31
0.0
  0
LINE
  5
F20
330
2
100
AcDbEntity
  8
0
  6
Continuous
 62
     7
100
AcDbLine
 10
1968.119230319968
 20
2142.019953911795
 30
0.0
 11
1968.119230319871
 21
2143.019953911859
 31
0.0
  0
LINE
  5
F21
330
2
100
AcDbEntity
  8
0
  6
Continuous
 62
     9
100
AcDbLine
 10
2448.119230318001
 20
2163.019953958272
 30
0.0
 11
1968.119230318
 21
2163.019953911858
 31
0.0
  0
LINE
  5
F22
330
2
100
AcDbEntity
  8
0
  6
Continuous
 62
     7
100
AcDbLine
 10
2448.119230319934
 20
2143.019953958273
 30
0.0
 11
2448.119230318001
 21
2163.019953958272
 31
0.0
  0
LINE
  5
F23
330
2
100
AcDbEntity
  8
0
  6
Continuous
 62
     7
100
AcDbLine
 10
1968.119230319934
 20
2143.019953911859
 30
0.0
 11
1968.119230318
 21
2163.019953911858
 31
0.0
  0
LINE
  5
F24
330
2
100
AcDbEntity
  8
0
  6
Continuous
 62
     7
100
AcDbLine
 10
2448.119230317841
 20
2164.019953958208
 30
0.0
 11
1968.119230317841
 21
2164.019953911795
 31
0.0
  0
LINE
  5
F25
330
2
100
AcDbEntity
  8
0
  6
Continuous
 62
     7
100
AcDbLine
 10
2448.119230317938
 20
2163.019953958272
 30
0.0
 11
2448.119230317841
 21
2164.019953958208
 31
0.0
  0
LINE
  5
F26
330
2
100
AcDbEntity
  8
0
  6
Continuous
 62
     7
100
AcDbLine
 10
1968.119230317938
 20
2163.019953911858
 30
0.0
 11
1968.119230317841
 21
2164.019953911795
 31
0.0
  0
LINE
  5
F27
330
2
100
AcDbEntity
  8
0
  6
Continuous
 62
     7
100
AcDbLine
 10
3768.119230317799
 20
1592.019953912062
 30
0.0
 11
3768.119230317799
 21
2142.019953911868
 31
0.0
  0
LINE
  5
F28
330
2
100
AcDbEntity
  8
0
  6
Continuous
 62
     7
100
AcDbLine
 10
3768.119230317799
 20
1592.019953912062
 30
0.0
 11
1968.119230317813
 21
1592.019953912062
 31
0.0
  0
LINE
  5
F29
330
2
100
AcDbEntity
  8
0
  6
Continuous
 62
     7
100
AcDbLine
 10
1968.119230317813
 20
1592.019953912062
 30
0.0
 11
1968.119230317813
 21
2142.019953911868
 31
0.0
  0
LINE
  5
F2A
330
2
100
AcDbEntity
  8
0
  6
Continuous
 62
     7
100
AcDbLine
 10
3768.119230317799
 20
2142.019953911868
 30
0.0
 11
1968.119230317813
 21
2142.019953911868
 31
0.0
  0
LINE
  5
F2B
330
2
100
AcDbEntity
  8
0
  6
Continuous
 62
     9
100
AcDbLine
 10
2954.37600885629
 20
2908.019953906679
 30
0.0
 11
2954.376008856353
 21
2907.019953906626
 31
0.0
  0
LINE
  5
F2C
330
2
100
AcDbEntity
  8
0
  6
Continuous
 62
     9
100
AcDbLine
 10
2953.376008856353
 20
2907.019953906617
 30
0.0
 11
2954.376008856353
 21
2907.01995390668
 31
0.0
  0
ARC
  5
F2D
330
2
100
AcDbEntity
  8
0
  6
Continuous
 62
     7
100
AcDbCircle
 10
2954.376008856353
 20
2907.01995390668
 30
0.0
 40
0.9999999999994455
100
AcDbArc
 50
90.00000000362167
 51
180.0000000036086
  0
LINE
  5
F2E
330
2
100
AcDbEntity
  8
0
  6
Continuous
 62
     7
100
AcDbLine
 10
2954.37600885629
 20
2908.019953906679
 30
0.0
 11
2972.37600885629
 21
2908.019953907814
 31
0.0
  0
LINE
  5
F2F
330
2
100
AcDbEntity
  8
0
  6
Continuous
 62
     9
100
AcDbLine
 10
2972.37600885629
 20
2908.019953907814
 30
0.0
 11
2972.376008856353
 21
2907.019953907763
 31
0.0
  0
LINE
  5
F30
330
2
100
AcDbEntity
  8
0
  6
Continuous
 62
     9
100
AcDbLine
 10
2972.376008856353
 20
2907.019953907763
 30
0.0
 11
2954.376008856353
 21
2907.019953906626
 31
0.0
  0
ARC
  5
F31
330
2
100
AcDbEntity
  8
0
  6
Continuous
 62
     7
100
AcDbCircle
 10
2972.376008856353
 20
2907.019953907815
 30
0.0
 40
1.000000000000333
100
AcDbArc
 50
0.0000000036086319
 51
90.00000000362167
  0
LINE
  5
F32
330
2
100
AcDbEntity
  8
0
  6
Continuous
 62
     9
100
AcDbLine
 10
2972.376008856353
 20
2907.019953907815
 30
0.0
 11
2973.376008856353
 21
2907.019953907877
 31
0.0
  0
LINE
  5
F33
330
2
100
AcDbEntity
  8
0
  6
Continuous
 62
     7
100
AcDbLine
 10
2953.376008857489
 20
2889.019953906617
 30
0.0
 11
2953.376008856353
 21
2907.019953906617
 31
0.0
  0
LINE
  5
F34
330
2
100
AcDbEntity
  8
0
  6
Continuous
 62
     9
100
AcDbLine
 10
2954.376008856353
 20
2907.019953906626
 30
0.0
 11
2954.376008857488
 21
2889.019953906627
 31
0.0
  0
LINE
  5
F35
330
2
100
AcDbEntity
  8
0
  6
Continuous
 62
     9
100
AcDbLine
 10
2953.376008857489
 20
2889.019953906617
 30
0.0
 11
2954.376008857488
 21
2889.01995390668
 31
0.0
  0
LINE
  5
F36
330
2
100
AcDbEntity
  8
0
  6
Continuous
 62
     9
100
AcDbLine
 10
2972.376008857488
 20
2889.019953907762
 30
0.0
 11
2972.376008856353
 21
2907.019953907763
 31
0.0
  0
LINE
  5
F37
330
2
100
AcDbEntity
  8
0
  6
Continuous
 62
     9
100
AcDbLine
 10
2954.376008857488
 20
2889.019953906627
 30
0.0
 11
2972.376008857488
 21
2889.019953907762
 31
0.0
  0
LINE
  5
F38
330
2
100
AcDbEntity
  8
0
  6
Continuous
 62
     7
100
AcDbLine
 10
2973.376008856353
 20
2907.019953907877
 30
0.0
 11
2973.376008857488
 21
2889.019953907876
 31
0.0
  0
LINE
  5
F39
330
2
100
AcDbEntity
  8
0
  6
Continuous
 62
     9
100
AcDbLine
 10
2972.376008857488
 20
2889.019953907816
 30
0.0
 11
2973.376008857488
 21
2889.019953907876
 31
0.0
  0
LINE
  5
F3A
330
2
100
AcDbEntity
  8
0
  6
Continuous
 62
     9
100
AcDbLine
 10
2954.376008857488
 20
2889.019953906627
 30
0.0
 11
2954.376008857551
 21
2888.01995390668
 31
0.0
  0
ARC
  5
F3B
330
2
100
AcDbEntity
  8
0
  6
Continuous
 62
     7
100
AcDbCircle
 10
2954.376008857488
 20
2889.01995390668
 30
0.0
 40
1.0
100
AcDbArc
 50
180.0000000036086
 51
270.0000000036216
  0
LINE
  5
F3C
330
2
100
AcDbEntity
  8
0
  6
Continuous
 62
     9
100
AcDbLine
 10
2972.376008857488
 20
2889.019953907762
 30
0.0
 11
2972.376008857551
 21
2888.019953907815
 31
0.0
  0
LINE
  5
F3D
330
2
100
AcDbEntity
  8
0
  6
Continuous
 62
     7
100
AcDbLine
 10
2972.376008857551
 20
2888.019953907815
 30
0.0
 11
2954.376008857551
 21
2888.01995390668
 31
0.0
  0
ARC
  5
F3E
330
2
100
AcDbEntity
  8
0
  6
Continuous
 62
     7
100
AcDbCircle
 10
2972.376008857488
 20
2889.019953907816
 30
0.0
 40
0.9999999999994455
100
AcDbArc
 50
270.0000000035956
 51
0.0000000036086319
  0
LINE
  5
F3F
330
2
100
AcDbEntity
  8
0
  6
Continuous
 62
     7
100
AcDbLine
 10
2443.402702523623
 20
3644.019953908081
 30
0.0
 11
2443.402702523838
 21
2169.019953908081
 31
0.0
  0
LINE
  5
F40
330
2
100
AcDbEntity
  8
0
  6
Continuous
 62
     7
100
AcDbLine
 10
2443.402702523623
 20
3644.019953908081
 30
0.0
 11
2454.414031018127
 21
3644.019953908103
 31
0.0
  0
LINE
  5
F41
330
2
100
AcDbEntity
  8
0
  6
Continuous
 62
     7
100
AcDbLine
 10
2454.414031018127
 20
3644.019953908103
 30
0.0
 11
2454.414031018343
 21
2169.019953908102
 31
0.0
  0
LINE
  5
F42
330
2
100
AcDbEntity
  8
0
  6
Continuous
 62
     7
100
AcDbLine
 10
2443.402702523838
 20
2169.019953908081
 30
0.0
 11
2454.414031018343
 21
2169.019953908102
 31
0.0
  0
LINE
  5
F43
330
2
100
AcDbEntity
  8
0
  6
Continuous
 62
     7
100
AcDbLine
 10
2442.376008829004
 20
3644.019953908081
 30
0.0
 11
2442.37600882922
 21
2169.01995390808
 31
0.0
  0
LINE
  5
F44
330
2
100
AcDbEntity
  8
0
  6
Continuous
 62
     7
100
AcDbLine
 10
2442.37600882922
 20
2169.019953908081
 30
0.0
 11
2443.402702523838
 21
2169.019953908081
 31
0.0
  0
LINE
  5
F45
330
2
100
AcDbEntity
  8
0
  6
Continuous
 62
     7
100
AcDbLine
 10
2442.376008829004
 20
3644.019953908081
 30
0.0
 11
2443.402702523623
 21
3644.019953908081
 31
0.0
  0
LINE
  5
F46
330
2
100
AcDbEntity
  8
0
  6
Continuous
 62
     4
100
AcDbLine
 10
2443.376008856998
 20
2169.019953908114
 30
0.0
 11
2443.376008856999
 21
2164.019953957748
 31
0.0
  0
LINE
  5
F47
330
2
100
AcDbEntity
  8
0
  6
Continuous
 62
     4
100
AcDbLine
 10
2993.376008856786
 20
3644.019953908244
 30
0.0
 11
2454.414031024862
 21
3644.019953908165
 31
0.0
  0
LINE
  5
F48
330
2
100
AcDbEntity
  8
0
  6
Continuous
 62
     4
100
AcDbLine
 10
2993.376008856786
 20
3644.019953908244
 30
0.0
 11
2993.376008857001
 21
2152.019953908244
 31
0.0
  0
LINE
  5
F49
330
2
100
AcDbEntity
  8
0
  6
Continuous
 62
     4
100
AcDbLine
 10
2993.376008857001
 20
2152.019953908244
 30
0.0
 11
2448.11923031788
 21
2152.019953908164
 31
0.0
  0
LINE
  5
F4A
330
2
100
AcDbEntity
  8
0
  6
Continuous
 62
     4
100
AcDbLine
 10
1968.11923031788
 20
2164.019953911795
 30
0.0
 11
1968.11923031788
 21
3582.01995391512
 31
0.0
  0
LINE
  5
F4B
330
2
100
AcDbEntity
  8
0
  6
Continuous
 62
     4
100
AcDbLine
 10
1968.11923031788
 20
3614.01995391512
 30
0.0
 11
1968.11923031788
 21
3644.019953909302
 31
0.0
  0
LINE
  5
F4C
330
2
100
AcDbEntity
  8
0
  6
Continuous
 62
     4
100
AcDbLine
 10
1968.11923031788
 20
3644.019953909302
 30
0.0
 11
2442.376008829004
 21
3644.019953909302
 31
0.0
  0
LINE
  5
F4D
330
2
100
AcDbEntity
  8
0
  6
Continuous
 62
     7
100
AcDbLine
 10
3735.258914257091
 20
3613.950111690521
 30
0.0
 11
3735.119230317911
 21
3614.019953660112
 31
0.0
  0
LINE
  5
F4E
330
2
100
AcDbEntity
  8
0
  6
Continuous
 62
     7
100
AcDbLine
 10
3731.11923031791
 20
3614.019953660144
 30
0.0
 11
3730.979521291715
 21
3613.950099147049
 31
0.0
  0
LINE
  5
F4F
330
2
100
AcDbEntity
  8
0
  6
Continuous
 62
     7
100
AcDbLine
 10
3765.258914257094
 20
3613.950111690284
 30
0.0
 11
3765.119230317914
 21
3614.019953659875
 31
0.0
  0
LINE
  5
F50
330
2
100
AcDbEntity
  8
0
  6
Continuous
 62
     7
100
AcDbLine
 10
3761.119230317915
 20
3614.019953659906
 30
0.0
 11
3760.979521291719
 21
3613.95009914681
 31
0.0
  0
LINE
  5
F51
330
2
100
AcDbEntity
  8
0
  6
Continuous
 62
     7
100
AcDbLine
 10
3730.619743354512
 20
3614.019953660147
 30
0.0
 11
3730.61923031791
 21
3614.019953660147
 31
0.0
  0
LINE
  5
F52
330
2
100
AcDbEntity
  8
0
  6
Continuous
 62
     7
100
AcDbLine
 10
3730.61923031791
 20
3614.019953660147
 30
0.0
 11
3730.119235327911
 21
3614.019953660152
 31
0.0
  0
LINE
  5
F53
330
2
100
AcDbEntity
  8
0
  6
Continuous
 62
     7
100
AcDbLine
 10
3730.119235327911
 20
3614.019953660152
 30
0.0
 11
3728.11923031791
 21
3614.019953660167
 31
0.0
  0
LINE
  5
F54
330
2
100
AcDbEntity
  8
0
  6
Continuous
 62
     7
100
AcDbLine
 10
3760.619743354516
 20
3614.01995365991
 30
0.0
 11
3760.619230317914
 21
3614.01995365991
 31
0.0
  0
LINE
  5
F55
330
2
100
AcDbEntity
  8
0
  6
Continuous
 62
     7
100
AcDbLine
 10
3760.619230317914
 20
3614.01995365991
 30
0.0
 11
3760.119235327915
 21
3614.019953659914
 31
0.0
  0
LINE
  5
F56
330
2
100
AcDbEntity
  8
0
  6
Continuous
 62
     7
100
AcDbLine
 10
3760.119235327915
 20
3614.019953659914
 30
0.0
 11
3736.11922530791
 21
3614.019953660105
 31
0.0
  0
LINE
  5
F57
330
2
100
AcDbEntity
  8
0
  6
Continuous
 62
     7
100
AcDbLine
 10
3736.118330507172
 20
3614.019953660105
 30
0.0
 11
3735.619230317911
 21
3614.019953660108
 31
0.0
  0
LINE
  5
F58
330
2
100
AcDbEntity
  8
0
  6
Continuous
 62
     7
100
AcDbLine
 10
3768.119230317915
 20
3614.019953659852
 30
0.0
 11
3766.119225307914
 21
3614.019953659867
 31
0.0
  0
LINE
  5
F59
330
2
100
AcDbEntity
  8
0
  6
Continuous
 62
     7
100
AcDbLine
 10
3766.118330507176
 20
3614.019953659867
 30
0.0
 11
3765.619230317915
 21
3614.01995365987
 31
0.0
  0
LINE
  5
F5A
330
2
100
AcDbEntity
  8
0
  6
Continuous
 62
     7
100
AcDbLine
 10
3728.119230317656
 20
3582.019953660163
 30
0.0
 11
3768.119230317662
 21
3582.019953659847
 31
0.0
  0
LINE
  5
F5B
330
2
100
AcDbEntity
  8
0
  6
Continuous
 62
     7
100
AcDbLine
 10
2005.258899925062
 20
3613.950119110509
 30
0.0
 11
2005.119230318653
 21
3614.019953913722
 31
0.0
  0
LINE
  5
F5C
330
2
100
AcDbEntity
  8
0
  6
Continuous
 62
     7
100
AcDbLine
 10
2001.119230318652
 20
3614.019953913872
 30
0.0
 11
2000.97953281633
 21
3613.950105162718
 31
0.0
  0
LINE
  5
F5D
330
2
100
AcDbEntity
  8
0
  6
Continuous
 62
     7
100
AcDbLine
 10
1975.25889992506
 20
3613.950119111644
 30
0.0
 11
1975.119230318652
 21
3614.019953914858
 31
0.0
  0
LINE
  5
F5E
330
2
100
AcDbEntity
  8
0
  6
Continuous
 62
     7
100
AcDbLine
 10
1971.119230318652
 20
3614.019953915008
 30
0.0
 11
1970.97953281633
 21
3613.950105163854
 31
0.0
  0
LINE
  5
F5F
330
2
100
AcDbEntity
  8
0
  6
Continuous
 62
     7
100
AcDbLine
 10
1970.619230318652
 20
3614.019953915026
 30
0.0
 11
1970.11923532866
 21
3614.019953915047
 31
0.0
  0
LINE
  5
F60
330
2
100
AcDbEntity
  8
0
  6
Continuous
 62
     7
100
AcDbLine
 10
1970.11923532866
 20
3614.019953915047
 30
0.0
 11
1968.119230318652
 21
3614.01995391512
 31
0.0
  0
LINE
  5
F61
330
2
100
AcDbEntity
  8
0
  6
Continuous
 62
     7
100
AcDbLine
 10
2000.619230318652
 20
3614.019953913889
 30
0.0
 11
2000.119235328652
 21
3614.01995391391
 31
0.0
  0
LINE
  5
F62
330
2
100
AcDbEntity
  8
0
  6
Continuous
 62
     7
100
AcDbLine
 10
2000.119235328652
 20
3614.01995391391
 30
0.0
 11
1976.119225308652
 21
3614.019953914819
 31
0.0
  0
LINE
  5
F63
330
2
100
AcDbEntity
  8
0
  6
Continuous
 62
     7
100
AcDbLine
 10
1976.118330507912
 20
3614.019953914819
 30
0.0
 11
1975.619230318652
 21
3614.019953914837
 31
0.0
  0
LINE
  5
F64
330
2
100
AcDbEntity
  8
0
  6
Continuous
 62
     7
100
AcDbLine
 10
1975.619230318652
 20
3614.019953914837
 30
0.0
 11
1975.618717282048
 21
3614.019953914837
 31
0.0
  0
LINE
  5
F65
330
2
100
AcDbEntity
  8
0
  6
Continuous
 62
     7
100
AcDbLine
 10
2008.119230318652
 20
3614.019953913607
 30
0.0
 11
2006.119225308652
 21
3614.019953913683
 31
0.0
  0
LINE
  5
F66
330
2
100
AcDbEntity
  8
0
  6
Continuous
 62
     7
100
AcDbLine
 10
2006.117458862775
 20
3614.019953913683
 30
0.0
 11
2005.619230318652
 21
3614.019953913702
 31
0.0
  0
LINE
  5
F67
330
2
100
AcDbEntity
  8
0
  6
Continuous
 62
     7
100
AcDbLine
 10
2005.619230318652
 20
3614.019953913702
 30
0.0
 11
2005.618717282048
 21
3614.019953913702
 31
0.0
  0
LINE
  5
F68
330
2
100
AcDbEntity
  8
0
  6
Continuous
 62
     7
100
AcDbLine
 10
1968.11923031744
 20
3582.01995391512
 30
0.0
 11
2008.119230317441
 21
3582.019953913607
 31
0.0
  0
LINE
  5
F69
330
2
100
AcDbEntity
  8
0
  6
Continuous
 62
     7
100
AcDbLine
 10
2008.11923031739
 20
3584.019953909773
 30
0.0
 11
2442.376008829013
 21
3584.019953847775
 31
0.0
  0
LINE
  5
F6A
330
2
100
AcDbEntity
  8
0
  6
Continuous
 62
     7
100
AcDbLine
 10
2993.376008856794
 20
3584.01995376911
 30
0.0
 11
3728.119230317605
 21
3584.019953664214
 31
0.0
  0
LINE
  5
F6B
330
2
100
AcDbEntity
  8
0
  6
Continuous
 62
     7
100
AcDbLine
 10
3728.119230317709
 20
3604.019953664213
 30
0.0
 11
2993.376008856792
 21
3604.01995376911
 31
0.0
  0
LINE
  5
F6C
330
2
100
AcDbEntity
  8
0
  6
Continuous
 62
     7
100
AcDbLine
 10
2442.37600882901
 20
3604.019953847775
 30
0.0
 11
2008.119230318048
 21
3604.01995390977
 31
0.0
  0
ENDSEC
  0
SECTION
  2
OBJECTS
  0
DICTIONARY
  5
7
330
0
100
AcDbDictionary
281
     1
  3
ACAD_COLOR
350
65C
  3
ACAD_GROUP
350
20
  3
ACAD_LAYOUT
350
B
  3
ACAD_MATERIAL
350
632
  3
ACAD_MLEADERSTYLE
350
681
  3
ACAD_MLINESTYLE
350
21
  3
ACAD_PLOTSETTINGS
350
22
  3
ACAD_PLOTSTYLENAME
350
6
  3
ACAD_SCALELIST
350
65F
  3
ACAD_TABLESTYLE
350
65D
  3
ACAD_VISUALSTYLE
350
64B
  3
ACDB_RECOMPOSE_DATA
350
6A0
  3
AcDbVariableDictionary
350
6A1
  3
ASE_INDEX_DICTIONARY
350
69B
  3
DWGPROPS
350
1003
  0
DICTIONARY
  5
68A
330
4
100
AcDbDictionary
280
     1
281
     1
  3
ADSK_XREC_LAYER_RECONCILED
360
68B
  0
DICTIONARY
  5
B26
330
2
100
AcDbDictionary
280
     1
281
     1
  3
ACAD_SORTENTS
360
B27
  0
DICTIONARY
  5
65C
102
{ACAD_REACTORS
330
7
102
}
330
7
100
AcDbDictionary
281
     1
  0
DICTIONARY
  5
20
102
{ACAD_REACTORS
330
7
102
}
330
7
100
AcDbDictionary
281
     1
  0
DICTIONARY
  5
B
102
{ACAD_REACTORS
330
7
102
}
330
7
100
AcDbDictionary
281
     1
  3
Layout1
350
F
  3
Model
350
A
  0
DICTIONARY
  5
632
102
{ACAD_REACTORS
330
7
102
}
330
7
100
AcDbDictionary
281
     1
  3
ByBlock
350
63B
  3
ByLayer
350
633
  3
Global
350
643
  0
DICTIONARY
  5
681
102
{ACAD_REACTORS
330
7
102
}
330
7
100
AcDbDictionary
281
     1
  3
Standard
350
682
  0
DICTIONARY
  5
21
102
{ACAD_REACTORS
330
7
102
}
330
7
100
AcDbDictionary
281
     1
  3
Standard
350
23
  0
DICTIONARY
  5
22
102
{ACAD_REACTORS
330
7
102
}
330
7
100
AcDbDictionary
281
     1
  0
ACDBDICTIONARYWDFLT
  5
6
102
{ACAD_REACTORS
330
7
102
}
330
7
100
AcDbDictionary
281
     1
  3
Normal
350
5
100
AcDbDictionaryWithDefault
340
5
  0
DICTIONARY
  5
65F
102
{ACAD_REACTORS
330
7
102
}
330
7
100
AcDbDictionary
281
     1
  3
A0
350
660
  3
A1
350
661
  3
A2
350
662
  3
A3
350
663
  3
A4
350
664
  3
A5
350
665
  3
A6
350
666
  3
A7
350
667
  3
A8
350
668
  3
A9
350
669
  3
B0
350
66A
  3
B1
350
66B
  3
B2
350
66C
  3
B3
350
66D
  3
B4
350
66E
  3
B5
350
66F
  3
B6
350
670
  3
B7
350
671
  3
B8
350
672
  3
B9
350
673
  3
C0
350
674
  3
C1
350
675
  3
C2
350
676
  3
C3
350
677
  3
C4
350
678
  3
C5
350
679
  3
C6
350
67A
  3
C7
350
67B
  3
C8
350
67C
  3
C9
350
67D
  3
D0
350
67E
  3
D1
350
67F
  3
D2
350
680
  0
DICTIONARY
  5
65D
102
{ACAD_REACTORS
330
7
102
}
330
7
100
AcDbDictionary
281
     1
  3
Standard
350
65E
  0
DICTIONARY
  5
64B
102
{ACAD_REACTORS
330
7
102
}
330
7
100
AcDbDictionary
281
     1
  3
2dWireframe
350
651
  3
3D Hidden
350
653
  3
3dWireframe
350
652
  3
Basic
350
650
  3
Brighten
350
657
  3
ColorChange
350
65B
  3
Conceptual
350
654
  3
Dim
350
656
  3
Facepattern
350
65A
  3
Flat
350
64C
  3
FlatWithEdges
350
64D
  3
Gouraud
350
64E
  3
GouraudWithEdges
350
64F
  3
Linepattern
350
659
  3
Realistic
350
655
  3
Thicken
350
658
  0
XRECORD
  5
6A0
102
{ACAD_REACTORS
330
7
102
}
330
7
100
AcDbXrecord
280
     1
 90
        1
330
65E
  0
DICTIONARY
  5
6A1
102
{ACAD_REACTORS
330
7
102
}
330
7
100
AcDbDictionary
281
     1
  3
CANNOSCALE
350
6A5
  3
CMLEADERSTYLE
350
6A3
  3
CTABLESTYLE
350
6A2
  3
DIMASSOC
350
B13
  3
INDEXCTL
350
B12
  3
LIGHTINGUNITS
350
6A6
  3
MSLTSCALE
350
6A4
  3
SORTENTS
350
B11
  0
DICTIONARY
  5
69B
102
{ACAD_REACTORS
330
7
102
}
330
7
100
AcDbDictionary
281
     1
  3
ASEBlockHierarchyIndexRecord
350
69D
1001
DCO15
1040
1678078617.738
  0
XRECORD
  5
1003
102
{ACAD_REACTORS
330
7
102
}
330
7
100
AcDbXrecord
280
     1
  1
DWGPROPS COOKIE
  2

  3

  4

  6

  7

  8
renzo.ceresoli
  9

300
=
301
=
302
=
303
=
304
=
305
=
306
=
307
=
308
=
309
=
 40
0.0006431365740741
 41
2455315.377439502
 42
2455315.378082095
  1

 90
        0
  0
XRECORD
  5
68B
102
{ACAD_REACTORS
330
68A
102
}
330
68A
100
AcDbXrecord
280
     1
290
     1
  0
SORTENTSTABLE
  5
B27
102
{ACAD_REACTORS
330
B26
102
}
330
B26
100
AcDbSortentsTable
330
2
331
C90
  5
F8D
331
D08
  5
D52
331
BA1
  5
E9E
331
CB2
  5
FAF
331
D2A
  5
D74
331
E19
  5
C5D
331
BC3
  5
EC0
331
D44
  5
D8E
331
EAB
  5
CEF
331
E33
  5
C77
331
BDD
  5
EDA
331
E55
  5
C99
331
BFF
  5
EFC
331
D66
  5
DB0
331
ECD
  5
B87
331
C21
  5
F1E
331
D88
  5
DD2
331
EEF
  5
BA9
331
E77
  5
CBB
331
B32
  5
E37
331
F11
  5
BCB
331
C43
  5
F40
331
B54
  5
E51
331
F2B
  5
BE5
331
DAA
  5
DF4
331
C5D
  5
F5A
331
CD5
  5
D1F
331
B6E
  5
E6B
331
F4D
  5
C07
331
DC4
  5
E0E
331
C7F
  5
F7C
331
CF7
  5
D41
331
B90
  5
E8D
331
DE6
  5
C2A
331
E99
  5
CDD
331
CA1
  5
F9E
331
D19
  5
D63
331
BB2
  5
EAF
331
D3B
  5
D85
331
E2A
  5
C6E
331
BD4
  5
ED1
331
BEE
  5
EEB
331
D55
  5
D9F
331
EBC
  5
D00
331
E44
  5
C88
331
CC3
  5
D0D
331
C10
  5
F0D
331
D77
  5
DC1
331
EDE
  5
B98
331
C32
  5
F2F
331
D99
  5
DE3
331
F00
  5
BBA
331
DD5
  5
E1F
331
F3C
  5
BF6
331
C6E
  5
F6B
331
B7F
  5
E7C
331
F5E
  5
C18
331
CE6
  5
D30
331
DF7
  5
C3B
331
B43
  5
E48
331
E88
  5
CCC
331
E66
  5
CAA
331
E08
  5
C4C
331
CB0
  5
FAD
331
D28
  5
D72
331
BC1
  5
EBE
331
D42
  5
D8C
331
EA9
  5
CED
331
E31
  5
C75
331
BDB
  5
ED8
331
E53
  5
C97
331
BFD
  5
EFA
331
D64
  5
DAE
331
ECB
  5
B85
331
E75
  5
CB9
331
C1F
  5
F1C
331
D86
  5
DD0
331
EED
  5
BA7
331
B30
  5
E35
331
F0F
  5
BC9
331
C41
  5
F3E
331
DC2
  5
E0C
331
F29
  5
BE3
331
DA8
  5
DF2
331
E97
  5
CDB
331
C5B
  5
F58
331
B6C
  5
E69
331
F4B
  5
C05
331
C7D
  5
F7A
331
CF5
  5
D3F
331
DE4
  5
C28
331
B8E
  5
E8B
331
C9F
  5
F9C
331
D17
  5
D61
331
E06
  5
C4A
331
BB0
  5
EAD
331
CC1
  5
FBE
331
D39
  5
D83
331
E28
  5
C6C
331
BD2
  5
ECF
331
BEC
  5
EE9
331
D53
  5
D9D
331
EBA
  5
CFE
331
E42
  5
C86
331
C0E
  5
F0B
331
D75
  5
DBF
331
EDC
  5
B96
331
E64
  5
CA8
331
C30
  5
F2D
331
D97
  5
DE1
331
EFE
  5
BB8
331
E86
  5
CCA
331
DD3
  5
E1D
331
F3A
  5
BF4
331
C6C
  5
F69
331
B7D
  5
E7A
331
F5C
  5
C16
331
CE4
  5
D2E
331
C8E
  5
F8B
331
D06
  5
D50
331
B9F
  5
E9C
331
DF5
  5
C39
331
E17
  5
C5B
331
B41
  5
E46
331
CD3
  5
D1D
331
D40
  5
D8A
331
BD9
  5
ED6
331
E51
  5
C95
331
BFB
  5
EF8
331
D62
  5
DAC
331
EC9
  5
B83
331
E73
  5
CB7
331
C1D
  5
F1A
331
D84
  5
DCE
331
EEB
  5
BA5
331
B2E
  5
E33
331
F0D
  5
BC7
331
E95
  5
CD9
331
C3F
  5
F3C
331
DC0
  5
E0A
331
F27
  5
BE1
331
C59
  5
F56
331
B6A
  5
E67
331
F49
  5
C03
331
CD1
  5
D1B
331
DE2
  5
E2C
331
C7B
  5
F78
331
B8C
  5
E89
331
F6B
  5
C25
331
C9D
  5
F9A
331
D15
  5
D5F
331
E04
  5
C48
331
BAE
  5
EAB
331
CF3
  5
D3D
331
CBF
  5
FBC
331
D37
  5
D81
331
BD0
  5
ECD
331
BEA
  5
EE7
331
D51
  5
D9B
331
EB8
  5
CFC
331
E40
  5
C84
331
C0C
  5
F09
331
D73
  5
DBD
331
EDA
  5
B94
331
E62
  5
CA6
331
C2E
  5
F2B
331
D95
  5
DDF
331
EFC
  5
BB6
331
E84
  5
CC8
331
B3F
  5
E44
331
F1E
  5
BD8
331
DD1
  5
E1B
331
F38
  5
BF2
331
DB7
  5
E01
331
C6A
  5
F67
331
B7B
  5
E78
331
F5A
  5
C14
331
C8C
  5
F89
331
D04
  5
D4E
331
B9D
  5
E9A
331
DF3
  5
C37
331
CE2
  5
D2C
331
CAE
  5
FAB
331
D26
  5
D70
331
BBF
  5
EBC
331
E15
  5
C59
331
EA6
  5
CEA
331
E26
  5
C6A
331
DA6
  5
DF0
331
BF9
  5
EF6
331
D60
  5
DAA
331
E71
  5
CB5
331
C1B
  5
F18
331
D82
  5
DCC
331
EE9
  5
BA3
331
E93
  5
CD7
331
B2C
  5
E31
331
F0B
  5
BC5
331
C3D
  5
F3A
331
B4E
  5
E4F
331
F25
  5
BDF
331
DA4
  5
DEE
331
C57
  5
F54
331
CCF
  5
D19
331
B68
  5
E65
331
F47
  5
C01
331
DBE
  5
E08
331
C79
  5
F76
331
CF1
  5
D3B
331
DE0
  5
E2A
331
B8A
  5
E87
331
C9B
  5
F98
331
D13
  5
D5D
331
E02
  5
C46
331
BAC
  5
EA9
331
CBD
  5
FBA
331
D35
  5
D7F
331
BCE
  5
ECB
331
BE8
  5
EE5
331
D4F
  5
D99
331
EB6
  5
CFA
331
E3E
  5
C82
331
E24
  5
C68
331
D71
  5
DBB
331
ED8
  5
B92
331
C0A
  5
F07
331
E82
  5
CC6
331
E60
  5
CA4
331
F69
  5
C23
331
C2C
  5
F29
331
D93
  5
DDD
331
EA4
  5
CE8
331
B3D
  5
E42
331
F1C
  5
BD6
331
C4E
  5
F4B
331
B5F
  5
E5C
331
F36
  5
BF0
331
DB5
  5
DFF
331
C68
  5
F65
331
CE0
  5
D2A
331
DCF
  5
E19
331
B79
  5
E76
331
F58
  5
C12
331
C8A
  5
F87
331
D02
  5
D4C
331
B9B
  5
E98
331
DF1
  5
C35
331
CAC
  5
FA9
331
D24
  5
D6E
331
BBD
  5
EBA
331
EC7
  5
D0B
331
E4F
  5
C93
331
E13
  5
C57
331
EFA
  5
BB4
331
C19
  5
F16
331
D80
  5
DCA
331
E91
  5
CD5
331
B2A
  5
E2F
331
F09
  5
BC3
331
C3B
  5
F38
331
DA2
  5
DEC
331
B4C
  5
E4D
331
F23
  5
BDD
331
C55
  5
F52
331
CCD
  5
D17
331
DBC
  5
E06
331
B66
  5
E63
331
F45
  5
BFF
331
C77
  5
F74
331
CEF
  5
D39
331
DDE
  5
E28
331
B88
  5
E85
331
C99
  5
F96
331
D11
  5
D5B
331
E00
  5
C44
331
BAA
  5
EA7
331
CBB
  5
FB8
331
D33
  5
D7D
331
BCC
  5
EC9
331
BE6
  5
EE3
331
D4D
  5
D97
331
EB4
  5
CF8
331
E3C
  5
C80
331
E22
  5
C66
331
C08
  5
F05
331
D6F
  5
DB9
331
ED6
  5
B90
331
C2A
  5
F27
331
D91
  5
DDB
331
EF8
  5
BB2
331
E80
  5
CC4
331
B3B
  5
E40
331
F1A
  5
BD4
331
C4C
  5
F49
331
B5D
  5
E5A
331
F34
  5
BEE
331
DB3
  5
DFD
331
C66
  5
F63
331
CDE
  5
D28
331
B77
  5
E74
331
F56
  5
C10
331
DCD
  5
E17
331
C88
  5
F85
331
D00
  5
D4A
331
B99
  5
E96
331
DEF
  5
C33
331
EA2
  5
CE6
331
E5E
  5
CA2
331
CAA
  5
FA7
331
D22
  5
D6C
331
BBB
  5
EB8
331
BF7
  5
EF4
331
D5E
  5
DA8
331
EC5
  5
D09
331
E4D
  5
C91
331
EE7
  5
BA1
331
E6F
  5
CB3
331
E11
  5
C55
331
F67
  5
C21
331
B28
  5
E2D
331
C39
  5
F36
331
DA0
  5
DEA
331
B4A
  5
E4B
331
F21
  5
BDB
331
DBA
  5
E04
331
C53
  5
F50
331
CCB
  5
D15
331
B64
  5
E61
331
F43
  5
BFD
331
DDC
  5
E26
331
C75
  5
F72
331
CED
  5
D37
331
B86
  5
E83
331
C97
  5
F94
331
D0F
  5
D59
331
DFE
  5
C42
331
BA8
  5
EA5
331
F65
  5
C1F
331
CB9
  5
FB6
331
D31
  5
D7B
331
BCA
  5
EC7
331
BE4
  5
EE1
331
D4B
  5
D95
331
EB2
  5
CF6
331
E3A
  5
C7E
331
C06
  5
F03
331
D6D
  5
DB7
331
ED4
  5
B8E
331
E5C
  5
CA0
331
C28
  5
F25
331
D8F
  5
DD9
331
EF6
  5
BB0
331
B39
  5
E3E
331
F18
  5
BD2
331
C4A
  5
F47
331
B5B
  5
E58
331
F32
  5
BEC
331
DB1
  5
DFB
331
C64
  5
F61
331
CDC
  5
D26
331
B75
  5
E72
331
F54
  5
C0E
331
DCB
  5
E15
331
EA0
  5
CE4
331
C86
  5
F83
331
CFE
  5
D48
331
B97
  5
E94
331
DED
  5
C31
331
E7E
  5
CC2
331
E20
  5
C64
331
CA8
  5
FA5
331
D20
  5
D6A
331
BB9
  5
EB6
331
BF5
  5
EF2
331
D5C
  5
DA6
331
EC3
  5
D07
331
E4B
  5
C8F
331
C17
  5
F14
331
D7E
  5
DC8
331
EE5
  5
B9F
331
E6D
  5
CB1
331
F07
  5
BC1
331
E8F
  5
CD3
331
E0F
  5
C53
331
DB8
  5
E02
331
C51
  5
F4E
331
CC9
  5
D13
331
B62
  5
E5F
331
F41
  5
BFB
331
DDA
  5
E24
331
C73
  5
F70
331
CEB
  5
D35
331
B84
  5
E81
331
F63
  5
C1D
331
C95
  5
F92
331
D0D
  5
D57
331
DFC
  5
C40
331
BA6
  5
EA3
331
CB7
  5
FB4
331
D2F
  5
D79
331
BC8
  5
EC5
331
BE2
  5
EDF
331
D49
  5
D93
331
EB0
  5
CF4
331
E38
  5
C7C
331
E1E
  5
C62
331
C04
  5
F01
331
D6B
  5
DB5
331
ED2
  5
B8C
331
C26
  5
F23
331
D8D
  5
DD7
331
EF4
  5
BAE
331
E7C
  5
CC0
331
B37
  5
E3C
331
F16
  5
BD0
331
C48
  5
F45
331
B59
  5
E56
331
F30
  5
BEA
331
DAF
  5
DF9
331
C62
  5
F5F
331
CDA
  5
D24
331
B73
  5
E70
331
F52
  5
C0C
331
DC9
  5
E13
331
C84
  5
F81
331
CFC
  5
D46
331
B95
  5
E92
331
DEB
  5
C2F
331
E9E
  5
CE2
331
E5A
  5
C9E
331
CA6
  5
FA3
331
D1E
  5
D68
331
BB7
  5
EB4
331
E2F
  5
C73
331
BF3
  5
EF0
331
D5A
  5
DA4
331
EC1
  5
D05
331
E49
  5
C8D
331
E6B
  5
CAF
331
C15
  5
F12
331
D7C
  5
DC6
331
EE3
  5
B9D
331
C37
  5
F34
331
D9E
  5
DE8
331
F05
  5
BBF
331
E8D
  5
CD1
331
E0D
  5
C51
331
B60
  5
E5D
331
DD8
  5
E22
331
C71
  5
F6E
331
CE9
  5
D33
331
B82
  5
E7F
331
F61
  5
C1B
331
C93
  5
F90
331
D0B
  5
D55
331
DFA
  5
C3E
331
BA4
  5
EA1
331
CB5
  5
FB2
331
D2D
  5
D77
331
E1C
  5
C60
331
BC6
  5
EC3
331
D47
  5
D91
331
EAE
  5
CF2
331
E36
  5
C7A
331
BE0
  5
EDD
331
E58
  5
C9C
331
D69
  5
DB3
331
ED0
  5
B8A
331
C02
  5
EFF
331
E7A
  5
CBE
331
C24
  5
F21
331
D8B
  5
DD5
331
E9C
  5
CE0
331
B35
  5
E3A
331
F14
  5
BCE
331
C46
  5
F43
331
B57
  5
E54
331
F2E
  5
BE8
331
DAD
  5
DF7
331
C60
  5
F5D
331
CD8
  5
D22
331
DC7
  5
E11
331
B71
  5
E6E
331
F50
  5
C0A
331
C82
  5
F7F
331
CFA
  5
D44
331
B93
  5
E90
331
DE9
  5
C2D
331
CA4
  5
FA1
331
D1C
  5
D66
331
BB5
  5
EB2
331
D3E
  5
D88
331
E2D
  5
C71
331
BD7
  5
ED4
331
BF1
  5
EEE
331
D58
  5
DA2
331
EBF
  5
D03
331
E47
  5
C8B
331
CC6
  5
D10
331
C13
  5
F10
331
D7A
  5
DC4
331
EE1
  5
B9B
331
C35
  5
F32
331
D9C
  5
DE6
331
F03
  5
BBD
331
F3F
  5
BF9
331
E8B
  5
CCF
331
E69
  5
CAD
331
E0B
  5
C4F
331
EF2
  5
BAC
331
B80
  5
E7D
331
C91
  5
F8E
331
D09
  5
D53
331
DF8
  5
C3C
331
BA2
  5
E9F
331
CB3
  5
FB0
331
D2B
  5
D75
331
E1A
  5
C5E
331
BC4
  5
EC1
331
D45
  5
D8F
331
EAC
  5
CF0
331
E34
  5
C78
331
BDE
  5
EDB
331
E56
  5
C9A
331
C00
  5
EFD
331
D67
  5
DB1
331
ECE
  5
B88
331
C22
  5
F1F
331
D89
  5
DD3
331
EF0
  5
BAA
331
E78
  5
CBC
331
B33
  5
E38
331
F12
  5
BCC
331
C44
  5
F41
331
B55
  5
E52
331
F2C
  5
BE6
331
DAB
  5
DF5
331
C5E
  5
F5B
331
CD6
  5
D20
331
B6F
  5
E6C
331
F4E
  5
C08
331
DC5
  5
E0F
331
C80
  5
F7D
331
CF8
  5
D42
331
B91
  5
E8E
331
DE7
  5
C2B
331
E9A
  5
CDE
331
CA2
  5
F9F
331
D1A
  5
D64
331
BB3
  5
EB0
331
D3C
  5
D86
331
E2B
  5
C6F
331
BD5
  5
ED2
331
BEF
  5
EEC
331
D56
  5
DA0
331
EBD
  5
D01
331
E45
  5
C89
331
CC4
  5
D0E
331
C11
  5
F0E
331
D78
  5
DC2
331
EDF
  5
B99
331
C33
  5
F30
331
D9A
  5
DE4
331
F01
  5
BBB
331
DD6
  5
E20
331
F3D
  5
BF7
331
C6F
  5
F6C
331
F5F
  5
C19
331
CE7
  5
D31
331
B44
  5
E49
331
E89
  5
CCD
331
E67
  5
CAB
331
E09
  5
C4D
331
BA0
  5
E9D
331
CB1
  5
FAE
331
D29
  5
D73
331
E18
  5
C5C
331
BC2
  5
EBF
331
D43
  5
D8D
331
EAA
  5
CEE
331
E32
  5
C76
331
BDC
  5
ED9
331
E54
  5
C98
331
BFE
  5
EFB
331
D65
  5
DAF
331
ECC
  5
B86
331
E76
  5
CBA
331
C20
  5
F1D
331
D87
  5
DD1
331
EEE
  5
BA8
331
B31
  5
E36
331
F10
  5
BCA
331
C42
  5
F3F
331
DC3
  5
E0D
331
F2A
  5
BE4
331
DA9
  5
DF3
331
C5C
  5
F59
331
B6D
  5
E6A
331
F4C
  5
C06
331
CD4
  5
D1E
331
E98
  5
CDC
331
C7E
  5
F7B
331
CF6
  5
D40
331
B8F
  5
E8C
331
CA0
  5
F9D
331
D18
  5
D62
331
BB1
  5
EAE
331
D3A
  5
D84
331
E29
  5
C6D
331
E07
  5
C4B
331
BD3
  5
ED0
331
BED
  5
EEA
331
D54
  5
D9E
331
EBB
  5
CFF
331
E43
  5
C87
331
C0F
  5
F0C
331
D76
  5
DC0
331
EDD
  5
B97
331
E65
  5
CA9
331
C31
  5
F2E
331
D98
  5
DE2
331
EFF
  5
BB9
331
DD4
  5
E1E
331
F3B
  5
BF5
331
C6D
  5
F6A
331
B7E
  5
E7B
331
F5D
  5
C17
331
CE5
  5
D2F
331
C8F
  5
F8C
331
D07
  5
D51
331
DF6
  5
C3A
331
B42
  5
E47
331
E87
  5
CCB
331
CC2
  5
D0C
331
DE5
  5
C29
331
BC0
  5
EBD
331
D41
  5
D8B
331
EA8
  5
CEC
331
E30
  5
C74
331
BDA
  5
ED7
331
E52
  5
C96
331
BFC
  5
EF9
331
D63
  5
DAD
331
ECA
  5
B84
331
E74
  5
CB8
331
C1E
  5
F1B
331
D85
  5
DCF
331
EEC
  5
BA6
331
B2F
  5
E34
331
F0E
  5
BC8
331
E96
  5
CDA
331
C40
  5
F3D
331
DA7
  5
DF1
331
DC1
  5
E0B
331
C5A
  5
F57
331
CD2
  5
D1C
331
B6B
  5
E68
331
F4A
  5
C04
331
C7C
  5
F79
331
CF4
  5
D3E
331
DE3
  5
C27
331
B8D
  5
E8A
331
C9E
  5
F9B
331
D16
  5
D60
331
E05
  5
C49
331
BAF
  5
EAC
331
CC0
  5
FBD
331
D38
  5
D82
331
E27
  5
C6B
331
F6C
  5
C26
331
BD1
  5
ECE
331
BEB
  5
EE8
331
D52
  5
D9C
331
EB9
  5
CFD
331
E41
  5
C85
331
C0D
  5
F0A
331
D74
  5
DBE
331
EDB
  5
B95
331
E63
  5
CA7
331
C2F
  5
F2C
331
D96
  5
DE0
331
EFD
  5
BB7
331
E85
  5
CC9
331
B40
  5
E45
331
F1F
  5
BD9
331
DD2
  5
E1C
331
C6B
  5
F68
331
CE3
  5
D2D
331
F39
  5
BF3
331
B7C
  5
E79
331
C8D
  5
F8A
331
D05
  5
D4F
331
DF4
  5
C38
331
B9E
  5
E9B
331
F5B
  5
C15
331
CAF
  5
FAC
331
D27
  5
D71
331
E16
  5
C5A
331
EA7
  5
CEB
331
F28
  5
BE2
331
BD8
  5
ED5
331
E50
  5
C94
331
BFA
  5
EF7
331
D61
  5
DAB
331
EC8
  5
B82
331
E72
  5
CB6
331
C1C
  5
F19
331
D83
  5
DCD
331
EEA
  5
BA4
331
B2D
  5
E32
331
F0C
  5
BC6
331
E94
  5
CD8
331
C3E
  5
F3B
331
B4F
  5
E50
331
F26
  5
BE0
331
DA5
  5
DEF
331
C58
  5
F55
331
CD0
  5
D1A
331
B69
  5
E66
331
F48
  5
C02
331
DBF
  5
E09
331
C7A
  5
F77
331
CF2
  5
D3C
331
DE1
  5
E2B
331
B8B
  5
E88
331
C9C
  5
F99
331
D14
  5
D5E
331
E03
  5
C47
331
BAD
  5
EAA
331
CBE
  5
FBB
331
D36
  5
D80
331
BCF
  5
ECC
331
BE9
  5
EE6
331
D50
  5
D9A
331
EB7
  5
CFB
331
E3F
  5
C83
331
E25
  5
C69
331
C0B
  5
F08
331
D72
  5
DBC
331
ED9
  5
B93
331
E83
  5
CC7
331
E61
  5
CA5
331
F6A
  5
C24
331
C2D
  5
F2A
331
D94
  5
DDE
331
EA5
  5
CE9
331
B3E
  5
E43
331
F1D
  5
BD7
331
C4F
  5
F4C
331
DD0
  5
E1A
331
F37
  5
BF1
331
DB6
  5
E00
331
C69
  5
F66
331
B7A
  5
E77
331
F59
  5
C13
331
CE1
  5
D2B
331
C8B
  5
F88
331
D03
  5
D4D
331
DF2
  5
C36
331
B9C
  5
E99
331
CAD
  5
FAA
331
D25
  5
D6F
331
E14
  5
C58
331
BBE
  5
EBB
331
EFB
  5
BB5
331
BF8
  5
EF5
331
E70
  5
CB4
331
C1A
  5
F17
331
D81
  5
DCB
331
EE8
  5
BA2
331
E92
  5
CD6
331
B2B
  5
E30
331
F0A
  5
BC4
331
C3C
  5
F39
331
B4D
  5
E4E
331
F24
  5
BDE
331
DA3
  5
DED
331
C56
  5
F53
331
CCE
  5
D18
331
DBD
  5
E07
331
B67
  5
E64
331
F46
  5
C00
331
C78
  5
F75
331
CF0
  5
D3A
331
DDF
  5
E29
331
B89
  5
E86
331
C9A
  5
F97
331
D12
  5
D5C
331
E01
  5
C45
331
BAB
  5
EA8
331
CBC
  5
FB9
331
D34
  5
D7E
331
BCD
  5
ECA
331
BE7
  5
EE4
331
D4E
  5
D98
331
EB5
  5
CF9
331
E3D
  5
C81
331
E23
  5
C67
331
C09
  5
F06
331
D70
  5
DBA
331
ED7
  5
B91
331
C2B
  5
F28
331
D92
  5
DDC
331
EF9
  5
BB3
331
E81
  5
CC5
331
B3C
  5
E41
331
F1B
  5
BD5
331
C4D
  5
F4A
331
B5E
  5
E5B
331
F35
  5
BEF
331
DB4
  5
DFE
331
C67
  5
F64
331
CDF
  5
D29
331
B78
  5
E75
331
F57
  5
C11
331
DCE
  5
E18
331
C89
  5
F86
331
D01
  5
D4B
331
B9A
  5
E97
331
DF0
  5
C34
331
EA3
  5
CE7
331
E5F
  5
CA3
331
CAB
  5
FA8
331
D23
  5
D6D
331
BBC
  5
EB9
331
D5F
  5
DA9
331
EC6
  5
D0A
331
E4E
  5
C92
331
E12
  5
C56
331
F68
  5
C22
331
C18
  5
F15
331
E90
  5
CD4
331
B29
  5
E2E
331
F08
  5
BC2
331
C3A
  5
F37
331
DA1
  5
DEB
331
B4B
  5
E4C
331
F22
  5
BDC
331
C54
  5
F51
331
CCC
  5
D16
331
DBB
  5
E05
331
B65
  5
E62
331
F44
  5
BFE
331
C76
  5
F73
331
CEE
  5
D38
331
DDD
  5
E27
331
B87
  5
E84
331
C98
  5
F95
331
D10
  5
D5A
331
DFF
  5
C43
331
BA9
  5
EA6
331
CBA
  5
FB7
331
D32
  5
D7C
331
BCB
  5
EC8
331
BE5
  5
EE2
331
D4C
  5
D96
331
EB3
  5
CF7
331
E3B
  5
C7F
331
E21
  5
C65
331
C07
  5
F04
331
D6E
  5
DB8
331
ED5
  5
B8F
331
C29
  5
F26
331
D90
  5
DDA
331
EF7
  5
BB1
331
E7F
  5
CC3
331
B3A
  5
E3F
331
F19
  5
BD3
331
C4B
  5
F48
331
B5C
  5
E59
331
F33
  5
BED
331
DB2
  5
DFC
331
C65
  5
F62
331
CDD
  5
D27
331
B76
  5
E73
331
F55
  5
C0F
331
DCC
  5
E16
331
C87
  5
F84
331
CFF
  5
D49
331
B98
  5
E95
331
DEE
  5
C32
331
EA1
  5
CE5
331
E5D
  5
CA1
331
CA9
  5
FA6
331
D21
  5
D6B
331
BBA
  5
EB7
331
BF6
  5
EF3
331
D5D
  5
DA7
331
EC4
  5
D08
331
E4C
  5
C90
331
D7F
  5
DC9
331
EE6
  5
BA0
331
E6E
  5
CB2
331
E10
  5
C54
331
F66
  5
C20
331
C38
  5
F35
331
DB9
  5
E03
331
F20
  5
BDA
331
C52
  5
F4F
331
CCA
  5
D14
331
B63
  5
E60
331
F42
  5
BFC
331
DDB
  5
E25
331
C74
  5
F71
331
CEC
  5
D36
331
B85
  5
E82
331
F64
  5
C1E
331
C96
  5
F93
331
D0E
  5
D58
331
DFD
  5
C41
331
BA7
  5
EA4
331
CB8
  5
FB5
331
D30
  5
D7A
331
BC9
  5
EC6
331
BE3
  5
EE0
331
D4A
  5
D94
331
EB1
  5
CF5
331
E39
  5
C7D
331
E1F
  5
C63
331
C05
  5
F02
331
D6C
  5
DB6
331
ED3
  5
B8D
331
C27
  5
F24
331
D8E
  5
DD8
331
EF5
  5
BAF
331
E7D
  5
CC1
331
B38
  5
E3D
331
F17
  5
BD1
331
C49
  5
F46
331
B5A
  5
E57
331
F31
  5
BEB
331
DB0
  5
DFA
331
C63
  5
F60
331
CDB
  5
D25
331
B74
  5
E71
331
F53
  5
C0D
331
DCA
  5
E14
331
C85
  5
F82
331
CFD
  5
D47
331
B96
  5
E93
331
DEC
  5
C30
331
E9F
  5
CE3
331
E5B
  5
C9F
331
CA7
  5
FA4
331
D1F
  5
D69
331
BB8
  5
EB5
331
E0E
  5
C52
331
BF4
  5
EF1
331
D5B
  5
DA5
331
EC2
  5
D06
331
E4A
  5
C8E
331
E6C
  5
CB0
331
C16
  5
F13
331
D7D
  5
DC7
331
EE4
  5
B9E
331
E8E
  5
CD2
331
D9F
  5
DE9
331
F06
  5
BC0
331
C50
  5
F4D
331
CC8
  5
D12
331
B61
  5
E5E
331
F40
  5
BFA
331
DD9
  5
E23
331
C72
  5
F6F
331
CEA
  5
D34
331
B83
  5
E80
331
F62
  5
C1C
331
C94
  5
F91
331
D0C
  5
D56
331
DFB
  5
C3F
331
BA5
  5
EA2
331
CB6
  5
FB3
331
D2E
  5
D78
331
BC7
  5
EC4
331
BE1
  5
EDE
331
D48
  5
D92
331
EAF
  5
CF3
331
E37
  5
C7B
331
E1D
  5
C61
331
C03
  5
F00
331
D6A
  5
DB4
331
ED1
  5
B8B
331
C25
  5
F22
331
D8C
  5
DD6
331
EF3
  5
BAD
331
E7B
  5
CBF
331
B36
  5
E3B
331
F15
  5
BCF
331
C47
  5
F44
331
B58
  5
E55
331
F2F
  5
BE9
331
DAE
  5
DF8
331
C61
  5
F5E
331
CD9
  5
D23
331
B72
  5
E6F
331
F51
  5
C0B
331
DC8
  5
E12
331
C83
  5
F80
331
CFB
  5
D45
331
B94
  5
E91
331
DEA
  5
C2E
331
E9D
  5
CE1
331
E59
  5
C9D
331
CA5
  5
FA2
331
D1D
  5
D67
331
BB6
  5
EB3
331
D3F
  5
D89
331
E2E
  5
C72
331
BF2
  5
EEF
331
D59
  5
DA3
331
EC0
  5
D04
331
E48
  5
C8C
331
CC7
  5
D11
331
C14
  5
F11
331
D7B
  5
DC5
331
EE2
  5
B9C
331
B25
  5
FBF
331
F04
  5
BBE
331
C36
  5
F33
331
D9D
  5
DE7
331
E8C
  5
CD0
331
E6A
  5
CAE
331
E0C
  5
C50
331
C70
  5
F6D
331
CE8
  5
D32
331
B81
  5
E7E
331
F60
  5
C1A
331
C92
  5
F8F
331
D0A
  5
D54
331
DF9
  5
C3D
331
BA3
  5
EA0
331
CB4
  5
FB1
331
D2C
  5
D76
331
E1B
  5
C5F
331
BC5
  5
EC2
331
D46
  5
D90
331
EAD
  5
CF1
331
E35
  5
C79
331
BDF
  5
EDC
331
E57
  5
C9B
331
C01
  5
EFE
331
D68
  5
DB2
331
ECF
  5
B89
331
C23
  5
F20
331
D8A
  5
DD4
331
EF1
  5
BAB
331
E9B
  5
CDF
331
B34
  5
E39
331
F13
  5
BCD
331
C45
  5
F42
331
B56
  5
E53
331
F2D
  5
BE7
331
DAC
  5
DF6
331
C5F
  5
F5C
331
CD7
  5
D21
331
DC6
  5
E10
331
B70
  5
E6D
331
F4F
  5
C09
331
C81
  5
F7E
331
CF9
  5
D43
331
B92
  5
E8F
331
DE8
  5
C2C
331
CA3
  5
FA0
331
D1B
  5
D65
331
BB4
  5
EB1
331
D3D
  5
D87
331
E2C
  5
C70
331
BD6
  5
ED3
331
BF0
  5
EED
331
D57
  5
DA1
331
EBE
  5
D02
331
E46
  5
C8A
331
CC5
  5
D0F
331
D79
  5
DC3
331
EE0
  5
B9A
331
C12
  5
F0F
331
E8A
  5
CCE
331
C34
  5
F31
331
D9B
  5
DE5
331
F02
  5
BBC
331
E68
  5
CAC
331
E0A
  5
C4E
331
DD7
  5
E21
331
F3E
  5
BF8
331
B45
  5
E4A
331
E79
  5
CBD
  0
LAYOUT
  5
F
102
{ACAD_XDICTIONARY
360
1006
102
}
102
{ACAD_REACTORS
330
B
102
}
330
B
100
AcDbPlotSettings
  1

  2
hp deskjet 930c series
  4

  6

 40
0.0
 41
0.0
 42
0.0
 43
0.0
 44
0.0
 45
0.0
 46
0.0
 47
0.0
 48
0.0
 49
0.0
140
0.0
141
0.0
142
1.0
143
1.0
 70
   688
 72
     0
 73
     0
 74
     5
  7
monochrome.ctb
 75
    16
147
1.0
148
0.0
149
0.0
100
AcDbLayout
  1
Layout1
 70
     1
 71
     1
 10
0.0
 20
0.0
 11
420.0
 21
297.0
 12
0.0
 22
0.0
 32
0.0
 14
1.000000000000000E+20
 24
1.000000000000000E+20
 34
1.000000000000000E+20
 15
-1.000000000000000E+20
 25
-1.000000000000000E+20
 35
-1.000000000000000E+20
146
0.0
 13
0.0
 23
0.0
 33
0.0
 16
1.0
 26
0.0
 36
0.0
 17
0.0
 27
1.0
 37
0.0
 76
     0
330
C
  0
LAYOUT
  5
A
102
{ACAD_XDICTIONARY
360
1004
102
}
102
{ACAD_REACTORS
330
B
102
}
330
B
100
AcDbPlotSettings
  1

  2
HP DeskJet 1120C Printer
  4
A4
  6

 40
4.180416584014892
 41
13.49374103546142
 42
4.180404663085937
 43
3.757080078125
 44
209.9733276367187
 45
296.9259948730469
 46
0.0
 47
0.0
 48
232.1274484221087
 49
0.0
140
429.5274484221087
141
279.18
142
1.0
143
1.0
 70
 11952
 72
     1
 73
     0
 74
     4
  7
monochrome.ctb
 75
    16
147
1.0
148
-232.1274484221087
149
0.0
100
AcDbLayout
  1
Model
 70
     1
 71
     0
 10
0.0
 20
0.0
 11
12.0
 21
9.0
 12
0.0
 22
0.0
 32
0.0
 14
0.0
 24
0.0
 34
0.0
 15
0.0
 25
0.0
 35
0.0
146
0.0
 13
0.0
 23
0.0
 33
0.0
 16
1.0
 26
0.0
 36
0.0
 17
0.0
 27
1.0
 37
0.0
 76
     0
330
2
331
630
  0
MATERIAL
  5
63B
102
{ACAD_XDICTIONARY
360
63C
102
}
102
{ACAD_REACTORS
330
632
102
}
330
632
100
AcDbMaterial
  1
ByBlock
 72
     0
 43
0.0008202099737533
 43
0.0
 43
0.0
 43
0.0
 43
0.0
 43
0.0008202099737533
 43
0.0
 43
0.0
 43
0.0
 43
0.0
 43
1.0
 43
0.0
 43
0.0
 43
0.0
 43
0.0
 43
1.0
 77
     0
 47
0.0008202099737533
 47
0.0
 47
0.0
 47
0.0
 47
0.0
 47
0.0008202099737533
 47
0.0
 47
0.0
 47
0.0
 47
0.0
 47
1.0
 47
0.0
 47
0.0
 47
0.0
 47
0.0
 47
1.0
171
     0
 49
0.0008202099737533
 49
0.0
 49
0.0
 49
0.0
 49
0.0
 49
0.0008202099737533
 49
0.0
 49
0.0
 49
0.0
 49
0.0
 49
1.0
 49
0.0
 49
0.0
 49
0.0
 49
0.0
 49
1.0
175
     0
142
0.0008202099737533
142
0.0
142
0.0
142
0.0
142
0.0
142
0.0008202099737533
142
0.0
142
0.0
142
0.0
142
0.0
142
1.0
142
0.0
142
0.0
142
0.0
142
0.0
142
1.0
179
     0
144
0.0008202099737533
144
0.0
144
0.0
144
0.0
144
0.0
144
0.0008202099737533
144
0.0
144
0.0
144
0.0
144
0.0
144
1.0
144
0.0
144
0.0
144
0.0
144
0.0
144
1.0
147
0.0008202099737533
147
0.0
147
0.0
147
0.0
147
0.0
147
0.0008202099737533
147
0.0
147
0.0
147
0.0
147
0.0
147
1.0
147
0.0
147
0.0
147
0.0
147
0.0
147
1.0
  0
MATERIAL
  5
633
102
{ACAD_XDICTIONARY
360
634
102
}
102
{ACAD_REACTORS
330
632
102
}
330
632
100
AcDbMaterial
  1
ByLayer
 72
     0
 43
0.0008202099737533
 43
0.0
 43
0.0
 43
0.0
 43
0.0
 43
0.0008202099737533
 43
0.0
 43
0.0
 43
0.0
 43
0.0
 43
1.0
 43
0.0
 43
0.0
 43
0.0
 43
0.0
 43
1.0
 77
     0
 47
0.0008202099737533
 47
0.0
 47
0.0
 47
0.0
 47
0.0
 47
0.0008202099737533
 47
0.0
 47
0.0
 47
0.0
 47
0.0
 47
1.0
 47
0.0
 47
0.0
 47
0.0
 47
0.0
 47
1.0
171
     0
 49
0.0008202099737533
 49
0.0
 49
0.0
 49
0.0
 49
0.0
 49
0.0008202099737533
 49
0.0
 49
0.0
 49
0.0
 49
0.0
 49
1.0
 49
0.0
 49
0.0
 49
0.0
 49
0.0
 49
1.0
175
     0
142
0.0008202099737533
142
0.0
142
0.0
142
0.0
142
0.0
142
0.0008202099737533
142
0.0
142
0.0
142
0.0
142
0.0
142
1.0
142
0.0
142
0.0
142
0.0
142
0.0
142
1.0
179
     0
144
0.0008202099737533
144
0.0
144
0.0
144
0.0
144
0.0
144
0.0008202099737533
144
0.0
144
0.0
144
0.0
144
0.0
144
1.0
144
0.0
144
0.0
144
0.0
144
0.0
144
1.0
147
0.0008202099737533
147
0.0
147
0.0
147
0.0
147
0.0
147
0.0008202099737533
147
0.0
147
0.0
147
0.0
147
0.0
147
1.0
147
0.0
147
0.0
147
0.0
147
0.0
147
1.0
  0
MATERIAL
  5
643
102
{ACAD_XDICTIONARY
360
644
102
}
102
{ACAD_REACTORS
330
632
102
}
330
632
100
AcDbMaterial
  1
Global
 72
     0
 43
0.0008202099737533
 43
0.0
 43
0.0
 43
0.0
 43
0.0
 43
0.0008202099737533
 43
0.0
 43
0.0
 43
0.0
 43
0.0
 43
1.0
 43
0.0
 43
0.0
 43
0.0
 43
0.0
 43
1.0
 77
     0
 47
0.0008202099737533
 47
0.0
 47
0.0
 47
0.0
 47
0.0
 47
0.0008202099737533
 47
0.0
 47
0.0
 47
0.0
 47
0.0
 47
1.0
 47
0.0
 47
0.0
 47
0.0
 47
0.0
 47
1.0
171
     0
 49
0.0008202099737533
 49
0.0
 49
0.0
 49
0.0
 49
0.0
 49
0.0008202099737533
 49
0.0
 49
0.0
 49
0.0
 49
0.0
 49
1.0
 49
0.0
 49
0.0
 49
0.0
 49
0.0
 49
1.0
175
     0
142
0.0008202099737533
142
0.0
142
0.0
142
0.0
142
0.0
142
0.0008202099737533
142
0.0
142
0.0
142
0.0
142
0.0
142
1.0
142
0.0
142
0.0
142
0.0
142
0.0
142
1.0
179
     0
144
0.0008202099737533
144
0.0
144
0.0
144
0.0
144
0.0
144
0.0008202099737533
144
0.0
144
0.0
144
0.0
144
0.0
144
1.0
144
0.0
144
0.0
144
0.0
144
0.0
144
1.0
147
0.0008202099737533
147
0.0
147
0.0
147
0.0
147
0.0
147
0.0008202099737533
147
0.0
147
0.0
147
0.0
147
0.0
147
1.0
147
0.0
147
0.0
147
0.0
147
0.0
147
1.0
  0
MLEADERSTYLE
  5
682
102
{ACAD_REACTORS
330
681
102
}
330
681
100
AcDbMLeaderStyle
170
     2
171
     1
172
     0
 90
        2
 40
0.0
 41
0.0
173
     1
 91
-1056964608
340
15
 92
       -2
290
     1
 42
2.0
291
     1
 43
0.36
  3
Standard
 44
4.0
300

342
12
174
     1
178
     6
175
     1
176
     0
 93
-1056964608
 45
4.0
292
     0
297
     0
 46
4.0
 94
-1056964608
 47
1.0
 49
1.0
140
1.0
293
     1
141
0.0
294
     1
177
     0
142
1.0
295
     0
296
     0
143
0.125
1001
ACAD_MLEADERVER
1070
     2
  0
MLINESTYLE
  5
23
102
{ACAD_REACTORS
330
21
102
}
330
21
100
AcDbMlineStyle
  2
STANDARD
 70
     0
  3

 62
   256
 51
90.0
 52
90.0
 71
     2
 49
0.5
 62
   256
  6
BYLAYER
 49
-0.5
 62
   256
  6
BYLAYER
  0
ACDBPLACEHOLDER
  5
5
102
{ACAD_REACTORS
330
6
102
}
330
6
  0
SCALE
  5
660
102
{ACAD_REACTORS
330
65F
102
}
330
65F
100
AcDbScale
 70
     0
300
1:1
140
1.0
141
1.0
290
     1
  0
SCALE
  5
661
102
{ACAD_REACTORS
330
65F
102
}
330
65F
100
AcDbScale
 70
     0
300
1:2
140
1.0
141
2.0
290
     0
  0
SCALE
  5
662
102
{ACAD_REACTORS
330
65F
102
}
330
65F
100
AcDbScale
 70
     0
300
1:4
140
1.0
141
4.0
290
     0
  0
SCALE
  5
663
102
{ACAD_REACTORS
330
65F
102
}
330
65F
100
AcDbScale
 70
     0
300
1:5
140
1.0
141
5.0
290
     0
  0
SCALE
  5
664
102
{ACAD_REACTORS
330
65F
102
}
330
65F
100
AcDbScale
 70
     0
300
1:8
140
1.0
141
8.0
290
     0
  0
SCALE
  5
665
102
{ACAD_REACTORS
330
65F
102
}
330
65F
100
AcDbScale
 70
     0
300
1:10
140
1.0
141
10.0
290
     0
  0
SCALE
  5
666
102
{ACAD_REACTORS
330
65F
102
}
330
65F
100
AcDbScale
 70
     0
300
1:16
140
1.0
141
16.0
290
     0
  0
SCALE
  5
667
102
{ACAD_REACTORS
330
65F
102
}
330
65F
100
AcDbScale
 70
     0
300
1:20
140
1.0
141
20.0
290
     0
  0
SCALE
  5
668
102
{ACAD_REACTORS
330
65F
102
}
330
65F
100
AcDbScale
 70
     0
300
1:30
140
1.0
141
30.0
290
     0
  0
SCALE
  5
669
102
{ACAD_REACTORS
330
65F
102
}
330
65F
100
AcDbScale
 70
     0
300
1:40
140
1.0
141
40.0
290
     0
  0
SCALE
  5
66A
102
{ACAD_REACTORS
330
65F
102
}
330
65F
100
AcDbScale
 70
     0
300
1:50
140
1.0
141
50.0
290
     0
  0
SCALE
  5
66B
102
{ACAD_REACTORS
330
65F
102
}
330
65F
100
AcDbScale
 70
     0
300
1:100
140
1.0
141
100.0
290
     0
  0
SCALE
  5
66C
102
{ACAD_REACTORS
330
65F
102
}
330
65F
100
AcDbScale
 70
     0
300
2:1
140
2.0
141
1.0
290
     0
  0
SCALE
  5
66D
102
{ACAD_REACTORS
330
65F
102
}
330
65F
100
AcDbScale
 70
     0
300
4:1
140
4.0
141
1.0
290
     0
  0
SCALE
  5
66E
102
{ACAD_REACTORS
330
65F
102
}
330
65F
100
AcDbScale
 70
     0
300
8:1
140
8.0
141
1.0
290
     0
  0
SCALE
  5
66F
102
{ACAD_REACTORS
330
65F
102
}
330
65F
100
AcDbScale
 70
     0
300
10:1
140
10.0
141
1.0
290
     0
  0
SCALE
  5
670
102
{ACAD_REACTORS
330
65F
102
}
330
65F
100
AcDbScale
 70
     0
300
100:1
140
100.0
141
1.0
290
     0
  0
SCALE
  5
671
102
{ACAD_REACTORS
330
65F
102
}
330
65F
100
AcDbScale
 70
     0
300
1/128" = 1'-0"
140
0.0078125
141
12.0
290
     0
  0
SCALE
  5
672
102
{ACAD_REACTORS
330
65F
102
}
330
65F
100
AcDbScale
 70
     0
300
1/64" = 1'-0"
140
0.015625
141
12.0
290
     0
  0
SCALE
  5
673
102
{ACAD_REACTORS
330
65F
102
}
330
65F
100
AcDbScale
 70
     0
300
1/32" = 1'-0"
140
0.03125
141
12.0
290
     0
  0
SCALE
  5
674
102
{ACAD_REACTORS
330
65F
102
}
330
65F
100
AcDbScale
 70
     0
300
1/16" = 1'-0"
140
0.0625
141
12.0
290
     0
  0
SCALE
  5
675
102
{ACAD_REACTORS
330
65F
102
}
330
65F
100
AcDbScale
 70
     0
300
3/32" = 1'-0"
140
0.09375
141
12.0
290
     0
  0
SCALE
  5
676
102
{ACAD_REACTORS
330
65F
102
}
330
65F
100
AcDbScale
 70
     0
300
1/8" = 1'-0"
140
0.125
141
12.0
290
     0
  0
SCALE
  5
677
102
{ACAD_REACTORS
330
65F
102
}
330
65F
100
AcDbScale
 70
     0
300
3/16" = 1'-0"
140
0.1875
141
12.0
290
     0
  0
SCALE
  5
678
102
{ACAD_REACTORS
330
65F
102
}
330
65F
100
AcDbScale
 70
     0
300
1/4" = 1'-0"
140
0.25
141
12.0
290
     0
  0
SCALE
  5
679
102
{ACAD_REACTORS
330
65F
102
}
330
65F
100
AcDbScale
 70
     0
300
3/8" = 1'-0"
140
0.375
141
12.0
290
     0
  0
SCALE
  5
67A
102
{ACAD_REACTORS
330
65F
102
}
330
65F
100
AcDbScale
 70
     0
300
1/2" = 1'-0"
140
0.5
141
12.0
290
     0
  0
SCALE
  5
67B
102
{ACAD_REACTORS
330
65F
102
}
330
65F
100
AcDbScale
 70
     0
300
3/4" = 1'-0"
140
0.75
141
12.0
290
     0
  0
SCALE
  5
67C
102
{ACAD_REACTORS
330
65F
102
}
330
65F
100
AcDbScale
 70
     0
300
1" = 1'-0"
140
1.0
141
12.0
290
     0
  0
SCALE
  5
67D
102
{ACAD_REACTORS
330
65F
102
}
330
65F
100
AcDbScale
 70
     0
300
1-1/2" = 1'-0"
140
1.5
141
12.0
290
     0
  0
SCALE
  5
67E
102
{ACAD_REACTORS
330
65F
102
}
330
65F
100
AcDbScale
 70
     0
300
3" = 1'-0"
140
3.0
141
12.0
290
     0
  0
SCALE
  5
67F
102
{ACAD_REACTORS
330
65F
102
}
330
65F
100
AcDbScale
 70
     0
300
6" = 1'-0"
140
6.0
141
12.0
290
     0
  0
SCALE
  5
680
102
{ACAD_REACTORS
330
65F
102
}
330
65F
100
AcDbScale
 70
     0
300
1'-0" = 1'-0"
140
12.0
141
12.0
290
     0
  0
TABLESTYLE
  5
65E
102
{ACAD_XDICTIONARY
360
69E
102
}
102
{ACAD_REACTORS
330
65D
102
}
330
65D
100
AcDbTableStyle
  3
Standard
 70
     0
 71
     0
 40
1.5
 41
1.5
280
     0
281
     0
  7
Standard
140
4.5
170
     2
 62
     0
 63
     7
283
     0
274
    -2
284
     1
 64
     0
275
    -2
285
     1
 65
     0
276
    -2
286
     1
 66
     0
277
    -2
287
     1
 67
     0
278
    -2
288
     1
 68
     0
279
    -2
289
     1
 69
     0
  7
Standard
140
6.0
170
     5
 62
     0
 63
     7
283
     0
274
    -2
284
     1
 64
     0
275
    -2
285
     1
 65
     0
276
    -2
286
     1
 66
     0
277
    -2
287
     1
 67
     0
278
    -2
288
     1
 68
     0
279
    -2
289
     1
 69
     0
  7
Standard
140
4.5
170
     5
 62
     0
 63
     7
283
     0
274
    -2
284
     1
 64
     0
275
    -2
285
     1
 65
     0
276
    -2
286
     1
 66
     0
277
    -2
287
     1
 67
     0
278
    -2
288
     1
 68
     0
279
    -2
289
     1
 69
     0
  0
VISUALSTYLE
  5
651
102
{ACAD_REACTORS
330
64B
102
}
330
64B
100
AcDbVisualStyle
  2
2dWireframe
 70
     4
 71
     0
 72
     2
 73
     0
 90
        0
 40
-0.6
 41
-30.0
 62
     5
 63
     7
 74
     1
 91
        4
 64
     7
 65
   257
 75
     1
175
     1
 42
1.0
 92
        0
 66
   257
 43
1.0
 76
     1
 77
     6
 78
     2
 67
     7
 79
     5
170
     0
171
     0
290
     0
174
     0
 93
        1
 44
0.0
173
     0
291
     0
 45
0.0
1001
ACAD
1000
AcDbSavedByObjectVersion
1070
     0
  0
VISUALSTYLE
  5
653
102
{ACAD_REACTORS
330
64B
102
}
330
64B
100
AcDbVisualStyle
  2
3D Hidden
 70
     6
 71
     1
 72
     2
 73
     2
 90
        0
 40
-0.6
 41
-30.0
 62
     5
 63
     7
 74
     2
 91
        2
 64
     7
 65
   257
 75
     2
175
     1
 42
40.0
 92
        0
 66
   257
 43
1.0
 76
     1
 77
     6
 78
     2
 67
     7
 79
     3
170
     0
171
     0
290
     0
174
     0
 93
        1
 44
0.0
173
     0
291
     0
 45
0.0
1001
ACAD
1000
AcDbSavedByObjectVersion
1070
     0
  0
VISUALSTYLE
  5
652
102
{ACAD_REACTORS
330
64B
102
}
330
64B
100
AcDbVisualStyle
  2
3dWireframe
 70
     5
 71
     0
 72
     2
 73
     0
 90
        0
 40
-0.6
 41
-30.0
 62
     5
 63
     7
 74
     1
 91
        4
 64
     7
 65
   257
 75
     1
175
     1
 42
1.0
 92
        0
 66
   257
 43
1.0
 76
     1
 77
     6
 78
     2
 67
     7
 79
     5
170
     0
171
     0
290
     0
174
     0
 93
        1
 44
0.0
173
     0
291
     0
 45
0.0
1001
ACAD
1000
AcDbSavedByObjectVersion
1070
     0
  0
VISUALSTYLE
  5
650
102
{ACAD_REACTORS
330
64B
102
}
330
64B
100
AcDbVisualStyle
  2
Basic
 70
     7
 71
     1
 72
     0
 73
     1
 90
        0
 40
-0.6
 41
-30.0
 62
     5
 63
     7
 74
     0
 91
        4
 64
     7
 65
   257
 75
     1
175
     1
 42
1.0
 92
        8
 66
     7
 43
1.0
 76
     1
 77
     6
 78
     2
 67
     7
 79
     5
170
     0
171
     0
290
     0
174
     0
 93
        1
 44
0.0
173
     0
291
     1
 45
0.0
1001
ACAD
1000
AcDbSavedByObjectVersion
1070
     0
  0
VISUALSTYLE
  5
657
102
{ACAD_REACTORS
330
64B
102
}
330
64B
100
AcDbVisualStyle
  2
Brighten
 70
    12
 71
     2
 72
     2
 73
     0
 90
        0
 40
-0.6
 41
-30.0
 62
     5
 63
     7
 74
     1
 91
        4
 64
     7
 65
   257
 75
     1
175
     1
 42
1.0
 92
        8
 66
     7
 43
1.0
 76
     1
 77
     6
 78
     2
 67
     7
 79
     5
170
     0
171
     0
290
     0
174
     0
 93
        1
 44
50.0
173
     0
291
     1
 45
0.0
1001
ACAD
1000
AcDbSavedByObjectVersion
1070
     0
  0
VISUALSTYLE
  5
65B
102
{ACAD_REACTORS
330
64B
102
}
330
64B
100
AcDbVisualStyle
  2
ColorChange
 70
    16
 71
     2
 72
     2
 73
     3
 90
        0
 40
-0.6
 41
-30.0
 62
     5
 63
     8
 74
     1
 91
        4
 64
     7
 65
   257
 75
     1
175
     1
 42
1.0
 92
        8
 66
     8
 43
1.0
 76
     1
 77
     6
 78
     2
 67
     7
 79
     5
170
     0
171
     0
290
     0
174
     0
 93
        1
 44
0.0
173
     0
291
     1
 45
0.0
1001
ACAD
1000
AcDbSavedByObjectVersion
1070
     0
  0
VISUALSTYLE
  5
654
102
{ACAD_REACTORS
330
64B
102
}
330
64B
100
AcDbVisualStyle
  2
Conceptual
 70
     9
 71
     3
 72
     2
 73
     0
 90
        0
 40
-0.6
 41
-30.0
 62
     5
 63
     7
 74
     2
 91
        2
 64
     7
 65
   257
 75
     1
175
     1
 42
40.0
 92
        8
 66
     7
 43
1.0
 76
     1
 77
     6
 78
     2
 67
     7
 79
     3
170
     0
171
     0
290
     0
174
     0
 93
        1
 44
0.0
173
     0
291
     0
 45
0.0
1001
ACAD
1000
AcDbSavedByObjectVersion
1070
     0
  0
VISUALSTYLE
  5
656
102
{ACAD_REACTORS
330
64B
102
}
330
64B
100
AcDbVisualStyle
  2
Dim
 70
    11
 71
     2
 72
     2
 73
     0
 90
        0
 40
-0.6
 41
-30.0
 62
     5
 63
     7
 74
     1
 91
        4
 64
     7
 65
   257
 75
     1
175
     1
 42
1.0
 92
        8
 66
     7
 43
1.0
 76
     1
 77
     6
 78
     2
 67
     7
 79
     5
170
     0
171
     0
290
     0
174
     0
 93
        1
 44
-50.0
173
     0
291
     1
 45
0.0
1001
ACAD
1000
AcDbSavedByObjectVersion
1070
     0
  0
VISUALSTYLE
  5
65A
102
{ACAD_REACTORS
330
64B
102
}
330
64B
100
AcDbVisualStyle
  2
Facepattern
 70
    15
 71
     2
 72
     2
 73
     0
 90
        0
 40
-0.6
 41
-30.0
 62
     5
 63
     7
 74
     1
 91
        4
 64
     7
 65
   257
 75
     1
175
     1
 42
1.0
 92
        8
 66
     7
 43
1.0
 76
     1
 77
     6
 78
     2
 67
     7
 79
     5
170
     0
171
     0
290
     0
174
     0
 93
        1
 44
0.0
173
     0
291
     1
 45
0.0
1001
ACAD
1000
AcDbSavedByObjectVersion
1070
     0
  0
VISUALSTYLE
  5
64C
102
{ACAD_REACTORS
330
64B
102
}
330
64B
100
AcDbVisualStyle
  2
Flat
 70
     0
 71
     2
 72
     1
 73
     1
 90
        2
 40
-0.6
 41
30.0
 62
     5
 63
     7
 74
     0
 91
        4
 64
     7
 65
   257
 75
     1
175
     1
 42
1.0
 92
        8
 66
     7
 43
1.0
 76
     1
 77
     6
 78
     2
 67
     7
 79
     5
170
     0
171
     0
290
     0
174
     0
 93
       13
 44
0.0
173
     0
291
     1
 45
0.0
1001
ACAD
1000
AcDbSavedByObjectVersion
1070
     0
  0
VISUALSTYLE
  5
64D
102
{ACAD_REACTORS
330
64B
102
}
330
64B
100
AcDbVisualStyle
  2
FlatWithEdges
 70
     1
 71
     2
 72
     1
 73
     1
 90
        2
 40
-0.6
 41
30.0
 62
     5
 63
     7
 74
     1
 91
        4
 64
     7
 65
   257
 75
     1
175
     1
 42
1.0
 92
        0
 66
   257
 43
1.0
 76
     1
 77
     6
 78
     2
 67
     7
 79
     5
170
     0
171
     0
290
     0
174
     0
 93
       13
 44
0.0
173
     0
291
     1
 45
0.0
1001
ACAD
1000
AcDbSavedByObjectVersion
1070
     0
  0
VISUALSTYLE
  5
64E
102
{ACAD_REACTORS
330
64B
102
}
330
64B
100
AcDbVisualStyle
  2
Gouraud
 70
     2
 71
     2
 72
     2
 73
     1
 90
        2
 40
-0.6
 41
30.0
 62
     5
 63
     7
 74
     0
 91
        4
 64
     7
 65
   257
 75
     1
175
     1
 42
1.0
 92
        0
 66
     7
 43
1.0
 76
     1
 77
     6
 78
     2
 67
     7
 79
     5
170
     0
171
     0
290
     0
174
     0
 93
       13
 44
0.0
173
     0
291
     1
 45
0.0
1001
ACAD
1000
AcDbSavedByObjectVersion
1070
     0
  0
VISUALSTYLE
  5
64F
102
{ACAD_REACTORS
330
64B
102
}
330
64B
100
AcDbVisualStyle
  2
GouraudWithEdges
 70
     3
 71
     2
 72
     2
 73
     1
 90
        2
 40
-0.6
 41
30.0
 62
     5
 63
     7
 74
     1
 91
        4
 64
     7
 65
   257
 75
     1
175
     1
 42
1.0
 92
        0
 66
   257
 43
1.0
 76
     1
 77
     6
 78
     2
 67
     7
 79
     5
170
     0
171
     0
290
     0
174
     0
 93
       13
 44
0.0
173
     0
291
     1
 45
0.0
1001
ACAD
1000
AcDbSavedByObjectVersion
1070
     0
  0
VISUALSTYLE
  5
659
102
{ACAD_REACTORS
330
64B
102
}
330
64B
100
AcDbVisualStyle
  2
Linepattern
 70
    14
 71
     2
 72
     2
 73
     0
 90
        0
 40
-0.6
 41
-30.0
 62
     5
 63
     7
 74
     1
 91
        4
 64
     7
 65
   257
 75
     7
175
     7
 42
1.0
 92
        8
 66
     7
 43
1.0
 76
     1
 77
     6
 78
     2
 67
     7
 79
     5
170
     0
171
     0
290
     0
174
     0
 93
        1
 44
0.0
173
     0
291
     1
 45
0.0
1001
ACAD
1000
AcDbSavedByObjectVersion
1070
     0
  0
VISUALSTYLE
  5
655
102
{ACAD_REACTORS
330
64B
102
}
330
64B
100
AcDbVisualStyle
  2
Realistic
 70
     8
 71
     2
 72
     2
 73
     0
 90
        0
 40
-0.6
 41
-30.0
 62
     5
 63
     7
 74
     1
 91
        0
 64
     7
 65
   257
 75
     1
175
     1
 42
1.0
 92
        8
 66
     8
 43
1.0
 76
     1
 77
     6
 78
     2
 67
     7
 79
     5
170
     0
171
     0
290
     0
174
     0
 93
       13
 44
0.0
173
     0
291
     0
 45
0.0
1001
ACAD
1000
AcDbSavedByObjectVersion
1070
     0
  0
VISUALSTYLE
  5
658
102
{ACAD_REACTORS
330
64B
102
}
330
64B
100
AcDbVisualStyle
  2
Thicken
 70
    13
 71
     2
 72
     2
 73
     0
 90
        0
 40
-0.6
 41
-30.0
 62
     5
 63
     7
 74
     1
 91
        4
 64
     7
 65
   257
 75
     1
175
     1
 42
1.0
 92
       12
 66
     7
 43
1.0
 76
     1
 77
     6
 78
     2
 67
     7
 79
     5
170
     0
171
     0
290
     0
174
     0
 93
        1
 44
0.0
173
     0
291
     1
 45
0.0
1001
ACAD
1000
AcDbSavedByObjectVersion
1070
     0
  0
DICTIONARYVAR
  5
6A5
102
{ACAD_REACTORS
330
6A1
102
}
330
6A1
100
DictionaryVariables
280
     0
  1
1:1
  0
DICTIONARYVAR
  5
6A3
102
{ACAD_REACTORS
330
6A1
102
}
330
6A1
100
DictionaryVariables
280
     0
  1
STANDARD
  0
DICTIONARYVAR
  5
6A2
102
{ACAD_REACTORS
330
6A1
102
}
330
6A1
100
DictionaryVariables
280
     0
  1
STANDARD
  0
DICTIONARYVAR
  5
B13
102
{ACAD_REACTORS
330
6A1
102
}
330
6A1
100
DictionaryVariables
280
     0
  1
1
  0
DICTIONARYVAR
  5
B12
102
{ACAD_REACTORS
330
6A1
102
}
330
6A1
100
DictionaryVariables
280
     0
  1
0
  0
DICTIONARYVAR
  5
6A6
102
{ACAD_REACTORS
330
6A1
102
}
330
6A1
100
DictionaryVariables
280
     0
  1
0
  0
DICTIONARYVAR
  5
6A4
102
{ACAD_REACTORS
330
6A1
102
}
330
6A1
100
DictionaryVariables
280
     0
  1
0
  0
DICTIONARYVAR
  5
B11
102
{ACAD_REACTORS
330
6A1
102
}
330
6A1
100
DictionaryVariables
280
     0
  1
127
  0
XRECORD
  5
69D
102
{ACAD_REACTORS
330
69B
102
}
330
69B
100
AcDbXrecord
280
     1
330
39
330
F2
  0
DICTIONARY
  5
1006
330
F
100
AcDbDictionary
280
     1
281
     1
  3
ACAD_XREC_ROUNDTRIP
360
1007
  0
DICTIONARY
  5
1004
330
A
100
AcDbDictionary
280
     1
281
     1
  3
ACAD_XREC_ROUNDTRIP
360
1005
  0
DICTIONARY
  5
63C
330
63B
100
AcDbDictionary
280
     1
281
     1
  3
ACAD_XREC_ROUNDTRIP
360
100C
  3
BUMPTILE
360
63E
  3
DIFFUSETILE
360
63D
  3
OPACITYTILE
360
641
  3
REFLECTIONTILE
360
640
  3
REFRACTIONTILE
360
642
  3
SPECULARTILE
360
63F
  0
DICTIONARY
  5
634
330
633
100
AcDbDictionary
280
     1
281
     1
  3
ACAD_XREC_ROUNDTRIP
360
100B
  3
BUMPTILE
360
636
  3
DIFFUSETILE
360
635
  3
OPACITYTILE
360
639
  3
REFLECTIONTILE
360
638
  3
REFRACTIONTILE
360
63A
  3
SPECULARTILE
360
637
  0
DICTIONARY
  5
644
330
643
100
AcDbDictionary
280
     1
281
     1
  3
ACAD_XREC_ROUNDTRIP
360
100D
  3
BUMPTILE
360
646
  3
DIFFUSETILE
360
645
  3
OPACITYTILE
360
649
  3
REFLECTIONTILE
360
648
  3
REFRACTIONTILE
360
64A
  3
SPECULARTILE
360
647
  0
DICTIONARY
  5
69E
330
65E
100
AcDbDictionary
280
     1
281
     1
  3
ACAD_ROUNDTRIP_2008_TABLESTYLE_CELLSTYLEMAP
360
1002
  3
ACAD_XREC_ROUNDTRIP
360
100E
  0
XRECORD
  5
1007
102
{ACAD_REACTORS
330
1006
102
}
330
1006
100
AcDbXrecord
280
     1
102
SHADEPLOT
 70
     0
102
SHADEPLOTRESLEVEL
 70
     2
102
SHADEPLOTCUSTOMDPI
 70
   300
  0
XRECORD
  5
1005
102
{ACAD_REACTORS
330
1004
102
}
330
1004
100
AcDbXrecord
280
     1
102
SHADEPLOT
 70
     0
102
SHADEPLOTRESLEVEL
 70
     2
102
SHADEPLOTCUSTOMDPI
 70
   300
  0
XRECORD
  5
100C
102
{ACAD_REACTORS
330
63C
102
}
330
63C
100
AcDbXrecord
280
     1
102
MATERIAL
148
0.0
149
0.0
149
0.0
 93
        0
 94
      127
282
     0
 72
     0
 77
     0
171
     0
175
     0
179
     0
273
     0
  0
XRECORD
  5
63E
102
{ACAD_REACTORS
330
63C
102
}
330
63C
100
AcDbXrecord
280
     1
270
     1
271
     1
  0
XRECORD
  5
63D
102
{ACAD_REACTORS
330
63C
102
}
330
63C
100
AcDbXrecord
280
     1
270
     1
271
     1
  0
XRECORD
  5
641
102
{ACAD_REACTORS
330
63C
102
}
330
63C
100
AcDbXrecord
280
     1
270
     1
271
     1
  0
XRECORD
  5
640
102
{ACAD_REACTORS
330
63C
102
}
330
63C
100
AcDbXrecord
280
     1
270
     1
271
     1
  0
XRECORD
  5
642
102
{ACAD_REACTORS
330
63C
102
}
330
63C
100
AcDbXrecord
280
     1
270
     1
271
     1
  0
XRECORD
  5
63F
102
{ACAD_REACTORS
330
63C
102
}
330
63C
100
AcDbXrecord
280
     1
270
     1
271
     1
  0
XRECORD
  5
100B
102
{ACAD_REACTORS
330
634
102
}
330
634
100
AcDbXrecord
280
     1
102
MATERIAL
148
0.0
149
0.0
149
0.0
 93
        0
 94
      127
282
     0
 72
     0
 77
     0
171
     0
175
     0
179
     0
273
     0
  0
XRECORD
  5
636
102
{ACAD_REACTORS
330
634
102
}
330
634
100
AcDbXrecord
280
     1
270
     1
271
     1
  0
XRECORD
  5
635
102
{ACAD_REACTORS
330
634
102
}
330
634
100
AcDbXrecord
280
     1
270
     1
271
     1
  0
XRECORD
  5
639
102
{ACAD_REACTORS
330
634
102
}
330
634
100
AcDbXrecord
280
     1
270
     1
271
     1
  0
XRECORD
  5
638
102
{ACAD_REACTORS
330
634
102
}
330
634
100
AcDbXrecord
280
     1
270
     1
271
     1
  0
XRECORD
  5
63A
102
{ACAD_REACTORS
330
634
102
}
330
634
100
AcDbXrecord
280
     1
270
     1
271
     1
  0
XRECORD
  5
637
102
{ACAD_REACTORS
330
634
102
}
330
634
100
AcDbXrecord
280
     1
270
     1
271
     1
  0
XRECORD
  5
100D
102
{ACAD_REACTORS
330
644
102
}
330
644
100
AcDbXrecord
280
     1
102
MATERIAL
148
0.0
149
0.0
149
0.0
 93
        0
 94
      127
282
     0
 72
     0
 77
     0
171
     0
175
     0
179
     0
273
     0
  0
XRECORD
  5
646
102
{ACAD_REACTORS
330
644
102
}
330
644
100
AcDbXrecord
280
     1
270
     1
271
     1
  0
XRECORD
  5
645
102
{ACAD_REACTORS
330
644
102
}
330
644
100
AcDbXrecord
280
     1
270
     1
271
     1
  0
XRECORD
  5
649
102
{ACAD_REACTORS
330
644
102
}
330
644
100
AcDbXrecord
280
     1
270
     1
271
     1
  0
XRECORD
  5
648
102
{ACAD_REACTORS
330
644
102
}
330
644
100
AcDbXrecord
280
     1
270
     1
271
     1
  0
XRECORD
  5
64A
102
{ACAD_REACTORS
330
644
102
}
330
644
100
AcDbXrecord
280
     1
270
     1
271
     1
  0
XRECORD
  5
647
102
{ACAD_REACTORS
330
644
102
}
330
644
100
AcDbXrecord
280
     1
270
     1
271
     1
  0
CELLSTYLEMAP
  5
1002
102
{ACAD_REACTORS
330
69E
102
}
330
69E
100
AcDbCellStyleMap
 90
        3
300
CELLSTYLE
  1
TABLEFORMAT_BEGIN
 90
        5
170
     1
 91
        0
 92
    32768
 62
   257
 93
        1
300
CONTENTFORMAT
  1
CONTENTFORMAT_BEGIN
 90
        0
 91
        0
 92
      512
 93
        0
300

 40
0.0
140
1.0
 94
        5
 62
     0
340
12
144
6.0
309
CONTENTFORMAT_END
171
     1
301
MARGIN
  1
CELLMARGIN_BEGIN
 40
1.5
 40
1.5
 40
1.5
 40
1.5
 40
4.5
 40
4.5
309
CELLMARGIN_END
 94
        6
 95
        1
302
GRIDFORMAT
  1
GRIDFORMAT_BEGIN
 90
        0
 91
        1
 62
     0
 92
       -2
340
0
 93
        0
 40
1.125
309
GRIDFORMAT_END
 95
        2
302
GRIDFORMAT
  1
GRIDFORMAT_BEGIN
 90
        0
 91
        1
 62
     0
 92
       -2
340
0
 93
        0
 40
1.125
309
GRIDFORMAT_END
 95
        4
302
GRIDFORMAT
  1
GRIDFORMAT_BEGIN
 90
        0
 91
        1
 62
     0
 92
       -2
340
0
 93
        0
 40
1.125
309
GRIDFORMAT_END
 95
        8
302
GRIDFORMAT
  1
GRIDFORMAT_BEGIN
 90
        0
 91
        1
 62
     0
 92
       -2
340
0
 93
        0
 40
1.125
309
GRIDFORMAT_END
 95
       16
302
GRIDFORMAT
  1
GRIDFORMAT_BEGIN
 90
        0
 91
        1
 62
     0
 92
       -2
340
0
 93
        0
 40
1.125
309
GRIDFORMAT_END
 95
       32
302
GRIDFORMAT
  1
GRIDFORMAT_BEGIN
 90
        0
 91
        1
 62
     0
 92
       -2
340
0
 93
        0
 40
1.125
309
GRIDFORMAT_END
309
TABLEFORMAT_END
  1
CELLSTYLE_BEGIN
 90
        1
 91
        1
300
_TITLE
309
CELLSTYLE_END
300
CELLSTYLE
  1
TABLEFORMAT_BEGIN
 90
        5
170
     1
 91
        0
 92
        0
 62
   257
 93
        1
300
CONTENTFORMAT
  1
CONTENTFORMAT_BEGIN
 90
        0
 91
        0
 92
      512
 93
        0
300

 40
0.0
140
1.0
 94
        5
 62
     0
340
12
144
4.5
309
CONTENTFORMAT_END
171
     1
301
MARGIN
  1
CELLMARGIN_BEGIN
 40
1.5
 40
1.5
 40
1.5
 40
1.5
 40
4.5
 40
4.5
309
CELLMARGIN_END
 94
        6
 95
        1
302
GRIDFORMAT
  1
GRIDFORMAT_BEGIN
 90
        0
 91
        1
 62
     0
 92
       -2
340
0
 93
        0
 40
1.125
309
GRIDFORMAT_END
 95
        2
302
GRIDFORMAT
  1
GRIDFORMAT_BEGIN
 90
        0
 91
        1
 62
     0
 92
       -2
340
0
 93
        0
 40
1.125
309
GRIDFORMAT_END
 95
        4
302
GRIDFORMAT
  1
GRIDFORMAT_BEGIN
 90
        0
 91
        1
 62
     0
 92
       -2
340
0
 93
        0
 40
1.125
309
GRIDFORMAT_END
 95
        8
302
GRIDFORMAT
  1
GRIDFORMAT_BEGIN
 90
        0
 91
        1
 62
     0
 92
       -2
340
0
 93
        0
 40
1.125
309
GRIDFORMAT_END
 95
       16
302
GRIDFORMAT
  1
GRIDFORMAT_BEGIN
 90
        0
 91
        1
 62
     0
 92
       -2
340
0
 93
        0
 40
1.125
309
GRIDFORMAT_END
 95
       32
302
GRIDFORMAT
  1
GRIDFORMAT_BEGIN
 90
        0
 91
        1
 62
     0
 92
       -2
340
0
 93
        0
 40
1.125
309
GRIDFORMAT_END
309
TABLEFORMAT_END
  1
CELLSTYLE_BEGIN
 90
        2
 91
        1
300
_HEADER
309
CELLSTYLE_END
300
CELLSTYLE
  1
TABLEFORMAT_BEGIN
 90
        5
170
     1
 91
        0
 92
        0
 62
   257
 93
        1
300
CONTENTFORMAT
  1
CONTENTFORMAT_BEGIN
 90
        0
 91
        0
 92
      512
 93
        0
300

 40
0.0
140
1.0
 94
        2
 62
     0
340
12
144
4.5
309
CONTENTFORMAT_END
171
     1
301
MARGIN
  1
CELLMARGIN_BEGIN
 40
1.5
 40
1.5
 40
1.5
 40
1.5
 40
4.5
 40
4.5
309
CELLMARGIN_END
 94
        6
 95
        1
302
GRIDFORMAT
  1
GRIDFORMAT_BEGIN
 90
        0
 91
        1
 62
     0
 92
       -2
340
0
 93
        0
 40
1.125
309
GRIDFORMAT_END
 95
        2
302
GRIDFORMAT
  1
GRIDFORMAT_BEGIN
 90
        0
 91
        1
 62
     0
 92
       -2
340
0
 93
        0
 40
1.125
309
GRIDFORMAT_END
 95
        4
302
GRIDFORMAT
  1
GRIDFORMAT_BEGIN
 90
        0
 91
        1
 62
     0
 92
       -2
340
0
 93
        0
 40
1.125
309
GRIDFORMAT_END
 95
        8
302
GRIDFORMAT
  1
GRIDFORMAT_BEGIN
 90
        0
 91
        1
 62
     0
 92
       -2
340
0
 93
        0
 40
1.125
309
GRIDFORMAT_END
 95
       16
302
GRIDFORMAT
  1
GRIDFORMAT_BEGIN
 90
        0
 91
        1
 62
     0
 92
       -2
340
0
 93
        0
 40
1.125
309
GRIDFORMAT_END
 95
       32
302
GRIDFORMAT
  1
GRIDFORMAT_BEGIN
 90
        0
 91
        1
 62
     0
 92
       -2
340
0
 93
        0
 40
1.125
309
GRIDFORMAT_END
309
TABLEFORMAT_END
  1
CELLSTYLE_BEGIN
 90
        3
 91
        2
300
_DATA
309
CELLSTYLE_END
  0
XRECORD
  5
100E
102
{ACAD_REACTORS
330
69E
102
}
330
69E
100
AcDbXrecord
280
     1
102
ACAD_ROUNDTRIP_PRE2007_TABLESTYLE
 90
      512
 91
        0
  1

 92
      512
 93
        0
  2

 94
      512
 95
        0
  3

  0
ENDSEC
  0
EOF
