  0
SECTION
  2
HEADER
  9
$ACADVER
  1
AC1015
  9
$ACADMAINTVER
 70
    20
  9
$DWGCODEPAGE
  3
ANSI_1252
  9
$INSBASE
 10
267.5068505439835
 20
0.0
 30
0.0
  9
$EXTMIN
 10
-0.0000233647551795
 20
-0.000002006628165
 30
0.0
  9
$EXTMAX
 10
3895.999976758929
 20
3734.87750644075
 30
0.0
  9
$LIMMIN
 10
0.0
 20
0.0
  9
$LIMMAX
 10
420.0
 20
297.0
  9
$ORTHOMODE
 70
     1
  9
$REGENMODE
 70
     1
  9
$FILLMODE
 70
     1
  9
$QTEXTMODE
 70
     0
  9
$MIRRTEXT
 70
     1
  9
$LTSCALE
 40
0.5
  9
$ATTMODE
 70
     1
  9
$TEXTSIZE
 40
5.866704811210071
  9
$TRACEWID
 40
1.0
  9
$TEXTSTYLE
  7
Standard
  9
$CLAYER
  8
0
  9
$CELTYPE
  6
ByLayer
  9
$CECOLOR
 62
   256
  9
$CELTSCALE
 40
1.0
  9
$DISPSILH
 70
     0
  9
$DIMSCALE
 40
1.0
  9
$DIMASZ
 40
2.5
  9
$DIMEXO
 40
0.0
  9
$DIMDLI
 40
3.75
  9
$DIMRND
 40
0.0
  9
$DIMDLE
 40
0.0
  9
$DIMEXE
 40
1.25
  9
$DIMTP
 40
0.0
  9
$DIMTM
 40
0.0
  9
$DIMTXT
 40
2.5
  9
$DIMCEN
 40
2.5
  9
$DIMTSZ
 40
0.0
  9
$DIMTOL
 70
     0
  9
$DIMLIM
 70
     0
  9
$DIMTIH
 70
     0
  9
$DIMTOH
 70
     0
  9
$DIMSE1
 70
     0
  9
$DIMSE2
 70
     0
  9
$DIMTAD
 70
     1
  9
$DIMZIN
 70
     8
  9
$DIMBLK
  1

  9
$DIMASO
 70
     1
  9
$DIMSHO
 70
     1
  9
$DIMPOST
  1

  9
$DIMAPOST
  1

  9
$DIMALT
 70
     0
  9
$DIMALTD
 70
     3
  9
$DIMALTF
 40
0.03937007874016
  9
$DIMLFAC
 40
1.0
  9
$DIMTOFL
 70
     1
  9
$DIMTVP
 40
0.0
  9
$DIMTIX
 70
     0
  9
$DIMSOXD
 70
     0
  9
$DIMSAH
 70
     0
  9
$DIMBLK1
  1

  9
$DIMBLK2
  1

  9
$DIMSTYLE
  2
ISO-25
  9
$DIMCLRD
 70
     3
  9
$DIMCLRE
 70
     3
  9
$DIMCLRT
 70
     0
  9
$DIMTFAC
 40
0.8
  9
$DIMGAP
 40
0.625
  9
$DIMJUST
 70
     0
  9
$DIMSD1
 70
     0
  9
$DIMSD2
 70
     0
  9
$DIMTOLJ
 70
     0
  9
$DIMTZIN
 70
     8
  9
$DIMALTZ
 70
     0
  9
$DIMALTTZ
 70
     0
  9
$DIMUPT
 70
     0
  9
$DIMDEC
 70
     2
  9
$DIMTDEC
 70
     2
  9
$DIMALTU
 70
     2
  9
$DIMALTTD
 70
     3
  9
$DIMTXSTY
  7
Standard
  9
$DIMAUNIT
 70
     0
  9
$DIMADEC
 70
     2
  9
$DIMALTRND
 40
0.0
  9
$DIMAZIN
 70
     2
  9
$DIMDSEP
 70
    44
  9
$DIMATFIT
 70
     3
  9
$DIMFRAC
 70
     0
  9
$DIMLDRBLK
  1

  9
$DIMLUNIT
 70
     2
  9
$DIMLWD
 70
    -2
  9
$DIMLWE
 70
    -2
  9
$DIMTMOVE
 70
     0
  9
$LUNITS
 70
     2
  9
$LUPREC
 70
     4
  9
$SKETCHINC
 40
1.0
  9
$FILLETRAD
 40
5.0
  9
$AUNITS
 70
     0
  9
$AUPREC
 70
     0
  9
$MENU
  1
.
  9
$ELEVATION
 40
0.0
  9
$PELEVATION
 40
0.0
  9
$THICKNESS
 40
0.0
  9
$LIMCHECK
 70
     0
  9
$CHAMFERA
 40
0.0
  9
$CHAMFERB
 40
0.0
  9
$CHAMFERC
 40
20.0
  9
$CHAMFERD
 40
0.0
  9
$SKPOLY
 70
     0
  9
$TDCREATE
 40
2455315.367779005
  9
$TDUCREATE
 40
2455315.284445672
  9
$TDUPDATE
 40
2455315.369964953
  9
$TDUUPDATE
 40
2455315.286631620
  9
$TDINDWG
 40
0.0005626273
  9
$TDUSRTIMER
 40
0.0005624537
  9
$USRTIMER
 70
     1
  9
$ANGBASE
 50
0.0
  9
$ANGDIR
 70
     0
  9
$PDMODE
 70
     0
  9
$PDSIZE
 40
0.0
  9
$PLINEWID
 40
0.0
  9
$SPLFRAME
 70
     0
  9
$SPLINETYPE
 70
     6
  9
$SPLINESEGS
 70
     8
  9
$HANDSEED
  5
115E
  9
$SURFTAB1
 70
     6
  9
$SURFTAB2
 70
     6
  9
$SURFTYPE
 70
     6
  9
$SURFU
 70
     6
  9
$SURFV
 70
     6
  9
$UCSBASE
  2

  9
$UCSNAME
  2

  9
$UCSORG
 10
0.0
 20
0.0
 30
0.0
  9
$UCSXDIR
 10
1.0
 20
0.0
 30
0.0
  9
$UCSYDIR
 10
0.0
 20
1.0
 30
0.0
  9
$UCSORTHOREF
  2

  9
$UCSORTHOVIEW
 70
     0
  9
$UCSORGTOP
 10
0.0
 20
0.0
 30
0.0
  9
$UCSORGBOTTOM
 10
0.0
 20
0.0
 30
0.0
  9
$UCSORGLEFT
 10
0.0
 20
0.0
 30
0.0
  9
$UCSORGRIGHT
 10
0.0
 20
0.0
 30
0.0
  9
$UCSORGFRONT
 10
0.0
 20
0.0
 30
0.0
  9
$UCSORGBACK
 10
0.0
 20
0.0
 30
0.0
  9
$PUCSBASE
  2

  9
$PUCSNAME
  2

  9
$PUCSORG
 10
0.0
 20
0.0
 30
0.0
  9
$PUCSXDIR
 10
1.0
 20
0.0
 30
0.0
  9
$PUCSYDIR
 10
0.0
 20
1.0
 30
0.0
  9
$PUCSORTHOREF
  2

  9
$PUCSORTHOVIEW
 70
     0
  9
$PUCSORGTOP
 10
0.0
 20
0.0
 30
0.0
  9
$PUCSORGBOTTOM
 10
0.0
 20
0.0
 30
0.0
  9
$PUCSORGLEFT
 10
0.0
 20
0.0
 30
0.0
  9
$PUCSORGRIGHT
 10
0.0
 20
0.0
 30
0.0
  9
$PUCSORGFRONT
 10
0.0
 20
0.0
 30
0.0
  9
$PUCSORGBACK
 10
0.0
 20
0.0
 30
0.0
  9
$USERI1
 70
     0
  9
$USERI2
 70
     0
  9
$USERI3
 70
     0
  9
$USERI4
 70
     0
  9
$USERI5
 70
     0
  9
$USERR1
 40
0.0
  9
$USERR2
 40
0.0
  9
$USERR3
 40
0.0
  9
$USERR4
 40
0.0
  9
$USERR5
 40
0.0
  9
$WORLDVIEW
 70
     1
  9
$SHADEDGE
 70
     3
  9
$SHADEDIF
 70
    70
  9
$TILEMODE
 70
     1
  9
$MAXACTVP
 70
    64
  9
$PINSBASE
 10
0.0
 20
0.0
 30
0.0
  9
$PLIMCHECK
 70
     0
  9
$PEXTMIN
 10
1.000000000000000E+20
 20
1.000000000000000E+20
 30
1.000000000000000E+20
  9
$PEXTMAX
 10
-1.000000000000000E+20
 20
-1.000000000000000E+20
 30
-1.000000000000000E+20
  9
$PLIMMIN
 10
0.0
 20
0.0
  9
$PLIMMAX
 10
420.0
 20
297.0
  9
$UNITMODE
 70
     0
  9
$VISRETAIN
 70
     1
  9
$PLINEGEN
 70
     0
  9
$PSLTSCALE
 70
     1
  9
$TREEDEPTH
 70
  3020
  9
$CMLSTYLE
  2
Standard
  9
$CMLJUST
 70
     0
  9
$CMLSCALE
 40
20.0
  9
$PROXYGRAPHICS
 70
     1
  9
$MEASUREMENT
 70
     1
  9
$CELWEIGHT
370
    -1
  9
$ENDCAPS
280
     0
  9
$JOINSTYLE
280
     0
  9
$LWDISPLAY
290
     0
  9
$INSUNITS
 70
     4
  9
$HYPERLINKBASE
  1

  9
$STYLESHEET
  1
MONOCHROME.CTB
  9
$XEDIT
290
     1
  9
$CEPSNTYPE
380
     0
  9
$PSTYLEMODE
290
     1
  9
$FINGERPRINTGUID
  2
{1C646792-4344-4078-835D-59CDF7B07B20}
  9
$VERSIONGUID
  2
{54A868D0-7FB2-493D-BAD0-1721B3DE9C0E}
  9
$EXTNAMES
290
     1
  9
$PSVPSCALE
 40
0.0
  9
$OLESTARTUP
290
     0
  0
ENDSEC
  0
SECTION
  2
CLASSES
  0
CLASS
  1
ACDBDICTIONARYWDFLT
  2
AcDbDictionaryWithDefault
  3
ObjectDBX Classes
 90
        0
280
     0
281
     0
  0
CLASS
  1
ACDBPLACEHOLDER
  2
AcDbPlaceHolder
  3
ObjectDBX Classes
 90
        0
280
     0
281
     0
  0
CLASS
  1
LAYOUT
  2
AcDbLayout
  3
ObjectDBX Classes
 90
        0
280
     0
281
     0
  0
CLASS
  1
DICTIONARYVAR
  2
AcDbDictionaryVar
  3
ObjectDBX Classes
 90
        0
280
     0
281
     0
  0
CLASS
  1
MATERIAL
  2
AcDbMaterial
  3
ObjectDBX Classes
 90
     1153
280
     0
281
     0
  0
CLASS
  1
VISUALSTYLE
  2
AcDbVisualStyle
  3
ObjectDBX Classes
 90
     4095
280
     0
281
     0
  0
CLASS
  1
TABLESTYLE
  2
AcDbTableStyle
  3
ObjectDBX Classes
 90
     4095
280
     0
281
     0
  0
CLASS
  1
SCALE
  2
AcDbScale
  3
ObjectDBX Classes
 90
     1153
280
     0
281
     0
  0
CLASS
  1
MLEADERSTYLE
  2
AcDbMLeaderStyle
  3
ACDB_MLEADERSTYLE_CLASS
 90
     4095
280
     0
281
     0
  0
CLASS
  1
CELLSTYLEMAP
  2
AcDbCellStyleMap
  3
ObjectDBX Classes
 90
     1152
280
     0
281
     0
  0
CLASS
  1
SORTENTSTABLE
  2
AcDbSortentsTable
  3
ObjectDBX Classes
 90
        0
280
     0
281
     0
  0
ENDSEC
  0
SECTION
  2
TABLES
  0
TABLE
  2
VPORT
  5
19
330
0
100
AcDbSymbolTable
 70
     1
  0
VPORT
  5
630
330
19
100
AcDbSymbolTableRecord
100
AcDbViewportTableRecord
  2
*Active
 70
     0
 10
0.0
 20
0.0
 11
1.0
 21
1.0
 12
1884.619342504089
 22
1810.393404871004
 13
0.0
 23
0.0
 14
10.0
 24
10.0
 15
10.0
 25
10.0
 16
0.0
 26
0.0
 36
1.0
 17
0.0
 27
0.0
 37
0.0
 40
4225.944466841901
 41
1.611330698287219
 42
50.0
 43
0.0
 44
0.0
 50
0.0
 51
0.0
 71
     0
 72
   100
 73
     1
 74
     2
 75
     0
 76
     0
 77
     0
 78
     0
281
     0
 65
     1
110
0.0
120
0.0
130
0.0
111
1.0
121
0.0
131
0.0
112
0.0
122
1.0
132
0.0
 79
     0
146
0.0
  0
ENDTAB
  0
TABLE
  2
LTYPE
  5
14
330
0
100
AcDbSymbolTable
 70
     1
  0
LTYPE
  5
15
330
14
100
AcDbSymbolTableRecord
100
AcDbLinetypeTableRecord
  2
ByBlock
 70
     0
  3

 72
    65
 73
     0
 40
0.0
  0
LTYPE
  5
16
330
14
100
AcDbSymbolTableRecord
100
AcDbLinetypeTableRecord
  2
ByLayer
 70
     0
  3

 72
    65
 73
     0
 40
0.0
  0
LTYPE
  5
8
330
14
100
AcDbSymbolTableRecord
100
AcDbLinetypeTableRecord
  2
Continuous
 70
     0
  3
Solid line
 72
    65
 73
     0
 40
0.0
  0
ENDTAB
  0
TABLE
  2
LAYER
  5
10
330
0
100
AcDbSymbolTable
 70
     2
  0
LAYER
  5
4
102
{ACAD_XDICTIONARY
360
68A
102
}
330
10
100
AcDbSymbolTableRecord
100
AcDbLayerTableRecord
  2
0
 70
     0
 62
     7
  6
Continuous
370
    -3
390
5
  0
LAYER
  5
34
330
10
100
AcDbSymbolTableRecord
100
AcDbLayerTableRecord
  2
Defpoints
 70
     0
 62
     7
  6
Continuous
290
     0
370
    -3
390
5
  0
ENDTAB
  0
TABLE
  2
STYLE
  5
11
330
0
100
AcDbSymbolTable
 70
     1
  0
STYLE
  5
12
330
11
100
AcDbSymbolTableRecord
100
AcDbTextStyleTableRecord
  2
Standard
 70
     0
 40
0.0
 41
0.9
 50
0.0
 71
     0
 42
5.866704811210071
  3
simplex.shx
  4

  0
ENDTAB
  0
TABLE
  2
VIEW
  5
17
330
0
100
AcDbSymbolTable
 70
     0
  0
ENDTAB
  0
TABLE
  2
UCS
  5
18
330
0
100
AcDbSymbolTable
 70
     0
  0
ENDTAB
  0
TABLE
  2
APPID
  5
1B
330
0
100
AcDbSymbolTable
 70
     4
  0
APPID
  5
1C
330
1B
100
AcDbSymbolTableRecord
100
AcDbRegAppTableRecord
  2
ACAD
 70
     0
  0
APPID
  5
683
330
1B
100
AcDbSymbolTableRecord
100
AcDbRegAppTableRecord
  2
ACAD_MLEADERVER
 70
     0
  0
APPID
  5
69C
330
1B
100
AcDbSymbolTableRecord
100
AcDbRegAppTableRecord
  2
DCO15
 70
     0
  0
APPID
  5
1137
330
1B
100
AcDbSymbolTableRecord
100
AcDbRegAppTableRecord
  2
ACAD_EXEMPT_FROM_CAD_STANDARDS
 70
     0
  0
ENDTAB
  0
TABLE
  2
DIMSTYLE
  5
1D
330
0
100
AcDbSymbolTable
 70
     2
100
AcDbDimStyleTable
 71
     1
340
1E
  0
DIMSTYLE
105
1E
330
1D
100
AcDbSymbolTableRecord
100
AcDbDimStyleTableRecord
  2
ISO-25
 70
     0
 41
2.5
 42
0.0
 43
3.75
 44
1.25
 73
     0
 74
     0
 77
     1
 78
     8
140
2.5
141
2.5
143
0.03937007874016
147
0.625
171
     3
172
     1
176
     3
177
     3
271
     2
272
     2
274
     3
278
    44
283
     0
284
     8
340
12
  0
DIMSTYLE
105
6AF
330
1D
100
AcDbSymbolTableRecord
100
AcDbDimStyleTableRecord
  2
Standard
 70
     0
 41
1.25
 42
1.0
 44
0.75
 73
     0
 74
     0
 77
     1
140
2.5
146
0.8
147
1.25
176
     7
177
     7
178
     7
271
     2
340
12
  0
ENDTAB
  0
TABLE
  2
BLOCK_RECORD
  5
1
330
0
100
AcDbSymbolTable
 70
     0
  0
BLOCK_RECORD
  5
2
102
{ACAD_XDICTIONARY
360
1151
102
}
330
1
100
AcDbSymbolTableRecord
100
AcDbBlockTableRecord
  2
*Model_Space
340
A
  0
BLOCK_RECORD
  5
C
330
1
100
AcDbSymbolTableRecord
100
AcDbBlockTableRecord
  2
*Paper_Space
340
F
  0
ENDTAB
  0
ENDSEC
  0
SECTION
  2
BLOCKS
  0
BLOCK
  5
3
330
2
100
AcDbEntity
  8
0
100
AcDbBlockBegin
  2
*Model_Space
 70
     0
 10
0.0
 20
0.0
 30
0.0
  3
*Model_Space
  1

  0
ENDBLK
  5
9
330
2
100
AcDbEntity
  8
0
100
AcDbBlockEnd
  0
BLOCK
  5
D
330
C
100
AcDbEntity
 67
     1
  8
0
100
AcDbBlockBegin
  2
*Paper_Space
 70
     0
 10
0.0
 20
0.0
 30
0.0
  3
*Paper_Space
  1

  0
ENDBLK
  5
E
330
C
100
AcDbEntity
 67
     1
  8
0
100
AcDbBlockEnd
  0
ENDSEC
  0
SECTION
  2
ENTITIES
  0
ARC
  5
BF6
330
2
100
AcDbEntity
  8
0
  6
Continuous
 62
     7
100
AcDbCircle
 10
2554.499975202656
 20
1507.999998057406
 30
0.0
 40
12.99999999999948
100
AcDbArc
 50
133.8130523435052
 51
226.1869476605216
  0
ARC
  5
BF7
330
2
100
AcDbEntity
  8
0
  6
Continuous
 62
     7
100
AcDbCircle
 10
2554.499975202656
 20
1507.999998057406
 30
0.0
 40
14.9999999999989
100
AcDbArc
 50
126.8698905191868
 51
233.1301094847605
  0
ARC
  5
BF8
330
2
100
AcDbEntity
  8
0
  6
Continuous
 62
     7
100
AcDbCircle
 10
2554.499975202656
 20
3207.999998057494
 30
0.0
 40
12.99999999999913
100
AcDbArc
 50
133.8130523374244
 51
226.1869476665934
  0
ARC
  5
BF9
330
2
100
AcDbEntity
  8
0
  6
Continuous
 62
     7
100
AcDbCircle
 10
2554.499975202656
 20
3207.999998057494
 30
0.0
 40
14.99999999999997
100
AcDbArc
 50
126.8698905144656
 51
233.130109489466
  0
ARC
  5
BFA
330
2
100
AcDbEntity
  8
0
  6
Continuous
 62
     7
100
AcDbCircle
 10
1896.499976698425
 20
3289.999998053534
 30
0.0
 40
7.500000000000282
100
AcDbArc
 50
180.0
 51
0.0
  0
CIRCLE
  5
BFB
330
2
100
AcDbEntity
  8
0
  6
Continuous
 62
     9
100
AcDbCircle
 10
1896.499976698469
 20
3289.999998053534
 30
0.0
 40
7.000000000001449
  0
ARC
  5
BFC
330
2
100
AcDbEntity
  8
0
  6
Continuous
 62
     7
100
AcDbCircle
 10
1896.499976698425
 20
3289.999998053534
 30
0.0
 40
7.500000000000282
100
AcDbArc
 50
0.0
 51
180.0
  0
LINE
  5
BFD
330
2
100
AcDbEntity
  8
0
  6
Continuous
 62
     7
100
AcDbLine
 10
1897.249976698469
 20
3285.001892427916
 30
0.0
 11
1897.249976698469
 21
3294.998103679154
 31
0.0
  0
LINE
  5
BFE
330
2
100
AcDbEntity
  8
0
  6
Continuous
 62
     7
100
AcDbLine
 10
1897.249976698469
 20
3294.998103679154
 30
0.0
 11
1895.749976698469
 21
3294.998103679154
 31
0.0
  0
LINE
  5
BFF
330
2
100
AcDbEntity
  8
0
  6
Continuous
 62
     7
100
AcDbLine
 10
1895.749976698469
 20
3285.001892427916
 30
0.0
 11
1895.749976698469
 21
3294.998103679154
 31
0.0
  0
LINE
  5
C00
330
2
100
AcDbEntity
  8
0
  6
Continuous
 62
     7
100
AcDbLine
 10
1895.749976698469
 20
3285.001892427916
 30
0.0
 11
1897.249976698469
 21
3285.001892427916
 31
0.0
  0
LINE
  5
C01
330
2
100
AcDbEntity
  8
0
  6
Continuous
 62
     9
100
AcDbLine
 10
1895.749976698338
 20
3290.874998053535
 30
0.0
 11
1897.249976698338
 21
3290.874998053535
 31
0.0
  0
LINE
  5
C02
330
2
100
AcDbEntity
  8
0
  6
Continuous
 62
     9
100
AcDbLine
 10
1895.749976698338
 20
3289.124998053536
 30
0.0
 11
1897.249976698338
 21
3289.124998053536
 31
0.0
  0
ARC
  5
C03
330
2
100
AcDbEntity
  8
0
  6
Continuous
 62
     7
100
AcDbCircle
 10
1896.499976697236
 20
3289.999998053534
 30
0.0
 40
10.00000000000156
100
AcDbArc
 50
126.869897638744
 51
180.0
  0
ARC
  5
C04
330
2
100
AcDbEntity
  8
0
  6
Continuous
 62
     7
100
AcDbCircle
 10
1896.499976697236
 20
3289.999998053534
 30
0.0
 40
10.00000000000014
100
AcDbArc
 50
180.0
 51
53.13010236125601
  0
CIRCLE
  5
C05
330
2
100
AcDbEntity
  8
0
  6
Continuous
 62
     7
100
AcDbCircle
 10
1896.499976697097
 20
3327.999998053581
 30
0.0
 40
10.5000000000004
  0
CIRCLE
  5
C06
330
2
100
AcDbEntity
  8
0
  6
Continuous
 62
     7
100
AcDbCircle
 10
1896.499976697097
 20
3327.999998053581
 30
0.0
 40
12.49999999999929
  0
LINE
  5
C07
330
2
100
AcDbEntity
  8
0
  6
Continuous
 62
     7
100
AcDbLine
 10
1897.249976697098
 20
3332.998103679198
 30
0.0
 11
1895.749976697098
 21
3332.998103679198
 31
0.0
  0
LINE
  5
C08
330
2
100
AcDbEntity
  8
0
  6
Continuous
 62
     7
100
AcDbLine
 10
1895.749976697098
 20
3323.001892427964
 30
0.0
 11
1895.749976697098
 21
3332.998103679198
 31
0.0
  0
LINE
  5
C09
330
2
100
AcDbEntity
  8
0
  6
Continuous
 62
     7
100
AcDbLine
 10
1895.749976697098
 20
3323.001892427964
 30
0.0
 11
1897.249976697098
 21
3323.001892427964
 31
0.0
  0
LINE
  5
C0A
330
2
100
AcDbEntity
  8
0
  6
Continuous
 62
     7
100
AcDbLine
 10
1897.249976697098
 20
3323.001892427964
 30
0.0
 11
1897.249976697098
 21
3332.998103679198
 31
0.0
  0
LINE
  5
C0B
330
2
100
AcDbEntity
  8
0
  6
Continuous
 62
     9
100
AcDbLine
 10
1895.749976697098
 20
3327.124998053581
 30
0.0
 11
1897.249976697098
 21
3327.124998053581
 31
0.0
  0
LINE
  5
C0C
330
2
100
AcDbEntity
  8
0
  6
Continuous
 62
     9
100
AcDbLine
 10
1895.749976697098
 20
3328.874998053581
 30
0.0
 11
1897.249976697098
 21
3328.874998053581
 31
0.0
  0
ARC
  5
C0D
330
2
100
AcDbEntity
  8
0
  6
Continuous
 62
     7
100
AcDbCircle
 10
1454.499976698425
 20
3289.999998053598
 30
0.0
 40
7.500000000000282
100
AcDbArc
 50
180.0
 51
0.0
  0
CIRCLE
  5
C0E
330
2
100
AcDbEntity
  8
0
  6
Continuous
 62
     9
100
AcDbCircle
 10
1454.499976698469
 20
3289.999998053598
 30
0.0
 40
7.000000000001449
  0
ARC
  5
C0F
330
2
100
AcDbEntity
  8
0
  6
Continuous
 62
     7
100
AcDbCircle
 10
1454.499976698425
 20
3289.999998053598
 30
0.0
 40
7.500000000000282
100
AcDbArc
 50
0.0
 51
180.0
  0
LINE
  5
C10
330
2
100
AcDbEntity
  8
0
  6
Continuous
 62
     7
100
AcDbLine
 10
1455.249976698469
 20
3285.00189242798
 30
0.0
 11
1455.249976698469
 21
3294.998103679215
 31
0.0
  0
LINE
  5
C11
330
2
100
AcDbEntity
  8
0
  6
Continuous
 62
     7
100
AcDbLine
 10
1455.249976698469
 20
3294.998103679215
 30
0.0
 11
1453.749976698469
 21
3294.998103679215
 31
0.0
  0
LINE
  5
C12
330
2
100
AcDbEntity
  8
0
  6
Continuous
 62
     7
100
AcDbLine
 10
1453.749976698469
 20
3285.00189242798
 30
0.0
 11
1453.749976698469
 21
3294.998103679215
 31
0.0
  0
LINE
  5
C13
330
2
100
AcDbEntity
  8
0
  6
Continuous
 62
     7
100
AcDbLine
 10
1453.749976698469
 20
3285.00189242798
 30
0.0
 11
1455.249976698469
 21
3285.00189242798
 31
0.0
  0
LINE
  5
C14
330
2
100
AcDbEntity
  8
0
  6
Continuous
 62
     9
100
AcDbLine
 10
1453.749976698338
 20
3290.874998053598
 30
0.0
 11
1455.249976698338
 21
3290.874998053598
 31
0.0
  0
LINE
  5
C15
330
2
100
AcDbEntity
  8
0
  6
Continuous
 62
     9
100
AcDbLine
 10
1453.749976698338
 20
3289.124998053598
 30
0.0
 11
1455.249976698338
 21
3289.124998053598
 31
0.0
  0
ARC
  5
C16
330
2
100
AcDbEntity
  8
0
  6
Continuous
 62
     7
100
AcDbCircle
 10
1454.499976697236
 20
3289.999998053598
 30
0.0
 40
10.00000000000156
100
AcDbArc
 50
126.8698976394709
 51
180.0
  0
ARC
  5
C17
330
2
100
AcDbEntity
  8
0
  6
Continuous
 62
     7
100
AcDbCircle
 10
1454.499976697236
 20
3289.999998053598
 30
0.0
 40
9.999999999999431
100
AcDbArc
 50
180.0
 51
53.13010236052906
  0
LINE
  5
C18
330
2
100
AcDbEntity
  8
0
  6
Continuous
 62
     9
100
AcDbLine
 10
1453.749976697098
 20
3327.124998053645
 30
0.0
 11
1455.249976697098
 21
3327.124998053645
 31
0.0
  0
CIRCLE
  5
C19
330
2
100
AcDbEntity
  8
0
  6
Continuous
 62
     7
100
AcDbCircle
 10
1454.499976697098
 20
3327.999998053644
 30
0.0
 40
10.5000000000004
  0
CIRCLE
  5
C1A
330
2
100
AcDbEntity
  8
0
  6
Continuous
 62
     7
100
AcDbCircle
 10
1454.499976697098
 20
3327.999998053644
 30
0.0
 40
12.49999999999929
  0
LINE
  5
C1B
330
2
100
AcDbEntity
  8
0
  6
Continuous
 62
     9
100
AcDbLine
 10
1453.749976697098
 20
3328.874998053645
 30
0.0
 11
1455.249976697098
 21
3328.874998053645
 31
0.0
  0
LINE
  5
C1C
330
2
100
AcDbEntity
  8
0
  6
Continuous
 62
     7
100
AcDbLine
 10
1455.249976697098
 20
3332.998103679263
 30
0.0
 11
1453.749976697098
 21
3332.998103679263
 31
0.0
  0
LINE
  5
C1D
330
2
100
AcDbEntity
  8
0
  6
Continuous
 62
     7
100
AcDbLine
 10
1453.749976697098
 20
3323.001892428028
 30
0.0
 11
1453.749976697098
 21
3332.998103679263
 31
0.0
  0
LINE
  5
C1E
330
2
100
AcDbEntity
  8
0
  6
Continuous
 62
     7
100
AcDbLine
 10
1453.749976697098
 20
3323.001892428028
 30
0.0
 11
1455.249976697098
 21
3323.001892428028
 31
0.0
  0
LINE
  5
C1F
330
2
100
AcDbEntity
  8
0
  6
Continuous
 62
     7
100
AcDbLine
 10
1455.249976697098
 20
3323.001892428028
 30
0.0
 11
1455.249976697098
 21
3332.998103679263
 31
0.0
  0
CIRCLE
  5
C20
330
2
100
AcDbEntity
  8
0
  6
Continuous
 62
     7
100
AcDbCircle
 10
2020.499976696356
 20
3307.999998055216
 30
0.0
 40
12.49999999999929
  0
CIRCLE
  5
C21
330
2
100
AcDbEntity
  8
0
  6
Continuous
 62
     7
100
AcDbCircle
 10
2020.499976696356
 20
3307.999998055226
 30
0.0
 40
12.19999999999999
  0
CIRCLE
  5
C22
330
2
100
AcDbEntity
  8
0
  6
Continuous
 62
     7
100
AcDbCircle
 10
2020.544125513785
 20
3313.499820859818
 30
0.0
 40
1.249999999998863
  0
CIRCLE
  5
C23
330
2
100
AcDbEntity
  8
0
  6
Continuous
 62
     7
100
AcDbCircle
 10
2020.455827878926
 20
3302.500175250634
 30
0.0
 40
1.249999999998863
  0
CIRCLE
  5
C24
330
2
100
AcDbEntity
  8
0
  6
Continuous
 62
     7
100
AcDbCircle
 10
2520.49997669637
 20
3307.999998055216
 30
0.0
 40
12.49999999999929
  0
CIRCLE
  5
C25
330
2
100
AcDbEntity
  8
0
  6
Continuous
 62
     7
100
AcDbCircle
 10
2520.49997669637
 20
3307.999998055227
 30
0.0
 40
12.19999999999999
  0
CIRCLE
  5
C26
330
2
100
AcDbEntity
  8
0
  6
Continuous
 62
     7
100
AcDbCircle
 10
2520.560112124244
 20
3313.499669293612
 30
0.0
 40
1.249999999998863
  0
CIRCLE
  5
C27
330
2
100
AcDbEntity
  8
0
  6
Continuous
 62
     7
100
AcDbCircle
 10
2520.439841268468
 20
3302.500326816844
 30
0.0
 40
1.249999999998863
  0
LINE
  5
C28
330
2
100
AcDbEntity
  8
0
  6
Continuous
 62
     7
100
AcDbLine
 10
1410.499976696937
 20
3297.999998054269
 30
0.0
 11
1410.499976696937
 21
3317.999998054269
 31
0.0
  0
LINE
  5
C29
330
2
100
AcDbEntity
  8
0
  6
Continuous
 62
     7
100
AcDbLine
 10
2574.99997669637
 20
1487.999998054852
 30
0.0
 11
2574.499976696356
 21
1487.999998054834
 31
0.0
  0
LINE
  5
C2A
330
2
100
AcDbEntity
  8
0
  6
Continuous
 62
     9
100
AcDbLine
 10
2574.499976696356
 20
1487.99999805485
 30
0.0
 11
2574.499976696337
 21
1488.499998054866
 31
0.0
  0
LINE
  5
C2B
330
2
100
AcDbEntity
  8
0
  6
Continuous
 62
     9
100
AcDbLine
 10
2574.499976696337
 20
1488.499998054833
 30
0.0
 11
2575.499976696348
 21
1488.49999805487
 31
0.0
  0
ARC
  5
C2C
330
2
100
AcDbEntity
  8
0
  6
Continuous
 62
     7
100
AcDbCircle
 10
2574.999976696349
 20
1488.499998054852
 30
0.0
 40
0.4999999999997229
100
AcDbArc
 50
270.0000000020844
 51
0.0000000020192706
  0
LINE
  5
C2D
330
2
100
AcDbEntity
  8
0
  6
Continuous
 62
     9
100
AcDbLine
 10
2546.499976696337
 20
1488.49999805389
 30
0.0
 11
2574.499976696337
 21
1488.499998054866
 31
0.0
  0
LINE
  5
C2E
330
2
100
AcDbEntity
  8
0
  6
Continuous
 62
     7
100
AcDbLine
 10
2574.499976696356
 20
1487.99999805485
 30
0.0
 11
2546.499976696356
 21
1487.999998053874
 31
0.0
  0
LINE
  5
C2F
330
2
100
AcDbEntity
  8
0
  6
Continuous
 62
     9
100
AcDbLine
 10
2546.499976696348
 20
1488.49999805389
 30
0.0
 11
2546.499976696356
 21
1487.999998053874
 31
0.0
  0
LINE
  5
C30
330
2
100
AcDbEntity
  8
0
  6
Continuous
 62
     9
100
AcDbLine
 10
2575.499976694989
 20
1527.499998054869
 30
0.0
 11
2574.499976694978
 21
1527.499998054834
 31
0.0
  0
LINE
  5
C31
330
2
100
AcDbEntity
  8
0
  6
Continuous
 62
     7
100
AcDbLine
 10
2575.499976696348
 20
1488.49999805487
 30
0.0
 11
2575.499976694989
 21
1527.499998054869
 31
0.0
  0
LINE
  5
C32
330
2
100
AcDbEntity
  8
0
  6
Continuous
 62
     9
100
AcDbLine
 10
2574.499976696337
 20
1488.499998054866
 30
0.0
 11
2574.499976694978
 21
1527.499998054866
 31
0.0
  0
LINE
  5
C33
330
2
100
AcDbEntity
  8
0
  6
Continuous
 62
     9
100
AcDbLine
 10
2574.499976694978
 20
1527.499998054866
 30
0.0
 11
2546.499976694978
 21
1527.499998053892
 31
0.0
  0
LINE
  5
C34
330
2
100
AcDbEntity
  8
0
  6
Continuous
 62
     9
100
AcDbLine
 10
2546.499976696337
 20
1488.49999805389
 30
0.0
 11
2546.499976694978
 21
1527.499998053892
 31
0.0
  0
LINE
  5
C35
330
2
100
AcDbEntity
  8
0
  6
Continuous
 62
     9
100
AcDbLine
 10
2545.499976696348
 20
1488.499998053822
 30
0.0
 11
2546.499976696337
 21
1488.499998053858
 31
0.0
  0
LINE
  5
C36
330
2
100
AcDbEntity
  8
0
  6
Continuous
 62
     7
100
AcDbLine
 10
2546.499976696356
 20
1487.999998053858
 30
0.0
 11
2545.99997669637
 21
1487.99999805384
 31
0.0
  0
ARC
  5
C37
330
2
100
AcDbEntity
  8
0
  6
Continuous
 62
     7
100
AcDbCircle
 10
2545.999976696349
 20
1488.49999805384
 30
0.0
 40
0.4999999999988347
100
AcDbArc
 50
180.0000000019801
 51
270.0000000020844
  0
LINE
  5
C38
330
2
100
AcDbEntity
  8
0
  6
Continuous
 62
     9
100
AcDbLine
 10
2546.499976694978
 20
1527.499998053858
 30
0.0
 11
2545.499976694988
 21
1527.499998053823
 31
0.0
  0
LINE
  5
C39
330
2
100
AcDbEntity
  8
0
  6
Continuous
 62
     7
100
AcDbLine
 10
2545.499976696348
 20
1488.499998053822
 30
0.0
 11
2545.499976694988
 21
1527.499998053823
 31
0.0
  0
LINE
  5
C3A
330
2
100
AcDbEntity
  8
0
  6
Continuous
 62
     9
100
AcDbLine
 10
2574.499976694978
 20
1527.499998054866
 30
0.0
 11
2574.499976694955
 21
1527.999998054849
 31
0.0
  0
LINE
  5
C3B
330
2
100
AcDbEntity
  8
0
  6
Continuous
 62
     7
100
AcDbLine
 10
2574.499976694966
 20
1527.999998054833
 30
0.0
 11
2574.999976694967
 21
1527.999998054852
 31
0.0
  0
ARC
  5
C3C
330
2
100
AcDbEntity
  8
0
  6
Continuous
 62
     7
100
AcDbCircle
 10
2574.999976694988
 20
1527.499998054851
 30
0.0
 40
0.4999999999988347
100
AcDbArc
 50
0.0000000019801879
 51
90.00000000208439
  0
LINE
  5
C3D
330
2
100
AcDbEntity
  8
0
  6
Continuous
 62
     7
100
AcDbLine
 10
2546.499976694966
 20
1527.999998053874
 30
0.0
 11
2574.499976694955
 21
1527.999998054849
 31
0.0
  0
LINE
  5
C3E
330
2
100
AcDbEntity
  8
0
  6
Continuous
 62
     9
100
AcDbLine
 10
2546.499976694966
 20
1527.999998053874
 30
0.0
 11
2546.499976694989
 21
1527.499998053892
 31
0.0
  0
LINE
  5
C3F
330
2
100
AcDbEntity
  8
0
  6
Continuous
 62
     7
100
AcDbLine
 10
2545.999976694967
 20
1527.99999805384
 30
0.0
 11
2546.499976694966
 21
1527.999998053858
 31
0.0
  0
ARC
  5
C40
330
2
100
AcDbEntity
  8
0
  6
Continuous
 62
     7
100
AcDbCircle
 10
2545.999976694988
 20
1527.49999805384
 30
0.0
 40
0.4999999999997229
100
AcDbArc
 50
90.00000000208439
 51
180.0000000020323
  0
LINE
  5
C41
330
2
100
AcDbEntity
  8
0
  6
Continuous
 62
     7
100
AcDbLine
 10
2574.999976697356
 20
3187.999998052857
 30
0.0
 11
2574.499976697356
 21
3187.999998052839
 31
0.0
  0
LINE
  5
C42
330
2
100
AcDbEntity
  8
0
  6
Continuous
 62
     9
100
AcDbLine
 10
2574.499976697345
 20
3187.999998052855
 30
0.0
 11
2574.499976697334
 21
3188.499998052872
 31
0.0
  0
LINE
  5
C43
330
2
100
AcDbEntity
  8
0
  6
Continuous
 62
     9
100
AcDbLine
 10
2574.499976697327
 20
3188.499998052839
 30
0.0
 11
2575.499976697334
 21
3188.499998052874
 31
0.0
  0
ARC
  5
C44
330
2
100
AcDbEntity
  8
0
  6
Continuous
 62
     7
100
AcDbCircle
 10
2574.999976697335
 20
3188.499998052855
 30
0.0
 40
0.4999999999997229
100
AcDbArc
 50
270.0000000020844
 51
0.0000000020322981
  0
LINE
  5
C45
330
2
100
AcDbEntity
  8
0
  6
Continuous
 62
     9
100
AcDbLine
 10
2546.499976697327
 20
3188.499998051903
 30
0.0
 11
2574.499976697327
 21
3188.499998052872
 31
0.0
  0
LINE
  5
C46
330
2
100
AcDbEntity
  8
0
  6
Continuous
 62
     7
100
AcDbLine
 10
2574.499976697345
 20
3187.999998052855
 30
0.0
 11
2546.499976697345
 21
3187.999998051888
 31
0.0
  0
LINE
  5
C47
330
2
100
AcDbEntity
  8
0
  6
Continuous
 62
     9
100
AcDbLine
 10
2546.499976697334
 20
3188.499998051903
 30
0.0
 11
2546.499976697345
 21
3187.999998051888
 31
0.0
  0
LINE
  5
C48
330
2
100
AcDbEntity
  8
0
  6
Continuous
 62
     9
100
AcDbLine
 10
2575.499976695985
 20
3227.499998052873
 30
0.0
 11
2574.499976695977
 21
3227.499998052838
 31
0.0
  0
LINE
  5
C49
330
2
100
AcDbEntity
  8
0
  6
Continuous
 62
     7
100
AcDbLine
 10
2575.499976697334
 20
3188.499998052873
 30
0.0
 11
2575.499976695985
 21
3227.499998052872
 31
0.0
  0
LINE
  5
C4A
330
2
100
AcDbEntity
  8
0
  6
Continuous
 62
     9
100
AcDbLine
 10
2574.499976697327
 20
3188.499998052872
 30
0.0
 11
2574.499976695977
 21
3227.499998052871
 31
0.0
  0
LINE
  5
C4B
330
2
100
AcDbEntity
  8
0
  6
Continuous
 62
     9
100
AcDbLine
 10
2574.499976695985
 20
3227.499998052872
 30
0.0
 11
2546.499976695985
 21
3227.499998051904
 31
0.0
  0
LINE
  5
C4C
330
2
100
AcDbEntity
  8
0
  6
Continuous
 62
     9
100
AcDbLine
 10
2546.499976697327
 20
3188.499998051903
 30
0.0
 11
2546.499976695978
 21
3227.499998051904
 31
0.0
  0
LINE
  5
C4D
330
2
100
AcDbEntity
  8
0
  6
Continuous
 62
     9
100
AcDbLine
 10
2545.499976697334
 20
3188.499998051836
 30
0.0
 11
2546.499976697327
 21
3188.499998051869
 31
0.0
  0
LINE
  5
C4E
330
2
100
AcDbEntity
  8
0
  6
Continuous
 62
     7
100
AcDbLine
 10
2546.499976697345
 20
3187.99999805187
 30
0.0
 11
2545.999976697356
 21
3187.999998051854
 31
0.0
  0
ARC
  5
C4F
330
2
100
AcDbEntity
  8
0
  6
Continuous
 62
     7
100
AcDbCircle
 10
2545.999976697335
 20
3188.499998051853
 30
0.0
 40
0.4999999999988347
100
AcDbArc
 50
180.0000000019281
 51
270.0000000018759
  0
LINE
  5
C50
330
2
100
AcDbEntity
  8
0
  6
Continuous
 62
     9
100
AcDbLine
 10
2546.499976695978
 20
3227.499998051869
 30
0.0
 11
2545.499976695984
 21
3227.499998051835
 31
0.0
  0
LINE
  5
C51
330
2
100
AcDbEntity
  8
0
  6
Continuous
 62
     7
100
AcDbLine
 10
2545.499976697334
 20
3188.499998051836
 30
0.0
 11
2545.499976695984
 21
3227.499998051835
 31
0.0
  0
LINE
  5
C52
330
2
100
AcDbEntity
  8
0
  6
Continuous
 62
     9
100
AcDbLine
 10
2574.499976695985
 20
3227.499998052872
 30
0.0
 11
2574.49997669597
 21
3227.999998052857
 31
0.0
  0
LINE
  5
C53
330
2
100
AcDbEntity
  8
0
  6
Continuous
 62
     7
100
AcDbLine
 10
2574.49997669597
 20
3227.999998052837
 30
0.0
 11
2574.99997669597
 21
3227.999998052857
 31
0.0
  0
ARC
  5
C54
330
2
100
AcDbEntity
  8
0
  6
Continuous
 62
     7
100
AcDbCircle
 10
2574.999976695985
 20
3227.499998052856
 30
0.0
 40
0.4999999999988347
100
AcDbArc
 50
0.0000000020322981
 51
90.00000000208439
  0
LINE
  5
C55
330
2
100
AcDbEntity
  8
0
  6
Continuous
 62
     7
100
AcDbLine
 10
2546.49997669597
 20
3227.999998051886
 30
0.0
 11
2574.49997669597
 21
3227.999998052855
 31
0.0
  0
LINE
  5
C56
330
2
100
AcDbEntity
  8
0
  6
Continuous
 62
     9
100
AcDbLine
 10
2546.49997669597
 20
3227.999998051886
 30
0.0
 11
2546.499976695985
 21
3227.499998051904
 31
0.0
  0
LINE
  5
C57
330
2
100
AcDbEntity
  8
0
  6
Continuous
 62
     7
100
AcDbLine
 10
2545.99997669597
 20
3227.999998051853
 30
0.0
 11
2546.49997669597
 21
3227.99999805187
 31
0.0
  0
ARC
  5
C58
330
2
100
AcDbEntity
  8
0
  6
Continuous
 62
     7
100
AcDbCircle
 10
2545.999976695985
 20
3227.499998051853
 30
0.0
 40
0.4999999999997229
100
AcDbArc
 50
90.00000000208439
 51
180.0000000020453
  0
LINE
  5
C59
330
2
100
AcDbEntity
  8
0
  6
Continuous
 62
     7
100
AcDbLine
 10
1435.499976697236
 20
1376.999998057397
 30
0.0
 11
1435.499976697134
 21
1378.999998057524
 31
0.0
  0
LINE
  5
C5A
330
2
100
AcDbEntity
  8
0
  6
Continuous
 62
     9
100
AcDbLine
 10
1435.499976697236
 20
1376.999998057397
 30
0.0
 11
1395.499976697236
 21
1376.999998055462
 31
0.0
  0
ARC
  5
C5B
330
2
100
AcDbEntity
  8
0
  6
Continuous
 62
     7
100
AcDbCircle
 10
1397.499976697228
 20
1376.999998055687
 30
0.0
 40
2.000000000063284
100
AcDbArc
 50
90.0000000027097
 51
180.0000000064225
  0
LINE
  5
C5C
330
2
100
AcDbEntity
  8
0
  6
Continuous
 62
     7
100
AcDbLine
 10
1435.499976697134
 20
1378.999998057524
 30
0.0
 11
1397.499976697134
 21
1378.999998055687
 31
0.0
  0
LINE
  5
C5D
330
2
100
AcDbEntity
  8
0
  6
Continuous
 62
     7
100
AcDbLine
 10
1395.499976697236
 20
1376.999998055462
 30
0.0
 11
1395.499976698156
 21
1357.999998055462
 31
0.0
  0
LINE
  5
C5E
330
2
100
AcDbEntity
  8
0
  6
Continuous
 62
     7
100
AcDbLine
 10
1435.499976698145
 20
1357.999998057397
 30
0.0
 11
1435.499976697236
 21
1376.999998057397
 31
0.0
  0
LINE
  5
C5F
330
2
100
AcDbEntity
  8
0
  6
Continuous
 62
     7
100
AcDbLine
 10
1395.499978290667
 20
3357.999998053836
 30
0.0
 11
1395.499978290387
 21
1376.999998056808
 31
0.0
  0
LINE
  5
C60
330
2
100
AcDbEntity
  8
0
  6
Continuous
 62
     7
100
AcDbLine
 10
1401.299976604936
 20
3357.999998053923
 30
0.0
 11
1401.299976604645
 21
1378.999998055872
 31
0.0
  0
LINE
  5
C61
330
2
100
AcDbEntity
  8
0
  6
Continuous
 62
     7
100
AcDbLine
 10
1401.299976604936
 20
3357.999998053809
 30
0.0
 11
1395.499978290667
 21
3357.999998053811
 31
0.0
  0
LINE
  5
C62
330
2
100
AcDbEntity
  8
0
  6
Continuous
 62
     9
100
AcDbLine
 10
1413.699974137886
 20
3357.99999805392
 30
0.0
 11
1413.699974137886
 21
3317.999998054269
 31
0.0
  0
LINE
  5
C63
330
2
100
AcDbEntity
  8
0
  6
Continuous
 62
     9
100
AcDbLine
 10
1413.699974137879
 20
3297.999998054269
 30
0.0
 11
1413.699974137606
 21
1378.999998056471
 31
0.0
  0
LINE
  5
C64
330
2
100
AcDbEntity
  8
0
  6
Continuous
 62
     7
100
AcDbLine
 10
1413.699974137886
 20
3357.99999805392
 30
0.0
 11
1401.299976604936
 21
3357.999998053923
 31
0.0
  0
LINE
  5
C65
330
2
100
AcDbEntity
  8
0
  6
Continuous
 62
     9
100
AcDbLine
 10
1414.499974184727
 20
3357.999998053895
 30
0.0
 11
1414.499974184727
 21
3317.999998054269
 31
0.0
  0
LINE
  5
C66
330
2
100
AcDbEntity
  8
0
  6
Continuous
 62
     9
100
AcDbLine
 10
1414.499974184727
 20
3297.999998054269
 30
0.0
 11
1414.499974184444
 21
1378.999998056509
 31
0.0
  0
LINE
  5
C67
330
2
100
AcDbEntity
  8
0
  6
Continuous
 62
     7
100
AcDbLine
 10
1414.499974184727
 20
3357.999998053895
 30
0.0
 11
1413.699974137886
 21
3357.999998053895
 31
0.0
  0
LINE
  5
C68
330
2
100
AcDbEntity
  8
0
  6
Continuous
 62
     7
100
AcDbLine
 10
1414.499974231578
 20
3357.999998053868
 30
0.0
 11
1414.49997423157
 21
3317.999998054269
 31
0.0
  0
LINE
  5
C69
330
2
100
AcDbEntity
  8
0
  6
Continuous
 62
     7
100
AcDbLine
 10
1414.49997423157
 20
3297.999998054269
 30
0.0
 11
1414.499974231286
 21
1378.999998056509
 31
0.0
  0
LINE
  5
C6A
330
2
100
AcDbEntity
  8
0
  6
Continuous
 62
     7
100
AcDbLine
 10
1395.499977940399
 20
3357.999998053636
 30
0.0
 11
1395.499977940104
 21
1376.999998056808
 31
0.0
  0
LINE
  5
C6B
330
2
100
AcDbEntity
  8
0
  6
Continuous
 62
     9
100
AcDbLine
 10
1441.499976696206
 20
2352.999998055324
 30
0.0
 11
1442.499976696246
 21
2352.999998055324
 31
0.0
  0
ARC
  5
C6C
330
2
100
AcDbEntity
  8
0
  6
Continuous
 62
     7
100
AcDbCircle
 10
1441.499976696246
 20
2352.999998055324
 30
0.0
 40
1.000000000000333
100
AcDbArc
 50
270.0
 51
0.0
  0
LINE
  5
C6D
330
2
100
AcDbEntity
  8
0
  6
Continuous
 62
     9
100
AcDbLine
 10
1441.499976696246
 20
2352.999998055394
 30
0.0
 11
1441.499976696246
 21
2351.999998055324
 31
0.0
  0
LINE
  5
C6E
330
2
100
AcDbEntity
  8
0
  6
Continuous
 62
     9
100
AcDbLine
 10
1423.499976696217
 20
2352.999998055397
 30
0.0
 11
1441.499976696217
 21
2352.999998055394
 31
0.0
  0
LINE
  5
C6F
330
2
100
AcDbEntity
  8
0
  6
Continuous
 62
     7
100
AcDbLine
 10
1441.499976696246
 20
2351.999998055324
 30
0.0
 11
1423.499976696257
 21
2351.999998055326
 31
0.0
  0
LINE
  5
C70
330
2
100
AcDbEntity
  8
0
  6
Continuous
 62
     9
100
AcDbLine
 10
1423.499976696257
 20
2352.999998055397
 30
0.0
 11
1423.499976696257
 21
2351.999998055326
 31
0.0
  0
LINE
  5
C71
330
2
100
AcDbEntity
  8
0
  6
Continuous
 62
     9
100
AcDbLine
 10
1441.499976696206
 20
2352.999998055394
 30
0.0
 11
1441.499976696217
 21
2370.999998055394
 31
0.0
  0
LINE
  5
C72
330
2
100
AcDbEntity
  8
0
  6
Continuous
 62
     9
100
AcDbLine
 10
1441.499976696217
 20
2370.999998055323
 30
0.0
 11
1442.499976696246
 21
2370.999998055323
 31
0.0
  0
LINE
  5
C73
330
2
100
AcDbEntity
  8
0
  6
Continuous
 62
     7
100
AcDbLine
 10
1442.499976696246
 20
2370.999998055323
 30
0.0
 11
1442.499976696246
 21
2352.999998055323
 31
0.0
  0
LINE
  5
C74
330
2
100
AcDbEntity
  8
0
  6
Continuous
 62
     9
100
AcDbLine
 10
1423.499976696217
 20
2370.999998055395
 30
0.0
 11
1423.499976696206
 21
2352.999998055397
 31
0.0
  0
LINE
  5
C75
330
2
100
AcDbEntity
  8
0
  6
Continuous
 62
     9
100
AcDbLine
 10
1441.499976696217
 20
2370.999998055394
 30
0.0
 11
1423.499976696217
 21
2370.999998055395
 31
0.0
  0
ARC
  5
C76
330
2
100
AcDbEntity
  8
0
  6
Continuous
 62
     7
100
AcDbCircle
 10
1423.499976696257
 20
2352.999998055326
 30
0.0
 40
1.000000000001222
100
AcDbArc
 50
180.0
 51
270.0
  0
LINE
  5
C77
330
2
100
AcDbEntity
  8
0
  6
Continuous
 62
     9
100
AcDbLine
 10
1422.499976696246
 20
2352.999998055326
 30
0.0
 11
1423.499976696206
 21
2352.999998055326
 31
0.0
  0
LINE
  5
C78
330
2
100
AcDbEntity
  8
0
  6
Continuous
 62
     7
100
AcDbLine
 10
1422.499976696246
 20
2352.999998055326
 30
0.0
 11
1422.499976696246
 21
2370.999998055325
 31
0.0
  0
LINE
  5
C79
330
2
100
AcDbEntity
  8
0
  6
Continuous
 62
     9
100
AcDbLine
 10
1422.499976696246
 20
2370.999998055326
 30
0.0
 11
1423.499976696217
 21
2370.999998055326
 31
0.0
  0
ARC
  5
C7A
330
2
100
AcDbEntity
  8
0
  6
Continuous
 62
     7
100
AcDbCircle
 10
1441.499976696257
 20
2370.999998055323
 30
0.0
 40
1.000000000000333
100
AcDbArc
 50
0.0
 51
90.0
  0
LINE
  5
C7B
330
2
100
AcDbEntity
  8
0
  6
Continuous
 62
     9
100
AcDbLine
 10
1441.499976696257
 20
2371.999998055324
 30
0.0
 11
1441.499976696257
 21
2370.999998055394
 31
0.0
  0
LINE
  5
C7C
330
2
100
AcDbEntity
  8
0
  6
Continuous
 62
     7
100
AcDbLine
 10
1423.499976696257
 20
2371.999998055326
 30
0.0
 11
1441.499976696257
 21
2371.999998055324
 31
0.0
  0
LINE
  5
C7D
330
2
100
AcDbEntity
  8
0
  6
Continuous
 62
     9
100
AcDbLine
 10
1423.499976696257
 20
2371.999998055326
 30
0.0
 11
1423.499976696257
 21
2370.999998055395
 31
0.0
  0
ARC
  5
C7E
330
2
100
AcDbEntity
  8
0
  6
Continuous
 62
     7
100
AcDbCircle
 10
1423.499976696257
 20
2370.999998055326
 30
0.0
 40
1.000000000000333
100
AcDbArc
 50
90.0
 51
180.000000000013
  0
LINE
  5
C7F
330
2
100
AcDbEntity
  8
0
  6
Continuous
 62
     4
100
AcDbLine
 10
1945.499976696355
 20
3357.999998053858
 30
0.0
 11
1414.499974746875
 21
3357.999998053935
 31
0.0
  0
LINE
  5
C80
330
2
100
AcDbEntity
  8
0
  6
Continuous
 62
     8
100
AcDbLine
 10
1940.499976696287
 20
1375.499998137701
 30
0.0
 11
1435.499976697305
 21
1375.499998088851
 31
0.0
  0
LINE
  5
C81
330
2
100
AcDbEntity
  8
0
  6
Continuous
 62
     8
100
AcDbLine
 10
1940.499976696206
 20
1377.999998137861
 30
0.0
 11
1435.499976697167
 21
1377.99999808901
 31
0.0
  0
LINE
  5
C82
330
2
100
AcDbEntity
  8
0
  6
Continuous
 62
     8
100
AcDbLine
 10
1940.499976697745
 20
1360.499998137702
 30
0.0
 11
1435.499976698025
 21
1360.499998088851
 31
0.0
  0
LINE
  5
C83
330
2
100
AcDbEntity
  8
0
  6
Continuous
 62
     7
100
AcDbLine
 10
1940.499976696854
 20
1377.999998055475
 30
0.0
 11
1940.499976696854
 21
1380.499998055474
 31
0.0
  0
LINE
  5
C84
330
2
100
AcDbEntity
  8
0
  6
Continuous
 62
     7
100
AcDbLine
 10
1940.499976696854
 20
1380.499998055474
 30
0.0
 11
1945.499976696355
 21
1380.499998055474
 31
0.0
  0
LINE
  5
C85
330
2
100
AcDbEntity
  8
0
  6
Continuous
 62
     7
100
AcDbLine
 10
1980.499976695897
 20
1357.999998054516
 30
0.0
 11
1980.499976695897
 21
1377.999998054517
 31
0.0
  0
LINE
  5
C86
330
2
100
AcDbEntity
  8
0
  6
Continuous
 62
     7
100
AcDbLine
 10
1980.499976695897
 20
1357.999998054516
 30
0.0
 11
1942.499976695897
 21
1357.999998054516
 31
0.0
  0
LINE
  5
C87
330
2
100
AcDbEntity
  8
0
  6
Continuous
 62
     9
100
AcDbLine
 10
1942.499976695897
 20
1377.999998054517
 30
0.0
 11
1942.499976695897
 21
1357.999998054516
 31
0.0
  0
LINE
  5
C88
330
2
100
AcDbEntity
  8
0
  6
Continuous
 62
     7
100
AcDbLine
 10
1980.499976695897
 20
1377.999998054517
 30
0.0
 11
1942.499976695897
 21
1377.999998054517
 31
0.0
  0
LINE
  5
C89
330
2
100
AcDbEntity
  8
0
  6
Continuous
 62
     7
100
AcDbLine
 10
1940.499976696028
 20
1357.999998054645
 30
0.0
 11
1940.499976696028
 21
1377.999998054645
 31
0.0
  0
LINE
  5
C8A
330
2
100
AcDbEntity
  8
0
  6
Continuous
 62
     7
100
AcDbLine
 10
1942.499976695897
 20
1357.999998054645
 30
0.0
 11
1940.563484975118
 21
1357.999998054645
 31
0.0
  0
LINE
  5
C8B
330
2
100
AcDbEntity
  8
0
  6
Continuous
 62
     7
100
AcDbLine
 10
1940.563484975118
 20
1357.999998054645
 30
0.0
 11
1940.499976696017
 21
1357.999998054645
 31
0.0
  0
LINE
  5
C8C
330
2
100
AcDbEntity
  8
0
  6
Continuous
 62
     7
100
AcDbLine
 10
1940.499976696028
 20
1377.999998054645
 30
0.0
 11
1942.499976695897
 21
1377.999998054645
 31
0.0
  0
LINE
  5
C8D
330
2
100
AcDbEntity
  8
0
  6
Continuous
 62
     4
100
AcDbLine
 10
1945.499976696355
 20
3357.99999805499
 30
0.0
 11
2595.499976696356
 21
3357.99999805499
 31
0.0
  0
LINE
  5
C8E
330
2
100
AcDbEntity
  8
0
  6
Continuous
 62
     4
100
AcDbLine
 10
2595.499976696356
 20
1357.999998054989
 30
0.0
 11
2595.499976696356
 21
3357.99999805499
 31
0.0
  0
LINE
  5
C8F
330
2
100
AcDbEntity
  8
0
  6
Continuous
 62
     4
100
AcDbLine
 10
1945.499976696355
 20
1377.999998055413
 30
0.0
 11
1945.499976696355
 21
3357.99999805499
 31
0.0
  0
LINE
  5
C90
330
2
100
AcDbEntity
  8
0
  6
Continuous
 62
     7
100
AcDbLine
 10
2595.499976696487
 20
1307.999998054613
 30
0.0
 11
2595.499976696487
 21
1357.999998054612
 31
0.0
  0
LINE
  5
C91
330
2
100
AcDbEntity
  8
0
  6
Continuous
 62
     7
100
AcDbLine
 10
2595.499976696487
 20
1307.999998054613
 30
0.0
 11
1395.499976696486
 21
1307.999998054613
 31
0.0
  0
LINE
  5
C92
330
2
100
AcDbEntity
  8
0
  6
Continuous
 62
     7
100
AcDbLine
 10
1395.499976696486
 20
1307.999998054613
 30
0.0
 11
1395.499976696486
 21
1357.999998054612
 31
0.0
  0
LINE
  5
C93
330
2
100
AcDbEntity
  8
0
  6
Continuous
 62
     7
100
AcDbLine
 10
2595.499976696487
 20
1357.999998054612
 30
0.0
 11
1980.499976696785
 21
1357.999998054612
 31
0.0
  0
LINE
  5
C94
330
2
100
AcDbEntity
  8
0
  6
Continuous
 62
     7
100
AcDbLine
 10
1940.563484975118
 20
1357.999998054612
 30
0.0
 11
1395.499976696486
 21
1357.999998054612
 31
0.0
  0
LINE
  5
C95
330
2
100
AcDbEntity
  8
0
  6
Continuous
 62
     7
100
AcDbLine
 10
1945.499976696355
 20
3317.999998054269
 30
0.0
 11
1903.999976697996
 21
3317.999998054269
 31
0.0
  0
LINE
  5
C96
330
2
100
AcDbEntity
  8
0
  6
Continuous
 62
     7
100
AcDbLine
 10
1888.999976696155
 20
3317.999998054269
 30
0.0
 11
1461.999976697916
 21
3317.999998054269
 31
0.0
  0
LINE
  5
C97
330
2
100
AcDbEntity
  8
0
  6
Continuous
 62
     7
100
AcDbLine
 10
1446.999976696257
 20
3317.999998054269
 30
0.0
 11
1410.499976696937
 21
3317.999998054269
 31
0.0
  0
LINE
  5
C98
330
2
100
AcDbEntity
  8
0
  6
Continuous
 62
     7
100
AcDbLine
 10
1410.499976696937
 20
3297.999998054269
 30
0.0
 11
1945.499976696355
 21
3297.99999805427
 31
0.0
  0
LINE
  5
C99
330
2
100
AcDbEntity
  8
0
  6
Continuous
 62
     7
100
AcDbLine
 10
3840.999976818279
 20
1517.999998055653
 30
0.0
 11
3840.999976818304
 21
1497.999998055653
 31
0.0
  0
LINE
  5
C9A
330
2
100
AcDbEntity
  8
0
  6
Continuous
 62
     7
100
AcDbLine
 10
3840.999976818279
 20
1517.999998055653
 30
0.0
 11
3844.499976837477
 21
1517.99999805587
 31
0.0
  0
LINE
  5
C9B
330
2
100
AcDbEntity
  8
0
  6
Continuous
 62
     7
100
AcDbLine
 10
3840.999976818304
 20
1497.999998055653
 30
0.0
 11
3844.499976838146
 21
1497.999998055869
 31
0.0
  0
LINE
  5
C9C
330
2
100
AcDbEntity
  8
0
  6
Continuous
 62
     7
100
AcDbLine
 10
3830.999976816886
 20
1487.999998054282
 30
0.0
 11
3844.499976838484
 21
1487.999998054307
 31
0.0
  0
LINE
  5
C9D
330
2
100
AcDbEntity
  8
0
  6
Continuous
 62
     7
100
AcDbLine
 10
3830.999976816821
 20
1527.999998054282
 30
0.0
 11
3830.999976816886
 21
1487.999998054282
 31
0.0
  0
LINE
  5
C9E
330
2
100
AcDbEntity
  8
0
  6
Continuous
 62
     7
100
AcDbLine
 10
3844.499976837145
 20
1527.999998054307
 30
0.0
 11
3830.999976816821
 21
1527.999998054282
 31
0.0
  0
LINE
  5
C9F
330
2
100
AcDbEntity
  8
0
  6
Continuous
 62
     7
100
AcDbLine
 10
3840.999976761349
 20
3217.999998055729
 30
0.0
 11
3840.999976761377
 21
3197.999998055728
 31
0.0
  0
LINE
  5
CA0
330
2
100
AcDbEntity
  8
0
  6
Continuous
 62
     7
100
AcDbLine
 10
3840.999976761349
 20
3217.999998055729
 30
0.0
 11
3844.499976780627
 21
3217.99999805595
 31
0.0
  0
LINE
  5
CA1
330
2
100
AcDbEntity
  8
0
  6
Continuous
 62
     7
100
AcDbLine
 10
3840.999976761377
 20
3197.999998055728
 30
0.0
 11
3844.499976781306
 21
3197.999998055952
 31
0.0
  0
LINE
  5
CA2
330
2
100
AcDbEntity
  8
0
  6
Continuous
 62
     7
100
AcDbLine
 10
3830.999976759948
 20
3187.999998054327
 30
0.0
 11
3844.499976781637
 21
3187.999998054352
 31
0.0
  0
LINE
  5
CA3
330
2
100
AcDbEntity
  8
0
  6
Continuous
 62
     7
100
AcDbLine
 10
3830.999976759886
 20
3227.999998054328
 30
0.0
 11
3830.999976759948
 21
3187.999998054327
 31
0.0
  0
LINE
  5
CA4
330
2
100
AcDbEntity
  8
0
  6
Continuous
 62
     7
100
AcDbLine
 10
3844.499976780298
 20
3227.999998054352
 30
0.0
 11
3830.999976759886
 21
3227.999998054328
 31
0.0
  0
LINE
  5
CA5
330
2
100
AcDbEntity
  8
0
  6
Continuous
 62
     7
100
AcDbLine
 10
3857.999976758279
 20
3282.494151216498
 30
0.0
 11
3857.999976758279
 21
3289.999998053598
 31
0.0
  0
LINE
  5
CA6
330
2
100
AcDbEntity
  8
0
  6
Continuous
 62
     7
100
AcDbLine
 10
3857.999976758279
 20
3289.999998053598
 30
0.0
 11
3857.999976758279
 21
3297.505844890699
 31
0.0
  0
LINE
  5
CA7
330
2
100
AcDbEntity
  8
0
  6
Continuous
 62
     9
100
AcDbLine
 10
3875.499976758268
 20
3282.499998053598
 30
0.0
 11
3875.499976758268
 21
3289.999998053598
 31
0.0
  0
LINE
  5
CA8
330
2
100
AcDbEntity
  8
0
  6
Continuous
 62
     9
100
AcDbLine
 10
3875.499976758268
 20
3289.999998053598
 30
0.0
 11
3875.499976758268
 21
3297.499998053599
 31
0.0
  0
LINE
  5
CA9
330
2
100
AcDbEntity
  8
0
  6
Continuous
 62
     7
100
AcDbLine
 10
3875.999976758278
 20
3282.999998053598
 30
0.0
 11
3875.999976758278
 21
3289.999998053598
 31
0.0
  0
LINE
  5
CAA
330
2
100
AcDbEntity
  8
0
  6
Continuous
 62
     7
100
AcDbLine
 10
3875.999976758278
 20
3289.999998053598
 30
0.0
 11
3875.999976758278
 21
3296.999998053599
 31
0.0
  0
LINE
  5
CAB
330
2
100
AcDbEntity
  8
0
  6
Continuous
 62
     7
100
AcDbLine
 10
3840.299976758056
 20
3302.499998053598
 30
0.0
 11
3840.299976758056
 21
3277.499998053597
 31
0.0
  0
LINE
  5
CAC
330
2
100
AcDbEntity
  8
0
  6
Continuous
 62
     7
100
AcDbLine
 10
3839.999976758056
 20
3277.799998053598
 30
0.0
 11
3839.999976758056
 21
3302.199998053597
 31
0.0
  0
LINE
  5
CAD
330
2
100
AcDbEntity
  8
0
  6
Continuous
 62
     7
100
AcDbLine
 10
3877.999976758056
 20
3317.499998053645
 30
0.0
 11
3877.999976758056
 21
3327.999998053647
 31
0.0
  0
LINE
  5
CAE
330
2
100
AcDbEntity
  8
0
  6
Continuous
 62
     7
100
AcDbLine
 10
3877.464078373196
 20
3315.499998053644
 30
0.0
 11
3877.464078373196
 21
3327.999998053647
 31
0.0
  0
LINE
  5
CAF
330
2
100
AcDbEntity
  8
0
  6
Continuous
 62
     7
100
AcDbLine
 10
3877.999976758056
 20
3327.999998053647
 30
0.0
 11
3877.999976758056
 21
3338.499998053645
 31
0.0
  0
LINE
  5
CB0
330
2
100
AcDbEntity
  8
0
  6
Continuous
 62
     7
100
AcDbLine
 10
3877.464078373196
 20
3327.999998053647
 30
0.0
 11
3877.464078373196
 21
3340.499998053644
 31
0.0
  0
LINE
  5
CB1
330
2
100
AcDbEntity
  8
0
  6
Continuous
 62
     7
100
AcDbLine
 10
3876.499976758056
 20
3315.499998053644
 30
0.0
 11
3876.499976758056
 21
3327.999998053647
 31
0.0
  0
LINE
  5
CB2
330
2
100
AcDbEntity
  8
0
  6
Continuous
 62
     7
100
AcDbLine
 10
3876.499976758056
 20
3327.999998053647
 30
0.0
 11
3876.499976758056
 21
3340.499998053644
 31
0.0
  0
LINE
  5
CB3
330
2
100
AcDbEntity
  8
0
  6
Continuous
 62
     7
100
AcDbLine
 10
3840.299976758056
 20
3340.499998053663
 30
0.0
 11
3840.299976758056
 21
3315.499998053662
 31
0.0
  0
LINE
  5
CB4
330
2
100
AcDbEntity
  8
0
  6
Continuous
 62
     7
100
AcDbLine
 10
3839.999976758056
 20
3315.799998053664
 30
0.0
 11
3839.999976758056
 21
3340.199998053662
 31
0.0
  0
LINE
  5
CB5
330
2
100
AcDbEntity
  8
0
  6
Continuous
 62
     7
100
AcDbLine
 10
3861.199241503687
 20
3315.683134694905
 30
0.0
 11
3861.199241503687
 21
3337.645067109764
 31
0.0
  0
LINE
  5
CB6
330
2
100
AcDbEntity
  8
0
  6
Continuous
 62
     9
100
AcDbLine
 10
3860.499976758045
 20
3340.499998053644
 30
0.0
 11
3860.499976758045
 21
3315.499998053644
 31
0.0
  0
LINE
  5
CB7
330
2
100
AcDbEntity
  8
0
  6
Continuous
 62
     7
100
AcDbLine
 10
3861.199241503687
 20
3337.645067109764
 30
0.0
 11
3861.199241503687
 21
3340.499998053644
 31
0.0
  0
LINE
  5
CB8
330
2
100
AcDbEntity
  8
0
  6
Continuous
 62
     7
100
AcDbLine
 10
3874.800712012428
 20
3340.499998053644
 30
0.0
 11
3874.800712012428
 21
3315.499998053644
 31
0.0
  0
LINE
  5
CB9
330
2
100
AcDbEntity
  8
0
  6
Continuous
 62
     7
100
AcDbLine
 10
3859.999976758056
 20
3315.999998053645
 30
0.0
 11
3859.999976758056
 21
3339.999998053645
 31
0.0
  0
LINE
  5
CBA
330
2
100
AcDbEntity
  8
0
  6
Continuous
 62
     9
100
AcDbLine
 10
3875.499976758057
 20
3315.499998053644
 30
0.0
 11
3875.499976758057
 21
3337.645067109764
 31
0.0
  0
LINE
  5
CBB
330
2
100
AcDbEntity
  8
0
  6
Continuous
 62
     7
100
AcDbLine
 10
3875.999976758056
 20
3339.999998053645
 30
0.0
 11
3875.999976758056
 21
3337.25926434752
 31
0.0
  0
LINE
  5
CBC
330
2
100
AcDbEntity
  8
0
  6
Continuous
 62
     9
100
AcDbLine
 10
3875.499976758057
 20
3337.645067109764
 30
0.0
 11
3875.499976758057
 21
3340.499998053644
 31
0.0
  0
LINE
  5
CBD
330
2
100
AcDbEntity
  8
0
  6
Continuous
 62
     7
100
AcDbLine
 10
3875.999976758056
 20
3337.25926434752
 30
0.0
 11
3875.999976758056
 21
3315.999998053645
 31
0.0
  0
LINE
  5
CBE
330
2
100
AcDbEntity
  8
0
  6
Continuous
 62
     7
100
AcDbLine
 10
3859.499976758056
 20
3340.499998053644
 30
0.0
 11
3859.499976758056
 21
3321.684058825758
 31
0.0
  0
LINE
  5
CBF
330
2
100
AcDbEntity
  8
0
  6
Continuous
 62
     7
100
AcDbLine
 10
3859.499976758056
 20
3321.684058825758
 30
0.0
 11
3859.499976758056
 21
3315.499998053644
 31
0.0
  0
LINE
  5
CC0
330
2
100
AcDbEntity
  8
0
  6
Continuous
 62
     7
100
AcDbLine
 10
3895.699976758937
 20
3295.499998055216
 30
0.0
 11
3895.699976758105
 21
3320.499998055216
 31
0.0
  0
LINE
  5
CC1
330
2
100
AcDbEntity
  8
0
  6
Continuous
 62
     7
100
AcDbLine
 10
3895.999976758119
 20
3320.199998055227
 30
0.0
 11
3895.999976758929
 21
3295.799998055227
 31
0.0
  0
LINE
  5
CC2
330
2
100
AcDbEntity
  8
0
  6
Continuous
 62
     7
100
AcDbLine
 10
3889.999976758936
 20
3295.499998055026
 30
0.0
 11
3889.999976758096
 21
3320.499998055026
 31
0.0
  0
CIRCLE
  5
CC3
330
2
100
AcDbEntity
  8
0
  6
Continuous
 62
     7
100
AcDbCircle
 10
3867.599976724054
 20
3307.999998054269
 30
0.0
 40
9.999999999999786
  0
CIRCLE
  5
CC4
330
2
100
AcDbEntity
  8
0
  6
Continuous
 62
     7
100
AcDbCircle
 10
3867.599976724054
 20
3307.999998054269
 30
0.0
 40
8.499999999999726
  0
LINE
  5
CC5
330
2
100
AcDbEntity
  8
0
  6
Continuous
 62
     7
100
AcDbLine
 10
3893.999976523348
 20
1527.999998053858
 30
0.0
 11
3894.499976523349
 21
1527.999998053874
 31
0.0
  0
ARC
  5
CC6
330
2
100
AcDbEntity
  8
0
  6
Continuous
 62
     7
100
AcDbCircle
 10
3894.499976523356
 20
1527.499998053874
 30
0.0
 40
0.4999999999997229
100
AcDbArc
 50
0.0000000020322981
 51
90.00000000208439
  0
LINE
  5
CC7
330
2
100
AcDbEntity
  8
0
  6
Continuous
 62
     9
100
AcDbLine
 10
3894.999976523371
 20
1527.499998053892
 30
0.0
 11
3893.999976523355
 21
1527.499998053858
 31
0.0
  0
LINE
  5
CC8
330
2
100
AcDbEntity
  8
0
  6
Continuous
 62
     9
100
AcDbLine
 10
3893.999976523348
 20
1527.99999805384
 30
0.0
 11
3893.999976523355
 21
1527.499998053823
 31
0.0
  0
LINE
  5
CC9
330
2
100
AcDbEntity
  8
0
  6
Continuous
 62
     7
100
AcDbLine
 10
3889.999976523348
 20
1527.999998053707
 30
0.0
 11
3893.999976523348
 21
1527.99999805384
 31
0.0
  0
LINE
  5
CCA
330
2
100
AcDbEntity
  8
0
  6
Continuous
 62
     9
100
AcDbLine
 10
3893.999976523355
 20
1527.499998053823
 30
0.0
 11
3889.999976523355
 21
1527.499998053689
 31
0.0
  0
LINE
  5
CCB
330
2
100
AcDbEntity
  8
0
  6
Continuous
 62
     7
100
AcDbLine
 10
3889.999976523355
 20
1527.499998053689
 30
0.0
 11
3889.999976523348
 21
1527.999998053707
 31
0.0
  0
LINE
  5
CCC
330
2
100
AcDbEntity
  8
0
  6
Continuous
 62
     7
100
AcDbLine
 10
3894.999976524669
 20
1488.499998053892
 30
0.0
 11
3894.999976523371
 21
1527.499998053892
 31
0.0
  0
LINE
  5
CCD
330
2
100
AcDbEntity
  8
0
  6
Continuous
 62
     9
100
AcDbLine
 10
3893.999976524668
 20
1488.499998053858
 30
0.0
 11
3894.999976524669
 21
1488.499998053892
 31
0.0
  0
LINE
  5
CCE
330
2
100
AcDbEntity
  8
0
  6
Continuous
 62
     9
100
AcDbLine
 10
3893.999976524668
 20
1488.499998053824
 30
0.0
 11
3893.999976523355
 21
1527.499998053823
 31
0.0
  0
LINE
  5
CCF
330
2
100
AcDbEntity
  8
0
  6
Continuous
 62
     9
100
AcDbLine
 10
3889.99997652467
 20
1488.499998053688
 30
0.0
 11
3893.999976524668
 21
1488.499998053824
 31
0.0
  0
LINE
  5
CD0
330
2
100
AcDbEntity
  8
0
  6
Continuous
 62
     7
100
AcDbLine
 10
3889.99997652467
 20
1488.499998053688
 30
0.0
 11
3889.999976523355
 21
1527.499998053689
 31
0.0
  0
ARC
  5
CD1
330
2
100
AcDbEntity
  8
0
  6
Continuous
 62
     7
100
AcDbCircle
 10
3894.499976524676
 20
1488.499998053874
 30
0.0
 40
0.4999999999988347
100
AcDbArc
 50
270.0000000018759
 51
0.0000000019280777
  0
LINE
  5
CD2
330
2
100
AcDbEntity
  8
0
  6
Continuous
 62
     7
100
AcDbLine
 10
3894.499976524699
 20
1487.999998053874
 30
0.0
 11
3893.999976524688
 21
1487.999998053858
 31
0.0
  0
LINE
  5
CD3
330
2
100
AcDbEntity
  8
0
  6
Continuous
 62
     9
100
AcDbLine
 10
3893.999976524668
 20
1488.499998053824
 30
0.0
 11
3893.999976524688
 21
1487.99999805384
 31
0.0
  0
LINE
  5
CD4
330
2
100
AcDbEntity
  8
0
  6
Continuous
 62
     7
100
AcDbLine
 10
3893.999976524688
 20
1487.99999805384
 30
0.0
 11
3889.999976524688
 21
1487.999998053707
 31
0.0
  0
LINE
  5
CD5
330
2
100
AcDbEntity
  8
0
  6
Continuous
 62
     7
100
AcDbLine
 10
3889.999976524688
 20
1487.999998053707
 30
0.0
 11
3889.99997652467
 21
1488.499998053688
 31
0.0
  0
LINE
  5
CD6
330
2
100
AcDbEntity
  8
0
  6
Continuous
 62
     7
100
AcDbLine
 10
3889.999976821386
 20
1526.999998053799
 30
0.0
 11
3888.999976821386
 21
1526.999998053765
 31
0.0
  0
LINE
  5
CD7
330
2
100
AcDbEntity
  8
0
  6
Continuous
 62
     9
100
AcDbLine
 10
3889.999976821456
 20
1524.999998053728
 30
0.0
 11
3888.999976821455
 21
1524.999998053694
 31
0.0
  0
LINE
  5
CD8
330
2
100
AcDbEntity
  8
0
  6
Continuous
 62
     9
100
AcDbLine
 10
3889.999976822586
 20
1490.99999805373
 30
0.0
 11
3888.999976822587
 21
1490.999998053696
 31
0.0
  0
LINE
  5
CD9
330
2
100
AcDbEntity
  8
0
  6
Continuous
 62
     7
100
AcDbLine
 10
3889.999976822667
 20
1488.999998053799
 30
0.0
 11
3888.999976822667
 21
1488.999998053766
 31
0.0
  0
LINE
  5
CDA
330
2
100
AcDbEntity
  8
0
  6
Continuous
 62
     7
100
AcDbLine
 10
3829.999976822779
 20
1487.999998053355
 30
0.0
 11
3829.999976821429
 21
1527.999998053354
 31
0.0
  0
LINE
  5
CDB
330
2
100
AcDbEntity
  8
0
  6
Continuous
 62
     7
100
AcDbLine
 10
3829.999976821429
 20
1527.999998057286
 30
0.0
 11
3830.999976816821
 21
1527.99999805732
 31
0.0
  0
LINE
  5
CDC
330
2
100
AcDbEntity
  8
0
  6
Continuous
 62
     7
100
AcDbLine
 10
3829.999976822779
 20
1487.999998057286
 30
0.0
 11
3830.999976816886
 21
1487.99999805732
 31
0.0
  0
LINE
  5
CDD
330
2
100
AcDbEntity
  8
0
  6
Continuous
 62
     7
100
AcDbLine
 10
3893.999976463194
 20
3227.99999805187
 30
0.0
 11
3894.499976463194
 21
3227.999998051887
 31
0.0
  0
ARC
  5
CDE
330
2
100
AcDbEntity
  8
0
  6
Continuous
 62
     7
100
AcDbCircle
 10
3894.499976463216
 20
3227.499998051886
 30
0.0
 40
0.5000000000006111
100
AcDbArc
 50
0.0000000020453257
 51
90.00000000208439
  0
LINE
  5
CDF
330
2
100
AcDbEntity
  8
0
  6
Continuous
 62
     9
100
AcDbLine
 10
3894.999976463216
 20
3227.499998051904
 30
0.0
 11
3893.999976463205
 21
3227.499998051871
 31
0.0
  0
LINE
  5
CE0
330
2
100
AcDbEntity
  8
0
  6
Continuous
 62
     9
100
AcDbLine
 10
3893.999976463194
 20
3227.999998051853
 30
0.0
 11
3893.999976463216
 21
3227.499998051835
 31
0.0
  0
LINE
  5
CE1
330
2
100
AcDbEntity
  8
0
  6
Continuous
 62
     7
100
AcDbLine
 10
3889.999976463194
 20
3227.999998051718
 30
0.0
 11
3893.999976463194
 21
3227.999998051853
 31
0.0
  0
LINE
  5
CE2
330
2
100
AcDbEntity
  8
0
  6
Continuous
 62
     9
100
AcDbLine
 10
3893.999976463205
 20
3227.499998051835
 30
0.0
 11
3889.999976463205
 21
3227.499998051702
 31
0.0
  0
LINE
  5
CE3
330
2
100
AcDbEntity
  8
0
  6
Continuous
 62
     7
100
AcDbLine
 10
3889.999976463205
 20
3227.499998051702
 30
0.0
 11
3889.999976463194
 21
3227.999998051718
 31
0.0
  0
LINE
  5
CE4
330
2
100
AcDbEntity
  8
0
  6
Continuous
 62
     7
100
AcDbLine
 10
3894.999976464518
 20
3188.499998051903
 30
0.0
 11
3894.999976463216
 21
3227.499998051904
 31
0.0
  0
LINE
  5
CE5
330
2
100
AcDbEntity
  8
0
  6
Continuous
 62
     9
100
AcDbLine
 10
3893.999976464518
 20
3188.499998051869
 30
0.0
 11
3894.999976464518
 21
3188.499998051903
 31
0.0
  0
LINE
  5
CE6
330
2
100
AcDbEntity
  8
0
  6
Continuous
 62
     9
100
AcDbLine
 10
3893.999976464518
 20
3188.499998051836
 30
0.0
 11
3893.999976463205
 21
3227.499998051835
 31
0.0
  0
LINE
  5
CE7
330
2
100
AcDbEntity
  8
0
  6
Continuous
 62
     9
100
AcDbLine
 10
3889.999976464518
 20
3188.499998051702
 30
0.0
 11
3893.999976464518
 21
3188.499998051836
 31
0.0
  0
LINE
  5
CE8
330
2
100
AcDbEntity
  8
0
  6
Continuous
 62
     7
100
AcDbLine
 10
3889.999976464518
 20
3188.499998051702
 30
0.0
 11
3889.999976463205
 21
3227.499998051702
 31
0.0
  0
ARC
  5
CE9
330
2
100
AcDbEntity
  8
0
  6
Continuous
 62
     7
100
AcDbCircle
 10
3894.499976464518
 20
3188.499998051887
 30
0.0
 40
0.4999999999988347
100
AcDbArc
 50
270.0000000018759
 51
0.0000000019280777
  0
LINE
  5
CEA
330
2
100
AcDbEntity
  8
0
  6
Continuous
 62
     7
100
AcDbLine
 10
3894.499976464537
 20
3187.999998051888
 30
0.0
 11
3893.999976464537
 21
3187.99999805187
 31
0.0
  0
LINE
  5
CEB
330
2
100
AcDbEntity
  8
0
  6
Continuous
 62
     9
100
AcDbLine
 10
3893.999976464518
 20
3188.499998051836
 30
0.0
 11
3893.999976464537
 21
3187.999998051852
 31
0.0
  0
LINE
  5
CEC
330
2
100
AcDbEntity
  8
0
  6
Continuous
 62
     7
100
AcDbLine
 10
3893.999976464537
 20
3187.999998051852
 30
0.0
 11
3889.999976464537
 21
3187.999998051719
 31
0.0
  0
LINE
  5
CED
330
2
100
AcDbEntity
  8
0
  6
Continuous
 62
     7
100
AcDbLine
 10
3889.999976464537
 20
3187.999998051719
 30
0.0
 11
3889.999976464518
 21
3188.499998051702
 31
0.0
  0
LINE
  5
CEE
330
2
100
AcDbEntity
  8
0
  6
Continuous
 62
     7
100
AcDbLine
 10
3889.999976761239
 20
3226.999998051812
 30
0.0
 11
3888.999976761239
 21
3226.999998051777
 31
0.0
  0
LINE
  5
CEF
330
2
100
AcDbEntity
  8
0
  6
Continuous
 62
     9
100
AcDbLine
 10
3889.999976761305
 20
3224.999998051742
 30
0.0
 11
3888.999976761305
 21
3224.999998051707
 31
0.0
  0
LINE
  5
CF0
330
2
100
AcDbEntity
  8
0
  6
Continuous
 62
     9
100
AcDbLine
 10
3889.999976762436
 20
3190.99999805174
 30
0.0
 11
3888.999976762447
 21
3190.999998051708
 31
0.0
  0
LINE
  5
CF1
330
2
100
AcDbEntity
  8
0
  6
Continuous
 62
     7
100
AcDbLine
 10
3889.999976762505
 20
3188.999998051811
 30
0.0
 11
3888.999976762505
 21
3188.999998051778
 31
0.0
  0
LINE
  5
CF2
330
2
100
AcDbEntity
  8
0
  6
Continuous
 62
     7
100
AcDbLine
 10
3829.999976762545
 20
3187.999998051357
 30
0.0
 11
3829.999976761206
 21
3227.999998051357
 31
0.0
  0
LINE
  5
CF3
330
2
100
AcDbEntity
  8
0
  6
Continuous
 62
     7
100
AcDbLine
 10
3829.999976761206
 20
3227.99999805526
 30
0.0
 11
3830.999976759886
 21
3227.999998055293
 31
0.0
  0
LINE
  5
CF4
330
2
100
AcDbEntity
  8
0
  6
Continuous
 62
     7
100
AcDbLine
 10
3829.999976762545
 20
3187.999998055259
 30
0.0
 11
3830.999976759948
 21
3187.999998055295
 31
0.0
  0
LINE
  5
CF5
330
2
100
AcDbEntity
  8
0
  6
Continuous
 62
     7
100
AcDbLine
 10
3879.499976805146
 20
1377.99999805554
 30
0.0
 11
3879.249976805146
 21
1377.999998055556
 31
0.0
  0
LINE
  5
CF6
330
2
100
AcDbEntity
  8
0
  6
Continuous
 62
     7
100
AcDbLine
 10
3879.249976805146
 20
1377.999998055556
 30
0.0
 11
3879.249976805077
 21
1376.999998055542
 31
0.0
  0
LINE
  5
CF7
330
2
100
AcDbEntity
  8
0
  6
Continuous
 62
     9
100
AcDbLine
 10
3879.249976805077
 20
1376.999998055542
 30
0.0
 11
3859.749976805087
 21
1376.999998056791
 31
0.0
  0
LINE
  5
CF8
330
2
100
AcDbEntity
  8
0
  6
Continuous
 62
     7
100
AcDbLine
 10
3859.749976805078
 20
1376.999998056791
 30
0.0
 11
3859.749976805146
 21
1377.999998056805
 31
0.0
  0
LINE
  5
CF9
330
2
100
AcDbEntity
  8
0
  6
Continuous
 62
     7
100
AcDbLine
 10
3859.749976805146
 20
1377.999998056805
 30
0.0
 11
3859.499976805146
 21
1377.999998056821
 31
0.0
  0
LINE
  5
CFA
330
2
100
AcDbEntity
  8
0
  6
Continuous
 62
     7
100
AcDbLine
 10
3859.499976805146
 20
1377.999998056821
 30
0.0
 11
3859.499976805088
 21
1376.999998056808
 31
0.0
  0
LINE
  5
CFB
330
2
100
AcDbEntity
  8
0
  6
Continuous
 62
     9
100
AcDbLine
 10
3859.499976805088
 20
1376.999998056808
 30
0.0
 11
3858.499976805088
 21
1376.999998056871
 31
0.0
  0
ARC
  5
CFC
330
2
100
AcDbEntity
  8
0
  6
Continuous
 62
     7
100
AcDbCircle
 10
3860.499976805078
 20
1376.999998056841
 30
0.0
 40
2.000000000048629
100
AcDbArc
 50
89.99999999624805
 51
179.9999999991011
  0
LINE
  5
CFD
330
2
100
AcDbEntity
  8
0
  6
Continuous
 62
     7
100
AcDbLine
 10
3860.499976805204
 20
1378.999998056841
 30
0.0
 11
3878.499976805204
 21
1378.999998055687
 31
0.0
  0
ARC
  5
CFE
330
2
100
AcDbEntity
  8
0
  6
Continuous
 62
     7
100
AcDbCircle
 10
3878.499976805077
 20
1376.999998055687
 30
0.0
 40
2.000000000049073
100
AcDbArc
 50
359.9999999935644
 51
89.99999999624805
  0
LINE
  5
CFF
330
2
100
AcDbEntity
  8
0
  6
Continuous
 62
     9
100
AcDbLine
 10
3880.499976805089
 20
1376.999998055463
 30
0.0
 11
3879.499976805088
 21
1376.999998055527
 31
0.0
  0
LINE
  5
D00
330
2
100
AcDbEntity
  8
0
  6
Continuous
 62
     7
100
AcDbLine
 10
3879.499976805088
 20
1376.999998055527
 30
0.0
 11
3879.499976805146
 21
1377.99999805554
 31
0.0
  0
LINE
  5
D01
330
2
100
AcDbEntity
  8
0
  6
Continuous
 62
     7
100
AcDbLine
 10
3859.499976803869
 20
1357.999998056808
 30
0.0
 11
3858.499976803869
 21
1357.999998056873
 31
0.0
  0
LINE
  5
D02
330
2
100
AcDbEntity
  8
0
  6
Continuous
 62
     7
100
AcDbLine
 10
3858.499976803869
 20
1357.999998056873
 30
0.0
 11
3858.499976805088
 21
1376.999998056871
 31
0.0
  0
LINE
  5
D03
330
2
100
AcDbEntity
  8
0
  6
Continuous
 62
     7
100
AcDbLine
 10
3859.499976803869
 20
1357.999998056808
 30
0.0
 11
3859.499976805088
 21
1376.999998056808
 31
0.0
  0
LINE
  5
D04
330
2
100
AcDbEntity
  8
0
  6
Continuous
 62
     7
100
AcDbLine
 10
3879.249976803869
 20
1357.999998055542
 30
0.0
 11
3859.74997680387
 21
1357.999998056791
 31
0.0
  0
LINE
  5
D05
330
2
100
AcDbEntity
  8
0
  6
Continuous
 62
     7
100
AcDbLine
 10
3879.249976805077
 20
1376.999998055542
 30
0.0
 11
3879.249976803869
 21
1357.999998055542
 31
0.0
  0
LINE
  5
D06
330
2
100
AcDbEntity
  8
0
  6
Continuous
 62
     7
100
AcDbLine
 10
3859.749976805087
 20
1376.999998056791
 30
0.0
 11
3859.74997680387
 21
1357.999998056791
 31
0.0
  0
LINE
  5
D07
330
2
100
AcDbEntity
  8
0
  6
Continuous
 62
     7
100
AcDbLine
 10
3880.499976803869
 20
1357.999998055462
 30
0.0
 11
3879.499976803869
 21
1357.999998055527
 31
0.0
  0
LINE
  5
D08
330
2
100
AcDbEntity
  8
0
  6
Continuous
 62
     7
100
AcDbLine
 10
3880.499976805089
 20
1376.999998055463
 30
0.0
 11
3880.499976803869
 21
1357.999998055462
 31
0.0
  0
LINE
  5
D09
330
2
100
AcDbEntity
  8
0
  6
Continuous
 62
     7
100
AcDbLine
 10
3879.499976803869
 20
1357.999998055527
 30
0.0
 11
3879.499976805088
 21
1376.999998055527
 31
0.0
  0
ARC
  5
D0A
330
2
100
AcDbEntity
  8
0
  6
Continuous
 62
     7
100
AcDbCircle
 10
3860.499976805078
 20
1376.999998056841
 30
0.0
 40
0.9999999999976694
100
AcDbArc
 50
138.5903778870142
 51
179.9999999963392
  0
ARC
  5
D0B
330
2
100
AcDbEntity
  8
0
  6
Continuous
 62
     7
100
AcDbCircle
 10
3878.499976805077
 20
1376.999998055687
 30
0.0
 40
1.000000000001222
100
AcDbArc
 50
359.9999999963393
 51
41.40962210555367
  0
LINE
  5
D0C
330
2
100
AcDbEntity
  8
0
  6
Continuous
 62
     7
100
AcDbLine
 10
3848.009087146137
 20
3357.999998053636
 30
0.0
 11
3848.009087213017
 21
1357.999998053637
 31
0.0
  0
LINE
  5
D0D
330
2
100
AcDbEntity
  8
0
  6
Continuous
 62
     7
100
AcDbLine
 10
3853.990866262187
 20
3357.999998053836
 30
0.0
 11
3853.99086632907
 21
1357.999998053835
 31
0.0
  0
LINE
  5
D0E
330
2
100
AcDbEntity
  8
0
  6
Continuous
 62
     7
100
AcDbLine
 10
3853.990866262187
 20
3357.999998053836
 30
0.0
 11
3848.009087146137
 21
3357.999998053636
 31
0.0
  0
LINE
  5
D0F
330
2
100
AcDbEntity
  8
0
  6
Continuous
 62
     7
100
AcDbLine
 10
3853.99086632907
 20
1357.999998053835
 30
0.0
 11
3848.009087213017
 21
1357.999998053637
 31
0.0
  0
LINE
  5
D10
330
2
100
AcDbEntity
  8
0
  6
Continuous
 62
     7
100
AcDbLine
 10
3848.009087146137
 20
3357.999998053636
 30
0.0
 11
3844.877737000869
 21
3357.999998053531
 31
0.0
  0
LINE
  5
D11
330
2
100
AcDbEntity
  8
0
  6
Continuous
 62
     7
100
AcDbLine
 10
3857.122216564579
 20
3357.999998053941
 30
0.0
 11
3853.990866262187
 21
3357.999998053836
 31
0.0
  0
LINE
  5
D12
330
2
100
AcDbEntity
  8
0
  6
Continuous
 62
     9
100
AcDbLine
 10
3826.999976790837
 20
2352.999998053157
 30
0.0
 11
3827.999976790838
 21
2352.999998053208
 31
0.0
  0
LINE
  5
D13
330
2
100
AcDbEntity
  8
0
  6
Continuous
 62
     9
100
AcDbLine
 10
3827.999976790885
 20
2351.999998053209
 30
0.0
 11
3827.999976790838
 21
2352.999998053272
 31
0.0
  0
ARC
  5
D14
330
2
100
AcDbEntity
  8
0
  6
Continuous
 62
     7
100
AcDbCircle
 10
3827.999976790838
 20
2352.999998053208
 30
0.0
 40
1.000000000001222
100
AcDbArc
 50
180.0000000029963
 51
270.0000000029182
  0
LINE
  5
D15
330
2
100
AcDbEntity
  8
0
  6
Continuous
 62
     7
100
AcDbLine
 10
3844.877737034521
 20
2351.999998054088
 30
0.0
 11
3827.999976790885
 21
2351.999998053209
 31
0.0
  0
LINE
  5
D16
330
2
100
AcDbEntity
  8
0
  6
Continuous
 62
     9
100
AcDbLine
 10
3827.999976790838
 20
2352.999998053272
 30
0.0
 11
3844.877737034476
 21
2352.999998054151
 31
0.0
  0
LINE
  5
D17
330
2
100
AcDbEntity
  8
0
  6
Continuous
 62
     7
100
AcDbLine
 10
3826.999976790837
 20
2352.999998053157
 30
0.0
 11
3826.999976789895
 21
2370.999998053155
 31
0.0
  0
LINE
  5
D18
330
2
100
AcDbEntity
  8
0
  6
Continuous
 62
     9
100
AcDbLine
 10
3826.999976789895
 20
2370.999998053155
 30
0.0
 11
3827.999976789897
 21
2370.999998053207
 31
0.0
  0
LINE
  5
D19
330
2
100
AcDbEntity
  8
0
  6
Continuous
 62
     9
100
AcDbLine
 10
3827.999976789897
 20
2370.999998053271
 30
0.0
 11
3827.999976790838
 21
2352.999998053272
 31
0.0
  0
LINE
  5
D1A
330
2
100
AcDbEntity
  8
0
  6
Continuous
 62
     9
100
AcDbLine
 10
3844.877737033876
 20
2370.99999805415
 30
0.0
 11
3827.999976789897
 21
2370.999998053271
 31
0.0
  0
CIRCLE
  5
D1B
330
2
100
AcDbEntity
  8
0
  6
Continuous
 62
     7
100
AcDbCircle
 10
3836.999976790369
 20
2361.99999805374
 30
0.0
 40
7.14142842854315
  0
LINE
  5
D1C
330
2
100
AcDbEntity
  8
0
  6
Continuous
 62
     9
100
AcDbLine
 10
3827.999976789845
 20
2371.999998053208
 30
0.0
 11
3827.999976789897
 21
2370.999998053271
 31
0.0
  0
ARC
  5
D1D
330
2
100
AcDbEntity
  8
0
  6
Continuous
 62
     7
100
AcDbCircle
 10
3827.999976789897
 20
2370.999998053207
 30
0.0
 40
1.000000000000333
100
AcDbArc
 50
90.00000000312661
 51
180.0000000030614
  0
LINE
  5
D1E
330
2
100
AcDbEntity
  8
0
  6
Continuous
 62
     7
100
AcDbLine
 10
3827.999976789845
 20
2371.999998053208
 30
0.0
 11
3844.877737033847
 21
2371.999998054088
 31
0.0
  0
ARC
  5
D1F
330
2
100
AcDbEntity
  8
0
  6
Continuous
 62
     7
100
AcDbCircle
 10
3873.999976790667
 20
2352.999998055327
 30
0.0
 40
0.9999999999976694
100
AcDbArc
 50
270.0000000039604
 51
0.0000000040255136
  0
LINE
  5
D20
330
2
100
AcDbEntity
  8
0
  6
Continuous
 62
     9
100
AcDbLine
 10
3873.999976790667
 20
2352.999998055327
 30
0.0
 11
3873.999976790737
 21
2351.999998055326
 31
0.0
  0
LINE
  5
D21
330
2
100
AcDbEntity
  8
0
  6
Continuous
 62
     9
100
AcDbLine
 10
3873.999976790627
 20
2352.999998055327
 30
0.0
 11
3874.999976790667
 21
2352.999998055397
 31
0.0
  0
LINE
  5
D22
330
2
100
AcDbEntity
  8
0
  6
Continuous
 62
     9
100
AcDbLine
 10
3873.999976790627
 20
2352.999998055327
 30
0.0
 11
3873.999976789355
 21
2370.999998055326
 31
0.0
  0
LINE
  5
D23
330
2
100
AcDbEntity
  8
0
  6
Continuous
 62
     9
100
AcDbLine
 10
3873.999976789355
 20
2370.999998055326
 30
0.0
 11
3874.999976789386
 21
2370.999998055397
 31
0.0
  0
LINE
  5
D24
330
2
100
AcDbEntity
  8
0
  6
Continuous
 62
     7
100
AcDbLine
 10
3874.999976789386
 20
2370.999998055395
 30
0.0
 11
3874.999976790667
 21
2352.999998055397
 31
0.0
  0
ARC
  5
D25
330
2
100
AcDbEntity
  8
0
  6
Continuous
 62
     7
100
AcDbCircle
 10
3873.999976789388
 20
2370.999998055326
 30
0.0
 40
0.9999999999994455
100
AcDbArc
 50
0.0000000040645962
 51
90.0000000041688
  0
LINE
  5
D26
330
2
100
AcDbEntity
  8
0
  6
Continuous
 62
     9
100
AcDbLine
 10
3873.999976789317
 20
2371.999998055326
 30
0.0
 11
3873.999976789388
 21
2370.999998055326
 31
0.0
  0
LINE
  5
D27
330
2
100
AcDbEntity
  8
0
  6
Continuous
 62
     7
100
AcDbLine
 10
3873.999976790737
 20
2351.999998055326
 30
0.0
 11
3857.122216598226
 21
2351.999998054131
 31
0.0
  0
LINE
  5
D28
330
2
100
AcDbEntity
  8
0
  6
Continuous
 62
     9
100
AcDbLine
 10
3857.12221659819
 20
2352.999998054133
 30
0.0
 11
3873.999976790627
 21
2352.999998055327
 31
0.0
  0
LINE
  5
D29
330
2
100
AcDbEntity
  8
0
  6
Continuous
 62
     9
100
AcDbLine
 10
3873.999976789355
 20
2370.999998055326
 30
0.0
 11
3857.122216597589
 21
2370.999998054132
 31
0.0
  0
CIRCLE
  5
D2A
330
2
100
AcDbEntity
  8
0
  6
Continuous
 62
     7
100
AcDbCircle
 10
3864.999976789987
 20
2361.99999805469
 30
0.0
 40
7.141428428542262
  0
LINE
  5
D2B
330
2
100
AcDbEntity
  8
0
  6
Continuous
 62
     7
100
AcDbLine
 10
3857.122216597556
 20
2371.999998054132
 30
0.0
 11
3873.999976789317
 21
2371.999998055326
 31
0.0
  0
LINE
  5
D2C
330
2
100
AcDbEntity
  8
0
  6
Continuous
 62
     7
100
AcDbLine
 10
3857.501377144568
 20
3357.999998053936
 30
0.0
 11
3857.501377145157
 21
3340.499998053644
 31
0.0
  0
LINE
  5
D2D
330
2
100
AcDbEntity
  8
0
  6
Continuous
 62
     7
100
AcDbLine
 10
3857.501377145985
 20
3315.499998053644
 30
0.0
 11
3857.501377146571
 21
3298.369444750806
 31
0.0
  0
LINE
  5
D2E
330
2
100
AcDbEntity
  8
0
  6
Continuous
 62
     7
100
AcDbLine
 10
3857.501377147129
 20
3281.63055135736
 30
0.0
 11
3857.501377177545
 21
2371.999998054159
 31
0.0
  0
LINE
  5
D2F
330
2
100
AcDbEntity
  8
0
  6
Continuous
 62
     7
100
AcDbLine
 10
3857.501377178203
 20
2351.99999805416
 30
0.0
 11
3857.501377210727
 21
1379.737317788727
 31
0.0
  0
LINE
  5
D30
330
2
100
AcDbEntity
  8
0
  6
Continuous
 62
     7
100
AcDbLine
 10
3857.122216564579
 20
3357.999998053931
 30
0.0
 11
3857.501377144568
 21
3357.999998053936
 31
0.0
  0
LINE
  5
D31
330
2
100
AcDbEntity
  8
0
  6
Continuous
 62
     7
100
AcDbLine
 10
3844.499976775948
 20
3357.999998053501
 30
0.0
 11
3844.499976776537
 21
3340.499998053663
 31
0.0
  0
LINE
  5
D32
330
2
100
AcDbEntity
  8
0
  6
Continuous
 62
     7
100
AcDbLine
 10
3844.499976777366
 20
3315.499998053662
 30
0.0
 11
3844.499976777806
 21
3302.499998053598
 31
0.0
  0
LINE
  5
D33
330
2
100
AcDbEntity
  8
0
  6
Continuous
 62
     7
100
AcDbLine
 10
3844.499976778635
 20
3277.499998053597
 30
0.0
 11
3844.499976808918
 21
2371.999998054068
 31
0.0
  0
LINE
  5
D34
330
2
100
AcDbEntity
  8
0
  6
Continuous
 62
     7
100
AcDbLine
 10
3844.499976809595
 20
2351.999998054068
 30
0.0
 11
3844.49997684213
 21
1378.9999980535
 31
0.0
  0
LINE
  5
D35
330
2
100
AcDbEntity
  8
0
  6
Continuous
 62
     7
100
AcDbLine
 10
3844.499976775948
 20
3357.999998053501
 30
0.0
 11
3844.877737000869
 21
3357.999998053522
 31
0.0
  0
LINE
  5
D36
330
2
100
AcDbEntity
  8
0
  6
Continuous
 62
     7
100
AcDbLine
 10
3844.49997684213
 20
1378.9999980535
 30
0.0
 11
3844.877737067048
 21
1378.999998053514
 31
0.0
  0
LINE
  5
D37
330
2
100
AcDbEntity
  8
0
  6
Continuous
 62
     7
100
AcDbLine
 10
3857.501377144568
 20
3357.999998053936
 30
0.0
 11
3880.999976756844
 21
3357.999998054722
 31
0.0
  0
LINE
  5
D38
330
2
100
AcDbEntity
  8
0
  6
Continuous
 62
     7
100
AcDbLine
 10
3879.499976824787
 20
1378.99999805467
 30
0.0
 11
3880.999976823146
 21
1378.999998054722
 31
0.0
  0
ARC
  5
D39
330
2
100
AcDbEntity
  8
0
  6
Continuous
 62
     8
100
AcDbCircle
 10
3876.999976807468
 20
1360.499998085626
 30
0.0
 40
2.499999999997726
100
AcDbArc
 50
334.1580670520098
 51
359.9999999963262
  0
ARC
  5
D3A
330
2
100
AcDbEntity
  8
0
  6
Continuous
 62
     8
100
AcDbCircle
 10
3861.999976807467
 20
1360.499998086587
 30
0.0
 40
2.500000000002462
100
AcDbArc
 50
179.9999999963262
 51
205.8419325783647
  0
ARC
  5
D3B
330
2
100
AcDbEntity
  8
0
  6
Continuous
 62
     8
100
AcDbCircle
 10
3861.999976808427
 20
1375.499998086587
 30
0.0
 40
2.499999999997726
100
AcDbArc
 50
154.1580674143162
 51
179.9999999963262
  0
ARC
  5
D3C
330
2
100
AcDbEntity
  8
0
  6
Continuous
 62
     8
100
AcDbCircle
 10
3876.999976808427
 20
1375.499998085624
 30
0.0
 40
2.500000000000373
100
AcDbArc
 50
359.9999999963262
 51
25.84193294068276
  0
LINE
  5
D3D
330
2
100
AcDbEntity
  8
0
  6
Continuous
 62
     7
100
AcDbLine
 10
3837.499976824569
 20
1363.99999805817
 30
0.0
 11
3837.499976824548
 21
1371.999998058168
 31
0.0
  0
LINE
  5
D3E
330
2
100
AcDbEntity
  8
0
  6
Continuous
 62
     7
100
AcDbLine
 10
3844.499976824598
 20
1375.999998057718
 30
0.0
 11
3844.499976823638
 21
1360.999998057723
 31
0.0
  0
LINE
  5
D3F
330
2
100
AcDbEntity
  8
0
  6
Continuous
 62
     7
100
AcDbLine
 10
3844.499976823638
 20
1360.999998057723
 30
0.0
 11
3844.877737067655
 21
1360.999998057699
 31
0.0
  0
ARC
  5
D40
330
2
100
AcDbEntity
  8
0
  6
Continuous
 62
     7
100
AcDbCircle
 10
3859.499976824697
 20
1377.499998056757
 30
0.0
 40
3.000000000000113
100
AcDbArc
 50
89.99999999624805
 51
142.4279069186329
  0
ARC
  5
D41
330
2
100
AcDbEntity
  8
0
  6
Continuous
 62
     7
100
AcDbCircle
 10
3860.999976824627
 20
1376.49999805666
 30
0.0
 40
1.500000000000054
100
AcDbArc
 50
146.4426916217735
 51
179.9999999963392
  0
LINE
  5
D42
330
2
100
AcDbEntity
  8
0
  6
Continuous
 62
     7
100
AcDbLine
 10
3839.499976823438
 20
1357.999998058044
 30
0.0
 11
3839.499976824406
 21
1372.999998058039
 31
0.0
  0
ARC
  5
D43
330
2
100
AcDbEntity
  8
0
  6
Continuous
 62
     7
100
AcDbCircle
 10
3842.499976824405
 20
1372.999998057847
 30
0.0
 40
3.000000000000113
100
AcDbArc
 50
89.99999999624805
 51
179.9999999963392
  0
LINE
  5
D44
330
2
100
AcDbEntity
  8
0
  6
Continuous
 62
     7
100
AcDbLine
 10
3842.499976824598
 20
1375.999998057845
 30
0.0
 11
3844.499976824598
 21
1375.999998057718
 31
0.0
  0
LINE
  5
D45
330
2
100
AcDbEntity
  8
0
  6
Continuous
 62
     7
100
AcDbLine
 10
3879.499976824878
 20
1380.499998055474
 30
0.0
 11
3859.499976824878
 21
1380.499998056755
 31
0.0
  0
LINE
  5
D46
330
2
100
AcDbEntity
  8
0
  6
Continuous
 62
     7
100
AcDbLine
 10
3879.499976824769
 20
1378.732048851841
 30
0.0
 11
3879.499976824878
 21
1380.499998055474
 31
0.0
  0
LINE
  5
D47
330
2
100
AcDbEntity
  8
0
  6
Continuous
 62
     9
100
AcDbLine
 10
3892.499976823438
 20
1357.999998054645
 30
0.0
 11
3892.499976824729
 21
1377.999998054645
 31
0.0
  0
LINE
  5
D48
330
2
100
AcDbEntity
  8
0
  6
Continuous
 62
     7
100
AcDbLine
 10
3892.499976824729
 20
1377.999998054645
 30
0.0
 11
3894.499976824846
 21
1377.999998054517
 31
0.0
  0
LINE
  5
D49
330
2
100
AcDbEntity
  8
0
  6
Continuous
 62
     7
100
AcDbLine
 10
3894.499976824846
 20
1377.999998054517
 30
0.0
 11
3894.499976823568
 21
1357.999998054516
 31
0.0
  0
LINE
  5
D4A
330
2
100
AcDbEntity
  8
0
  6
Continuous
 62
     7
100
AcDbLine
 10
3894.499976823568
 20
1357.999998054516
 30
0.0
 11
3892.999976638459
 21
1357.999998054612
 31
0.0
  0
ARC
  5
D4B
330
2
100
AcDbEntity
  8
0
  6
Continuous
 62
     7
100
AcDbCircle
 10
3861.499976823568
 20
1359.999998056631
 30
0.0
 40
2.000000000002444
100
AcDbArc
 50
179.9999999963262
 51
208.9550232098015
  0
ARC
  5
D4C
330
2
100
AcDbEntity
  8
0
  6
Continuous
 62
     7
100
AcDbCircle
 10
3861.499976824588
 20
1375.999998056632
 30
0.0
 40
1.999999999999289
100
AcDbArc
 50
151.0449767828518
 51
179.9999999963262
  0
LINE
  5
D4D
330
2
100
AcDbEntity
  8
0
  6
Continuous
 62
     7
100
AcDbLine
 10
3892.499976824729
 20
1377.999998054645
 30
0.0
 11
3880.232027612758
 21
1377.999998055431
 31
0.0
  0
LINE
  5
D4E
330
2
100
AcDbEntity
  8
0
  6
Continuous
 62
     4
100
AcDbLine
 10
3880.999976756844
 20
3357.999998054723
 30
0.0
 11
3888.999976756844
 21
3357.999998054991
 31
0.0
  0
LINE
  5
D4F
330
2
100
AcDbEntity
  8
0
  6
Continuous
 62
     4
100
AcDbLine
 10
3888.999976823181
 20
1377.999998054869
 30
0.0
 11
3888.999976756844
 21
3357.999998054991
 31
0.0
  0
LINE
  5
D50
330
2
100
AcDbEntity
  8
0
  6
Continuous
 62
     4
100
AcDbLine
 10
3880.999976823179
 20
1377.999998055381
 30
0.0
 11
3880.999976756844
 21
3357.999998054723
 31
0.0
  0
LINE
  5
D51
330
2
100
AcDbEntity
  8
0
  6
Continuous
 62
     7
100
AcDbLine
 10
3892.999976638459
 20
1357.999998054612
 30
0.0
 11
3880.499976803869
 21
1357.999998055415
 31
0.0
  0
LINE
  5
D52
330
2
100
AcDbEntity
  8
0
  6
Continuous
 62
     7
100
AcDbLine
 10
3880.499976803869
 20
1357.999998055415
 30
0.0
 11
3879.499976803869
 21
1357.999998055478
 31
0.0
  0
LINE
  5
D53
330
2
100
AcDbEntity
  8
0
  6
Continuous
 62
     7
100
AcDbLine
 10
3879.499976803869
 20
1357.999998055478
 30
0.0
 11
3879.249976803869
 21
1357.999998055494
 31
0.0
  0
LINE
  5
D54
330
2
100
AcDbEntity
  8
0
  6
Continuous
 62
     7
100
AcDbLine
 10
3879.249976803869
 20
1357.999998055494
 30
0.0
 11
3859.74997680387
 21
1357.999998056744
 31
0.0
  0
LINE
  5
D55
330
2
100
AcDbEntity
  8
0
  6
Continuous
 62
     7
100
AcDbLine
 10
3859.74997680387
 20
1357.999998056744
 30
0.0
 11
3859.499976823438
 21
1357.999998056758
 31
0.0
  0
LINE
  5
D56
330
2
100
AcDbEntity
  8
0
  6
Continuous
 62
     7
100
AcDbLine
 10
3859.499976823438
 20
1357.999998056758
 30
0.0
 11
3858.499976803869
 21
1357.999998056824
 31
0.0
  0
LINE
  5
D57
330
2
100
AcDbEntity
  8
0
  6
Continuous
 62
     7
100
AcDbLine
 10
3858.499976803869
 20
1357.999998056824
 30
0.0
 11
3853.990858608046
 21
1357.99999805376
 31
0.0
  0
LINE
  5
D58
330
2
100
AcDbEntity
  8
0
  6
Continuous
 62
     7
100
AcDbLine
 10
3853.990858608046
 20
1357.99999805376
 30
0.0
 11
3848.009093237255
 21
1357.999998053714
 31
0.0
  0
LINE
  5
D59
330
2
100
AcDbEntity
  8
0
  6
Continuous
 62
     7
100
AcDbLine
 10
3848.009093237255
 20
1357.999998053714
 30
0.0
 11
3092.999976638457
 21
1357.999998105873
 31
0.0
  0
LINE
  5
D5A
330
2
100
AcDbEntity
  8
0
  6
Continuous
 62
     7
100
AcDbLine
 10
3892.999976635245
 20
1307.999998054613
 30
0.0
 11
3092.999976635245
 21
1307.999998105873
 31
0.0
  0
LINE
  5
D5B
330
2
100
AcDbEntity
  8
0
  6
Continuous
 62
     7
100
AcDbLine
 10
3892.999976635245
 20
1307.999998054613
 30
0.0
 11
3892.999976638459
 21
1357.999998054612
 31
0.0
  0
LINE
  5
D5C
330
2
100
AcDbEntity
  8
0
  6
Continuous
 62
     7
100
AcDbLine
 10
3092.999976635245
 20
1307.999998105873
 30
0.0
 11
3092.999976638457
 21
1357.999998105873
 31
0.0
  0
LINE
  5
D5D
330
2
100
AcDbEntity
  8
0
  6
Continuous
 62
     9
100
AcDbLine
 10
3837.499976824569
 20
1364.624998058169
 30
0.0
 11
3839.499976823871
 21
1364.624998058174
 31
0.0
  0
LINE
  5
D5E
330
2
100
AcDbEntity
  8
0
  6
Continuous
 62
     9
100
AcDbLine
 10
3844.49997682387
 20
1364.624998058185
 30
0.0
 11
3844.877737067534
 21
1364.624998058187
 31
0.0
  0
LINE
  5
D5F
330
2
100
AcDbEntity
  8
0
  6
Continuous
 62
     9
100
AcDbLine
 10
3844.877737067305
 20
1371.374998058187
 30
0.0
 11
3844.499976824297
 21
1371.374998058185
 31
0.0
  0
LINE
  5
D60
330
2
100
AcDbEntity
  8
0
  6
Continuous
 62
     9
100
AcDbLine
 10
3839.499976824297
 20
1371.374998058174
 30
0.0
 11
3837.499976824548
 21
1371.374998058168
 31
0.0
  0
LINE
  5
D61
330
2
100
AcDbEntity
  8
0
  6
Continuous
 62
     7
100
AcDbLine
 10
3857.122216567154
 20
3280.973825968628
 30
0.0
 11
3857.999976758279
 21
3282.494151216498
 31
0.0
  0
LINE
  5
D62
330
2
100
AcDbEntity
  8
0
  6
Continuous
 62
     7
100
AcDbLine
 10
3857.999976758279
 20
3297.505844890699
 30
0.0
 11
3857.122216566546
 21
3299.026170139617
 31
0.0
  0
LINE
  5
D63
330
2
100
AcDbEntity
  8
0
  6
Continuous
 62
     7
100
AcDbLine
 10
3857.999976758279
 20
3282.499998053598
 30
0.0
 11
3875.499976758268
 21
3282.499998053598
 31
0.0
  0
LINE
  5
D64
330
2
100
AcDbEntity
  8
0
  6
Continuous
 62
     7
100
AcDbLine
 10
3875.499976758268
 20
3297.499998053599
 30
0.0
 11
3857.999976758279
 21
3297.499998053599
 31
0.0
  0
ARC
  5
D65
330
2
100
AcDbEntity
  8
0
  6
Continuous
 62
     7
100
AcDbCircle
 10
3875.499976758268
 20
3282.999998053598
 30
0.0
 40
0.4999999999997229
100
AcDbArc
 50
270.0
 51
0.0
  0
ARC
  5
D66
330
2
100
AcDbEntity
  8
0
  6
Continuous
 62
     7
100
AcDbCircle
 10
3875.499976758268
 20
3296.999998053599
 30
0.0
 40
0.5000000000023876
100
AcDbArc
 50
0.0
 51
90.0
  0
LINE
  5
D67
330
2
100
AcDbEntity
  8
0
  6
Continuous
 62
     7
100
AcDbLine
 10
3840.299976758056
 20
3302.499998053598
 30
0.0
 11
3839.999976758056
 21
3302.199998053597
 31
0.0
  0
LINE
  5
D68
330
2
100
AcDbEntity
  8
0
  6
Continuous
 62
     7
100
AcDbLine
 10
3839.999976758056
 20
3277.799998053598
 30
0.0
 11
3840.299976758056
 21
3277.499998053597
 31
0.0
  0
LINE
  5
D69
330
2
100
AcDbEntity
  8
0
  6
Continuous
 62
     7
100
AcDbLine
 10
3844.877737002727
 20
3302.499998053598
 30
0.0
 11
3840.299976758056
 21
3302.499998053598
 31
0.0
  0
LINE
  5
D6A
330
2
100
AcDbEntity
  8
0
  6
Continuous
 62
     7
100
AcDbLine
 10
3840.299976758056
 20
3277.499998053597
 30
0.0
 11
3844.877737003569
 21
3277.499998053597
 31
0.0
  0
LINE
  5
D6B
330
2
100
AcDbEntity
  8
0
  6
Continuous
 62
     7
100
AcDbLine
 10
3877.464078373196
 20
3315.499998053644
 30
0.0
 11
3877.999976758056
 21
3317.499998053645
 31
0.0
  0
LINE
  5
D6C
330
2
100
AcDbEntity
  8
0
  6
Continuous
 62
     7
100
AcDbLine
 10
3877.999976758056
 20
3338.499998053645
 30
0.0
 11
3877.464078373196
 21
3340.499998053644
 31
0.0
  0
LINE
  5
D6D
330
2
100
AcDbEntity
  8
0
  6
Continuous
 62
     7
100
AcDbLine
 10
3876.499976758056
 20
3315.499998053644
 30
0.0
 11
3877.464078373196
 21
3315.499998053644
 31
0.0
  0
LINE
  5
D6E
330
2
100
AcDbEntity
  8
0
  6
Continuous
 62
     7
100
AcDbLine
 10
3877.464078373196
 20
3340.499998053644
 30
0.0
 11
3876.499976758056
 21
3340.499998053644
 31
0.0
  0
LINE
  5
D6F
330
2
100
AcDbEntity
  8
0
  6
Continuous
 62
     7
100
AcDbLine
 10
3875.999976758056
 20
3322.499998053647
 30
0.0
 11
3876.499976758056
 21
3322.499998053647
 31
0.0
  0
LINE
  5
D70
330
2
100
AcDbEntity
  8
0
  6
Continuous
 62
     7
100
AcDbLine
 10
3876.499976758056
 20
3333.499998053645
 30
0.0
 11
3875.999976758056
 21
3333.499998053645
 31
0.0
  0
LINE
  5
D71
330
2
100
AcDbEntity
  8
0
  6
Continuous
 62
     7
100
AcDbLine
 10
3844.877737001454
 20
3340.499998053663
 30
0.0
 11
3840.299976758056
 21
3340.499998053663
 31
0.0
  0
LINE
  5
D72
330
2
100
AcDbEntity
  8
0
  6
Continuous
 62
     7
100
AcDbLine
 10
3840.299976758056
 20
3315.499998053662
 30
0.0
 11
3844.877737002298
 21
3315.499998053662
 31
0.0
  0
LINE
  5
D73
330
2
100
AcDbEntity
  8
0
  6
Continuous
 62
     7
100
AcDbLine
 10
3840.299976758056
 20
3340.499998053663
 30
0.0
 11
3839.999976758056
 21
3340.199998053662
 31
0.0
  0
LINE
  5
D74
330
2
100
AcDbEntity
  8
0
  6
Continuous
 62
     7
100
AcDbLine
 10
3839.999976758056
 20
3315.799998053664
 30
0.0
 11
3840.299976758056
 21
3315.499998053662
 31
0.0
  0
LINE
  5
D75
330
2
100
AcDbEntity
  8
0
  6
Continuous
 62
     7
100
AcDbLine
 10
3860.499976758045
 20
3315.499998053644
 30
0.0
 11
3860.985598445688
 21
3315.499998053644
 31
0.0
  0
LINE
  5
D76
330
2
100
AcDbEntity
  8
0
  6
Continuous
 62
     7
100
AcDbLine
 10
3861.199241503687
 20
3340.499998053644
 30
0.0
 11
3860.499976758045
 21
3340.499998053644
 31
0.0
  0
ARC
  5
D77
330
2
100
AcDbEntity
  8
0
  6
Continuous
 62
     7
100
AcDbCircle
 10
3867.999976758056
 20
3348.499998053645
 30
0.0
 40
10.50000000000252
100
AcDbArc
 50
229.6324064558372
 51
310.3675935441629
  0
ARC
  5
D78
330
2
100
AcDbEntity
  8
0
  6
Continuous
 62
     7
100
AcDbCircle
 10
3867.999976758056
 20
3307.499998053645
 30
0.0
 40
10.50000000000015
100
AcDbArc
 50
49.63240645583717
 51
91.1047290031445
  0
ARC
  5
D79
330
2
100
AcDbEntity
  8
0
  6
Continuous
 62
     7
100
AcDbCircle
 10
3860.499976758045
 20
3315.999998053645
 30
0.0
 40
0.4999999999988347
100
AcDbArc
 50
180.0
 51
270.0
  0
ARC
  5
D7A
330
2
100
AcDbEntity
  8
0
  6
Continuous
 62
     7
100
AcDbCircle
 10
3860.499976758045
 20
3339.999998053645
 30
0.0
 40
0.4999999999997229
100
AcDbArc
 50
90.0
 51
180.0
  0
ARC
  5
D7B
330
2
100
AcDbEntity
  8
0
  6
Continuous
 62
     7
100
AcDbCircle
 10
3875.499976758057
 20
3339.999998053645
 30
0.0
 40
0.5000000000023876
100
AcDbArc
 50
0.0
 51
90.0
  0
ARC
  5
D7C
330
2
100
AcDbEntity
  8
0
  6
Continuous
 62
     7
100
AcDbCircle
 10
3875.499976758057
 20
3315.999998053645
 30
0.0
 40
0.5000000000006111
100
AcDbArc
 50
270.0
 51
0.0
  0
LINE
  5
D7D
330
2
100
AcDbEntity
  8
0
  6
Continuous
 62
     7
100
AcDbLine
 10
3874.800712012428
 20
3315.499998053644
 30
0.0
 11
3875.499976758057
 21
3315.499998053644
 31
0.0
  0
LINE
  5
D7E
330
2
100
AcDbEntity
  8
0
  6
Continuous
 62
     7
100
AcDbLine
 10
3875.499976758057
 20
3340.499998053644
 30
0.0
 11
3874.800712012428
 21
3340.499998053644
 31
0.0
  0
LINE
  5
D7F
330
2
100
AcDbEntity
  8
0
  6
Continuous
 62
     7
100
AcDbLine
 10
3859.499976758056
 20
3340.499998053644
 30
0.0
 11
3857.122216565167
 21
3340.499998053644
 31
0.0
  0
LINE
  5
D80
330
2
100
AcDbEntity
  8
0
  6
Continuous
 62
     7
100
AcDbLine
 10
3857.122216565997
 20
3315.499998053644
 30
0.0
 11
3859.499976758056
 21
3315.499998053644
 31
0.0
  0
ARC
  5
D81
330
2
100
AcDbEntity
  8
0
  6
Continuous
 62
     7
100
AcDbCircle
 10
3859.999976758056
 20
3321.499998053643
 30
0.0
 40
0.4999999999988347
100
AcDbArc
 50
90.0
 51
180.0
  0
ARC
  5
D82
330
2
100
AcDbEntity
  8
0
  6
Continuous
 62
     7
100
AcDbCircle
 10
3859.999976758056
 20
3334.499998053645
 30
0.0
 40
0.4999999999997229
100
AcDbArc
 50
180.0
 51
270.0
  0
LINE
  5
D83
330
2
100
AcDbEntity
  8
0
  6
Continuous
 62
     7
100
AcDbLine
 10
3889.999976758119
 20
3319.999998055024
 30
0.0
 11
3888.999976758107
 21
3319.999998054992
 31
0.0
  0
LINE
  5
D84
330
2
100
AcDbEntity
  8
0
  6
Continuous
 62
     7
100
AcDbLine
 10
3888.999976758929
 20
3295.999998054992
 30
0.0
 11
3889.999976758918
 21
3295.999998055026
 31
0.0
  0
LINE
  5
D85
330
2
100
AcDbEntity
  8
0
  6
Continuous
 62
     7
100
AcDbLine
 10
3895.699976758937
 20
3295.499998055216
 30
0.0
 11
3895.999976758929
 21
3295.799998055226
 31
0.0
  0
LINE
  5
D86
330
2
100
AcDbEntity
  8
0
  6
Continuous
 62
     7
100
AcDbLine
 10
3895.999976758119
 20
3320.199998055227
 30
0.0
 11
3895.699976758105
 21
3320.499998055216
 31
0.0
  0
LINE
  5
D87
330
2
100
AcDbEntity
  8
0
  6
Continuous
 62
     7
100
AcDbLine
 10
3889.999976758936
 20
3295.499998055026
 30
0.0
 11
3895.699976758937
 21
3295.499998055216
 31
0.0
  0
LINE
  5
D88
330
2
100
AcDbEntity
  8
0
  6
Continuous
 62
     7
100
AcDbLine
 10
3895.699976758105
 20
3320.499998055216
 30
0.0
 11
3889.999976758096
 21
3320.499998055026
 31
0.0
  0
LINE
  5
D89
330
2
100
AcDbEntity
  8
0
  6
Continuous
 62
     7
100
AcDbLine
 10
3844.877737000869
 20
3357.999998053531
 30
0.0
 11
3844.877737067756
 21
1357.999998053531
 31
0.0
  0
LINE
  5
D8A
330
2
100
AcDbEntity
  8
0
  6
Continuous
 62
     7
100
AcDbLine
 10
3857.122216631469
 20
1357.99999805394
 30
0.0
 11
3857.122216564579
 21
3357.999998053941
 31
0.0
  0
LINE
  5
D8B
330
2
100
AcDbEntity
  8
0
  6
Continuous
 62
     7
100
AcDbLine
 10
3844.499976824569
 20
1363.999998058187
 30
0.0
 11
3844.877737067534
 21
1364.377758301161
 31
0.0
  0
LINE
  5
D8C
330
2
100
AcDbEntity
  8
0
  6
Continuous
 62
     7
100
AcDbLine
 10
3844.877737067298
 20
1371.622237815438
 30
0.0
 11
3844.499976824547
 21
1371.999998058187
 31
0.0
  0
LINE
  5
D8D
330
2
100
AcDbEntity
  8
0
  6
Continuous
 62
     7
100
AcDbLine
 10
3837.499976824569
 20
1363.99999805817
 30
0.0
 11
3839.499976823827
 21
1363.999998058174
 31
0.0
  0
LINE
  5
D8E
330
2
100
AcDbEntity
  8
0
  6
Continuous
 62
     7
100
AcDbLine
 10
3839.499976824336
 20
1371.999998058174
 30
0.0
 11
3837.499976824548
 21
1371.999998058168
 31
0.0
  0
ARC
  5
D8F
330
2
100
AcDbEntity
  8
0
  6
Continuous
 62
     7
100
AcDbCircle
 10
2490.989447087497
 20
28.39999797951487
 30
0.0
 40
2.499999999999944
100
AcDbArc
 50
87.27638892897934
 51
90.00000000145909
  0
ARC
  5
D90
330
2
100
AcDbEntity
  8
0
  6
Continuous
 62
     7
100
AcDbCircle
 10
2478.989447087497
 20
28.39999797922997
 30
0.0
 40
2.499999999999944
100
AcDbArc
 50
87.27638892897934
 51
90.00000000145909
  0
ARC
  5
D91
330
2
100
AcDbEntity
  8
0
  6
Continuous
 62
     9
100
AcDbCircle
 10
2579.499976696978
 20
44.9999979916049
 30
0.0
 40
2.500000000001278
100
AcDbArc
 50
0.0000000036607421
 51
270.0000000037519
  0
LINE
  5
D92
330
2
100
AcDbEntity
  8
0
  6
Continuous
 62
     9
100
AcDbLine
 10
2493.989447088246
 20
28.3999979795949
 30
0.0
 11
2493.985794952845
 21
28.25201326982278
 31
0.0
  0
ARC
  5
D93
330
2
100
AcDbEntity
  8
0
  6
Continuous
 62
     9
100
AcDbCircle
 10
2490.989476018356
 20
28.4000255160729
 30
0.0
 40
2.999972463576542
100
AcDbArc
 50
90.00055253078761
 51
357.1720002537078
  0
LINE
  5
D94
330
2
100
AcDbEntity
  8
0
  6
Continuous
 62
     9
100
AcDbLine
 10
2481.989447088246
 20
28.39999797931
 30
0.0
 11
2481.985794952845
 21
28.25201326953698
 31
0.0
  0
ARC
  5
D95
330
2
100
AcDbEntity
  8
0
  6
Continuous
 62
     9
100
AcDbCircle
 10
2478.989476018356
 20
28.40002551578868
 30
0.0
 40
2.999972463576607
100
AcDbArc
 50
90.00055253078761
 51
357.1720002536819
  0
LINE
  5
D96
330
2
100
AcDbEntity
  8
0
  6
Continuous
 62
     9
100
AcDbLine
 10
2539.499976698087
 20
17.99999798903582
 30
0.0
 11
2545.499976696057
 21
17.99999798941985
 31
0.0
  0
LINE
  5
D97
330
2
100
AcDbEntity
  8
0
  6
Continuous
 62
     7
100
AcDbLine
 10
2539.499976698247
 20
15.49999798903582
 30
0.0
 11
2546.499976696156
 21
15.49999798948374
 31
0.0
  0
CIRCLE
  5
D98
330
2
100
AcDbEntity
  8
0
  6
Continuous
 62
     7
100
AcDbCircle
 10
2579.499976690649
 20
44.99999799160309
 30
0.0
 40
1.69999999999959
  0
LINE
  5
D99
330
2
100
AcDbEntity
  8
0
  6
Continuous
 62
     7
100
AcDbLine
 10
2578.249976690626
 20
45.72168582803964
 30
0.0
 11
2579.499976690597
 21
46.44337366457693
 31
0.0
  0
LINE
  5
D9A
330
2
100
AcDbEntity
  8
0
  6
Continuous
 62
     7
100
AcDbLine
 10
2578.249976690688
 20
44.27831015506581
 30
0.0
 11
2578.249976690626
 21
45.72168582803964
 31
0.0
  0
LINE
  5
D9B
330
2
100
AcDbEntity
  8
0
  6
Continuous
 62
     7
100
AcDbLine
 10
2579.499976690706
 20
43.55662231862993
 30
0.0
 11
2578.249976690688
 21
44.27831015506581
 31
0.0
  0
LINE
  5
D9C
330
2
100
AcDbEntity
  8
0
  6
Continuous
 62
     7
100
AcDbLine
 10
2580.749976690677
 20
44.27831015516676
 30
0.0
 11
2579.499976690706
 21
43.55662231862993
 31
0.0
  0
LINE
  5
D9D
330
2
100
AcDbEntity
  8
0
  6
Continuous
 62
     7
100
AcDbLine
 10
2580.749976690619
 20
45.72168582814082
 30
0.0
 11
2580.749976690677
 21
44.27831015516676
 31
0.0
  0
LINE
  5
D9E
330
2
100
AcDbEntity
  8
0
  6
Continuous
 62
     7
100
AcDbLine
 10
2579.499976690597
 20
46.44337366457693
 30
0.0
 11
2580.749976690619
 21
45.72168582814082
 31
0.0
  0
LINE
  5
D9F
330
2
100
AcDbEntity
  8
0
  6
Continuous
 62
     7
100
AcDbLine
 10
2562.999976696327
 20
54.9999979905499
 30
0.0
 11
2546.399976671568
 21
38.39999796366283
 31
0.0
  0
LINE
  5
DA0
330
2
100
AcDbEntity
  8
0
  6
Continuous
 62
     7
100
AcDbLine
 10
2585.499976696326
 20
54.99999799198871
 30
0.0
 11
2562.999976696327
 21
54.9999979905499
 31
0.0
  0
LINE
  5
DA1
330
2
100
AcDbEntity
  8
0
  6
Continuous
 62
     7
100
AcDbLine
 10
2580.499976697298
 20
34.99999799166881
 30
0.0
 11
2585.499976697604
 21
34.99999799198872
 31
0.0
  0
CIRCLE
  5
DA2
330
2
100
AcDbEntity
  8
0
  6
Continuous
 62
     7
100
AcDbCircle
 10
2579.499976696978
 20
44.9999979916049
 30
0.0
 40
2.099999999998658
  0
LINE
  5
DA3
330
2
100
AcDbEntity
  8
0
  6
Continuous
 62
     7
100
AcDbLine
 10
2595.499976696305
 20
64.99999799227293
 30
0.0
 11
2593.141996145219
 21
64.99999799221085
 31
0.0
  0
LINE
  5
DA4
330
2
100
AcDbEntity
  8
0
  6
Continuous
 62
     7
100
AcDbLine
 10
2593.141996145219
 20
64.99999799221085
 30
0.0
 11
2585.499976696305
 21
64.99999799200669
 31
0.0
  0
LINE
  5
DA5
330
2
100
AcDbEntity
  8
0
  6
Continuous
 62
     7
100
AcDbLine
 10
2595.499976697378
 20
24.99999799227294
 30
0.0
 11
2595.49997669712
 21
34.49999799068587
 31
0.0
  0
LINE
  5
DA6
330
2
100
AcDbEntity
  8
0
  6
Continuous
 62
     7
100
AcDbLine
 10
2595.49997669712
 20
34.49999799068587
 30
0.0
 11
2595.499976696305
 21
64.99999799227293
 31
0.0
  0
LINE
  5
DA7
330
2
100
AcDbEntity
  8
0
  6
Continuous
 62
     7
100
AcDbLine
 10
2585.499976697367
 20
24.99999799200669
 30
0.0
 11
2585.499976697189
 21
31.9999979900158
 31
0.0
  0
LINE
  5
DA8
330
2
100
AcDbEntity
  8
0
  6
Continuous
 62
     7
100
AcDbLine
 10
2585.499976697189
 20
31.9999979900158
 30
0.0
 11
2585.499976696305
 21
64.99999799200669
 31
0.0
  0
LINE
  5
DA9
330
2
100
AcDbEntity
  8
0
  6
Continuous
 62
     7
100
AcDbLine
 10
2595.499976697378
 20
24.99999799227294
 30
0.0
 11
2591.416056480204
 21
24.99999799216471
 31
0.0
  0
LINE
  5
DAA
330
2
100
AcDbEntity
  8
0
  6
Continuous
 62
     7
100
AcDbLine
 10
2591.416056480204
 20
24.99999799216471
 30
0.0
 11
2585.499976697367
 21
24.99999799200669
 31
0.0
  0
LINE
  5
DAB
330
2
100
AcDbEntity
  8
0
  6
Continuous
 62
     7
100
AcDbLine
 10
1886.499976697196
 20
39.99999799304987
 30
0.0
 11
1892.499976697098
 21
39.99999799342982
 31
0.0
  0
LINE
  5
DAC
330
2
100
AcDbEntity
  8
0
  6
Continuous
 62
     7
100
AcDbLine
 10
1900.499976697098
 20
39.99999799393572
 30
0.0
 11
1906.499976697196
 21
39.99999799431476
 31
0.0
  0
LINE
  5
DAD
330
2
100
AcDbEntity
  8
0
  6
Continuous
 62
     7
100
AcDbLine
 10
1882.499976697098
 20
49.9999979938966
 30
0.0
 11
1894.499976697098
 21
49.9999979938966
 31
0.0
  0
LINE
  5
DAE
330
2
100
AcDbEntity
  8
0
  6
Continuous
 62
     7
100
AcDbLine
 10
1894.499976697098
 20
49.9999979938966
 30
0.0
 11
1906.499976697098
 21
49.9999979938966
 31
0.0
  0
LINE
  5
DAF
330
2
100
AcDbEntity
  8
0
  6
Continuous
 62
     7
100
AcDbLine
 10
1906.999976696585
 20
49.99999799468992
 30
0.0
 11
1906.499976697098
 21
49.99999799465786
 31
0.0
  0
LINE
  5
DB0
330
2
100
AcDbEntity
  8
0
  6
Continuous
 62
     7
100
AcDbLine
 10
1906.499976697098
 20
49.99999799465786
 30
0.0
 11
1901.999976697098
 21
49.99999799437182
 31
0.0
  0
LINE
  5
DB1
330
2
100
AcDbEntity
  8
0
  6
Continuous
 62
     7
100
AcDbLine
 10
1901.999976697098
 20
49.99999799437182
 30
0.0
 11
1900.499971687095
 21
49.99999799427793
 31
0.0
  0
LINE
  5
DB2
330
2
100
AcDbEntity
  8
0
  6
Continuous
 62
     7
100
AcDbLine
 10
1892.499981707096
 20
49.99999799376974
 30
0.0
 11
1886.999976697097
 21
49.99999799342095
 31
0.0
  0
LINE
  5
DB3
330
2
100
AcDbEntity
  8
0
  6
Continuous
 62
     7
100
AcDbLine
 10
1886.999976697097
 20
49.99999799342095
 30
0.0
 11
1886.061041654746
 21
49.9999979933607
 31
0.0
  0
LINE
  5
DB4
330
2
100
AcDbEntity
  8
0
  6
Continuous
 62
     7
100
AcDbLine
 10
1886.061041654746
 20
49.9999979933607
 30
0.0
 11
1882.499976697098
 21
49.99999799313491
 31
0.0
  0
LINE
  5
DB5
330
2
100
AcDbEntity
  8
0
  6
Continuous
 62
     7
100
AcDbLine
 10
1882.499976697098
 20
49.99999799313491
 30
0.0
 11
1881.999976696585
 21
49.99999799310286
 31
0.0
  0
LINE
  5
DB6
330
2
100
AcDbEntity
  8
0
  6
Continuous
 62
     7
100
AcDbLine
 10
1883.999976697097
 20
18.53589637876211
 30
0.0
 11
1908.999976697097
 21
18.53589637876211
 31
0.0
  0
LINE
  5
DB7
330
2
100
AcDbEntity
  8
0
  6
Continuous
 62
     7
100
AcDbLine
 10
1883.999976697097
 20
19.49999799389889
 30
0.0
 11
1908.999976697097
 21
19.49999799389889
 31
0.0
  0
LINE
  5
DB8
330
2
100
AcDbEntity
  8
0
  6
Continuous
 62
     7
100
AcDbLine
 10
1885.999976697098
 20
17.99999799389889
 30
0.0
 11
1906.999976697098
 21
17.99999799389889
 31
0.0
  0
LINE
  5
DB9
330
2
100
AcDbEntity
  8
0
  6
Continuous
 62
     7
100
AcDbLine
 10
1882.299976697097
 20
55.9999979938966
 30
0.0
 11
1906.699976697095
 21
55.9999979938966
 31
0.0
  0
LINE
  5
DBA
330
2
100
AcDbEntity
  8
0
  6
Continuous
 62
     7
100
AcDbLine
 10
1906.999976697098
 20
55.69999799389666
 30
0.0
 11
1881.999976697098
 21
55.69999799389666
 31
0.0
  0
LINE
  5
DBB
330
2
100
AcDbEntity
  8
0
  6
Continuous
 62
     7
100
AcDbLine
 10
1906.999976697098
 20
49.9999979938966
 30
0.0
 11
1881.999976697098
 21
49.9999979938966
 31
0.0
  0
LINE
  5
DBC
330
2
100
AcDbEntity
  8
0
  6
Continuous
 62
     9
100
AcDbLine
 10
1908.999976697097
 20
35.49999799389889
 30
0.0
 11
1883.999976697097
 21
35.49999799389889
 31
0.0
  0
LINE
  5
DBD
330
2
100
AcDbEntity
  8
0
  6
Continuous
 62
     7
100
AcDbLine
 10
1884.499976697098
 20
35.9999979938998
 30
0.0
 11
1908.499976697098
 21
35.9999979938998
 31
0.0
  0
LINE
  5
DBE
330
2
100
AcDbEntity
  8
0
  6
Continuous
 62
     9
100
AcDbLine
 10
1883.999976697097
 20
20.49999799389889
 30
0.0
 11
1888.548709948794
 21
20.49999799389889
 31
0.0
  0
LINE
  5
DBF
330
2
100
AcDbEntity
  8
0
  6
Continuous
 62
     7
100
AcDbLine
 10
1908.499976697098
 20
19.9999979938998
 30
0.0
 11
1888.866760618726
 21
19.9999979938998
 31
0.0
  0
LINE
  5
DC0
330
2
100
AcDbEntity
  8
0
  6
Continuous
 62
     9
100
AcDbLine
 10
1888.548709948794
 20
20.49999799389889
 30
0.0
 11
1908.999976697097
 21
20.49999799389889
 31
0.0
  0
LINE
  5
DC1
330
2
100
AcDbEntity
  8
0
  6
Continuous
 62
     7
100
AcDbLine
 10
1888.866760618726
 20
19.9999979938998
 30
0.0
 11
1884.499976697098
 21
19.9999979938998
 31
0.0
  0
LINE
  5
DC2
330
2
100
AcDbEntity
  8
0
  6
Continuous
 62
     7
100
AcDbLine
 10
1883.999976697097
 20
34.80073324826685
 30
0.0
 11
1888.548709948794
 21
34.80073324826685
 31
0.0
  0
LINE
  5
DC3
330
2
100
AcDbEntity
  8
0
  6
Continuous
 62
     7
100
AcDbLine
 10
1888.548709948794
 20
34.80073324826685
 30
0.0
 11
1908.999976697097
 21
34.80073324826685
 31
0.0
  0
LINE
  5
DC4
330
2
100
AcDbEntity
  8
0
  6
Continuous
 62
     7
100
AcDbLine
 10
1908.999976697097
 20
21.19926273953092
 30
0.0
 11
1883.999976697097
 21
21.19926273953092
 31
0.0
  0
LINE
  5
DC5
330
2
100
AcDbEntity
  8
0
  6
Continuous
 62
     7
100
AcDbLine
 10
1908.999976697097
 20
39.9999979938989
 30
0.0
 11
1883.999976697097
 21
39.9999979938989
 31
0.0
  0
LINE
  5
DC6
330
2
100
AcDbEntity
  8
0
  6
Continuous
 62
     7
100
AcDbLine
 10
1908.999976697097
 20
36.4999979938989
 30
0.0
 11
1883.999976697097
 21
36.4999979938989
 31
0.0
  0
LINE
  5
DC7
330
2
100
AcDbEntity
  8
0
  6
Continuous
 62
     7
100
AcDbLine
 10
1444.499976697196
 20
39.99999799298689
 30
0.0
 11
1450.499976697098
 21
39.99999799336683
 31
0.0
  0
LINE
  5
DC8
330
2
100
AcDbEntity
  8
0
  6
Continuous
 62
     7
100
AcDbLine
 10
1458.499976697098
 20
39.99999799387297
 30
0.0
 11
1464.499976697196
 21
39.99999799425291
 31
0.0
  0
LINE
  5
DC9
330
2
100
AcDbEntity
  8
0
  6
Continuous
 62
     7
100
AcDbLine
 10
1440.499976697098
 20
49.99999799383386
 30
0.0
 11
1452.499976697098
 21
49.99999799383386
 31
0.0
  0
LINE
  5
DCA
330
2
100
AcDbEntity
  8
0
  6
Continuous
 62
     7
100
AcDbLine
 10
1452.499976697098
 20
49.99999799383386
 30
0.0
 11
1464.499976697098
 21
49.99999799383386
 31
0.0
  0
LINE
  5
DCB
330
2
100
AcDbEntity
  8
0
  6
Continuous
 62
     7
100
AcDbLine
 10
1464.999976696585
 20
49.99999799462784
 30
0.0
 11
1464.499976697098
 21
49.99999799459579
 31
0.0
  0
LINE
  5
DCC
330
2
100
AcDbEntity
  8
0
  6
Continuous
 62
     7
100
AcDbLine
 10
1464.499976697098
 20
49.99999799459579
 30
0.0
 11
1459.999976697098
 21
49.99999799430998
 31
0.0
  0
LINE
  5
DCD
330
2
100
AcDbEntity
  8
0
  6
Continuous
 62
     7
100
AcDbLine
 10
1459.999976697098
 20
49.99999799430998
 30
0.0
 11
1458.499971687095
 21
49.99999799421494
 31
0.0
  0
LINE
  5
DCE
330
2
100
AcDbEntity
  8
0
  6
Continuous
 62
     7
100
AcDbLine
 10
1450.499981707096
 20
49.99999799370677
 30
0.0
 11
1444.999976697098
 21
49.99999799335775
 31
0.0
  0
LINE
  5
DCF
330
2
100
AcDbEntity
  8
0
  6
Continuous
 62
     7
100
AcDbLine
 10
1444.999976697098
 20
49.99999799335775
 30
0.0
 11
1444.061041654746
 21
49.99999799329884
 31
0.0
  0
LINE
  5
DD0
330
2
100
AcDbEntity
  8
0
  6
Continuous
 62
     7
100
AcDbLine
 10
1444.061041654746
 20
49.99999799329884
 30
0.0
 11
1440.499976697098
 21
49.99999799307261
 31
0.0
  0
LINE
  5
DD1
330
2
100
AcDbEntity
  8
0
  6
Continuous
 62
     7
100
AcDbLine
 10
1440.499976697098
 20
49.99999799307261
 30
0.0
 11
1439.999976696585
 21
49.99999799303964
 31
0.0
  0
LINE
  5
DD2
330
2
100
AcDbEntity
  8
0
  6
Continuous
 62
     7
100
AcDbLine
 10
1440.299976696206
 20
55.99999799305897
 30
0.0
 11
1464.699976696207
 21
55.99999799460784
 31
0.0
  0
LINE
  5
DD3
330
2
100
AcDbEntity
  8
0
  6
Continuous
 62
     7
100
AcDbLine
 10
1441.999976697098
 20
18.53589637869891
 30
0.0
 11
1466.999976697097
 21
18.53589637869891
 31
0.0
  0
LINE
  5
DD4
330
2
100
AcDbEntity
  8
0
  6
Continuous
 62
     7
100
AcDbLine
 10
1441.999976697098
 20
19.49999799383681
 30
0.0
 11
1466.999976697097
 21
19.49999799383681
 31
0.0
  0
LINE
  5
DD5
330
2
100
AcDbEntity
  8
0
  6
Continuous
 62
     7
100
AcDbLine
 10
1443.999976697098
 20
17.9999979938368
 30
0.0
 11
1464.999976697098
 21
17.9999979938368
 31
0.0
  0
LINE
  5
DD6
330
2
100
AcDbEntity
  8
0
  6
Continuous
 62
     7
100
AcDbLine
 10
1440.299976697097
 20
55.99999799383386
 30
0.0
 11
1464.699976697095
 21
55.99999799383386
 31
0.0
  0
LINE
  5
DD7
330
2
100
AcDbEntity
  8
0
  6
Continuous
 62
     7
100
AcDbLine
 10
1464.999976697098
 20
55.69999799383389
 30
0.0
 11
1439.999976697098
 21
55.69999799383389
 31
0.0
  0
LINE
  5
DD8
330
2
100
AcDbEntity
  8
0
  6
Continuous
 62
     7
100
AcDbLine
 10
1464.999976697098
 20
49.99999799383386
 30
0.0
 11
1439.999976697098
 21
49.99999799383386
 31
0.0
  0
LINE
  5
DD9
330
2
100
AcDbEntity
  8
0
  6
Continuous
 62
     7
100
AcDbLine
 10
1441.999976697098
 20
34.80073324820478
 30
0.0
 11
1446.548709948794
 21
34.80073324820478
 31
0.0
  0
LINE
  5
DDA
330
2
100
AcDbEntity
  8
0
  6
Continuous
 62
     7
100
AcDbLine
 10
1446.548709948794
 20
34.80073324820478
 30
0.0
 11
1466.999976697097
 21
34.80073324820478
 31
0.0
  0
LINE
  5
DDB
330
2
100
AcDbEntity
  8
0
  6
Continuous
 62
     7
100
AcDbLine
 10
1466.999976697097
 20
21.19926273946885
 30
0.0
 11
1441.999976697098
 21
21.19926273946885
 31
0.0
  0
LINE
  5
DDC
330
2
100
AcDbEntity
  8
0
  6
Continuous
 62
     9
100
AcDbLine
 10
1466.999976697097
 20
35.49999799383682
 30
0.0
 11
1441.999976697098
 21
35.49999799383682
 31
0.0
  0
LINE
  5
DDD
330
2
100
AcDbEntity
  8
0
  6
Continuous
 62
     7
100
AcDbLine
 10
1442.499976697098
 20
35.99999799383681
 30
0.0
 11
1466.499976697098
 21
35.99999799383681
 31
0.0
  0
LINE
  5
DDE
330
2
100
AcDbEntity
  8
0
  6
Continuous
 62
     9
100
AcDbLine
 10
1441.999976697098
 20
20.49999799383682
 30
0.0
 11
1446.548709948794
 21
20.49999799383682
 31
0.0
  0
LINE
  5
DDF
330
2
100
AcDbEntity
  8
0
  6
Continuous
 62
     7
100
AcDbLine
 10
1466.499976697098
 20
19.99999799383681
 30
0.0
 11
1446.866760618726
 21
19.99999799383681
 31
0.0
  0
LINE
  5
DE0
330
2
100
AcDbEntity
  8
0
  6
Continuous
 62
     9
100
AcDbLine
 10
1446.548709948794
 20
20.49999799383682
 30
0.0
 11
1466.999976697097
 21
20.49999799383682
 31
0.0
  0
LINE
  5
DE1
330
2
100
AcDbEntity
  8
0
  6
Continuous
 62
     7
100
AcDbLine
 10
1446.866760618726
 20
19.99999799383681
 30
0.0
 11
1442.499976697098
 21
19.99999799383681
 31
0.0
  0
LINE
  5
DE2
330
2
100
AcDbEntity
  8
0
  6
Continuous
 62
     7
100
AcDbLine
 10
1466.999976697097
 20
39.99999799383682
 30
0.0
 11
1441.999976697098
 21
39.99999799383682
 31
0.0
  0
LINE
  5
DE3
330
2
100
AcDbEntity
  8
0
  6
Continuous
 62
     7
100
AcDbLine
 10
1466.999976697097
 20
36.49999799383682
 30
0.0
 11
1441.999976697098
 21
36.49999799383682
 31
0.0
  0
LINE
  5
DE4
330
2
100
AcDbEntity
  8
0
  6
Continuous
 62
     7
100
AcDbLine
 10
2007.999976696356
 20
0.2999979933717895
 30
0.0
 11
2032.999976696356
 21
0.2999979933717895
 31
0.0
  0
LINE
  5
DE5
330
2
100
AcDbEntity
  8
0
  6
Continuous
 62
     7
100
AcDbLine
 10
2032.699976696353
 20
-0.000002006628165
 30
0.0
 11
2008.299976696355
 21
-0.000002006628165
 31
0.0
  0
LINE
  5
DE6
330
2
100
AcDbEntity
  8
0
  6
Continuous
 62
     7
100
AcDbLine
 10
2007.999976696356
 20
5.999997993371835
 30
0.0
 11
2032.999976696356
 21
5.999997993371835
 31
0.0
  0
LINE
  5
DE7
330
2
100
AcDbEntity
  8
0
  6
Continuous
 62
     7
100
AcDbLine
 10
2007.999976696356
 20
16.49999799337092
 30
0.0
 11
2032.999976696356
 21
16.49999799337274
 31
0.0
  0
LINE
  5
DE8
330
2
100
AcDbEntity
  8
0
  6
Continuous
 62
     7
100
AcDbLine
 10
2013.499976696356
 20
17.99999799337092
 30
0.0
 11
2027.499949915047
 21
17.99999799337274
 31
0.0
  0
LINE
  5
DEE
330
2
100
AcDbEntity
  8
0
  6
Continuous
 62
     7
100
AcDbLine
 10
2507.999976696356
 20
0.2999979933717895
 30
0.0
 11
2532.999976696356
 21
0.2999979933717895
 31
0.0
  0
LINE
  5
DEF
330
2
100
AcDbEntity
  8
0
  6
Continuous
 62
     7
100
AcDbLine
 10
2532.699976696353
 20
-0.0000020066272555
 30
0.0
 11
2508.299976696355
 21
-0.0000020066272555
 31
0.0
  0
LINE
  5
DF0
330
2
100
AcDbEntity
  8
0
  6
Continuous
 62
     7
100
AcDbLine
 10
2507.999976696356
 20
5.999997993372744
 30
0.0
 11
2532.999976696356
 21
5.999997993372744
 31
0.0
  0
LINE
  5
DF1
330
2
100
AcDbEntity
  8
0
  6
Continuous
 62
     7
100
AcDbLine
 10
2507.999976819905
 20
16.49999799336865
 30
0.0
 11
2532.999976696356
 21
16.4999979933757
 31
0.0
  0
LINE
  5
DF2
330
2
100
AcDbEntity
  8
0
  6
Continuous
 62
     7
100
AcDbLine
 10
2513.499976765547
 20
17.99999799337092
 30
0.0
 11
2527.499976696356
 21
17.99999799337479
 31
0.0
  0
CIRCLE
  5
DF8
330
2
100
AcDbEntity
  8
0
  6
Continuous
 62
     7
100
AcDbCircle
 10
2490.989447087479
 20
28.39999797952373
 30
0.0
 40
2.000000000002444
  0
LINE
  5
DF9
330
2
100
AcDbEntity
  8
0
  6
Continuous
 62
     7
100
AcDbLine
 10
2491.855472491228
 20
29.89999797954397
 30
0.0
 11
2492.721497895047
 21
28.39999797956466
 31
0.0
  0
LINE
  5
DFA
330
2
100
AcDbEntity
  8
0
  6
Continuous
 62
     7
100
AcDbLine
 10
2490.123421683657
 20
29.89999797950281
 30
0.0
 11
2491.855472491228
 21
29.89999797954397
 31
0.0
  0
LINE
  5
DFB
330
2
100
AcDbEntity
  8
0
  6
Continuous
 62
     7
100
AcDbLine
 10
2489.257396279907
 20
28.39999797948303
 30
0.0
 11
2490.123421683657
 21
29.89999797950281
 31
0.0
  0
LINE
  5
DFC
330
2
100
AcDbEntity
  8
0
  6
Continuous
 62
     7
100
AcDbLine
 10
2490.123421683729
 20
26.89999797950282
 30
0.0
 11
2489.257396279907
 21
28.39999797948303
 31
0.0
  0
LINE
  5
DFD
330
2
100
AcDbEntity
  8
0
  6
Continuous
 62
     7
100
AcDbLine
 10
2491.855472491298
 20
26.89999797954397
 30
0.0
 11
2490.123421683729
 21
26.89999797950282
 31
0.0
  0
LINE
  5
DFE
330
2
100
AcDbEntity
  8
0
  6
Continuous
 62
     7
100
AcDbLine
 10
2492.721497895047
 20
28.39999797956466
 30
0.0
 11
2491.855472491298
 21
26.89999797954397
 31
0.0
  0
CIRCLE
  5
DFF
330
2
100
AcDbEntity
  8
0
  6
Continuous
 62
     7
100
AcDbCircle
 10
2478.989447087479
 20
28.39999797923884
 30
0.0
 40
2.000000000002444
  0
LINE
  5
E00
330
2
100
AcDbEntity
  8
0
  6
Continuous
 62
     7
100
AcDbLine
 10
2479.855472491228
 20
29.89999797925884
 30
0.0
 11
2480.721497895047
 21
28.39999797927999
 31
0.0
  0
LINE
  5
E01
330
2
100
AcDbEntity
  8
0
  6
Continuous
 62
     7
100
AcDbLine
 10
2478.123421683657
 20
29.89999797921905
 30
0.0
 11
2479.855472491228
 21
29.89999797925884
 31
0.0
  0
LINE
  5
E02
330
2
100
AcDbEntity
  8
0
  6
Continuous
 62
     7
100
AcDbLine
 10
2477.257396279907
 20
28.39999797919791
 30
0.0
 11
2478.123421683657
 21
29.89999797921905
 31
0.0
  0
LINE
  5
E03
330
2
100
AcDbEntity
  8
0
  6
Continuous
 62
     7
100
AcDbLine
 10
2478.12342168373
 20
26.89999797921769
 30
0.0
 11
2477.257396279907
 21
28.39999797919791
 31
0.0
  0
LINE
  5
E04
330
2
100
AcDbEntity
  8
0
  6
Continuous
 62
     7
100
AcDbLine
 10
2479.855472491298
 20
26.89999797925884
 30
0.0
 11
2478.12342168373
 21
26.89999797921769
 31
0.0
  0
LINE
  5
E05
330
2
100
AcDbEntity
  8
0
  6
Continuous
 62
     7
100
AcDbLine
 10
2480.721497895047
 20
28.39999797927999
 30
0.0
 11
2479.855472491298
 21
26.89999797925884
 31
0.0
  0
LINE
  5
E06
330
2
100
AcDbEntity
  8
0
  6
Continuous
 62
     7
100
AcDbLine
 10
2474.989447088727
 20
16.39999797874156
 30
0.0
 11
2494.989447088727
 21
16.39999797921678
 31
0.0
  0
LINE
  5
E07
330
2
100
AcDbEntity
  8
0
  6
Continuous
 62
     7
100
AcDbLine
 10
2474.989447088727
 20
16.39999797874156
 30
0.0
 11
2474.989447088157
 21
40.39999797874156
 31
0.0
  0
LINE
  5
E08
330
2
100
AcDbEntity
  8
0
  6
Continuous
 62
     7
100
AcDbLine
 10
2474.989447088157
 20
40.39999797874156
 30
0.0
 11
2494.989447088157
 21
40.39999797921677
 31
0.0
  0
LINE
  5
E09
330
2
100
AcDbEntity
  8
0
  6
Continuous
 62
     7
100
AcDbLine
 10
2494.989447088727
 20
16.39999797921678
 30
0.0
 11
2494.989447088157
 21
40.39999797921587
 31
0.0
  0
LINE
  5
E0A
330
2
100
AcDbEntity
  8
0
  6
Continuous
 62
     7
100
AcDbLine
 10
2478.989447088189
 20
30.89999797922997
 30
0.0
 11
2479.10824699673
 21
30.8971737002687
 31
0.0
  0
ARC
  5
E0B
330
2
100
AcDbEntity
  8
0
  6
Continuous
 62
     7
100
AcDbCircle
 10
2478.989443806397
 20
28.40000139056997
 30
0.0
 40
2.49999674847004
100
AcDbArc
 50
180.5071439987777
 51
87.27620206077686
  0
ARC
  5
E0C
330
2
100
AcDbEntity
  8
0
  6
Continuous
 62
     7
100
AcDbCircle
 10
2478.989465780469
 20
28.39997945171194
 30
0.0
 40
2.500018527588669
100
AcDbArc
 50
90.00042839218281
 51
180.5066367630865
  0
LINE
  5
E0D
330
2
100
AcDbEntity
  8
0
  6
Continuous
 62
     7
100
AcDbLine
 10
2490.989447088196
 20
30.89999797951487
 30
0.0
 11
2491.10824699673
 21
30.89717370055382
 31
0.0
  0
ARC
  5
E0E
330
2
100
AcDbEntity
  8
0
  6
Continuous
 62
     7
100
AcDbCircle
 10
2490.989443806397
 20
28.40000139085464
 30
0.0
 40
2.49999674847004
100
AcDbArc
 50
180.5071439987907
 51
87.27620206077686
  0
ARC
  5
E0F
330
2
100
AcDbEntity
  8
0
  6
Continuous
 62
     7
100
AcDbCircle
 10
2490.989465780469
 20
28.3999794519957
 30
0.0
 40
2.500018527588669
100
AcDbArc
 50
90.00042839218281
 51
180.5066367630865
  0
LINE
  5
E10
330
2
100
AcDbEntity
  8
0
  6
Continuous
 62
     7
100
AcDbLine
 10
1410.49997669637
 20
18.39999802783063
 30
0.0
 11
1410.499976697498
 21
38.39999802783064
 31
0.0
  0
LINE
  5
E11
330
2
100
AcDbEntity
  8
0
  6
Continuous
 62
     7
100
AcDbLine
 10
2580.499976697487
 20
38.39999796173584
 30
0.0
 11
2580.499976696927
 21
28.39999796207394
 31
0.0
  0
LINE
  5
E12
330
2
100
AcDbEntity
  8
0
  6
Continuous
 62
     7
100
AcDbLine
 10
2580.499976696927
 20
28.39999796207394
 30
0.0
 11
2580.499976696356
 21
18.39999796173582
 31
0.0
  0
ARC
  5
E13
330
2
100
AcDbEntity
  8
0
  6
Continuous
 62
     7
100
AcDbCircle
 10
2574.499976695985
 20
1.999998288465803
 30
0.0
 40
1.000000000001222
100
AcDbArc
 50
269.9999999995831
 51
359.9999999995702
  0
LINE
  5
E14
330
2
100
AcDbEntity
  8
0
  6
Continuous
 62
     9
100
AcDbLine
 10
2574.499976695977
 20
0.9999982884658038
 30
0.0
 11
2574.499976695985
 21
1.499998288482855
 31
0.0
  0
ARC
  5
E15
330
2
100
AcDbEntity
  8
0
  6
Continuous
 62
     9
100
AcDbCircle
 10
2574.499976695977
 20
1.999998288482855
 30
0.0
 40
0.4999999999997229
100
AcDbArc
 50
269.9999999995831
 51
359.9999999995961
  0
LINE
  5
E16
330
2
100
AcDbEntity
  8
0
  6
Continuous
 62
     9
100
AcDbLine
 10
2575.499976695985
 20
1.999998288457844
 30
0.0
 11
2574.99997669597
 21
1.999998288462164
 31
0.0
  0
LINE
  5
E17
330
2
100
AcDbEntity
  8
0
  6
Continuous
 62
     7
100
AcDbLine
 10
2575.499976696017
 20
5.999998288458755
 30
0.0
 11
2575.499976695985
 21
1.999998288457844
 31
0.0
  0
LINE
  5
E18
330
2
100
AcDbEntity
  8
0
  6
Continuous
 62
     9
100
AcDbLine
 10
2574.99997669597
 20
1.999998288478991
 30
0.0
 11
2574.999976695996
 21
5.99999828847899
 31
0.0
  0
LINE
  5
E19
330
2
100
AcDbEntity
  8
0
  6
Continuous
 62
     7
100
AcDbLine
 10
2574.999976695996
 20
5.999998288462165
 30
0.0
 11
2575.499976696017
 21
5.999998288458755
 31
0.0
  0
LINE
  5
E1A
330
2
100
AcDbEntity
  8
0
  6
Continuous
 62
     9
100
AcDbLine
 10
2546.49997669597
 20
1.499998288691585
 30
0.0
 11
2574.49997669597
 21
1.499998288482855
 31
0.0
  0
ARC
  5
E1B
330
2
100
AcDbEntity
  8
0
  6
Continuous
 62
     9
100
AcDbCircle
 10
2546.49997669597
 20
1.999998288691585
 30
0.0
 40
0.4999999999988347
100
AcDbArc
 50
179.9999999995701
 51
269.9999999995831
  0
LINE
  5
E1C
330
2
100
AcDbEntity
  8
0
  6
Continuous
 62
     9
100
AcDbLine
 10
2545.999976695995
 20
5.999998288694995
 30
0.0
 11
2545.99997669597
 21
1.999998288694995
 31
0.0
  0
LINE
  5
E1D
330
2
100
AcDbEntity
  8
0
  6
Continuous
 62
     7
100
AcDbLine
 10
2574.999976695996
 20
5.99999828847899
 30
0.0
 11
2545.999976695995
 21
5.999998288694995
 31
0.0
  0
LINE
  5
E1E
330
2
100
AcDbEntity
  8
0
  6
Continuous
 62
     7
100
AcDbLine
 10
2574.499976695977
 20
0.9999982884658038
 30
0.0
 11
2546.499976695978
 21
0.99999828867476
 31
0.0
  0
LINE
  5
E1F
330
2
100
AcDbEntity
  8
0
  6
Continuous
 62
     9
100
AcDbLine
 10
2546.499976695985
 20
1.499998288691585
 30
0.0
 11
2546.499976695978
 21
0.99999828867476
 31
0.0
  0
ARC
  5
E20
330
2
100
AcDbEntity
  8
0
  6
Continuous
 62
     7
100
AcDbCircle
 10
2546.499976695985
 20
1.999998288674759
 30
0.0
 40
0.9999999999998896
100
AcDbArc
 50
179.9999999995961
 51
269.9999999995831
  0
LINE
  5
E21
330
2
100
AcDbEntity
  8
0
  6
Continuous
 62
     9
100
AcDbLine
 10
2545.99997669597
 20
1.999998288678851
 30
0.0
 11
2545.499976695984
 21
1.999998288681808
 31
0.0
  0
LINE
  5
E22
330
2
100
AcDbEntity
  8
0
  6
Continuous
 62
     7
100
AcDbLine
 10
2545.499976695984
 20
1.999998288681808
 30
0.0
 11
2545.499976696018
 21
5.999998288682718
 31
0.0
  0
LINE
  5
E23
330
2
100
AcDbEntity
  8
0
  6
Continuous
 62
     7
100
AcDbLine
 10
2545.499976696018
 20
5.999998288682718
 30
0.0
 11
2545.999976695995
 21
5.999998288678852
 31
0.0
  0
LINE
  5
E24
330
2
100
AcDbEntity
  8
0
  6
Continuous
 62
     7
100
AcDbLine
 10
2574.499976696156
 20
5.99999799058787
 30
0.0
 11
2574.499976696156
 21
6.99999799058787
 31
0.0
  0
LINE
  5
E25
330
2
100
AcDbEntity
  8
0
  6
Continuous
 62
     9
100
AcDbLine
 10
2572.499976696086
 20
5.999997990654718
 30
0.0
 11
2572.499976696086
 21
6.999997990654718
 31
0.0
  0
LINE
  5
E26
330
2
100
AcDbEntity
  8
0
  6
Continuous
 62
     9
100
AcDbLine
 10
2548.499976696087
 20
5.999997990654718
 30
0.0
 11
2548.499976696087
 21
6.999997990654718
 31
0.0
  0
LINE
  5
E27
330
2
100
AcDbEntity
  8
0
  6
Continuous
 62
     7
100
AcDbLine
 10
2546.499976696156
 20
5.99999799058787
 30
0.0
 11
2546.499976696156
 21
6.99999799058787
 31
0.0
  0
LINE
  5
E28
330
2
100
AcDbEntity
  8
0
  6
Continuous
 62
     9
100
AcDbLine
 10
2572.499976696086
 20
15.9999979906529
 30
0.0
 11
2572.499976696086
 21
14.9999979906529
 31
0.0
  0
LINE
  5
E29
330
2
100
AcDbEntity
  8
0
  6
Continuous
 62
     7
100
AcDbLine
 10
2574.499976696156
 20
15.99999799058582
 30
0.0
 11
2574.499976696156
 21
14.99999799058582
 31
0.0
  0
LINE
  5
E2A
330
2
100
AcDbEntity
  8
0
  6
Continuous
 62
     9
100
AcDbLine
 10
2548.499976696087
 20
15.9999979906529
 30
0.0
 11
2548.499976696087
 21
14.9999979906529
 31
0.0
  0
LINE
  5
E2B
330
2
100
AcDbEntity
  8
0
  6
Continuous
 62
     7
100
AcDbLine
 10
2546.499976696156
 20
15.99999799058582
 30
0.0
 11
2546.499976696156
 21
14.99999799058582
 31
0.0
  0
LINE
  5
E2C
330
2
100
AcDbEntity
  8
0
  6
Continuous
 62
     7
100
AcDbLine
 10
2585.499976696058
 20
19.99999799068587
 30
0.0
 11
2584.999976696057
 21
19.99999799068587
 31
0.0
  0
ARC
  5
E2D
330
2
100
AcDbEntity
  8
0
  6
Continuous
 62
     7
100
AcDbCircle
 10
2584.999976696057
 20
19.49999799068587
 30
0.0
 40
0.4999999999997229
100
AcDbArc
 50
90.0
 51
180.0
  0
LINE
  5
E2E
330
2
100
AcDbEntity
  8
0
  6
Continuous
 62
     7
100
AcDbLine
 10
2584.499976696057
 20
19.49999799068587
 30
0.0
 11
2584.499976696057
 21
16.99999799068587
 31
0.0
  0
LINE
  5
E2F
330
2
100
AcDbEntity
  8
0
  6
Continuous
 62
     7
100
AcDbLine
 10
2584.499976696057
 20
16.99999799068587
 30
0.0
 11
2577.499976696057
 21
16.99999799068587
 31
0.0
  0
ARC
  5
E30
330
2
100
AcDbEntity
  8
0
  6
Continuous
 62
     7
100
AcDbCircle
 10
2577.499976696057
 20
16.49999799068587
 30
0.0
 40
0.5000000000001671
100
AcDbArc
 50
90.0
 51
180.0
  0
LINE
  5
E31
330
2
100
AcDbEntity
  8
0
  6
Continuous
 62
     7
100
AcDbLine
 10
2576.999976696058
 20
16.49999799068587
 30
0.0
 11
2576.999976696058
 21
15.99999799068586
 31
0.0
  0
LINE
  5
E32
330
2
100
AcDbEntity
  8
0
  6
Continuous
 62
     7
100
AcDbLine
 10
2576.999976696058
 20
15.99999799068586
 30
0.0
 11
2545.499976696057
 21
15.99999799068586
 31
0.0
  0
LINE
  5
E33
330
2
100
AcDbEntity
  8
0
  6
Continuous
 62
     7
100
AcDbLine
 10
2545.499976696057
 20
15.99999799068586
 30
0.0
 11
2545.499976696057
 21
17.99999799068587
 31
0.0
  0
ARC
  5
E34
330
2
100
AcDbEntity
  8
0
  6
Continuous
 62
     7
100
AcDbCircle
 10
2586.443872911477
 20
-94.79892648424106
 30
0.0
 40
119.9999999999997
100
AcDbArc
 50
109.3824475844803
 51
109.9499487038778
  0
ARC
  5
E35
330
2
100
AcDbEntity
  8
0
  6
Continuous
 62
     7
100
AcDbCircle
 10
2585.499976696058
 20
25.99999799068588
 30
0.0
 40
6.000000000000687
100
AcDbArc
 50
90.0
 51
146.4426902221456
  0
ARC
  5
E36
330
2
100
AcDbEntity
  8
0
  6
Continuous
 62
     7
100
AcDbCircle
 10
2585.499976696058
 20
25.99999799068588
 30
0.0
 40
5.99999999999978
100
AcDbArc
 50
350.4059317874525
 51
90.0
  0
ARC
  5
E37
330
2
100
AcDbEntity
  8
0
  6
Continuous
 62
     7
100
AcDbCircle
 10
2585.499976696058
 20
25.99999799068588
 30
0.0
 40
6.00000000000112
100
AcDbArc
 50
270.0
 51
350.4059317874525
  0
ARC
  5
E38
330
2
100
AcDbEntity
  8
0
  6
Continuous
 62
     7
100
AcDbCircle
 10
2706.298901170987
 20
25.05610177526
 30
0.0
 40
119.999999999999
100
AcDbArc
 50
160.0500512960953
 51
160.5571893990124
  0
ARC
  5
E39
330
2
100
AcDbEntity
  8
0
  6
Continuous
 62
     7
100
AcDbCircle
 10
2706.298901170987
 20
25.05610177526
 30
0.0
 40
119.9999999999982
100
AcDbArc
 50
160.5571893990124
 51
176.2426891191073
  0
LINE
  5
E3A
330
2
100
AcDbEntity
  8
0
  6
Continuous
 62
     7
100
AcDbLine
 10
2595.499976696058
 20
65.99999799068587
 30
0.0
 11
2593.499976696057
 21
65.99999799068587
 31
0.0
  0
LINE
  5
E3B
330
2
100
AcDbEntity
  8
0
  6
Continuous
 62
     7
100
AcDbLine
 10
2595.499976696058
 20
34.49999799068587
 30
0.0
 11
2595.499976696058
 21
64.99999799227293
 31
0.0
  0
LINE
  5
E3C
330
2
100
AcDbEntity
  8
0
  6
Continuous
 62
     7
100
AcDbLine
 10
2595.499976696058
 20
64.99999799227293
 30
0.0
 11
2595.499976696058
 21
65.99999799068587
 31
0.0
  0
LINE
  5
E3D
330
2
100
AcDbEntity
  8
0
  6
Continuous
 62
     7
100
AcDbLine
 10
2594.999976696057
 20
34.49999799068587
 30
0.0
 11
2595.499976696058
 21
34.49999799068587
 31
0.0
  0
ARC
  5
E3E
330
2
100
AcDbEntity
  8
0
  6
Continuous
 62
     7
100
AcDbCircle
 10
2594.999976696057
 20
33.99999799068587
 30
0.0
 40
0.4999999999988347
100
AcDbArc
 50
90.0
 51
180.0
  0
LINE
  5
E3F
330
2
100
AcDbEntity
  8
0
  6
Continuous
 62
     7
100
AcDbLine
 10
2594.499976696058
 20
26.99999799068587
 30
0.0
 11
2594.499976696058
 21
33.99999799068587
 31
0.0
  0
LINE
  5
E40
330
2
100
AcDbEntity
  8
0
  6
Continuous
 62
     7
100
AcDbLine
 10
2592.428179926326
 20
26.99999799068587
 30
0.0
 11
2594.499976696058
 21
26.99999799068587
 31
0.0
  0
ARC
  5
E41
330
2
100
AcDbEntity
  8
0
  6
Continuous
 62
     7
100
AcDbCircle
 10
2585.499976696058
 20
25.99999799068588
 30
0.0
 40
6.999999999998227
100
AcDbArc
 50
8.213210701722699
 51
81.31630899416022
  0
LINE
  5
E42
330
2
100
AcDbEntity
  8
0
  6
Continuous
 62
     9
100
AcDbLine
 10
1410.499976697334
 20
35.49999794669385
 30
0.0
 11
1397.499976697119
 21
35.49999794668202
 31
0.0
  0
LINE
  5
E43
330
2
100
AcDbEntity
  8
0
  6
Continuous
 62
     7
100
AcDbLine
 10
1395.499976697218
 20
37.49999794680889
 30
0.0
 11
1397.499976697228
 21
35.49999794679503
 31
0.0
  0
LINE
  5
E44
330
2
100
AcDbEntity
  8
0
  6
Continuous
 62
     7
100
AcDbLine
 10
1410.499976697447
 20
37.49999794682276
 30
0.0
 11
1395.499976697218
 21
37.49999794680889
 31
0.0
  0
LINE
  5
E45
330
2
100
AcDbEntity
  8
0
  6
Continuous
 62
     9
100
AcDbLine
 10
1435.499976697134
 20
17.4999979467168
 30
0.0
 11
1397.499976697134
 21
17.49999794668201
 31
0.0
  0
LINE
  5
E46
330
2
100
AcDbEntity
  8
0
  6
Continuous
 62
     9
100
AcDbLine
 10
1397.499976697119
 20
35.49999794668202
 30
0.0
 11
1397.499976697134
 21
17.49999794668201
 31
0.0
  0
LINE
  5
E47
330
2
100
AcDbEntity
  8
0
  6
Continuous
 62
     7
100
AcDbLine
 10
1435.499976697134
 20
17.4999979467168
 30
0.0
 11
1435.499976697134
 21
18.39999802641773
 31
0.0
  0
LINE
  5
E48
330
2
100
AcDbEntity
  8
0
  6
Continuous
 62
     7
100
AcDbLine
 10
1435.499976697236
 20
15.49999794684504
 30
0.0
 11
1395.499976697236
 21
15.49999794680889
 31
0.0
  0
LINE
  5
E49
330
2
100
AcDbEntity
  8
0
  6
Continuous
 62
     7
100
AcDbLine
 10
1397.499976697119
 20
17.49999794669793
 30
0.0
 11
1395.499976697236
 21
15.49999794680889
 31
0.0
  0
LINE
  5
E4A
330
2
100
AcDbEntity
  8
0
  6
Continuous
 62
     7
100
AcDbLine
 10
1435.499976697236
 20
15.49999794684504
 30
0.0
 11
1435.499976697236
 21
17.4999979467168
 31
0.0
  0
LINE
  5
E4B
330
2
100
AcDbEntity
  8
0
  6
Continuous
 62
     7
100
AcDbLine
 10
1395.767925889617
 20
16.49999794674499
 30
0.0
 11
1395.767925889617
 21
16.749997946745
 31
0.0
  0
LINE
  5
E4C
330
2
100
AcDbEntity
  8
0
  6
Continuous
 62
     7
100
AcDbLine
 10
1395.767925889617
 20
16.74999794680889
 30
0.0
 11
1395.499976697236
 21
16.74999794680889
 31
0.0
  0
LINE
  5
E4D
330
2
100
AcDbEntity
  8
0
  6
Continuous
 62
     7
100
AcDbLine
 10
1395.499976697236
 20
16.74999794680889
 30
0.0
 11
1395.499976697218
 21
36.24999794680775
 31
0.0
  0
LINE
  5
E4E
330
2
100
AcDbEntity
  8
0
  6
Continuous
 62
     7
100
AcDbLine
 10
1395.499976697218
 20
36.24999794680775
 30
0.0
 11
1395.767925889595
 21
36.24999794680889
 31
0.0
  0
LINE
  5
E4F
330
2
100
AcDbEntity
  8
0
  6
Continuous
 62
     7
100
AcDbLine
 10
1395.767925889595
 20
36.249997946745
 30
0.0
 11
1395.767925889595
 21
36.499997946745
 31
0.0
  0
LINE
  5
E50
330
2
100
AcDbEntity
  8
0
  6
Continuous
 62
     7
100
AcDbLine
 10
1395.767925889595
 20
36.49999794680889
 30
0.0
 11
1395.499976697218
 21
36.49999794680889
 31
0.0
  0
LINE
  5
E51
330
2
100
AcDbEntity
  8
0
  6
Continuous
 62
     7
100
AcDbLine
 10
1395.499976697218
 20
36.49999794680889
 30
0.0
 11
1395.499976697218
 21
37.49999794680889
 31
0.0
  0
LINE
  5
E52
330
2
100
AcDbEntity
  8
0
  6
Continuous
 62
     7
100
AcDbLine
 10
1395.499976697236
 20
15.49999794680889
 30
0.0
 11
1395.499976697236
 21
16.49999794680889
 31
0.0
  0
LINE
  5
E53
330
2
100
AcDbEntity
  8
0
  6
Continuous
 62
     7
100
AcDbLine
 10
1395.499976697236
 20
16.49999794680889
 30
0.0
 11
1395.767925889617
 21
16.49999794680889
 31
0.0
  0
LINE
  5
E54
330
2
100
AcDbEntity
  8
0
  6
Continuous
 62
     7
100
AcDbLine
 10
1401.299976764887
 20
50.10752926027567
 30
0.0
 11
1401.299977836439
 21
39.89246818197671
 31
0.0
  0
ARC
  5
E55
330
2
100
AcDbEntity
  8
0
  6
Continuous
 62
     7
100
AcDbCircle
 10
1399.319856148948
 20
47.21264740495189
 30
0.0
 40
3.507309311987233
100
AcDbArc
 50
55.62758316847386
 51
167.1798631684872
  0
LINE
  5
E56
330
2
100
AcDbEntity
  8
0
  6
Continuous
 62
     7
100
AcDbLine
 10
1395.899978290668
 20
42.0091084662847
 30
0.0
 11
1395.899979042744
 21
47.9908884912736
 31
0.0
  0
ARC
  5
E57
330
2
100
AcDbEntity
  8
0
  6
Continuous
 62
     7
100
AcDbCircle
 10
1399.319856143837
 20
42.78735041517779
 30
0.0
 40
3.507310231731811
100
AcDbArc
 50
192.8201478636629
 51
304.3724278636466
  0
ARC
  5
E58
330
2
100
AcDbEntity
  8
0
  6
Continuous
 62
     7
100
AcDbCircle
 10
1402.949976697095
 20
48.94999805346082
 30
0.0
 40
0.4499999999998403
100
AcDbArc
 50
89.99999664493637
 51
173.6206373032333
  0
ARC
  5
E59
330
2
100
AcDbEntity
  8
0
  6
Continuous
 62
     7
100
AcDbCircle
 10
1402.949976697095
 20
48.94999805346082
 30
0.0
 40
0.4499999999994548
100
AcDbArc
 50
173.6206373032333
 51
179.9999966449494
  0
LINE
  5
E5A
330
2
100
AcDbEntity
  8
0
  6
Continuous
 62
     7
100
AcDbLine
 10
1402.499976697098
 20
48.94999807981185
 30
0.0
 11
1402.499976234507
 21
41.0500000798106
 31
0.0
  0
ARC
  5
E5B
330
2
100
AcDbEntity
  8
0
  6
Continuous
 62
     7
100
AcDbCircle
 10
1402.949976234508
 20
41.05000005346096
 30
0.0
 40
0.4499999999971757
100
AcDbArc
 50
179.9999966449494
 51
186.3796339546672
  0
ARC
  5
E5C
330
2
100
AcDbEntity
  8
0
  6
Continuous
 62
     7
100
AcDbCircle
 10
1402.949976234508
 20
41.05000005346096
 30
0.0
 40
0.4499999999969007
100
AcDbArc
 50
186.3796339546543
 51
269.9999966449364
  0
LINE
  5
E5D
330
2
100
AcDbEntity
  8
0
  6
Continuous
 62
     7
100
AcDbLine
 10
1402.949976208158
 20
40.60000005346092
 30
0.0
 11
1403.049976208156
 21
40.6000000476049
 31
0.0
  0
ARC
  5
E5E
330
2
100
AcDbEntity
  8
0
  6
Continuous
 62
     7
100
AcDbCircle
 10
1403.049976234506
 20
41.05000004760495
 30
0.0
 40
0.4499999999998403
100
AcDbArc
 50
269.9999966449364
 51
353.62036679556
  0
ARC
  5
E5F
330
2
100
AcDbEntity
  8
0
  6
Continuous
 62
     7
100
AcDbCircle
 10
1403.049976234506
 20
41.05000004760495
 30
0.0
 40
0.4499999999994408
100
AcDbArc
 50
353.6203667955728
 51
359.9999966449624
  0
LINE
  5
E60
330
2
100
AcDbEntity
  8
0
  6
Continuous
 62
     7
100
AcDbLine
 10
1403.499976234507
 20
41.05000002125485
 30
0.0
 11
1403.499976263785
 21
41.55000002125484
 31
0.0
  0
ARC
  5
E61
330
2
100
AcDbEntity
  8
0
  6
Continuous
 62
     7
100
AcDbCircle
 10
1403.949975263786
 20
41.54999899490507
 30
0.0
 40
0.4499990000018153
100
AcDbArc
 50
89.99986932073033
 51
179.9998693207303
  0
LINE
  5
E62
330
2
100
AcDbEntity
  8
0
  6
Continuous
 62
     7
100
AcDbLine
 10
1403.949976290125
 20
41.99999799490501
 30
0.0
 11
1404.049976290127
 21
41.999999989049
 31
0.0
  0
ARC
  5
E63
330
2
100
AcDbEntity
  8
0
  6
Continuous
 62
     7
100
AcDbCircle
 10
1404.049976263777
 20
41.54999998904895
 30
0.0
 40
0.4500000000002843
100
AcDbArc
 50
359.9999966449494
 51
89.99999664493637
  0
LINE
  5
E64
330
2
100
AcDbEntity
  8
0
  6
Continuous
 62
     7
100
AcDbLine
 10
1404.499976263778
 20
41.54999996269792
 30
0.0
 11
1404.499976231578
 21
40.99999996269797
 31
0.0
  0
LINE
  5
E65
330
2
100
AcDbEntity
  8
0
  6
Continuous
 62
     7
100
AcDbLine
 10
1404.499976231578
 20
40.99999996269797
 30
0.0
 11
1408.199976231575
 21
40.99999974603861
 31
0.0
  0
LINE
  5
E66
330
2
100
AcDbEntity
  8
0
  6
Continuous
 62
     7
100
AcDbLine
 10
1408.199976231575
 20
40.99999974603861
 30
0.0
 11
1408.199976196447
 21
40.3999997460387
 31
0.0
  0
LINE
  5
E67
330
2
100
AcDbEntity
  8
0
  6
Continuous
 62
     7
100
AcDbLine
 10
1408.199976196447
 20
40.3999997460387
 30
0.0
 11
1411.735325366346
 21
40.39999932808496
 31
0.0
  0
ARC
  5
E68
330
2
100
AcDbEntity
  8
0
  6
Continuous
 62
     7
100
AcDbCircle
 10
1411.499975875427
 20
40.31567974009568
 30
0.0
 40
0.2499983515828065
100
AcDbArc
 50
19.71127840082555
 51
84.71062540090541
  0
LINE
  5
E69
330
2
100
AcDbEntity
  8
0
  6
Continuous
 62
     7
100
AcDbLine
 10
1411.523022206085
 20
40.56461355145188
 30
0.0
 11
1409.549648216776
 21
40.74731366700667
 31
0.0
  0
LINE
  5
E6A
330
2
100
AcDbEntity
  8
0
  6
Continuous
 62
     7
100
AcDbLine
 10
1409.549648216776
 20
40.74731366700667
 30
0.0
 11
1409.572696231353
 21
40.99624766565693
 31
0.0
  0
LINE
  5
E6B
330
2
100
AcDbEntity
  8
0
  6
Continuous
 62
     7
100
AcDbLine
 10
1409.572696231353
 20
40.99624766565693
 30
0.0
 11
1411.546067936677
 21
40.81355038610673
 31
0.0
  0
ARC
  5
E6C
330
2
100
AcDbEntity
  8
0
  6
Continuous
 62
     7
100
AcDbCircle
 10
1411.499973881517
 20
40.31568023757995
 30
0.0
 40
0.4999993467153822
100
AcDbArc
 50
9.70868503959072
 51
84.71049303950968
  0
LINE
  5
E6D
330
2
100
AcDbEntity
  8
0
  6
Continuous
 62
     7
100
AcDbLine
 10
1411.992812196437
 20
40.39999952394281
 30
0.0
 11
1412.699974196446
 21
40.39999948253465
 31
0.0
  0
LINE
  5
E6E
330
2
100
AcDbEntity
  8
0
  6
Continuous
 62
     7
100
AcDbLine
 10
1412.699974196446
 20
40.39999948253465
 30
0.0
 11
1412.699974231578
 21
40.99999948253365
 31
0.0
  0
LINE
  5
E6F
330
2
100
AcDbEntity
  8
0
  6
Continuous
 62
     7
100
AcDbLine
 10
1412.699974231578
 20
40.99999948253365
 30
0.0
 11
1414.499974231578
 21
40.99999937713186
 31
0.0
  0
LINE
  5
E70
330
2
100
AcDbEntity
  8
0
  6
Continuous
 62
     7
100
AcDbLine
 10
1414.499974231578
 20
40.99999937713186
 30
0.0
 11
1414.499974184727
 21
40.1999993771319
 31
0.0
  0
ARC
  5
E71
330
2
100
AcDbEntity
  8
0
  6
Continuous
 62
     7
100
AcDbCircle
 10
1413.699974184728
 20
40.19999942397793
 30
0.0
 40
0.8000000000016896
100
AcDbArc
 50
269.9999966449364
 51
359.9999966449494
  0
LINE
  5
E72
330
2
100
AcDbEntity
  8
0
  6
Continuous
 62
     7
100
AcDbLine
 10
1413.699974137886
 20
39.39999942397776
 30
0.0
 11
1401.299976604936
 21
39.39999959284387
 31
0.0
  0
LINE
  5
E73
330
2
100
AcDbEntity
  8
0
  6
Continuous
 62
     7
100
AcDbLine
 10
1395.499978290667
 20
42.00910848970784
 30
0.0
 11
1395.499977940399
 21
47.99088760575681
 31
0.0
  0
ARC
  5
E74
330
2
100
AcDbEntity
  8
0
  6
Continuous
 62
     7
100
AcDbCircle
 10
1399.343780159375
 20
47.19738615495771
 30
0.0
 40
3.924851596062882
100
AcDbArc
 50
60.10494679293405
 51
168.3359047928698
  0
LINE
  5
E75
330
2
100
AcDbEntity
  8
0
  6
Continuous
 62
     7
100
AcDbLine
 10
1401.299976793718
 20
50.59999615007995
 30
0.0
 11
1413.699974793719
 21
50.59999542397783
 31
0.0
  0
ARC
  5
E76
330
2
100
AcDbEntity
  8
0
  6
Continuous
 62
     7
100
AcDbCircle
 10
1413.699974746876
 20
49.79999542397786
 30
0.0
 40
0.7999999999999135
100
AcDbArc
 50
359.9999966448973
 51
89.99999664493637
  0
LINE
  5
E77
330
2
100
AcDbEntity
  8
0
  6
Continuous
 62
     7
100
AcDbLine
 10
1414.499974746875
 20
49.79999537713182
 30
0.0
 11
1414.499974700025
 21
48.99999737713279
 31
0.0
  0
LINE
  5
E78
330
2
100
AcDbEntity
  8
0
  6
Continuous
 62
     7
100
AcDbLine
 10
1414.499974700025
 20
48.99999737713279
 30
0.0
 11
1412.699974700026
 21
48.99999748253458
 31
0.0
  0
LINE
  5
E79
330
2
100
AcDbEntity
  8
0
  6
Continuous
 62
     7
100
AcDbLine
 10
1412.699974700026
 20
48.99999748253458
 30
0.0
 11
1412.699974735169
 21
49.59999548253382
 31
0.0
  0
LINE
  5
E7A
330
2
100
AcDbEntity
  8
0
  6
Continuous
 62
     7
100
AcDbLine
 10
1412.699974735169
 20
49.59999548253382
 30
0.0
 11
1411.992813626388
 21
49.59999573207689
 31
0.0
  0
ARC
  5
E7B
330
2
100
AcDbEntity
  8
0
  6
Continuous
 62
     7
100
AcDbCircle
 10
1411.499975426828
 20
49.68431578576495
 30
0.0
 40
0.4999993623979738
100
AcDbArc
 50
275.2894180610676
 51
350.2912260610665
  0
LINE
  5
E7C
330
2
100
AcDbEntity
  8
0
  6
Continuous
 62
     7
100
AcDbLine
 10
1411.546068710948
 20
49.18644555010269
 30
0.0
 11
1409.572696700245
 21
49.00374766565687
 31
0.0
  0
LINE
  5
E7D
330
2
100
AcDbEntity
  8
0
  6
Continuous
 62
     7
100
AcDbLine
 10
1409.572696700245
 20
49.00374766565687
 30
0.0
 11
1409.54964871483
 21
49.25268366700675
 31
0.0
  0
LINE
  5
E7E
330
2
100
AcDbEntity
  8
0
  6
Continuous
 62
     7
100
AcDbLine
 10
1409.54964871483
 20
49.25268366700675
 30
0.0
 11
1411.523021583536
 21
49.43538013345072
 31
0.0
  0
ARC
  5
E7F
330
2
100
AcDbEntity
  8
0
  6
Continuous
 62
     7
100
AcDbCircle
 10
1411.499975320705
 20
49.68431609884305
 30
0.0
 40
0.2500004901916652
100
AcDbArc
 50
275.2893136107865
 51
340.2886606107967
  0
LINE
  5
E80
330
2
100
AcDbEntity
  8
0
  6
Continuous
 62
     7
100
AcDbLine
 10
1411.735326735157
 20
49.59999553902093
 30
0.0
 11
1408.199976735155
 21
49.59999574603876
 31
0.0
  0
LINE
  5
E81
330
2
100
AcDbEntity
  8
0
  6
Continuous
 62
     7
100
AcDbLine
 10
1408.199976735155
 20
49.59999574603876
 30
0.0
 11
1408.199976700027
 21
48.99999774603862
 31
0.0
  0
LINE
  5
E82
330
2
100
AcDbEntity
  8
0
  6
Continuous
 62
     7
100
AcDbLine
 10
1408.199976700027
 20
48.99999774603862
 30
0.0
 11
1404.499976700026
 21
48.99999796269799
 31
0.0
  0
LINE
  5
E83
330
2
100
AcDbEntity
  8
0
  6
Continuous
 62
     7
100
AcDbLine
 10
1404.499976700026
 20
48.99999796269799
 30
0.0
 11
1404.499976667819
 21
48.44999796269894
 31
0.0
  0
ARC
  5
E84
330
2
100
AcDbEntity
  8
0
  6
Continuous
 62
     7
100
AcDbCircle
 10
1404.049976667826
 20
48.44999798904904
 30
0.0
 40
0.4499999999971757
100
AcDbArc
 50
269.9999966449364
 51
359.9999966449494
  0
LINE
  5
E85
330
2
100
AcDbEntity
  8
0
  6
Continuous
 62
     7
100
AcDbLine
 10
1404.049976641476
 20
47.99999798904901
 30
0.0
 11
1403.949976641477
 21
47.999997994905
 31
0.0
  0
ARC
  5
E86
330
2
100
AcDbEntity
  8
0
  6
Continuous
 62
     7
100
AcDbCircle
 10
1403.949976667827
 20
48.44999799490506
 30
0.0
 40
0.4499999999998403
100
AcDbArc
 50
179.9999966449494
 51
269.9999966449364
  0
LINE
  5
E87
330
2
100
AcDbEntity
  8
0
  6
Continuous
 62
     7
100
AcDbLine
 10
1403.499976667826
 20
48.44999802125471
 30
0.0
 11
1403.499976697105
 21
48.94999802125472
 31
0.0
  0
ARC
  5
E88
330
2
100
AcDbEntity
  8
0
  6
Continuous
 62
     7
100
AcDbCircle
 10
1403.049976697096
 20
48.94999804760573
 30
0.0
 40
0.4500000000007284
100
AcDbArc
 50
359.9999966449494
 51
6.379363447006827
  0
ARC
  5
E89
330
2
100
AcDbEntity
  8
0
  6
Continuous
 62
     7
100
AcDbCircle
 10
1403.049976697096
 20
48.94999804760573
 30
0.0
 40
0.4500000000004672
100
AcDbArc
 50
6.379363447006827
 51
89.99999664493637
  0
LINE
  5
E8A
330
2
100
AcDbEntity
  8
0
  6
Continuous
 62
     7
100
AcDbLine
 10
1403.049976723447
 20
49.39999804760486
 30
0.0
 11
1402.949976723455
 21
49.399998053462
 31
0.0
  0
ARC
  5
E8B
330
2
100
AcDbEntity
  8
0
  6
Continuous
 62
     7
100
AcDbCircle
 10
1399.343780367646
 20
42.80260956923961
 30
0.0
 40
3.924851381931002
100
AcDbArc
 50
191.6640903183073
 51
299.8950483183215
  0
LINE
  5
E8C
330
2
100
AcDbEntity
  8
0
  6
Continuous
 62
     9
100
AcDbLine
 10
1423.499976697589
 20
67.99999796204588
 30
0.0
 11
1423.499976697596
 21
48.99999796204588
 31
0.0
  0
LINE
  5
E8D
330
2
100
AcDbEntity
  8
0
  6
Continuous
 62
     7
100
AcDbLine
 10
1422.499976697527
 20
48.99999796199381
 30
0.0
 11
1422.499976697527
 21
67.99999796199381
 31
0.0
  0
LINE
  5
E8E
330
2
100
AcDbEntity
  8
0
  6
Continuous
 62
     9
100
AcDbLine
 10
1423.499976697589
 20
67.99999796199381
 30
0.0
 11
1422.499976697527
 21
67.99999796199381
 31
0.0
  0
LINE
  5
E8F
330
2
100
AcDbEntity
  8
0
  6
Continuous
 62
     9
100
AcDbLine
 10
1441.499976697589
 20
55.99999799383386
 30
0.0
 11
1441.499976697589
 21
67.99999796204793
 31
0.0
  0
LINE
  5
E90
330
2
100
AcDbEntity
  8
0
  6
Continuous
 62
     9
100
AcDbLine
 10
1441.499976697589
 20
67.99999796204793
 30
0.0
 11
1423.499976697589
 21
67.99999796204588
 31
0.0
  0
ARC
  5
E91
330
2
100
AcDbEntity
  8
0
  6
Continuous
 62
     7
100
AcDbCircle
 10
1423.499976697527
 20
67.99999796199381
 30
0.0
 40
0.9999999999998896
100
AcDbArc
 50
90.0
 51
180.0
  0
LINE
  5
E92
330
2
100
AcDbEntity
  8
0
  6
Continuous
 62
     9
100
AcDbLine
 10
1423.499976697527
 20
67.99999796204588
 30
0.0
 11
1423.499976697527
 21
68.99999796199381
 31
0.0
  0
LINE
  5
E93
330
2
100
AcDbEntity
  8
0
  6
Continuous
 62
     7
100
AcDbLine
 10
1423.499976697527
 20
68.99999796199381
 30
0.0
 11
1441.499976697527
 21
68.99999796199563
 31
0.0
  0
LINE
  5
E94
330
2
100
AcDbEntity
  8
0
  6
Continuous
 62
     9
100
AcDbLine
 10
1441.499976697527
 20
67.99999796204793
 30
0.0
 11
1441.499976697527
 21
68.99999796199563
 31
0.0
  0
LINE
  5
E95
330
2
100
AcDbEntity
  8
0
  6
Continuous
 62
     9
100
AcDbLine
 10
1441.499976697589
 20
67.99999796199699
 30
0.0
 11
1442.499976697527
 21
67.99999796199699
 31
0.0
  0
LINE
  5
E96
330
2
100
AcDbEntity
  8
0
  6
Continuous
 62
     7
100
AcDbLine
 10
1442.499976697527
 20
67.99999796199699
 30
0.0
 11
1442.499976697527
 21
55.99999799383386
 31
0.0
  0
ARC
  5
E97
330
2
100
AcDbEntity
  8
0
  6
Continuous
 62
     7
100
AcDbCircle
 10
1441.499976697527
 20
67.99999796199699
 30
0.0
 40
1.000000000001222
100
AcDbArc
 50
0.0000000000130276
 51
90.0
  0
LINE
  5
E98
330
2
100
AcDbEntity
  8
0
  6
Continuous
 62
     9
100
AcDbLine
 10
1423.499976696956
 20
40.99999796256883
 30
0.0
 11
1423.499976696854
 21
38.39999802709576
 31
0.0
  0
LINE
  5
E99
330
2
100
AcDbEntity
  8
0
  6
Continuous
 62
     7
100
AcDbLine
 10
1422.499976696868
 20
38.39999802715283
 30
0.0
 11
1422.499976696956
 21
40.99999796253473
 31
0.0
  0
LINE
  5
E9A
330
2
100
AcDbEntity
  8
0
  6
Continuous
 62
     9
100
AcDbLine
 10
1441.499976696868
 20
38.39999802607986
 30
0.0
 11
1441.499976696956
 21
40.99999796189877
 31
0.0
  0
LINE
  5
E9B
330
2
100
AcDbEntity
  8
0
  6
Continuous
 62
     7
100
AcDbLine
 10
1442.499976696956
 20
40.99999796179099
 30
0.0
 11
1442.499976696927
 21
39.99999799383591
 31
0.0
  0
LINE
  5
E9C
330
2
100
AcDbEntity
  8
0
  6
Continuous
 62
     7
100
AcDbLine
 10
1995.499976724888
 20
51.49999797535702
 30
0.0
 11
1994.473283030267
 21
51.49999797594069
 31
0.0
  0
LINE
  5
E9D
330
2
100
AcDbEntity
  8
0
  6
Continuous
 62
     7
100
AcDbLine
 10
1995.499976717488
 20
38.49999797535703
 30
0.0
 11
1995.499976724888
 21
51.49999797535702
 31
0.0
  0
LINE
  5
E9E
330
2
100
AcDbEntity
  8
0
  6
Continuous
 62
     7
100
AcDbLine
 10
1995.499976702718
 20
12.49999797535702
 30
0.0
 11
1995.499976704137
 21
14.9999979950469
 31
0.0
  0
LINE
  5
E9F
330
2
100
AcDbEntity
  8
0
  6
Continuous
 62
     7
100
AcDbLine
 10
1995.499976704137
 20
14.9999979950469
 30
0.0
 11
1995.499976717488
 21
38.49999797535703
 31
0.0
  0
LINE
  5
EA0
330
2
100
AcDbEntity
  8
0
  6
Continuous
 62
     7
100
AcDbLine
 10
1994.999976702704
 20
12.49999797564078
 30
0.0
 11
1995.499976702718
 21
12.49999797535702
 31
0.0
  0
LINE
  5
EA1
330
2
100
AcDbEntity
  8
0
  6
Continuous
 62
     7
100
AcDbLine
 10
1994.500003647656
 20
38.49859760731897
 30
0.0
 11
1994.951899780688
 21
14.9999979950469
 31
0.0
  0
LINE
  5
EA2
330
2
100
AcDbEntity
  8
0
  6
Continuous
 62
     7
100
AcDbLine
 10
1994.951899780688
 20
14.9999979950469
 30
0.0
 11
1994.999976702704
 21
12.49999797564078
 31
0.0
  0
LINE
  5
EA3
330
2
100
AcDbEntity
  8
0
  6
Continuous
 62
     7
100
AcDbLine
 10
1983.461954529026
 20
39.07707725553678
 30
0.0
 11
1994.500003647656
 21
38.49859760731897
 31
0.0
  0
LINE
  5
EA4
330
2
100
AcDbEntity
  8
0
  6
Continuous
 62
     7
100
AcDbLine
 10
1983.493356103117
 20
39.67625497637073
 30
0.0
 11
1983.461954529026
 21
39.07707725553678
 31
0.0
  0
ARC
  5
EA5
330
2
100
AcDbEntity
  8
0
  6
Continuous
 62
     7
100
AcDbCircle
 10
1983.892807917007
 20
39.65532059364682
 30
0.0
 40
0.3999999999997887
100
AcDbArc
 50
86.9999999672242
 51
176.999999967307
  0
LINE
  5
EA6
330
2
100
AcDbEntity
  8
0
  6
Continuous
 62
     7
100
AcDbLine
 10
1985.012234787926
 20
39.997202855046
 30
0.0
 11
1983.91374229973
 21
40.0547724075368
 31
0.0
  0
LINE
  5
EA7
330
2
100
AcDbEntity
  8
0
  6
Continuous
 62
     7
100
AcDbLine
 10
1985.001767596554
 20
39.7974769481009
 30
0.0
 11
1985.012234787926
 21
39.997202855046
 31
0.0
  0
LINE
  5
EA8
330
2
100
AcDbEntity
  8
0
  6
Continuous
 62
     7
100
AcDbLine
 10
1987.997656200736
 20
39.64046907766783
 30
0.0
 11
1985.001767596554
 21
39.7974769481009
 31
0.0
  0
LINE
  5
EA9
330
2
100
AcDbEntity
  8
0
  6
Continuous
 62
     7
100
AcDbLine
 10
1988.008123392105
 20
39.84019498461293
 30
0.0
 11
1987.997656200736
 21
39.64046907766783
 31
0.0
  0
LINE
  5
EAA
330
2
100
AcDbEntity
  8
0
  6
Continuous
 62
     7
100
AcDbLine
 10
1991.004011996276
 20
39.68318711418078
 30
0.0
 11
1988.008123392105
 21
39.84019498461293
 31
0.0
  0
LINE
  5
EAB
330
2
100
AcDbEntity
  8
0
  6
Continuous
 62
     7
100
AcDbLine
 10
1991.008838538128
 20
40.05739195437286
 30
0.0
 11
1991.004011996276
 21
39.68318711418078
 31
0.0
  0
ARC
  5
EAC
330
2
100
AcDbEntity
  8
0
  6
Continuous
 62
     7
100
AcDbCircle
 10
1991.408697406019
 20
40.06801672577284
 30
0.0
 40
0.3999999999997887
100
AcDbArc
 50
86.9999999672242
 51
181.5220654131105
  0
LINE
  5
EAD
330
2
100
AcDbEntity
  8
0
  6
Continuous
 62
     7
100
AcDbLine
 10
1991.629357695688
 20
40.45700134829985
 30
0.0
 11
1991.429631788745
 21
40.46746853966214
 31
0.0
  0
ARC
  5
EAE
330
2
100
AcDbEntity
  8
0
  6
Continuous
 62
     7
100
AcDbCircle
 10
1991.608423312969
 20
40.057549534411
 30
0.0
 40
0.3999999999973288
100
AcDbArc
 50
1.522065413019497
 51
86.99999996743306
  0
LINE
  5
EAF
330
2
100
AcDbEntity
  8
0
  6
Continuous
 62
     7
100
AcDbLine
 10
1992.002641530994
 20
39.6308511573709
 30
0.0
 11
1992.008282180857
 21
40.06817430580895
 31
0.0
  0
LINE
  5
EB0
330
2
100
AcDbEntity
  8
0
  6
Continuous
 62
     7
100
AcDbLine
 10
1994.499976718056
 20
39.49997136466686
 30
0.0
 11
1992.002641530994
 21
39.6308511573709
 31
0.0
  0
LINE
  5
EB1
330
2
100
AcDbEntity
  8
0
  6
Continuous
 62
     7
100
AcDbLine
 10
1994.499976724317
 20
50.50002458718381
 30
0.0
 11
1994.499976723469
 21
48.99999799491388
 31
0.0
  0
LINE
  5
EB2
330
2
100
AcDbEntity
  8
0
  6
Continuous
 62
     7
100
AcDbLine
 10
1994.499976723469
 20
48.99999799491388
 30
0.0
 11
1994.499976718918
 21
40.99999799491388
 31
0.0
  0
LINE
  5
EB3
330
2
100
AcDbEntity
  8
0
  6
Continuous
 62
     7
100
AcDbLine
 10
1994.499976718918
 20
40.99999799491388
 30
0.0
 11
1994.499976718056
 21
39.49997136466686
 31
0.0
  0
LINE
  5
EB4
330
2
100
AcDbEntity
  8
0
  6
Continuous
 62
     7
100
AcDbLine
 10
1992.002641537096
 20
50.3691447973199
 30
0.0
 11
1994.499976724317
 21
50.50002458718381
 31
0.0
  0
LINE
  5
EB5
330
2
100
AcDbEntity
  8
0
  6
Continuous
 62
     7
100
AcDbLine
 10
1992.007875132498
 20
49.96338080299665
 30
0.0
 11
1992.002641537096
 21
50.3691447973199
 31
0.0
  0
ARC
  5
EB6
330
2
100
AcDbEntity
  8
0
  6
Continuous
 62
     7
100
AcDbCircle
 10
1991.608423318586
 20
49.94244642072771
 30
0.0
 40
0.3999999999997153
100
AcDbArc
 50
272.9999999674447
 51
2.99999996735283
  0
LINE
  5
EB7
330
2
100
AcDbEntity
  8
0
  6
Continuous
 62
     7
100
AcDbLine
 10
1991.429631793897
 20
49.53252741567894
 30
0.0
 11
1991.629357700847
 21
49.54299460681387
 31
0.0
  0
ARC
  5
EB8
330
2
100
AcDbEntity
  8
0
  6
Continuous
 62
     7
100
AcDbCircle
 10
1991.408697411629
 20
49.93197922959279
 30
0.0
 40
0.3999999999986182
100
AcDbArc
 50
182.9999999675089
 51
272.9999999674439
  0
LINE
  5
EB9
330
2
100
AcDbEntity
  8
0
  6
Continuous
 62
     7
100
AcDbLine
 10
1991.004012002319
 20
50.31680884164484
 30
0.0
 11
1991.009245597717
 21
49.9110448473216
 31
0.0
  0
LINE
  5
EBA
330
2
100
AcDbEntity
  8
0
  6
Continuous
 62
     7
100
AcDbLine
 10
1988.008123397969
 20
50.15980097461874
 30
0.0
 11
1991.004012002319
 21
50.31680884164484
 31
0.0
  0
LINE
  5
EBB
330
2
100
AcDbEntity
  8
0
  6
Continuous
 62
     7
100
AcDbLine
 10
1987.99765620683
 20
50.35952688157589
 30
0.0
 11
1988.008123397969
 21
50.15980097461874
 31
0.0
  0
LINE
  5
EBC
330
2
100
AcDbEntity
  8
0
  6
Continuous
 62
     7
100
AcDbLine
 10
1985.001767602476
 20
50.2025190145498
 30
0.0
 11
1987.99765620683
 21
50.35952688157589
 31
0.0
  0
LINE
  5
EBD
330
2
100
AcDbEntity
  8
0
  6
Continuous
 62
     7
100
AcDbLine
 10
1985.012234793616
 20
50.00279310759378
 30
0.0
 11
1985.001767602476
 21
50.2025190145498
 31
0.0
  0
LINE
  5
EBE
330
2
100
AcDbEntity
  8
0
  6
Continuous
 62
     7
100
AcDbLine
 10
1983.913742305354
 20
49.94522355635081
 30
0.0
 11
1985.012234793616
 21
50.00279310759378
 31
0.0
  0
ARC
  5
EBF
330
2
100
AcDbEntity
  8
0
  6
Continuous
 62
     7
100
AcDbCircle
 10
1983.892807923086
 20
50.34467537026397
 30
0.0
 40
0.3999999999985833
100
AcDbArc
 50
182.9999999674179
 51
272.9999999674439
  0
LINE
  5
EC0
330
2
100
AcDbEntity
  8
0
  6
Continuous
 62
     7
100
AcDbLine
 10
1983.461954535756
 20
50.92291870886493
 30
0.0
 11
1983.493356109167
 21
50.3237409879939
 31
0.0
  0
LINE
  5
EC1
330
2
100
AcDbEntity
  8
0
  6
Continuous
 62
     7
100
AcDbLine
 10
1994.473283030267
 20
51.49999797594069
 30
0.0
 11
1983.461954535756
 21
50.92291870886493
 31
0.0
  0
LINE
  5
EC2
330
2
100
AcDbEntity
  8
0
  6
Continuous
 62
     4
100
AcDbLine
 10
1994.499976697105
 20
40.99999799491388
 30
0.0
 11
1414.499974231578
 21
40.99999799483202
 31
0.0
  0
LINE
  5
EC3
330
2
100
AcDbEntity
  8
0
  6
Continuous
 62
     4
100
AcDbLine
 10
1414.499974231578
 20
40.99999799483202
 30
0.0
 11
1412.699974231578
 21
40.99999799483202
 31
0.0
  0
LINE
  5
EC4
330
2
100
AcDbEntity
  8
0
  6
Continuous
 62
     4
100
AcDbLine
 10
1412.699974231578
 20
40.99999799483202
 30
0.0
 11
1408.199976231575
 21
40.99999799483089
 31
0.0
  0
LINE
  5
EC5
330
2
100
AcDbEntity
  8
0
  6
Continuous
 62
     4
100
AcDbLine
 10
1408.199976231575
 20
40.99999799483089
 30
0.0
 11
1404.499976231578
 21
40.99999799482998
 31
0.0
  0
LINE
  5
EC6
330
2
100
AcDbEntity
  8
0
  6
Continuous
 62
     4
100
AcDbLine
 10
1404.499976231578
 20
40.99999799482998
 30
0.0
 11
1403.497189600486
 21
40.99999799482998
 31
0.0
  0
LINE
  5
EC7
330
2
100
AcDbEntity
  8
0
  6
Continuous
 62
     4
100
AcDbLine
 10
1403.497189600486
 20
40.99999799482998
 30
0.0
 11
1402.502762869168
 21
40.99999799482998
 31
0.0
  0
LINE
  5
EC8
330
2
100
AcDbEntity
  8
0
  6
Continuous
 62
     4
100
AcDbLine
 10
1402.502762869168
 20
40.99999799482998
 30
0.0
 11
1402.499976697105
 21
40.99999799482998
 31
0.0
  0
LINE
  5
EC9
330
2
100
AcDbEntity
  8
0
  6
Continuous
 62
     4
100
AcDbLine
 10
1402.499976697105
 20
40.99999799482998
 30
0.0
 11
1402.499976697105
 21
41.05000005346096
 31
0.0
  0
LINE
  5
ECA
330
2
100
AcDbEntity
  8
0
  6
Continuous
 62
     4
100
AcDbLine
 10
1402.499976697105
 20
41.05000005346096
 30
0.0
 11
1402.499976697098
 21
48.94999805346082
 31
0.0
  0
LINE
  5
ECB
330
2
100
AcDbEntity
  8
0
  6
Continuous
 62
     4
100
AcDbLine
 10
1402.499976697098
 20
48.94999805346082
 30
0.0
 11
1402.499976697098
 21
48.99999799482998
 31
0.0
  0
LINE
  5
ECC
330
2
100
AcDbEntity
  8
0
  6
Continuous
 62
     4
100
AcDbLine
 10
1402.499976697098
 20
48.99999799482998
 30
0.0
 11
1402.502763095046
 21
48.99999799482998
 31
0.0
  0
LINE
  5
ECD
330
2
100
AcDbEntity
  8
0
  6
Continuous
 62
     4
100
AcDbLine
 10
1402.502763095046
 20
48.99999799482998
 30
0.0
 11
1403.497190298494
 21
48.99999799482998
 31
0.0
  0
LINE
  5
ECE
330
2
100
AcDbEntity
  8
0
  6
Continuous
 62
     4
100
AcDbLine
 10
1403.497190298494
 20
48.99999799482998
 30
0.0
 11
1404.499976700026
 21
48.99999799483089
 31
0.0
  0
LINE
  5
ECF
330
2
100
AcDbEntity
  8
0
  6
Continuous
 62
     4
100
AcDbLine
 10
1404.499976700026
 20
48.99999799483089
 30
0.0
 11
1408.199976700027
 21
48.99999799483089
 31
0.0
  0
LINE
  5
ED0
330
2
100
AcDbEntity
  8
0
  6
Continuous
 62
     4
100
AcDbLine
 10
1408.199976700027
 20
48.99999799483089
 30
0.0
 11
1412.699974700026
 21
48.99999799483089
 31
0.0
  0
LINE
  5
ED1
330
2
100
AcDbEntity
  8
0
  6
Continuous
 62
     4
100
AcDbLine
 10
1412.699974700026
 20
48.99999799483089
 30
0.0
 11
1414.499974700025
 21
48.99999799483203
 31
0.0
  0
LINE
  5
ED2
330
2
100
AcDbEntity
  8
0
  6
Continuous
 62
     4
100
AcDbLine
 10
1414.499974700025
 20
48.99999799483203
 30
0.0
 11
1994.499976697105
 21
48.99999799491388
 31
0.0
  0
LINE
  5
ED3
330
2
100
AcDbEntity
  8
0
  6
Continuous
 62
     4
100
AcDbLine
 10
1994.499976697105
 20
48.99999799491388
 30
0.0
 11
1994.499976697105
 21
40.99999799491388
 31
0.0
  0
LINE
  5
ED4
330
2
100
AcDbEntity
  8
0
  6
Continuous
 62
     8
100
AcDbLine
 10
1940.499976696287
 20
16.49999790945981
 30
0.0
 11
1435.499976697145
 21
16.49999794125574
 31
0.0
  0
LINE
  5
ED5
330
2
100
AcDbEntity
  8
0
  6
Continuous
 62
     9
100
AcDbLine
 10
1946.499976696119
 20
4.999997926795913
 30
0.0
 11
1946.499976696246
 21
6.999997926795911
 31
0.0
  0
LINE
  5
ED6
330
2
100
AcDbEntity
  8
0
  6
Continuous
 62
     7
100
AcDbLine
 10
1945.499976696126
 20
4.999997926923697
 30
0.0
 11
1946.499976696119
 21
4.999997926860031
 31
0.0
  0
LINE
  5
ED7
330
2
100
AcDbEntity
  8
0
  6
Continuous
 62
     9
100
AcDbLine
 10
1978.499976696126
 20
4.999997924751824
 30
0.0
 11
1978.499976696246
 21
6.999997924751824
 31
0.0
  0
LINE
  5
ED8
330
2
100
AcDbEntity
  8
0
  6
Continuous
 62
     7
100
AcDbLine
 10
1946.499976696119
 20
4.999997926795913
 30
0.0
 11
1978.499976696126
 21
4.999997924751824
 31
0.0
  0
LINE
  5
ED9
330
2
100
AcDbEntity
  8
0
  6
Continuous
 62
     7
100
AcDbLine
 10
1979.499976696126
 20
4.999997924751824
 30
0.0
 11
1979.499976696246
 21
6.999997924751824
 31
0.0
  0
LINE
  5
EDA
330
2
100
AcDbEntity
  8
0
  6
Continuous
 62
     7
100
AcDbLine
 10
1978.499976696126
 20
4.999997924815943
 30
0.0
 11
1979.499976696126
 21
4.999997924751824
 31
0.0
  0
LINE
  5
EDB
330
2
100
AcDbEntity
  8
0
  6
Continuous
 62
     7
100
AcDbLine
 10
1950.999976699019
 20
50.49999792714152
 30
0.0
 11
1947.999976699018
 21
50.49999792733297
 31
0.0
  0
LINE
  5
EDC
330
2
100
AcDbEntity
  8
0
  6
Continuous
 62
     7
100
AcDbLine
 10
1947.999976699018
 20
50.49999792733297
 30
0.0
 11
1944.999976699017
 21
50.49999792752283
 31
0.0
  0
LINE
  5
EDD
330
2
100
AcDbEntity
  8
0
  6
Continuous
 62
     7
100
AcDbLine
 10
1943.999976699528
 20
58.49999792758694
 30
0.0
 11
1947.999976699517
 21
58.49999792733297
 31
0.0
  0
LINE
  5
EDE
330
2
100
AcDbEntity
  8
0
  6
Continuous
 62
     7
100
AcDbLine
 10
1947.999976699517
 20
58.49999792733297
 30
0.0
 11
1951.999976699528
 21
58.49999792707786
 31
0.0
  0
LINE
  5
EDF
330
2
100
AcDbEntity
  8
0
  6
Continuous
 62
     7
100
AcDbLine
 10
1975.999976733205
 20
50.49999792555081
 30
0.0
 11
1972.999976733204
 21
50.49999792574181
 31
0.0
  0
LINE
  5
EE0
330
2
100
AcDbEntity
  8
0
  6
Continuous
 62
     7
100
AcDbLine
 10
1972.999976733204
 20
50.49999792574181
 30
0.0
 11
1969.999976733205
 21
50.49999792593279
 31
0.0
  0
LINE
  5
EE1
330
2
100
AcDbEntity
  8
0
  6
Continuous
 62
     7
100
AcDbLine
 10
1968.999976733718
 20
58.49999792599692
 30
0.0
 11
1972.999976733717
 21
58.4999979257418
 31
0.0
  0
LINE
  5
EE2
330
2
100
AcDbEntity
  8
0
  6
Continuous
 62
     7
100
AcDbLine
 10
1972.999976733717
 20
58.4999979257418
 30
0.0
 11
1976.999976733717
 21
58.49999792548782
 31
0.0
  0
LINE
  5
EE3
330
2
100
AcDbEntity
  8
0
  6
Continuous
 62
     7
100
AcDbLine
 10
1940.499976698327
 20
39.49999792720087
 30
0.0
 11
1980.499976698305
 21
39.49999792465586
 31
0.0
  0
LINE
  5
EE4
330
2
100
AcDbEntity
  8
0
  6
Continuous
 62
     7
100
AcDbLine
 10
1980.499976698236
 20
38.39999799562975
 30
0.0
 11
1980.499976698305
 21
39.49999792465383
 31
0.0
  0
LINE
  5
EE5
330
2
100
AcDbEntity
  8
0
  6
Continuous
 62
     7
100
AcDbLine
 10
1940.499976698247
 20
38.39999799788984
 30
0.0
 11
1940.499976698327
 21
39.49999792719768
 31
0.0
  0
LINE
  5
EE6
330
2
100
AcDbEntity
  8
0
  6
Continuous
 62
     7
100
AcDbLine
 10
1940.499976696854
 20
16.49999792700896
 30
0.0
 11
1980.499976696847
 21
16.49999792446374
 31
0.0
  0
LINE
  5
EE7
330
2
100
AcDbEntity
  8
0
  6
Continuous
 62
     7
100
AcDbLine
 10
1980.499976696847
 20
16.49999792446374
 30
0.0
 11
1980.499976696967
 21
18.39999799562973
 31
0.0
  0
LINE
  5
EE8
330
2
100
AcDbEntity
  8
0
  6
Continuous
 62
     7
100
AcDbLine
 10
1940.499976696854
 20
16.49999792700896
 30
0.0
 11
1940.499976696978
 21
18.39999799788984
 31
0.0
  0
LINE
  5
EE9
330
2
100
AcDbEntity
  8
0
  6
Continuous
 62
     7
100
AcDbLine
 10
1940.499976699408
 20
56.49999792748896
 30
0.0
 11
1980.499976699397
 21
56.49999792494372
 31
0.0
  0
LINE
  5
EEA
330
2
100
AcDbEntity
  8
0
  6
Continuous
 62
     9
100
AcDbLine
 10
1980.499976699197
 20
53.49999792475181
 30
0.0
 11
1940.499976699219
 21
53.49999792729704
 31
0.0
  0
LINE
  5
EEB
330
2
100
AcDbEntity
  8
0
  6
Continuous
 62
     7
100
AcDbLine
 10
1980.499976699397
 20
56.49999792494168
 30
0.0
 11
1980.499976699197
 21
53.49999792475181
 31
0.0
  0
LINE
  5
EEC
330
2
100
AcDbEntity
  8
0
  6
Continuous
 62
     7
100
AcDbLine
 10
1940.499976699219
 20
53.49999792729704
 30
0.0
 11
1940.499976699408
 21
56.49999792748577
 31
0.0
  0
LINE
  5
EED
330
2
100
AcDbEntity
  8
0
  6
Continuous
 62
     7
100
AcDbLine
 10
1940.499976699087
 20
51.49999792729795
 30
0.0
 11
1980.499976699077
 21
51.49999792475274
 31
0.0
  0
LINE
  5
EEE
330
2
100
AcDbEntity
  8
0
  6
Continuous
 62
     7
100
AcDbLine
 10
1980.499976699197
 20
53.49999792475181
 30
0.0
 11
1980.499976699077
 21
51.49999792475274
 31
0.0
  0
LINE
  5
EEF
330
2
100
AcDbEntity
  8
0
  6
Continuous
 62
     7
100
AcDbLine
 10
1940.499976699219
 20
53.49999792729704
 30
0.0
 11
1940.499976699087
 21
51.49999792729795
 31
0.0
  0
ARC
  5
EF0
330
2
100
AcDbEntity
  8
0
  6
Continuous
 62
     7
100
AcDbCircle
 10
1960.499976698727
 20
45.99999792698599
 30
0.0
 40
4.300000000001594
100
AcDbArc
 50
44.24072005351673
 51
135.7592799465019
  0
LINE
  5
EF1
330
2
100
AcDbEntity
  8
0
  6
Continuous
 62
     7
100
AcDbLine
 10
1980.499976699077
 20
51.4999979257136
 30
0.0
 11
1980.499976698916
 21
48.99999799491206
 31
0.0
  0
LINE
  5
EF2
330
2
100
AcDbEntity
  8
0
  6
Continuous
 62
     7
100
AcDbLine
 10
1980.499976698404
 20
40.99999799491206
 30
0.0
 11
1980.499976698305
 21
39.49999792571271
 31
0.0
  0
LINE
  5
EF3
330
2
100
AcDbEntity
  8
0
  6
Continuous
 62
     7
100
AcDbLine
 10
1940.499976699087
 20
51.49999792825792
 30
0.0
 11
1940.499976698928
 21
48.99999799490593
 31
0.0
  0
LINE
  5
EF4
330
2
100
AcDbEntity
  8
0
  6
Continuous
 62
     7
100
AcDbLine
 10
1940.499976698418
 20
40.99999799490592
 30
0.0
 11
1940.499976698327
 21
39.49999792825884
 31
0.0
  0
LINE
  5
EF5
330
2
100
AcDbEntity
  8
0
  6
Continuous
 62
     7
100
AcDbLine
 10
1980.499976696785
 20
15.49999792462472
 30
0.0
 11
1945.499976696785
 21
15.49999792685071
 31
0.0
  0
LINE
  5
EF6
330
2
100
AcDbEntity
  8
0
  6
Continuous
 62
     7
100
AcDbLine
 10
1945.499976696785
 20
15.49999792685071
 30
0.0
 11
1945.499976696756
 21
14.9999979950469
 31
0.0
  0
LINE
  5
EF7
330
2
100
AcDbEntity
  8
0
  6
Continuous
 62
     7
100
AcDbLine
 10
1945.499976696246
 20
6.999997995045987
 30
0.0
 11
1945.499976696119
 21
4.999997926850709
 31
0.0
  0
LINE
  5
EF8
330
2
100
AcDbEntity
  8
0
  6
Continuous
 62
     7
100
AcDbLine
 10
1945.499976696119
 20
4.999997926850709
 30
0.0
 11
1946.499976696119
 21
4.999997926786591
 31
0.0
  0
LINE
  5
EF9
330
2
100
AcDbEntity
  8
0
  6
Continuous
 62
     7
100
AcDbLine
 10
1946.499976696119
 20
4.999997926786591
 30
0.0
 11
1978.499976696126
 21
4.999997924751824
 31
0.0
  0
LINE
  5
EFA
330
2
100
AcDbEntity
  8
0
  6
Continuous
 62
     7
100
AcDbLine
 10
1978.499976696126
 20
4.999997924751824
 30
0.0
 11
1980.499976696119
 21
4.99999792462381
 31
0.0
  0
LINE
  5
EFB
330
2
100
AcDbEntity
  8
0
  6
Continuous
 62
     7
100
AcDbLine
 10
1980.499976696119
 20
4.99999792462381
 30
0.0
 11
1980.499976695897
 21
1.499997924623811
 31
0.0
  0
LINE
  5
EFC
330
2
100
AcDbEntity
  8
0
  6
Continuous
 62
     7
100
AcDbLine
 10
1980.499976695897
 20
1.499997924623811
 30
0.0
 11
1942.499976695897
 21
1.49999792704193
 31
0.0
  0
ARC
  5
EFD
330
2
100
AcDbEntity
  8
0
  6
Continuous
 62
     7
100
AcDbCircle
 10
1942.499976696028
 20
3.499997927041931
 30
0.0
 40
2.000000000002444
100
AcDbArc
 50
179.9999999963523
 51
269.9999999964565
  0
LINE
  5
EFE
330
2
100
AcDbEntity
  8
0
  6
Continuous
 62
     7
100
AcDbLine
 10
1940.499976696017
 20
3.499997927168806
 30
0.0
 11
1940.499976696847
 21
16.49999792700896
 31
0.0
  0
LINE
  5
EFF
330
2
100
AcDbEntity
  8
0
  6
Continuous
 62
     7
100
AcDbLine
 10
1980.499976696847
 20
16.49999792446374
 30
0.0
 11
1980.499976696785
 21
15.49999792462472
 31
0.0
  0
LINE
  5
F00
330
2
100
AcDbEntity
  8
0
  6
Continuous
 62
     4
100
AcDbLine
 10
2595.499976696356
 20
14.9999979950469
 30
0.0
 11
1995.499976704137
 21
14.9999979950469
 31
0.0
  0
LINE
  5
F01
330
2
100
AcDbEntity
  8
0
  6
Continuous
 62
     4
100
AcDbLine
 10
1995.499976704137
 20
14.9999979950469
 30
0.0
 11
1994.951899780688
 21
14.9999979950469
 31
0.0
  0
LINE
  5
F02
330
2
100
AcDbEntity
  8
0
  6
Continuous
 62
     4
100
AcDbLine
 10
1994.951899780688
 20
14.9999979950469
 30
0.0
 11
1945.499976696355
 21
14.9999979950469
 31
0.0
  0
LINE
  5
F03
330
2
100
AcDbEntity
  8
0
  6
Continuous
 62
     4
100
AcDbLine
 10
2595.499976696356
 20
6.999997995045987
 30
0.0
 11
2595.499976696356
 21
14.9999979950469
 31
0.0
  0
LINE
  5
F04
330
2
100
AcDbEntity
  8
0
  6
Continuous
 62
     4
100
AcDbLine
 10
1945.499976696355
 20
6.999997995045987
 30
0.0
 11
2595.499976696356
 21
6.999997995045987
 31
0.0
  0
LINE
  5
F05
330
2
100
AcDbEntity
  8
0
  6
Continuous
 62
     4
100
AcDbLine
 10
1945.499976696355
 20
14.9999979950469
 30
0.0
 11
1945.499976696355
 21
6.999997995045987
 31
0.0
  0
LINE
  5
F06
330
2
100
AcDbEntity
  8
0
  6
Continuous
 62
     7
100
AcDbLine
 10
1395.499976696486
 20
802.9999981134361
 30
0.0
 11
2595.499976696487
 21
802.9999981134361
 31
0.0
  0
LINE
  5
F07
330
2
100
AcDbEntity
  8
0
  6
Continuous
 62
     7
100
AcDbLine
 10
2595.499976696487
 20
802.9999981134361
 30
0.0
 11
2595.499976696487
 21
65.99999799068587
 31
0.0
  0
LINE
  5
F08
330
2
100
AcDbEntity
  8
0
  6
Continuous
 62
     7
100
AcDbLine
 10
2595.499976696487
 20
24.99999799227294
 30
0.0
 11
2595.499976696487
 21
14.99999799504599
 31
0.0
  0
LINE
  5
F09
330
2
100
AcDbEntity
  8
0
  6
Continuous
 62
     7
100
AcDbLine
 10
2595.499976696487
 20
6.999997995045987
 30
0.0
 11
2595.499976696487
 21
2.999998113435821
 31
0.0
  0
LINE
  5
F0A
330
2
100
AcDbEntity
  8
0
  6
Continuous
 62
     7
100
AcDbLine
 10
2595.499976696487
 20
2.999998113435821
 30
0.0
 11
2575.499976695996
 21
2.999998113435821
 31
0.0
  0
LINE
  5
F0B
330
2
100
AcDbEntity
  8
0
  6
Continuous
 62
     7
100
AcDbLine
 10
2545.499976695996
 20
2.999998113435821
 30
0.0
 11
2532.999976696356
 21
2.999998113435821
 31
0.0
  0
LINE
  5
F0C
330
2
100
AcDbEntity
  8
0
  6
Continuous
 62
     7
100
AcDbLine
 10
2507.999976696356
 20
2.999998113435821
 30
0.0
 11
2032.999976696356
 21
2.999998113435821
 31
0.0
  0
LINE
  5
F0D
330
2
100
AcDbEntity
  8
0
  6
Continuous
 62
     7
100
AcDbLine
 10
2007.999976696356
 20
2.999998113435821
 30
0.0
 11
1980.499976695995
 21
2.999998113435821
 31
0.0
  0
LINE
  5
F0E
330
2
100
AcDbEntity
  8
0
  6
Continuous
 62
     7
100
AcDbLine
 10
1940.563484974788
 20
2.999998113435821
 30
0.0
 11
1395.499976696486
 21
2.999998113435821
 31
0.0
  0
ELLIPSE
  5
F0F
330
2
100
AcDbEntity
  8
0
  6
Continuous
 62
     9
100
AcDbEllipse
 10
2505.758943115078
 20
713.2589645320217
 30
0.0
 11
27.8348891861242
 21
27.83488918612554
 31
0.0
210
0.0
220
0.0
230
1.0
 40
0.8891264907160215
 41
5.556410252859888
 42
7.009960361499286
  0
LINE
  5
F10
330
2
100
AcDbEntity
  8
0
  6
Continuous
 62
     9
100
AcDbLine
 10
1480.884029968758
 20
750.5051865686787
 30
0.0
 11
2510.11592342423
 21
750.5051865686787
 31
0.0
  0
ELLIPSE
  5
F11
330
2
100
AcDbEntity
  8
0
  6
Continuous
 62
     9
100
AcDbEllipse
 10
1485.241010277896
 20
713.2589645320217
 30
0.0
 11
-27.83488918612774
 21
27.8348891861273
 31
0.0
210
0.0
220
0.0
230
1.0
 40
0.8891264907159643
 41
5.556410252859888
 42
7.009960361499286
  0
LINE
  5
F12
330
2
100
AcDbEntity
  8
0
  6
Continuous
 62
     9
100
AcDbLine
 10
1447.994788241238
 20
88.38405138569987
 30
0.0
 11
1447.994788241238
 21
717.6159448411717
 31
0.0
  0
ELLIPSE
  5
F13
330
2
100
AcDbEntity
  8
0
  6
Continuous
 62
     9
100
AcDbEllipse
 10
1485.241010277896
 20
92.74103169484964
 30
0.0
 11
-27.83488918612777
 21
-27.83488918612709
 31
0.0
210
0.0
220
0.0
230
1.0
 40
0.8891264907159646
 41
5.556410252859888
 42
7.009960361499286
  0
LINE
  5
F14
330
2
100
AcDbEntity
  8
0
  6
Continuous
 62
     9
100
AcDbLine
 10
2510.11592342423
 20
55.49480965819292
 30
0.0
 11
1980.499976699328
 21
55.49480965819292
 31
0.0
  0
LINE
  5
F15
330
2
100
AcDbEntity
  8
0
  6
Continuous
 62
     9
100
AcDbLine
 10
1940.499976699339
 20
55.49480965819292
 30
0.0
 11
1906.999976697098
 21
55.49480965819292
 31
0.0
  0
LINE
  5
F16
330
2
100
AcDbEntity
  8
0
  6
Continuous
 62
     9
100
AcDbLine
 10
1881.999976697098
 20
55.49480965819292
 30
0.0
 11
1480.884029968758
 21
55.49480965819292
 31
0.0
  0
ELLIPSE
  5
F17
330
2
100
AcDbEntity
  8
0
  6
Continuous
 62
     9
100
AcDbEllipse
 10
2505.758943115078
 20
92.74103169484964
 30
0.0
 11
27.8348891861242
 21
-27.83488918612554
 31
0.0
210
0.0
220
0.0
230
1.0
 40
0.8891264907160225
 41
5.556410252859888
 42
7.009960361499282
  0
LINE
  5
F18
330
2
100
AcDbEntity
  8
0
  6
Continuous
 62
     9
100
AcDbLine
 10
2543.005165151728
 20
717.6159448411717
 30
0.0
 11
2543.005165151728
 21
88.38405138569987
 31
0.0
  0
LINE
  5
F19
330
2
100
AcDbEntity
  8
0
  6
Continuous
 62
     7
100
AcDbLine
 10
1395.499976696486
 20
2.999998113435821
 30
0.0
 11
1395.499976696486
 21
15.49999794680889
 31
0.0
  0
LINE
  5
F1A
330
2
100
AcDbEntity
  8
0
  6
Continuous
 62
     7
100
AcDbLine
 10
1395.499976696486
 20
16.49999794680889
 30
0.0
 11
1395.499976696486
 21
16.74999794680889
 31
0.0
  0
LINE
  5
F1B
330
2
100
AcDbEntity
  8
0
  6
Continuous
 62
     7
100
AcDbLine
 10
1395.499976696486
 20
36.24999794680775
 30
0.0
 11
1395.499976696486
 21
36.49999794680889
 31
0.0
  0
LINE
  5
F1C
330
2
100
AcDbEntity
  8
0
  6
Continuous
 62
     7
100
AcDbLine
 10
1395.499976696486
 20
37.49999794680889
 30
0.0
 11
1395.499976696486
 21
42.00911621212276
 31
0.0
  0
LINE
  5
F1D
330
2
100
AcDbEntity
  8
0
  6
Continuous
 62
     7
100
AcDbLine
 10
1395.499976696486
 20
47.99088158012478
 30
0.0
 11
1395.499976696486
 21
802.9999981134361
 31
0.0
  0
ELLIPSE
  5
F1E
330
2
100
AcDbEntity
  8
0
  6
Continuous
 62
     9
100
AcDbEllipse
 10
1485.241010277896
 20
713.2589645336238
 30
0.0
 11
-12.11720491336976
 21
12.11720491225732
 31
0.0
210
0.0
220
0.0
230
1.0
 40
0.5835560150004764
 41
5.556410252833122
 42
7.009960361472521
  0
LINE
  5
F1F
330
2
100
AcDbEntity
  8
0
  6
Continuous
 62
     9
100
AcDbLine
 10
1471.487103760886
 20
717.6159448427737
 30
0.0
 11
1447.994788241238
 21
717.6159448427737
 31
0.0
  0
LINE
  5
F20
330
2
100
AcDbEntity
  8
0
  6
Continuous
 62
     9
100
AcDbLine
 10
1480.884029968758
 20
727.0128710500857
 30
0.0
 11
1480.884029968758
 21
750.5051865686787
 31
0.0
  0
LINE
  5
F21
330
2
100
AcDbEntity
  8
0
  6
Continuous
 62
     9
100
AcDbLine
 10
2543.005165151728
 20
717.6159448427748
 30
0.0
 11
2519.512849632076
 21
717.6159448427748
 31
0.0
  0
ELLIPSE
  5
F22
330
2
100
AcDbEntity
  8
0
  6
Continuous
 62
     9
100
AcDbEllipse
 10
2505.758943115078
 20
713.2589645336238
 30
0.0
 11
12.11720491336976
 21
12.11720491225732
 31
0.0
210
0.0
220
0.0
230
1.0
 40
0.5835560150004754
 41
5.556410252886651
 42
7.009960361526062
  0
LINE
  5
F23
330
2
100
AcDbEntity
  8
0
  6
Continuous
 62
     9
100
AcDbLine
 10
2510.11592342423
 20
750.5051865686787
 30
0.0
 11
2510.11592342423
 21
727.0128710500857
 31
0.0
  0
LINE
  5
F24
330
2
100
AcDbEntity
  8
0
  6
Continuous
 62
     9
100
AcDbLine
 10
2510.11592342423
 20
727.0128710500857
 30
0.0
 11
1480.884029968758
 21
727.0128710500857
 31
0.0
  0
LINE
  5
F25
330
2
100
AcDbEntity
  8
0
  6
Continuous
 62
     9
100
AcDbLine
 10
1471.487103760886
 20
717.6159448422257
 30
0.0
 11
1471.487103760886
 21
88.38405138675375
 31
0.0
  0
LINE
  5
F26
330
2
100
AcDbEntity
  8
0
  6
Continuous
 62
     9
100
AcDbLine
 10
1471.487103760886
 20
88.38405138730172
 30
0.0
 11
1447.994788241238
 21
88.38405138730172
 31
0.0
  0
LINE
  5
F27
330
2
100
AcDbEntity
  8
0
  6
Continuous
 62
     9
100
AcDbLine
 10
2543.005165151728
 20
88.38405138730172
 30
0.0
 11
2519.512849632076
 21
88.38405138730172
 31
0.0
  0
LINE
  5
F28
330
2
100
AcDbEntity
  8
0
  6
Continuous
 62
     9
100
AcDbLine
 10
2519.512849632076
 20
88.38405138675375
 30
0.0
 11
2519.512849632076
 21
717.6159448422257
 31
0.0
  0
ELLIPSE
  5
F29
330
2
100
AcDbEntity
  8
0
  6
Continuous
 62
     9
100
AcDbEllipse
 10
1485.241010277896
 20
92.74103169645195
 30
0.0
 11
-12.11720491298962
 21
-12.11720491410206
 31
0.0
210
0.0
220
0.0
230
1.0
 40
0.5835560149651703
 41
5.556410252833122
 42
7.009960361472518
  0
LINE
  5
F2A
330
2
100
AcDbEntity
  8
0
  6
Continuous
 62
     9
100
AcDbLine
 10
1480.884029968758
 20
78.98712517889475
 30
0.0
 11
1480.884029968758
 21
55.49480965819292
 31
0.0
  0
LINE
  5
F2B
330
2
100
AcDbEntity
  8
0
  6
Continuous
 62
     9
100
AcDbLine
 10
2510.11592342423
 20
55.49480965819292
 30
0.0
 11
2510.11592342423
 21
78.98712517889475
 31
0.0
  0
ELLIPSE
  5
F2C
330
2
100
AcDbEntity
  8
0
  6
Continuous
 62
     9
100
AcDbEllipse
 10
2505.758943115078
 20
92.74103169645195
 30
0.0
 11
12.11720491298962
 21
-12.11720491410206
 31
0.0
210
0.0
220
0.0
230
1.0
 40
0.5835560149651704
 41
5.556410252886648
 42
7.009960361526038
  0
LINE
  5
F2D
330
2
100
AcDbEntity
  8
0
  6
Continuous
 62
     9
100
AcDbLine
 10
1480.884029968758
 20
78.98712517889475
 30
0.0
 11
2510.11592342423
 21
78.98712517889475
 31
0.0
  0
ELLIPSE
  5
F2E
330
2
100
AcDbEntity
  8
0
  6
Continuous
 62
     9
100
AcDbEllipse
 10
1487.060861449237
 20
711.4391133626136
 30
0.0
 11
7.071067811242667
 21
7.071067812487896
 31
0.0
210
0.0
220
0.0
230
0.9999999999999998
 40
0.8891264907367228
 41
0.8440212723762744
 42
2.297571381015536
  0
LINE
  5
F2F
330
2
100
AcDbEntity
  8
0
  6
Continuous
 62
     9
100
AcDbLine
 10
1477.663935241369
 20
711.4391133628328
 30
0.0
 11
1471.487103760886
 21
717.6159448422257
 31
0.0
  0
LINE
  5
F30
330
2
100
AcDbEntity
  8
0
  6
Continuous
 62
     9
100
AcDbLine
 10
1480.884029968758
 20
727.0128710500857
 30
0.0
 11
1487.060861449237
 21
720.8360395706908
 31
0.0
  0
ELLIPSE
  5
F31
330
2
100
AcDbEntity
  8
0
  6
Continuous
 62
     9
100
AcDbEllipse
 10
2503.939091943747
 20
711.4391133626136
 30
0.0
 11
7.07106781124267
 21
-7.071067812487452
 31
0.0
210
0.0
220
0.0
230
1.0
 40
0.8891264907367229
 41
0.8440212725742522
 42
2.29757138121422
  0
LINE
  5
F32
330
2
100
AcDbEntity
  8
0
  6
Continuous
 62
     9
100
AcDbLine
 10
2503.939091943736
 20
720.8360395706908
 30
0.0
 11
2510.11592342423
 21
727.0128710500857
 31
0.0
  0
LINE
  5
F33
330
2
100
AcDbEntity
  8
0
  6
Continuous
 62
     9
100
AcDbLine
 10
2519.512849632076
 20
717.6159448422257
 30
0.0
 11
2513.336018151608
 21
711.4391133628328
 31
0.0
  0
ELLIPSE
  5
F34
330
2
100
AcDbEntity
  8
0
  6
Continuous
 62
     9
100
AcDbEllipse
 10
1487.060861449237
 20
94.5608828681029
 30
0.0
 11
-7.07106781248612
 21
7.071067811242226
 31
0.0
210
0.0
220
0.0
230
0.9999999999999998
 40
0.8891264906952528
 41
0.8440212723763917
 42
2.297571381015864
  0
LINE
  5
F35
330
2
100
AcDbEntity
  8
0
  6
Continuous
 62
     9
100
AcDbLine
 10
1487.060861449237
 20
85.16395666046287
 30
0.0
 11
1480.884029968758
 21
78.98712517889475
 31
0.0
  0
LINE
  5
F36
330
2
100
AcDbEntity
  8
0
  6
Continuous
 62
     9
100
AcDbLine
 10
1471.487103760886
 20
88.38405138675375
 30
0.0
 11
1477.663935241369
 21
94.56088286832164
 31
0.0
  0
ELLIPSE
  5
F37
330
2
100
AcDbEntity
  8
0
  6
Continuous
 62
     9
100
AcDbEllipse
 10
2503.939091943747
 20
94.5608828681029
 30
0.0
 11
-7.071067812489674
 21
-7.071067811244004
 31
0.0
210
0.0
220
0.0
230
1.0
 40
0.8891264906952526
 41
0.8440212725741778
 42
2.29757138121374
  0
LINE
  5
F38
330
2
100
AcDbEntity
  8
0
  6
Continuous
 62
     9
100
AcDbLine
 10
2513.336018151608
 20
94.56088286832164
 30
0.0
 11
2519.512849632076
 21
88.38405138675375
 31
0.0
  0
LINE
  5
F39
330
2
100
AcDbEntity
  8
0
  6
Continuous
 62
     9
100
AcDbLine
 10
2510.11592342423
 20
78.98712517889475
 30
0.0
 11
2503.939091943747
 21
85.16395666046287
 31
0.0
  0
LINE
  5
F3A
330
2
100
AcDbEntity
  8
0
  6
Continuous
 62
     9
100
AcDbLine
 10
1487.060861449237
 20
720.8360395706908
 30
0.0
 11
2503.939091943736
 21
720.8360395706908
 31
0.0
  0
LINE
  5
F3B
330
2
100
AcDbEntity
  8
0
  6
Continuous
 62
     9
100
AcDbLine
 10
2513.336018151608
 20
711.4391133628328
 30
0.0
 11
2513.336018151608
 21
94.56088286832301
 31
0.0
  0
LINE
  5
F3C
330
2
100
AcDbEntity
  8
0
  6
Continuous
 62
     9
100
AcDbLine
 10
1477.663935241369
 20
94.56088286832164
 30
0.0
 11
1477.663935241369
 21
711.4391133628319
 31
0.0
  0
LINE
  5
F3D
330
2
100
AcDbEntity
  8
0
  6
Continuous
 62
     9
100
AcDbLine
 10
2503.939091943747
 20
85.16395666046287
 30
0.0
 11
1487.060861449237
 21
85.16395666046287
 31
0.0
  0
LINE
  5
F3E
330
2
100
AcDbEntity
  8
0
  6
Continuous
 62
     9
100
AcDbLine
 10
2503.939091943736
 20
720.8360395706908
 30
0.0
 11
2503.939091943747
 21
711.4391133632539
 31
0.0
  0
LINE
  5
F3F
330
2
100
AcDbEntity
  8
0
  6
Continuous
 62
     9
100
AcDbLine
 10
2513.336018151608
 20
711.4391133626136
 30
0.0
 11
2503.939091943747
 21
711.4391133626136
 31
0.0
  0
LINE
  5
F40
330
2
100
AcDbEntity
  8
0
  6
Continuous
 62
     9
100
AcDbLine
 10
2503.939091943747
 20
711.4391133632539
 30
0.0
 11
1487.060861449237
 21
711.4391133632539
 31
0.0
  0
LINE
  5
F41
330
2
100
AcDbEntity
  8
0
  6
Continuous
 62
     9
100
AcDbLine
 10
1487.060861449237
 20
720.8360395706908
 30
0.0
 11
1487.060861449237
 21
711.4391133632539
 31
0.0
  0
LINE
  5
F42
330
2
100
AcDbEntity
  8
0
  6
Continuous
 62
     9
100
AcDbLine
 10
1477.663935241369
 20
711.4391133626136
 30
0.0
 11
1487.060861449237
 21
711.4391133626136
 31
0.0
  0
LINE
  5
F43
330
2
100
AcDbEntity
  8
0
  6
Continuous
 62
     9
100
AcDbLine
 10
2503.939091943747
 20
94.5608828687448
 30
0.0
 11
2503.939091943747
 21
711.4391133632539
 31
0.0
  0
LINE
  5
F44
330
2
100
AcDbEntity
  8
0
  6
Continuous
 62
     9
100
AcDbLine
 10
2503.939091943747
 20
94.5608828681029
 30
0.0
 11
2513.336018151608
 21
94.5608828681029
 31
0.0
  0
LINE
  5
F45
330
2
100
AcDbEntity
  8
0
  6
Continuous
 62
     9
100
AcDbLine
 10
1487.060861449237
 20
711.4391133632539
 30
0.0
 11
1487.060861449237
 21
94.5608828687448
 31
0.0
  0
LINE
  5
F46
330
2
100
AcDbEntity
  8
0
  6
Continuous
 62
     9
100
AcDbLine
 10
1487.060861449237
 20
94.5608828681029
 30
0.0
 11
1477.663935241369
 21
94.5608828681029
 31
0.0
  0
LINE
  5
F47
330
2
100
AcDbEntity
  8
0
  6
Continuous
 62
     9
100
AcDbLine
 10
2503.939091943747
 20
94.5608828687448
 30
0.0
 11
2503.939091943747
 21
85.16395666046287
 31
0.0
  0
LINE
  5
F48
330
2
100
AcDbEntity
  8
0
  6
Continuous
 62
     9
100
AcDbLine
 10
1487.060861449237
 20
94.5608828687448
 30
0.0
 11
1487.060861449237
 21
85.16395666046287
 31
0.0
  0
LINE
  5
F49
330
2
100
AcDbEntity
  8
0
  6
Continuous
 62
     9
100
AcDbLine
 10
1487.060861449237
 20
94.5608828687448
 30
0.0
 11
2503.939091943736
 21
94.5608828687448
 31
0.0
  0
LINE
  5
F4A
330
2
100
AcDbEntity
  8
0
  6
Continuous
 62
     9
100
AcDbLine
 10
1944.624976699528
 20
58.49999792754783
 30
0.0
 11
1944.624976699397
 21
56.50001792754778
 31
0.0
  0
LINE
  5
F4B
330
2
100
AcDbEntity
  8
0
  6
Continuous
 62
     9
100
AcDbLine
 10
1944.624976699077
 20
51.49997792760882
 30
0.0
 11
1944.624976699037
 21
50.87499792754782
 31
0.0
  0
LINE
  5
F4C
330
2
100
AcDbEntity
  8
0
  6
Continuous
 62
     9
100
AcDbLine
 10
1951.374976699037
 20
50.87499792711786
 30
0.0
 11
1951.374976699076
 21
51.49997792717978
 31
0.0
  0
LINE
  5
F4D
330
2
100
AcDbEntity
  8
0
  6
Continuous
 62
     9
100
AcDbLine
 10
1951.374976699397
 20
56.50001792711782
 30
0.0
 11
1951.374976699528
 21
58.49999792711788
 31
0.0
  0
LINE
  5
F4E
330
2
100
AcDbEntity
  8
0
  6
Continuous
 62
     9
100
AcDbLine
 10
1969.624976733717
 20
58.49999792595689
 30
0.0
 11
1969.624976733587
 21
56.50001792592797
 31
0.0
  0
LINE
  5
F4F
330
2
100
AcDbEntity
  8
0
  6
Continuous
 62
     9
100
AcDbLine
 10
1969.624976733277
 20
51.49997792604789
 30
0.0
 11
1969.624976733237
 21
50.87499792595689
 31
0.0
  0
LINE
  5
F50
330
2
100
AcDbEntity
  8
0
  6
Continuous
 62
     9
100
AcDbLine
 10
1976.374976733237
 20
50.87499792552785
 30
0.0
 11
1976.374976733277
 21
51.49997792561793
 31
0.0
  0
LINE
  5
F51
330
2
100
AcDbEntity
  8
0
  6
Continuous
 62
     9
100
AcDbLine
 10
1976.374976733587
 20
56.50001792549801
 30
0.0
 11
1976.374976733717
 21
58.49999792552694
 31
0.0
  0
LINE
  5
F52
330
2
100
AcDbEntity
  8
0
  6
Continuous
 62
     7
100
AcDbLine
 10
2540.249976698204
 20
15.49999798938984
 30
0.0
 11
2540.249976698204
 21
14.99999798999602
 31
0.0
  0
LINE
  5
F53
330
2
100
AcDbEntity
  8
0
  6
Continuous
 62
     7
100
AcDbLine
 10
2539.499976698087
 20
17.99999798903582
 30
0.0
 11
2539.499976698247
 21
15.49999798903582
 31
0.0
  0
ARC
  5
F54
330
2
100
AcDbEntity
  8
0
  6
Continuous
 62
     7
100
AcDbCircle
 10
2539.999976698088
 20
17.99999798906788
 30
0.0
 40
0.5000000000000801
100
AcDbArc
 50
126.8699024257779
 51
180.0000000036998
  0
LINE
  5
F55
330
2
100
AcDbEntity
  8
0
  6
Continuous
 62
     7
100
AcDbLine
 10
1884.499976697098
 20
40.9999979938966
 30
0.0
 11
1884.499976697098
 21
39.99999799389661
 31
0.0
  0
LINE
  5
F56
330
2
100
AcDbEntity
  8
0
  6
Continuous
 62
     7
100
AcDbLine
 10
1908.499976697098
 20
39.99999799389661
 30
0.0
 11
1908.499976697098
 21
40.9999979938966
 31
0.0
  0
LINE
  5
F57
330
2
100
AcDbEntity
  8
0
  6
Continuous
 62
     7
100
AcDbLine
 10
1882.499976697098
 20
49.9999979938966
 30
0.0
 11
1882.499976697098
 21
48.9999979938957
 31
0.0
  0
LINE
  5
F58
330
2
100
AcDbEntity
  8
0
  6
Continuous
 62
     7
100
AcDbLine
 10
1906.499976697098
 20
48.9999979938957
 30
0.0
 11
1906.499976697098
 21
49.9999979938966
 31
0.0
  0
LINE
  5
F59
330
2
100
AcDbEntity
  8
0
  6
Continuous
 62
     7
100
AcDbLine
 10
1883.999976697097
 20
19.49999799389889
 30
0.0
 11
1883.999976697097
 21
18.53589637876211
 31
0.0
  0
LINE
  5
F5A
330
2
100
AcDbEntity
  8
0
  6
Continuous
 62
     7
100
AcDbLine
 10
1908.999976697097
 20
18.53589637876211
 30
0.0
 11
1908.999976697097
 21
19.49999799389889
 31
0.0
  0
LINE
  5
F5B
330
2
100
AcDbEntity
  8
0
  6
Continuous
 62
     7
100
AcDbLine
 10
1883.999976697097
 20
18.53589637876211
 30
0.0
 11
1885.999976697098
 21
17.99999799389889
 31
0.0
  0
LINE
  5
F5C
330
2
100
AcDbEntity
  8
0
  6
Continuous
 62
     7
100
AcDbLine
 10
1906.999976697098
 20
17.99999799389889
 30
0.0
 11
1908.999976697097
 21
18.53589637876211
 31
0.0
  0
LINE
  5
F5D
330
2
100
AcDbEntity
  8
0
  6
Continuous
 62
     7
100
AcDbLine
 10
1890.999976697105
 20
19.9999979938998
 30
0.0
 11
1890.999976697105
 21
19.49999799389889
 31
0.0
  0
LINE
  5
F5E
330
2
100
AcDbEntity
  8
0
  6
Continuous
 62
     7
100
AcDbLine
 10
1901.999976697098
 20
19.49999799389889
 30
0.0
 11
1901.999976697098
 21
19.9999979938998
 31
0.0
  0
LINE
  5
F5F
330
2
100
AcDbEntity
  8
0
  6
Continuous
 62
     7
100
AcDbLine
 10
1906.999976697098
 20
55.69999799389666
 30
0.0
 11
1906.699976697095
 21
55.9999979938966
 31
0.0
  0
LINE
  5
F60
330
2
100
AcDbEntity
  8
0
  6
Continuous
 62
     7
100
AcDbLine
 10
1882.299976697097
 20
55.9999979938966
 30
0.0
 11
1881.999976697098
 21
55.69999799389666
 31
0.0
  0
LINE
  5
F61
330
2
100
AcDbEntity
  8
0
  6
Continuous
 62
     7
100
AcDbLine
 10
1906.999976697098
 20
49.9999979938966
 30
0.0
 11
1906.999976697098
 21
55.69999799389666
 31
0.0
  0
LINE
  5
F62
330
2
100
AcDbEntity
  8
0
  6
Continuous
 62
     7
100
AcDbLine
 10
1881.999976697098
 20
55.69999799389666
 30
0.0
 11
1881.999976697098
 21
49.9999979938966
 31
0.0
  0
ARC
  5
F63
330
2
100
AcDbEntity
  8
0
  6
Continuous
 62
     7
100
AcDbCircle
 10
1884.499976697098
 20
35.49999799389889
 30
0.0
 40
0.5000000000001671
100
AcDbArc
 50
90.0
 51
180.0
  0
ARC
  5
F64
330
2
100
AcDbEntity
  8
0
  6
Continuous
 62
     7
100
AcDbCircle
 10
1908.499976697098
 20
35.49999799389889
 30
0.0
 40
0.4999999999988347
100
AcDbArc
 50
0.0
 51
90.0
  0
ARC
  5
F65
330
2
100
AcDbEntity
  8
0
  6
Continuous
 62
     7
100
AcDbCircle
 10
1908.499976697098
 20
20.49999799389889
 30
0.0
 40
0.4999999999997229
100
AcDbArc
 50
270.0
 51
0.0
  0
ARC
  5
F66
330
2
100
AcDbEntity
  8
0
  6
Continuous
 62
     7
100
AcDbCircle
 10
1884.499976697098
 20
20.49999799389889
 30
0.0
 40
0.4999999999988347
100
AcDbArc
 50
180.0
 51
270.0
  0
LINE
  5
F67
330
2
100
AcDbEntity
  8
0
  6
Continuous
 62
     7
100
AcDbLine
 10
1883.999976697097
 20
35.49999799389889
 30
0.0
 11
1883.999976697097
 21
34.80073324826685
 31
0.0
  0
LINE
  5
F68
330
2
100
AcDbEntity
  8
0
  6
Continuous
 62
     7
100
AcDbLine
 10
1908.999976697097
 20
34.80073324826685
 30
0.0
 11
1908.999976697097
 21
35.49999799389889
 31
0.0
  0
ARC
  5
F69
330
2
100
AcDbEntity
  8
0
  6
Continuous
 62
     7
100
AcDbCircle
 10
1916.999976697098
 20
27.99999799389889
 30
0.0
 40
10.50000000000292
100
AcDbArc
 50
139.6324064558089
 51
220.3675935441911
  0
ARC
  5
F6A
330
2
100
AcDbEntity
  8
0
  6
Continuous
 62
     7
100
AcDbCircle
 10
1875.999976697098
 20
27.99999799389889
 30
0.0
 40
10.49999999999906
100
AcDbArc
 50
319.6324064558088
 51
40.3675935441911
  0
LINE
  5
F6B
330
2
100
AcDbEntity
  8
0
  6
Continuous
 62
     7
100
AcDbLine
 10
1883.999976697097
 20
21.19926273953092
 30
0.0
 11
1883.999976697097
 21
20.49999799389889
 31
0.0
  0
LINE
  5
F6C
330
2
100
AcDbEntity
  8
0
  6
Continuous
 62
     7
100
AcDbLine
 10
1908.999976697097
 20
20.49999799389889
 30
0.0
 11
1908.999976697097
 21
21.19926273953092
 31
0.0
  0
LINE
  5
F6D
330
2
100
AcDbEntity
  8
0
  6
Continuous
 62
     7
100
AcDbLine
 10
1908.999976697097
 20
36.4999979938989
 30
0.0
 11
1908.999976697097
 21
39.9999979938989
 31
0.0
  0
LINE
  5
F6E
330
2
100
AcDbEntity
  8
0
  6
Continuous
 62
     7
100
AcDbLine
 10
1883.999976697097
 20
39.9999979938989
 30
0.0
 11
1883.999976697097
 21
36.4999979938989
 31
0.0
  0
ARC
  5
F6F
330
2
100
AcDbEntity
  8
0
  6
Continuous
 62
     7
100
AcDbCircle
 10
1889.999976697098
 20
35.9999979938998
 30
0.0
 40
0.4999999999997229
100
AcDbArc
 50
0.0
 51
90.0
  0
ARC
  5
F70
330
2
100
AcDbEntity
  8
0
  6
Continuous
 62
     7
100
AcDbCircle
 10
1902.999976697097
 20
35.9999979938998
 30
0.0
 40
0.4999999999988347
100
AcDbArc
 50
90.0
 51
180.0
  0
LINE
  5
F71
330
2
100
AcDbEntity
  8
0
  6
Continuous
 62
     7
100
AcDbLine
 10
1442.499976697098
 20
40.99999799383478
 30
0.0
 11
1442.499976697098
 21
39.99999799383386
 31
0.0
  0
LINE
  5
F72
330
2
100
AcDbEntity
  8
0
  6
Continuous
 62
     7
100
AcDbLine
 10
1466.499976697098
 20
39.99999799383386
 30
0.0
 11
1466.499976697098
 21
40.99999799383478
 31
0.0
  0
LINE
  5
F73
330
2
100
AcDbEntity
  8
0
  6
Continuous
 62
     7
100
AcDbLine
 10
1440.499976697098
 20
49.99999799383386
 30
0.0
 11
1440.499976697098
 21
48.99999799383386
 31
0.0
  0
LINE
  5
F74
330
2
100
AcDbEntity
  8
0
  6
Continuous
 62
     7
100
AcDbLine
 10
1464.499976697098
 20
48.99999799383386
 30
0.0
 11
1464.499976697098
 21
49.99999799383386
 31
0.0
  0
LINE
  5
F75
330
2
100
AcDbEntity
  8
0
  6
Continuous
 62
     7
100
AcDbLine
 10
1441.999976697098
 20
19.49999799383681
 30
0.0
 11
1441.999976697098
 21
18.53589637869891
 31
0.0
  0
LINE
  5
F76
330
2
100
AcDbEntity
  8
0
  6
Continuous
 62
     7
100
AcDbLine
 10
1466.999976697097
 20
18.53589637869891
 30
0.0
 11
1466.999976697097
 21
19.49999799383681
 31
0.0
  0
LINE
  5
F77
330
2
100
AcDbEntity
  8
0
  6
Continuous
 62
     7
100
AcDbLine
 10
1441.999976697098
 20
18.53589637869891
 30
0.0
 11
1443.999976697098
 21
17.9999979938368
 31
0.0
  0
LINE
  5
F78
330
2
100
AcDbEntity
  8
0
  6
Continuous
 62
     7
100
AcDbLine
 10
1464.999976697098
 20
17.9999979938368
 30
0.0
 11
1466.999976697097
 21
18.53589637869891
 31
0.0
  0
LINE
  5
F79
330
2
100
AcDbEntity
  8
0
  6
Continuous
 62
     7
100
AcDbLine
 10
1448.999976697105
 20
19.99999799383681
 30
0.0
 11
1448.999976697105
 21
19.49999799383681
 31
0.0
  0
LINE
  5
F7A
330
2
100
AcDbEntity
  8
0
  6
Continuous
 62
     7
100
AcDbLine
 10
1459.999976697098
 20
19.49999799383681
 30
0.0
 11
1459.999976697098
 21
19.99999799383681
 31
0.0
  0
LINE
  5
F7B
330
2
100
AcDbEntity
  8
0
  6
Continuous
 62
     7
100
AcDbLine
 10
1464.999976697098
 20
55.69999799383389
 30
0.0
 11
1464.699976697095
 21
55.99999799383386
 31
0.0
  0
LINE
  5
F7C
330
2
100
AcDbEntity
  8
0
  6
Continuous
 62
     7
100
AcDbLine
 10
1440.299976697097
 20
55.99999799383386
 30
0.0
 11
1439.999976697098
 21
55.69999799383389
 31
0.0
  0
LINE
  5
F7D
330
2
100
AcDbEntity
  8
0
  6
Continuous
 62
     7
100
AcDbLine
 10
1464.999976697098
 20
49.99999799383386
 30
0.0
 11
1464.999976697098
 21
55.69999799383389
 31
0.0
  0
LINE
  5
F7E
330
2
100
AcDbEntity
  8
0
  6
Continuous
 62
     7
100
AcDbLine
 10
1439.999976697098
 20
55.69999799383389
 30
0.0
 11
1439.999976697098
 21
49.99999799383386
 31
0.0
  0
LINE
  5
F7F
330
2
100
AcDbEntity
  8
0
  6
Continuous
 62
     7
100
AcDbLine
 10
1441.999976697098
 20
35.49999799383682
 30
0.0
 11
1441.999976697098
 21
34.80073324820478
 31
0.0
  0
LINE
  5
F80
330
2
100
AcDbEntity
  8
0
  6
Continuous
 62
     7
100
AcDbLine
 10
1466.999976697097
 20
34.80073324820478
 30
0.0
 11
1466.999976697097
 21
35.49999799383682
 31
0.0
  0
ARC
  5
F81
330
2
100
AcDbEntity
  8
0
  6
Continuous
 62
     7
100
AcDbCircle
 10
1474.999976697097
 20
27.99999799383682
 30
0.0
 40
10.50000000000292
100
AcDbArc
 50
139.6324064558089
 51
220.3675935441911
  0
ARC
  5
F82
330
2
100
AcDbEntity
  8
0
  6
Continuous
 62
     7
100
AcDbCircle
 10
1433.999976697098
 20
27.99999799383682
 30
0.0
 40
10.49999999999906
100
AcDbArc
 50
319.6324064558088
 51
40.3675935441911
  0
ARC
  5
F83
330
2
100
AcDbEntity
  8
0
  6
Continuous
 62
     7
100
AcDbCircle
 10
1442.499976697098
 20
35.49999799383682
 30
0.0
 40
0.5000000000001671
100
AcDbArc
 50
90.0
 51
180.0
  0
ARC
  5
F84
330
2
100
AcDbEntity
  8
0
  6
Continuous
 62
     7
100
AcDbCircle
 10
1466.499976697098
 20
35.49999799383682
 30
0.0
 40
0.4999999999988347
100
AcDbArc
 50
0.0
 51
90.0
  0
ARC
  5
F85
330
2
100
AcDbEntity
  8
0
  6
Continuous
 62
     7
100
AcDbCircle
 10
1466.499976697098
 20
20.49999799383682
 30
0.0
 40
0.5000000000001671
100
AcDbArc
 50
270.0
 51
0.0
  0
ARC
  5
F86
330
2
100
AcDbEntity
  8
0
  6
Continuous
 62
     7
100
AcDbCircle
 10
1442.499976697098
 20
20.49999799383682
 30
0.0
 40
0.4999999999988347
100
AcDbArc
 50
180.0
 51
270.0
  0
LINE
  5
F87
330
2
100
AcDbEntity
  8
0
  6
Continuous
 62
     7
100
AcDbLine
 10
1441.999976697098
 20
21.19926273946885
 30
0.0
 11
1441.999976697098
 21
20.49999799383682
 31
0.0
  0
LINE
  5
F88
330
2
100
AcDbEntity
  8
0
  6
Continuous
 62
     7
100
AcDbLine
 10
1466.999976697097
 20
20.49999799383682
 30
0.0
 11
1466.999976697097
 21
21.19926273946885
 31
0.0
  0
LINE
  5
F89
330
2
100
AcDbEntity
  8
0
  6
Continuous
 62
     7
100
AcDbLine
 10
1466.999976697097
 20
36.49999799383682
 30
0.0
 11
1466.999976697097
 21
39.99999799383682
 31
0.0
  0
LINE
  5
F8A
330
2
100
AcDbEntity
  8
0
  6
Continuous
 62
     7
100
AcDbLine
 10
1441.999976697098
 20
39.99999799383682
 30
0.0
 11
1441.999976697098
 21
36.49999799383682
 31
0.0
  0
ARC
  5
F8B
330
2
100
AcDbEntity
  8
0
  6
Continuous
 62
     7
100
AcDbCircle
 10
1447.999976697096
 20
35.99999799383681
 30
0.0
 40
0.4999999999997229
100
AcDbArc
 50
0.0
 51
90.0
  0
ARC
  5
F8C
330
2
100
AcDbEntity
  8
0
  6
Continuous
 62
     7
100
AcDbCircle
 10
1460.999976697098
 20
35.99999799383681
 30
0.0
 40
0.5000000000023876
100
AcDbArc
 50
90.0
 51
180.0
  0
LINE
  5
F8D
330
2
100
AcDbEntity
  8
0
  6
Continuous
 62
     7
100
AcDbLine
 10
2032.499976696356
 20
5.999997994129897
 30
0.0
 11
2032.499976696287
 21
6.999997994129897
 31
0.0
  0
LINE
  5
F8E
330
2
100
AcDbEntity
  8
0
  6
Continuous
 62
     7
100
AcDbLine
 10
2008.499976696286
 20
6.999997992613771
 30
0.0
 11
2008.499976696349
 21
5.999997992613771
 31
0.0
  0
LINE
  5
F8F
330
2
100
AcDbEntity
  8
0
  6
Continuous
 62
     7
100
AcDbLine
 10
2007.999976696356
 20
0.2999979933717895
 30
0.0
 11
2008.299976696355
 21
-0.000002006628165
 31
0.0
  0
LINE
  5
F90
330
2
100
AcDbEntity
  8
0
  6
Continuous
 62
     7
100
AcDbLine
 10
2032.699976696353
 20
-0.000002006628165
 30
0.0
 11
2032.999976696356
 21
0.2999979933717895
 31
0.0
  0
LINE
  5
F91
330
2
100
AcDbEntity
  8
0
  6
Continuous
 62
     7
100
AcDbLine
 10
2007.999976696356
 20
5.999997993371835
 30
0.0
 11
2007.999976696356
 21
0.2999979933717895
 31
0.0
  0
LINE
  5
F92
330
2
100
AcDbEntity
  8
0
  6
Continuous
 62
     7
100
AcDbLine
 10
2032.999976696356
 20
0.2999979933717895
 30
0.0
 11
2032.999976696356
 21
5.999997993371835
 31
0.0
  0
LINE
  5
F93
330
2
100
AcDbEntity
  8
0
  6
Continuous
 62
     7
100
AcDbLine
 10
2007.999976696356
 20
16.49999799337092
 30
0.0
 11
2007.999976696356
 21
14.99999799337001
 31
0.0
  0
LINE
  5
F94
330
2
100
AcDbEntity
  8
0
  6
Continuous
 62
     7
100
AcDbLine
 10
2032.999976696356
 20
14.99999799337388
 30
0.0
 11
2032.999976696356
 21
16.49999799337274
 31
0.0
  0
LINE
  5
F95
330
2
100
AcDbEntity
  8
0
  6
Continuous
 62
     7
100
AcDbLine
 10
2032.999976696356
 20
16.49999799337274
 30
0.0
 11
2027.499976696356
 21
17.99999799337274
 31
0.0
  0
LINE
  5
F96
330
2
100
AcDbEntity
  8
0
  6
Continuous
 62
     7
100
AcDbLine
 10
2013.499976696356
 20
17.99999799337092
 30
0.0
 11
2007.999976696356
 21
16.49999799337092
 31
0.0
  0
LINE
  5
F97
330
2
100
AcDbEntity
  8
0
  6
Continuous
 62
     7
100
AcDbLine
 10
2532.499976696356
 20
5.999997994130808
 30
0.0
 11
2532.499976696287
 21
6.999997994130808
 31
0.0
  0
LINE
  5
F98
330
2
100
AcDbEntity
  8
0
  6
Continuous
 62
     7
100
AcDbLine
 10
2508.499976696298
 20
6.999997992614907
 30
0.0
 11
2508.499976696356
 21
5.999997992614907
 31
0.0
  0
LINE
  5
F99
330
2
100
AcDbEntity
  8
0
  6
Continuous
 62
     7
100
AcDbLine
 10
2507.999976696356
 20
0.2999979933717895
 30
0.0
 11
2508.299976696355
 21
-0.0000020066272555
 31
0.0
  0
LINE
  5
F9A
330
2
100
AcDbEntity
  8
0
  6
Continuous
 62
     7
100
AcDbLine
 10
2532.699976696353
 20
-0.0000020066272555
 30
0.0
 11
2532.999976696356
 21
0.2999979933717895
 31
0.0
  0
LINE
  5
F9B
330
2
100
AcDbEntity
  8
0
  6
Continuous
 62
     7
100
AcDbLine
 10
2507.999976696356
 20
5.999997993372744
 30
0.0
 11
2507.999976696356
 21
0.2999979933717895
 31
0.0
  0
LINE
  5
F9C
330
2
100
AcDbEntity
  8
0
  6
Continuous
 62
     7
100
AcDbLine
 10
2532.999976696356
 20
0.2999979933717895
 30
0.0
 11
2532.999976696356
 21
5.999997993372744
 31
0.0
  0
LINE
  5
F9D
330
2
100
AcDbEntity
  8
0
  6
Continuous
 62
     7
100
AcDbLine
 10
2507.999976696356
 20
16.49999799336865
 30
0.0
 11
2507.999976696356
 21
14.99999799336865
 31
0.0
  0
LINE
  5
F9E
330
2
100
AcDbEntity
  8
0
  6
Continuous
 62
     7
100
AcDbLine
 10
2532.999976696356
 20
14.9999979933757
 30
0.0
 11
2532.999976696356
 21
16.4999979933757
 31
0.0
  0
LINE
  5
F9F
330
2
100
AcDbEntity
  8
0
  6
Continuous
 62
     7
100
AcDbLine
 10
2532.999976696356
 20
16.4999979933757
 30
0.0
 11
2527.499976696356
 21
17.99999799337479
 31
0.0
  0
LINE
  5
FA0
330
2
100
AcDbEntity
  8
0
  6
Continuous
 62
     7
100
AcDbLine
 10
2513.499976696356
 20
17.99999799337092
 30
0.0
 11
2507.999976696356
 21
16.49999799336865
 31
0.0
  0
LINE
  5
FA1
330
2
100
AcDbEntity
  8
0
  6
Continuous
 62
     7
100
AcDbLine
 10
2580.499976697487
 20
38.39999796173584
 30
0.0
 11
2494.989447088068
 21
38.39999796656707
 31
0.0
  0
LINE
  5
FA2
330
2
100
AcDbEntity
  8
0
  6
Continuous
 62
     7
100
AcDbLine
 10
2474.989447088069
 20
38.39999796769666
 30
0.0
 11
1995.499976717438
 21
38.39999799478301
 31
0.0
  0
LINE
  5
FA3
330
2
100
AcDbEntity
  8
0
  6
Continuous
 62
     7
100
AcDbLine
 10
1994.501899793995
 20
38.39999799484008
 30
0.0
 11
1908.999976697097
 21
38.39999799966972
 31
0.0
  0
LINE
  5
FA4
330
2
100
AcDbEntity
  8
0
  6
Continuous
 62
     7
100
AcDbLine
 10
1883.999976697097
 20
38.39999800108194
 30
0.0
 11
1466.999976697097
 21
38.39999802463875
 31
0.0
  0
LINE
  5
FA5
330
2
100
AcDbEntity
  8
0
  6
Continuous
 62
     7
100
AcDbLine
 10
1441.999976697098
 20
38.39999802605098
 30
0.0
 11
1410.499976697498
 21
38.39999802783064
 31
0.0
  0
LINE
  5
FA6
330
2
100
AcDbEntity
  8
0
  6
Continuous
 62
     7
100
AcDbLine
 10
2526.915969470756
 20
18.39999796476286
 30
0.0
 11
2580.499976696356
 21
18.39999796173582
 31
0.0
  0
LINE
  5
FA7
330
2
100
AcDbEntity
  8
0
  6
Continuous
 62
     7
100
AcDbLine
 10
2026.907806401905
 20
18.39999799300904
 30
0.0
 11
2474.989447088538
 21
18.39999796769575
 31
0.0
  0
LINE
  5
FA8
330
2
100
AcDbEntity
  8
0
  6
Continuous
 62
     7
100
AcDbLine
 10
2494.989447088538
 20
18.39999796656707
 30
0.0
 11
2514.084838411436
 21
18.39999796548795
 31
0.0
  0
LINE
  5
FA9
330
2
100
AcDbEntity
  8
0
  6
Continuous
 62
     7
100
AcDbLine
 10
1410.49997669637
 20
18.39999802782972
 30
0.0
 11
1442.507156253949
 21
18.39999802602278
 31
0.0
  0
LINE
  5
FAA
330
2
100
AcDbEntity
  8
0
  6
Continuous
 62
     7
100
AcDbLine
 10
1466.492797135186
 20
18.39999802466786
 30
0.0
 11
1884.507156347368
 21
18.39999800105283
 31
0.0
  0
LINE
  5
FAB
330
2
100
AcDbEntity
  8
0
  6
Continuous
 62
     7
100
AcDbLine
 10
1908.492797041766
 20
18.39999799969769
 30
0.0
 11
1994.886515167236
 21
18.39999799481779
 31
0.0
  0
LINE
  5
FAC
330
2
100
AcDbEntity
  8
0
  6
Continuous
 62
     7
100
AcDbLine
 10
1995.499976706069
 20
18.39999799478301
 30
0.0
 11
2014.076728796517
 21
18.39999799373368
 31
0.0
  0
LINE
  5
FAD
330
2
100
AcDbEntity
  8
0
  6
Continuous
 62
     7
100
AcDbLine
 10
1965.999976698218
 20
39.49999792583094
 30
0.0
 11
1965.999976698418
 21
40.99999792583093
 31
0.0
  0
LINE
  5
FAE
330
2
100
AcDbEntity
  8
0
  6
Continuous
 62
     7
100
AcDbLine
 10
1954.999976698404
 20
40.99999792724292
 30
0.0
 11
1954.999976698218
 21
39.49999792724293
 31
0.0
  0
LINE
  5
FAF
330
2
100
AcDbEntity
  8
0
  6
Continuous
 62
     7
100
AcDbLine
 10
1952.999976696745
 20
15.49999792637277
 30
0.0
 11
1952.999976696745
 21
14.9999979950469
 31
0.0
  0
LINE
  5
FB0
330
2
100
AcDbEntity
  8
0
  6
Continuous
 62
     7
100
AcDbLine
 10
1963.999976696745
 20
14.9999979950469
 30
0.0
 11
1963.999976696745
 21
15.49999792567382
 31
0.0
  0
LINE
  5
FB1
330
2
100
AcDbEntity
  8
0
  6
Continuous
 62
     7
100
AcDbLine
 10
1943.999976699077
 20
51.49999792758695
 30
0.0
 11
1944.624976699037
 21
50.87499792754782
 31
0.0
  0
LINE
  5
FB2
330
2
100
AcDbEntity
  8
0
  6
Continuous
 62
     7
100
AcDbLine
 10
1944.624976699037
 20
50.87499792754782
 30
0.0
 11
1944.999976699017
 21
50.49999792752283
 31
0.0
  0
LINE
  5
FB3
330
2
100
AcDbEntity
  8
0
  6
Continuous
 62
     7
100
AcDbLine
 10
1950.999976699019
 20
50.49999792714152
 30
0.0
 11
1951.374976699037
 21
50.87499792711786
 31
0.0
  0
LINE
  5
FB4
330
2
100
AcDbEntity
  8
0
  6
Continuous
 62
     7
100
AcDbLine
 10
1951.374976699037
 20
50.87499792711786
 30
0.0
 11
1951.999976699077
 21
51.49999792707785
 31
0.0
  0
LINE
  5
FB5
330
2
100
AcDbEntity
  8
0
  6
Continuous
 62
     7
100
AcDbLine
 10
1943.999976699528
 20
58.49999792758694
 30
0.0
 11
1943.999976699397
 21
56.50001729002362
 31
0.0
  0
LINE
  5
FB6
330
2
100
AcDbEntity
  8
0
  6
Continuous
 62
     7
100
AcDbLine
 10
1951.999976699397
 20
56.50001729002792
 30
0.0
 11
1951.999976699528
 21
58.49999792707786
 31
0.0
  0
LINE
  5
FB7
330
2
100
AcDbEntity
  8
0
  6
Continuous
 62
     7
100
AcDbLine
 10
1968.999976733277
 20
51.49999792599579
 30
0.0
 11
1969.624976733237
 21
50.87499792595689
 31
0.0
  0
LINE
  5
FB8
330
2
100
AcDbEntity
  8
0
  6
Continuous
 62
     7
100
AcDbLine
 10
1969.624976733237
 20
50.87499792595689
 30
0.0
 11
1969.999976733205
 21
50.49999792593279
 31
0.0
  0
LINE
  5
FB9
330
2
100
AcDbEntity
  8
0
  6
Continuous
 62
     7
100
AcDbLine
 10
1975.999976733205
 20
50.49999792555081
 30
0.0
 11
1976.374976733237
 21
50.87499792552785
 31
0.0
  0
LINE
  5
FBA
330
2
100
AcDbEntity
  8
0
  6
Continuous
 62
     7
100
AcDbLine
 10
1976.374976733237
 20
50.87499792552785
 30
0.0
 11
1976.999976733277
 21
51.49999792548783
 31
0.0
  0
LINE
  5
FBB
330
2
100
AcDbEntity
  8
0
  6
Continuous
 62
     7
100
AcDbLine
 10
1968.999976733718
 20
58.49999792599692
 30
0.0
 11
1968.999976733586
 21
56.5000172972509
 31
0.0
  0
LINE
  5
FBC
330
2
100
AcDbEntity
  8
0
  6
Continuous
 62
     7
100
AcDbLine
 10
1976.999976733587
 20
56.50001727955486
 30
0.0
 11
1976.999976733717
 21
58.49999792548782
 31
0.0
  0
ARC
  5
FBD
330
2
100
AcDbEntity
  8
0
  6
Continuous
 62
     9
100
AcDbCircle
 10
24.99997656754568
 20
1367.999998056022
 30
0.0
 40
2.999999999999669
100
AcDbArc
 50
270.0000000037519
 51
180.0000000036607
  0
ARC
  5
FBE
330
2
100
AcDbEntity
  8
0
  6
Continuous
 62
     7
100
AcDbCircle
 10
44.99997657758648
 20
1507.99999805409
 30
0.0
 40
15.10000000000033
100
AcDbArc
 50
179.9999999998957
 51
225.9437505562817
  0
ARC
  5
FBF
330
2
100
AcDbEntity
  8
0
  6
Continuous
 62
     7
100
AcDbCircle
 10
44.99997657758648
 20
1507.99999805409
 30
0.0
 40
15.10000000000099
100
AcDbArc
 50
225.9437505562726
 51
134.0562494399138
  0
ARC
  5
FC0
330
2
100
AcDbEntity
  8
0
  6
Continuous
 62
     7
100
AcDbCircle
 10
44.99997657758648
 20
1507.99999805409
 30
0.0
 40
15.10000000000104
100
AcDbArc
 50
134.0562494399138
 51
179.9999999998957
  0
LINE
  5
FC1
330
2
100
AcDbEntity
  8
0
  6
Continuous
 62
     7
100
AcDbLine
 10
64.99997657763015
 20
1527.999998054056
 30
0.0
 11
64.99997657755739
 21
1487.999998054056
 31
0.0
  0
LINE
  5
FC2
330
2
100
AcDbEntity
  8
0
  6
Continuous
 62
     7
100
AcDbLine
 10
64.99997657755739
 20
1487.999998054056
 30
0.0
 11
46.17265863706778
 21
1487.999998054089
 31
0.0
  0
LINE
  5
FC3
330
2
100
AcDbEntity
  8
0
  6
Continuous
 62
     7
100
AcDbLine
 10
46.17265863706778
 20
1487.999998054089
 30
0.0
 11
34.49997657139828
 21
1487.99999805411
 31
0.0
  0
LINE
  5
FC4
330
2
100
AcDbEntity
  8
0
  6
Continuous
 62
     7
100
AcDbLine
 10
34.49997657139828
 20
1487.99999805411
 30
0.0
 11
24.99997657755739
 21
1487.999998054128
 31
0.0
  0
LINE
  5
FC5
330
2
100
AcDbEntity
  8
0
  6
Continuous
 62
     7
100
AcDbLine
 10
24.99997657763015
 20
1527.999998054127
 30
0.0
 11
34.49997657274435
 21
1527.999998054286
 31
0.0
  0
LINE
  5
FC6
330
2
100
AcDbEntity
  8
0
  6
Continuous
 62
     7
100
AcDbLine
 10
34.49997657274435
 20
1527.999998054286
 30
0.0
 11
46.1735383328305
 21
1527.999998054089
 31
0.0
  0
LINE
  5
FC7
330
2
100
AcDbEntity
  8
0
  6
Continuous
 62
     7
100
AcDbLine
 10
46.1735383328305
 20
1527.999998054089
 30
0.0
 11
64.99997657763015
 21
1527.999998054056
 31
0.0
  0
LINE
  5
FC8
330
2
100
AcDbEntity
  8
0
  6
Continuous
 62
     7
100
AcDbLine
 10
24.99997657755739
 20
1487.999998054128
 30
0.0
 11
24.99997657763015
 21
1527.999998054127
 31
0.0
  0
ARC
  5
FC9
330
2
100
AcDbEntity
  8
0
  6
Continuous
 62
     7
100
AcDbCircle
 10
44.99997657795757
 20
1507.999998053717
 30
0.0
 40
15.00000000000057
100
AcDbArc
 50
134.4270040303713
 51
180.0000000007947
  0
ARC
  5
FCA
330
2
100
AcDbEntity
  8
0
  6
Continuous
 62
     7
100
AcDbCircle
 10
44.99997657795757
 20
1507.999998053717
 30
0.0
 40
14.99999999999912
100
AcDbArc
 50
225.5729959658059
 51
134.4270040303713
  0
ARC
  5
FCB
330
2
100
AcDbEntity
  8
0
  6
Continuous
 62
     7
100
AcDbCircle
 10
44.99997657795757
 20
1507.999998053717
 30
0.0
 40
15.0000000000016
100
AcDbArc
 50
180.0000000007947
 51
225.5729959658059
  0
LINE
  5
FCC
330
2
100
AcDbEntity
  8
0
  6
Continuous
 62
     7
100
AcDbLine
 10
41.74997657805215
 20
1501.499998053672
 30
0.0
 11
48.24997657805216
 21
1501.499998053763
 31
0.0
  0
ARC
  5
FCD
330
2
100
AcDbEntity
  8
0
  6
Continuous
 62
     7
100
AcDbCircle
 10
41.74997657809581
 20
1498.499998053671
 30
0.0
 40
3.000000000000113
100
AcDbArc
 50
90.00000000083378
 51
180.0000000007947
  0
ARC
  5
FCE
330
2
100
AcDbEntity
  8
0
  6
Continuous
 62
     7
100
AcDbCircle
 10
41.74997657809581
 20
1498.499998053671
 30
0.0
 40
3.000000000000113
100
AcDbArc
 50
180.0000000008207
 51
270.0000000008338
  0
LINE
  5
FCF
330
2
100
AcDbEntity
  8
0
  6
Continuous
 62
     7
100
AcDbLine
 10
48.24997657813582
 20
1495.499998053763
 30
0.0
 11
41.74997657813583
 21
1495.499998053671
 31
0.0
  0
ARC
  5
FD0
330
2
100
AcDbEntity
  8
0
  6
Continuous
 62
     7
100
AcDbCircle
 10
48.24997657809581
 20
1498.499998053764
 30
0.0
 40
3.000000000000113
100
AcDbArc
 50
270.0000000008338
 51
0.0000000007946807
  0
ARC
  5
FD1
330
2
100
AcDbEntity
  8
0
  6
Continuous
 62
     7
100
AcDbCircle
 10
48.24997657809581
 20
1498.499998053764
 30
0.0
 40
2.999999999999669
100
AcDbArc
 50
0.0000000008207358
 51
90.00000000083378
  0
LINE
  5
FD2
330
2
100
AcDbEntity
  8
0
  6
Continuous
 62
     7
100
AcDbLine
 10
41.74997657778657
 20
1520.499998053671
 30
0.0
 11
48.24997657778657
 21
1520.499998053762
 31
0.0
  0
ARC
  5
FD3
330
2
100
AcDbEntity
  8
0
  6
Continuous
 62
     7
100
AcDbCircle
 10
41.74997657783023
 20
1517.499998053671
 30
0.0
 40
3.000000000000113
100
AcDbArc
 50
90.00000000083378
 51
180.0000000007947
  0
ARC
  5
FD4
330
2
100
AcDbEntity
  8
0
  6
Continuous
 62
     7
100
AcDbCircle
 10
41.74997657783023
 20
1517.499998053671
 30
0.0
 40
3.000000000000113
100
AcDbArc
 50
180.0000000008077
 51
270.0000000008338
  0
LINE
  5
FD5
330
2
100
AcDbEntity
  8
0
  6
Continuous
 62
     7
100
AcDbLine
 10
48.24997657786662
 20
1514.499998053763
 30
0.0
 11
41.7499765778666
 21
1514.499998053671
 31
0.0
  0
ARC
  5
FD6
330
2
100
AcDbEntity
  8
0
  6
Continuous
 62
     7
100
AcDbCircle
 10
48.24997657783024
 20
1517.499998053762
 30
0.0
 40
3.000000000000113
100
AcDbArc
 50
270.0000000008338
 51
0.0000000007946807
  0
ARC
  5
FD7
330
2
100
AcDbEntity
  8
0
  6
Continuous
 62
     7
100
AcDbCircle
 10
48.24997657783024
 20
1517.499998053762
 30
0.0
 40
3.000000000000113
100
AcDbArc
 50
0.0000000008207358
 51
90.00000000083378
  0
ARC
  5
FD8
330
2
100
AcDbEntity
  8
0
  6
Continuous
 62
     7
100
AcDbCircle
 10
44.99997663451722
 20
3207.999998054123
 30
0.0
 40
15.10000000000033
100
AcDbArc
 50
179.9999999998957
 51
225.9437505736852
  0
ARC
  5
FD9
330
2
100
AcDbEntity
  8
0
  6
Continuous
 62
     7
100
AcDbCircle
 10
44.99997663451722
 20
3207.999998054123
 30
0.0
 40
15.10000000000215
100
AcDbArc
 50
225.9437505736852
 51
134.0562494225103
  0
ARC
  5
FDA
330
2
100
AcDbEntity
  8
0
  6
Continuous
 62
     7
100
AcDbCircle
 10
44.99997663451722
 20
3207.999998054123
 30
0.0
 40
15.1000000000006
100
AcDbArc
 50
134.0562494225103
 51
179.9999999998957
  0
LINE
  5
FDB
330
2
100
AcDbEntity
  8
0
  6
Continuous
 62
     7
100
AcDbLine
 10
64.99997663455724
 20
3227.999998054086
 30
0.0
 11
64.99997663448812
 21
3187.999998054087
 31
0.0
  0
LINE
  5
FDC
330
2
100
AcDbEntity
  8
0
  6
Continuous
 62
     7
100
AcDbLine
 10
64.99997663448812
 20
3187.999998054087
 30
0.0
 11
34.49997663162867
 21
3187.999998053304
 31
0.0
  0
LINE
  5
FDD
330
2
100
AcDbEntity
  8
0
  6
Continuous
 62
     7
100
AcDbLine
 10
34.49997663162867
 20
3187.999998053304
 30
0.0
 11
24.99997663448812
 21
3187.999998054158
 31
0.0
  0
LINE
  5
FDE
330
2
100
AcDbEntity
  8
0
  6
Continuous
 62
     7
100
AcDbLine
 10
24.99997663455725
 20
3227.999998054159
 30
0.0
 11
34.49997663296745
 21
3227.999998053304
 31
0.0
  0
LINE
  5
FDF
330
2
100
AcDbEntity
  8
0
  6
Continuous
 62
     7
100
AcDbLine
 10
34.49997663296745
 20
3227.999998053304
 30
0.0
 11
64.99997663455724
 21
3227.999998054086
 31
0.0
  0
LINE
  5
FE0
330
2
100
AcDbEntity
  8
0
  6
Continuous
 62
     7
100
AcDbLine
 10
24.99997663448812
 20
3187.999998054158
 30
0.0
 11
24.99997663455725
 21
3227.999998054159
 31
0.0
  0
ARC
  5
FE1
330
2
100
AcDbEntity
  8
0
  6
Continuous
 62
     7
100
AcDbCircle
 10
44.99997663489557
 20
3207.999998053748
 30
0.0
 40
15.00000000000057
100
AcDbArc
 50
134.4270040127948
 51
180.0000000007947
  0
ARC
  5
FE2
330
2
100
AcDbEntity
  8
0
  6
Continuous
 62
     7
100
AcDbCircle
 10
44.99997663489557
 20
3207.999998053748
 30
0.0
 40
15.00000000000319
100
AcDbArc
 50
225.5729959833824
 51
134.4270040128039
  0
ARC
  5
FE3
330
2
100
AcDbEntity
  8
0
  6
Continuous
 62
     7
100
AcDbCircle
 10
44.99997663489557
 20
3207.999998053748
 30
0.0
 40
15.00000000000256
100
AcDbArc
 50
180.0000000007947
 51
225.5729959833824
  0
LINE
  5
FE4
330
2
100
AcDbEntity
  8
0
  6
Continuous
 62
     7
100
AcDbLine
 10
41.74997663497925
 20
3201.499998053702
 30
0.0
 11
48.24997663498653
 21
3201.499998053793
 31
0.0
  0
ARC
  5
FE5
330
2
100
AcDbEntity
  8
0
  6
Continuous
 62
     7
100
AcDbCircle
 10
41.74997663502653
 20
3198.499998053702
 30
0.0
 40
3.000000000000113
100
AcDbArc
 50
90.00000000083378
 51
180.0000000007947
  0
ARC
  5
FE6
330
2
100
AcDbEntity
  8
0
  6
Continuous
 62
     7
100
AcDbCircle
 10
41.74997663502653
 20
3198.499998053702
 30
0.0
 40
3.000000000000113
100
AcDbArc
 50
180.0000000008077
 51
270.0000000008338
  0
LINE
  5
FE7
330
2
100
AcDbEntity
  8
0
  6
Continuous
 62
     7
100
AcDbLine
 10
48.24997663507019
 20
3195.499998053794
 30
0.0
 11
41.7499766350702
 21
3195.499998053703
 31
0.0
  0
ARC
  5
FE8
330
2
100
AcDbEntity
  8
0
  6
Continuous
 62
     7
100
AcDbCircle
 10
48.24997663502654
 20
3198.499998053793
 30
0.0
 40
3.000000000000113
100
AcDbArc
 50
270.0000000008338
 51
0.0000000007946807
  0
ARC
  5
FE9
330
2
100
AcDbEntity
  8
0
  6
Continuous
 62
     7
100
AcDbCircle
 10
48.24997663502654
 20
3198.499998053793
 30
0.0
 40
3.000000000000113
100
AcDbArc
 50
0.0000000008207358
 51
90.00000000083378
  0
LINE
  5
FEA
330
2
100
AcDbEntity
  8
0
  6
Continuous
 62
     7
100
AcDbLine
 10
41.74997663471731
 20
3220.499998053704
 30
0.0
 11
48.24997663471731
 21
3220.499998053794
 31
0.0
  0
ARC
  5
FEB
330
2
100
AcDbEntity
  8
0
  6
Continuous
 62
     7
100
AcDbCircle
 10
41.74997663475733
 20
3217.499998053702
 30
0.0
 40
3.000000000000113
100
AcDbArc
 50
90.00000000083378
 51
180.0000000007947
  0
ARC
  5
FEC
330
2
100
AcDbEntity
  8
0
  6
Continuous
 62
     7
100
AcDbCircle
 10
41.74997663475733
 20
3217.499998053702
 30
0.0
 40
3.000000000000113
100
AcDbArc
 50
180.0000000008207
 51
270.0000000008338
  0
LINE
  5
FED
330
2
100
AcDbEntity
  8
0
  6
Continuous
 62
     7
100
AcDbLine
 10
48.24997663480825
 20
3214.499998053792
 30
0.0
 11
41.74997663480826
 21
3214.499998053702
 31
0.0
  0
ARC
  5
FEE
330
2
100
AcDbEntity
  8
0
  6
Continuous
 62
     7
100
AcDbCircle
 10
48.24997663476825
 20
3217.499998053793
 30
0.0
 40
3.000000000000113
100
AcDbArc
 50
270.0000000008338
 51
0.0000000007946807
  0
ARC
  5
FEF
330
2
100
AcDbEntity
  8
0
  6
Continuous
 62
     7
100
AcDbCircle
 10
48.24997663476825
 20
3217.499998053793
 30
0.0
 40
3.000000000000113
100
AcDbArc
 50
0.0000000008077082
 51
90.00000000083378
  0
LINE
  5
FF0
330
2
100
AcDbEntity
  8
0
  6
Continuous
 62
     7
100
AcDbLine
 10
55.69997663617686
 20
3277.499998053535
 30
0.0
 11
55.69997663617686
 21
3289.999998053534
 31
0.0
  0
LINE
  5
FF1
330
2
100
AcDbEntity
  8
0
  6
Continuous
 62
     7
100
AcDbLine
 10
55.69997663617686
 20
3289.999998053534
 30
0.0
 11
55.69997663617686
 21
3302.499998053536
 31
0.0
  0
LINE
  5
FF2
330
2
100
AcDbEntity
  8
0
  6
Continuous
 62
     7
100
AcDbLine
 10
55.99997663617978
 20
3302.199998053534
 30
0.0
 11
55.99997663617978
 21
3289.999998053534
 31
0.0
  0
LINE
  5
FF3
330
2
100
AcDbEntity
  8
0
  6
Continuous
 62
     7
100
AcDbLine
 10
55.99997663617978
 20
3289.999998053534
 30
0.0
 11
55.99997663617978
 21
3277.799998053534
 31
0.0
  0
LINE
  5
FF4
330
2
100
AcDbEntity
  8
0
  6
Continuous
 62
     7
100
AcDbLine
 10
55.69997663617686
 20
3315.499998053598
 30
0.0
 11
55.69997663617686
 21
3327.999998053491
 31
0.0
  0
LINE
  5
FF5
330
2
100
AcDbEntity
  8
0
  6
Continuous
 62
     7
100
AcDbLine
 10
55.69997663617686
 20
3327.999998053491
 30
0.0
 11
55.69997663617686
 21
3340.4999980536
 31
0.0
  0
LINE
  5
FF6
330
2
100
AcDbEntity
  8
0
  6
Continuous
 62
     7
100
AcDbLine
 10
55.99997663617978
 20
3340.199998053599
 30
0.0
 11
55.99997663617978
 21
3327.999998053495
 31
0.0
  0
LINE
  5
FF7
330
2
100
AcDbEntity
  8
0
  6
Continuous
 62
     7
100
AcDbLine
 10
55.99997663617978
 20
3327.999998053495
 30
0.0
 11
55.99997663617978
 21
3315.799998053598
 31
0.0
  0
LINE
  5
FF8
330
2
100
AcDbEntity
  8
0
  6
Continuous
 62
     7
100
AcDbLine
 10
5.999976636074278
 20
3320.499998055026
 30
0.0
 11
5.999976635644997
 21
3307.863326627997
 31
0.0
  0
LINE
  5
FF9
330
2
100
AcDbEntity
  8
0
  6
Continuous
 62
     7
100
AcDbLine
 10
0.29997663607719
 20
3320.49999805522
 30
0.0
 11
0.2999766356479085
 21
3307.86332662819
 31
0.0
  0
LINE
  5
FFA
330
2
100
AcDbEntity
  8
0
  6
Continuous
 62
     7
100
AcDbLine
 10
0.2999766356479085
 20
3307.86332662819
 30
0.0
 11
0.2999766352368169
 21
3295.499998055217
 31
0.0
  0
LINE
  5
FFB
330
2
100
AcDbEntity
  8
0
  6
Continuous
 62
     7
100
AcDbLine
 10
5.999976635644997
 20
3307.863326627997
 30
0.0
 11
5.999976635237543
 21
3295.499998055026
 31
0.0
  0
LINE
  5
FFC
330
2
100
AcDbEntity
  8
0
  6
Continuous
 62
     7
100
AcDbLine
 10
-0.0000233647551795
 20
3295.799998055227
 30
0.0
 11
-0.0000233643550018
 21
3307.866606742449
 31
0.0
  0
LINE
  5
FFD
330
2
100
AcDbEntity
  8
0
  6
Continuous
 62
     7
100
AcDbLine
 10
-0.0000233643550018
 20
3307.866606742449
 30
0.0
 11
-0.0000233639329963
 21
3320.199998055227
 31
0.0
  0
LINE
  5
FFE
330
2
100
AcDbEntity
  8
0
  6
Continuous
 62
     7
100
AcDbLine
 10
29.99997663555405
 20
3304.999998054222
 30
0.0
 11
29.99997663575414
 21
3310.999998054223
 31
0.0
  0
LINE
  5
FFF
330
2
100
AcDbEntity
  8
0
  6
Continuous
 62
     7
100
AcDbLine
 10
30.99997663572868
 20
3309.999998054189
 30
0.0
 11
30.99997663558679
 21
3305.99999805419
 31
0.0
  0
LINE
  5
1000
330
2
100
AcDbEntity
  8
0
  6
Continuous
 62
     7
100
AcDbLine
 10
16.49997663676913
 20
3320.499998055475
 30
0.0
 11
16.49997663454633
 21
3295.499998055473
 31
0.0
  0
LINE
  5
1001
330
2
100
AcDbEntity
  8
0
  6
Continuous
 62
     7
100
AcDbLine
 10
17.99997663627801
 20
3314.999998055341
 30
0.0
 11
17.99997663565591
 21
3307.999013869797
 31
0.0
  0
LINE
  5
1002
330
2
100
AcDbEntity
  8
0
  6
Continuous
 62
     7
100
AcDbLine
 10
17.99997663565591
 20
3307.999013869797
 30
0.0
 11
17.99997663503745
 21
3300.99999805534
 31
0.0
  0
LINE
  5
1003
330
2
100
AcDbEntity
  8
0
  6
Continuous
 62
     7
100
AcDbLine
 10
19.84522373851723
 20
3302.212301516826
 30
0.0
 11
19.99997659044675
 21
3301.999998055163
 31
0.0
  0
ARC
  5
1004
330
2
100
AcDbEntity
  8
0
  6
Continuous
 62
     7
100
AcDbCircle
 10
27.99553382823069
 20
3307.998183502232
 30
0.0
 40
9.995557227058457
100
AcDbArc
 50
179.9952402296472
 51
224.4374024627146
  0
ARC
  5
1005
330
2
100
AcDbEntity
  8
0
  6
Continuous
 62
     7
100
AcDbCircle
 10
28.00429860379518
 20
3307.998233351906
 30
0.0
 40
10.00432199857969
100
AcDbArc
 50
135.583105335497
 51
179.995529893879
  0
LINE
  5
1006
330
2
100
AcDbEntity
  8
0
  6
Continuous
 62
     7
100
AcDbLine
 10
20.85854813909827
 20
3300.999998055087
 30
0.0
 11
19.83963587948892
 21
3302.220515318147
 31
0.0
  0
LINE
  5
1007
330
2
100
AcDbEntity
  8
0
  6
Continuous
 62
     7
100
AcDbLine
 10
19.99997659044675
 20
3301.999998055163
 30
0.0
 11
19.83246981867705
 21
3302.229859250547
 31
0.0
  0
ARC
  5
1008
330
2
100
AcDbEntity
  8
0
  6
Continuous
 62
     7
100
AcDbCircle
 10
27.99489708285182
 20
3307.997828284658
 30
0.0
 40
9.994732893958843
100
AcDbArc
 50
194.0575545067435
 51
215.2468904534411
  0
ARC
  5
1009
330
2
100
AcDbEntity
  8
0
  6
Continuous
 62
     7
100
AcDbCircle
 10
27.99908272472021
 20
3307.999116493161
 30
0.0
 40
9.99910608913024
100
AcDbArc
 50
179.9997824022975
 51
194.0588893425055
  0
LINE
  5
100A
330
2
100
AcDbEntity
  8
0
  6
Continuous
 62
     7
100
AcDbLine
 10
30.39997662180395
 20
3327.99999807182
 30
0.0
 11
28.44499838915726
 21
3327.999998071884
 31
0.0
  0
LINE
  5
100B
330
2
100
AcDbEntity
  8
0
  6
Continuous
 62
     7
100
AcDbLine
 10
28.35495485457796
 20
3327.999998071885
 30
0.0
 11
26.39997662180395
 21
3327.999998071952
 31
0.0
  0
ARC
  5
100C
330
2
100
AcDbEntity
  8
0
  6
Continuous
 62
     7
100
AcDbCircle
 10
28.39997662122915
 20
3307.999998071951
 30
0.0
 40
10.09999999999964
100
AcDbArc
 50
211.6264285463968
 51
26.98957554860672
  0
LINE
  5
100D
330
2
100
AcDbEntity
  8
0
  6
Continuous
 62
     7
100
AcDbLine
 10
37.39997662138922
 20
3312.583664726195
 30
0.0
 11
37.39997662147653
 21
3315.29999807165
 31
0.0
  0
ARC
  5
100E
330
2
100
AcDbEntity
  8
0
  6
Continuous
 62
     7
100
AcDbCircle
 10
34.39997662147654
 20
3315.299998071751
 30
0.0
 40
3.000000000000113
100
AcDbArc
 50
359.9999999980719
 51
89.999999998124
  0
LINE
  5
100F
330
2
100
AcDbEntity
  8
0
  6
Continuous
 62
     7
100
AcDbLine
 10
34.3999766215784
 20
3318.299998071751
 30
0.0
 11
22.39997662157839
 21
3318.299998072151
 31
0.0
  0
ARC
  5
1010
330
2
100
AcDbEntity
  8
0
  6
Continuous
 62
     7
100
AcDbCircle
 10
22.39997662147652
 20
3315.299998072152
 30
0.0
 40
3.000000000000113
100
AcDbArc
 50
89.999999998124
 51
179.999999998098
  0
LINE
  5
1011
330
2
100
AcDbEntity
  8
0
  6
Continuous
 62
     7
100
AcDbLine
 10
19.39997662147652
 20
3315.299998072252
 30
0.0
 11
19.39997662146561
 21
3314.999998055217
 31
0.0
  0
LINE
  5
1012
330
2
100
AcDbEntity
  8
0
  6
Continuous
 62
     7
100
AcDbLine
 10
40.39997662149471
 20
3315.999998071549
 30
0.0
 11
40.39997662122913
 21
3307.999998071549
 31
0.0
  0
ARC
  5
1013
330
2
100
AcDbEntity
  8
0
  6
Continuous
 62
     7
100
AcDbCircle
 10
28.39997662122915
 20
3307.999998071951
 30
0.0
 40
12.00000000000045
100
AcDbArc
 50
215.6853348106336
 51
359.999999998085
  0
ARC
  5
1014
330
2
100
AcDbEntity
  8
0
  6
Continuous
 62
     7
100
AcDbCircle
 10
28.39997662150563
 20
3315.999998071952
 30
0.0
 40
12.00000000000074
100
AcDbArc
 50
359.999999998085
 51
164.3540241048615
  0
LINE
  5
1015
330
2
100
AcDbEntity
  8
0
  6
Continuous
 62
     9
100
AcDbLine
 10
19.59997660722729
 20
3302.573282373527
 30
0.0
 11
19.59997660724912
 21
3303.250261213829
 31
0.0
  0
LINE
  5
1016
330
2
100
AcDbEntity
  8
0
  6
Continuous
 62
     9
100
AcDbLine
 10
19.59997660756926
 20
3312.749734895306
 30
0.0
 11
19.59997660758381
 21
3313.426045230052
 31
0.0
  0
LINE
  5
1017
330
2
100
AcDbEntity
  8
0
  6
Continuous
 62
     7
100
AcDbLine
 10
19.79997660760273
 20
3313.799998054563
 30
0.0
 11
19.79997660757362
 21
3313.102938388907
 31
0.0
  0
LINE
  5
1018
330
2
100
AcDbEntity
  8
0
  6
Continuous
 62
     7
100
AcDbLine
 10
19.79997660723893
 20
3302.897057720219
 30
0.0
 11
19.7999766072171
 21
3302.199998054561
 31
0.0
  0
LINE
  5
1019
330
2
100
AcDbEntity
  8
0
  6
Continuous
 62
     9
100
AcDbLine
 10
18.49997660735607
 20
3306.589324435075
 30
0.0
 11
18.49997660730514
 21
3304.876402911796
 31
0.0
  0
LINE
  5
101A
330
2
100
AcDbEntity
  8
0
  6
Continuous
 62
     7
100
AcDbLine
 10
18.29997660732623
 20
3305.569918526769
 30
0.0
 11
18.29997660748631
 21
3310.43052261203
 31
0.0
  0
LINE
  5
101B
330
2
100
AcDbEntity
  8
0
  6
Continuous
 62
     7
100
AcDbLine
 10
28.29997660725712
 20
3303.549998054275
 30
0.0
 11
28.29997660755545
 21
3312.449998054275
 31
0.0
  0
LINE
  5
101C
330
2
100
AcDbEntity
  8
0
  6
Continuous
 62
     7
100
AcDbLine
 10
29.29997660753725
 20
3311.872647785052
 30
0.0
 11
29.29997660727895
 21
3304.127348323431
 31
0.0
  0
LINE
  5
101D
330
2
100
AcDbEntity
  8
0
  6
Continuous
 62
     7
100
AcDbLine
 10
19.799976635848
 20
3313.799660219264
 30
0.0
 11
19.79997663582617
 21
3313.102938436745
 31
0.0
  0
LINE
  5
101E
330
2
100
AcDbEntity
  8
0
  6
Continuous
 62
     7
100
AcDbLine
 10
19.7999766354842
 20
3302.897057672376
 30
0.0
 11
19.79997663547692
 21
3302.703772978072
 31
0.0
  0
CIRCLE
  5
101F
330
2
100
AcDbEntity
  8
0
  6
Continuous
 62
     7
100
AcDbCircle
 10
28.39997660402151
 20
3307.999998054271
 30
0.0
 40
8.499999999999726
  0
CIRCLE
  5
1020
330
2
100
AcDbEntity
  8
0
  6
Continuous
 62
     7
100
AcDbCircle
 10
28.39997660402151
 20
3307.999998054271
 30
0.0
 40
9.999999999999786
  0
LINE
  5
1021
330
2
100
AcDbEntity
  8
0
  6
Continuous
 62
     7
100
AcDbLine
 10
5.999976869225065
 20
1487.999998054717
 30
0.0
 11
1.999976869225064
 21
1487.999998054852
 31
0.0
  0
LINE
  5
1022
330
2
100
AcDbEntity
  8
0
  6
Continuous
 62
     9
100
AcDbLine
 10
1.999976869225064
 20
1487.999998054852
 30
0.0
 11
1.999976869243254
 21
1488.49999805487
 31
0.0
  0
LINE
  5
1023
330
2
100
AcDbEntity
  8
0
  6
Continuous
 62
     9
100
AcDbLine
 10
1.999976869235979
 20
1488.49999805487
 30
0.0
 11
5.999976869235978
 21
1488.499998054734
 31
0.0
  0
LINE
  5
1024
330
2
100
AcDbEntity
  8
0
  6
Continuous
 62
     7
100
AcDbLine
 10
5.999976869235978
 20
1488.499998054734
 30
0.0
 11
5.999976869225065
 21
1487.999998054717
 31
0.0
  0
LINE
  5
1025
330
2
100
AcDbEntity
  8
0
  6
Continuous
 62
     9
100
AcDbLine
 10
5.999976870545651
 20
1527.499998054734
 30
0.0
 11
1.999976870545651
 21
1527.499998054869
 31
0.0
  0
LINE
  5
1026
330
2
100
AcDbEntity
  8
0
  6
Continuous
 62
     9
100
AcDbLine
 10
1.999976869235979
 20
1488.49999805487
 30
0.0
 11
1.999976870545651
 21
1527.499998054869
 31
0.0
  0
LINE
  5
1027
330
2
100
AcDbEntity
  8
0
  6
Continuous
 62
     7
100
AcDbLine
 10
5.999976869235978
 20
1488.499998054734
 30
0.0
 11
5.999976870545651
 21
1527.499998054734
 31
0.0
  0
LINE
  5
1028
330
2
100
AcDbEntity
  8
0
  6
Continuous
 62
     7
100
AcDbLine
 10
1.999976869225064
 20
1487.999998054834
 30
0.0
 11
1.499976869225064
 21
1487.99999805485
 31
0.0
  0
ARC
  5
1029
330
2
100
AcDbEntity
  8
0
  6
Continuous
 62
     7
100
AcDbCircle
 10
1.499976869243254
 20
1488.49999805485
 30
0.0
 40
0.4999999999997229
100
AcDbArc
 50
179.9999999979676
 51
269.9999999979156
  0
LINE
  5
102A
330
2
100
AcDbEntity
  8
0
  6
Continuous
 62
     9
100
AcDbLine
 10
0.9999768692432551
 20
1488.499998054868
 30
0.0
 11
1.999976869235979
 21
1488.499998054833
 31
0.0
  0
LINE
  5
102B
330
2
100
AcDbEntity
  8
0
  6
Continuous
 62
     9
100
AcDbLine
 10
1.999976870545651
 20
1527.499998054834
 30
0.0
 11
0.9999768705529275
 21
1527.499998054867
 31
0.0
  0
LINE
  5
102C
330
2
100
AcDbEntity
  8
0
  6
Continuous
 62
     7
100
AcDbLine
 10
0.9999768692432551
 20
1488.499998054868
 30
0.0
 11
0.9999768705529275
 21
1527.499998054867
 31
0.0
  0
LINE
  5
102D
330
2
100
AcDbEntity
  8
0
  6
Continuous
 62
     9
100
AcDbLine
 10
1.999976870545651
 20
1527.499998054869
 30
0.0
 11
1.999976870567479
 21
1527.999998054852
 31
0.0
  0
LINE
  5
102E
330
2
100
AcDbEntity
  8
0
  6
Continuous
 62
     7
100
AcDbLine
 10
1.999976870567479
 20
1527.999998054852
 30
0.0
 11
5.999976870567477
 21
1527.999998054718
 31
0.0
  0
LINE
  5
102F
330
2
100
AcDbEntity
  8
0
  6
Continuous
 62
     7
100
AcDbLine
 10
5.999976870567477
 20
1527.999998054718
 30
0.0
 11
5.999976870552926
 21
1527.499998054734
 31
0.0
  0
ARC
  5
1030
330
2
100
AcDbEntity
  8
0
  6
Continuous
 62
     7
100
AcDbCircle
 10
1.499976870552926
 20
1527.49999805485
 30
0.0
 40
0.4999999999988347
100
AcDbArc
 50
89.999999998124
 51
179.9999999980719
  0
LINE
  5
1031
330
2
100
AcDbEntity
  8
0
  6
Continuous
 62
     7
100
AcDbLine
 10
1.499976870578393
 20
1527.999998054849
 30
0.0
 11
1.999976870567479
 21
1527.999998054833
 31
0.0
  0
LINE
  5
1032
330
2
100
AcDbEntity
  8
0
  6
Continuous
 62
     7
100
AcDbLine
 10
5.999976571474688
 20
1488.999998054634
 30
0.0
 11
6.999976571467414
 21
1488.999998054602
 31
0.0
  0
LINE
  5
1033
330
2
100
AcDbEntity
  8
0
  6
Continuous
 62
     9
100
AcDbLine
 10
5.999976571536534
 20
1490.999998054705
 30
0.0
 11
6.999976571536534
 21
1490.999998054672
 31
0.0
  0
LINE
  5
1034
330
2
100
AcDbEntity
  8
0
  6
Continuous
 62
     9
100
AcDbLine
 10
5.99997657267886
 20
1524.999998054706
 30
0.0
 11
6.99997657267886
 21
1524.999998054672
 31
0.0
  0
LINE
  5
1035
330
2
100
AcDbEntity
  8
0
  6
Continuous
 62
     7
100
AcDbLine
 10
5.999976572744343
 20
1526.999998054634
 30
0.0
 11
6.999976572744343
 21
1526.999998054602
 31
0.0
  0
LINE
  5
1036
330
2
100
AcDbEntity
  8
0
  6
Continuous
 62
     9
100
AcDbLine
 10
15.99997657153653
 20
1490.999998054371
 30
0.0
 11
14.99997657153653
 21
1490.999998054405
 31
0.0
  0
LINE
  5
1037
330
2
100
AcDbEntity
  8
0
  6
Continuous
 62
     7
100
AcDbLine
 10
15.99997657146741
 20
1488.999998054302
 30
0.0
 11
14.99997657147469
 21
1488.999998054335
 31
0.0
  0
LINE
  5
1038
330
2
100
AcDbEntity
  8
0
  6
Continuous
 62
     9
100
AcDbLine
 10
15.99997657267886
 20
1524.999998054368
 30
0.0
 11
14.99997657267886
 21
1524.999998054402
 31
0.0
  0
LINE
  5
1039
330
2
100
AcDbEntity
  8
0
  6
Continuous
 62
     7
100
AcDbLine
 10
15.99997657274434
 20
1526.999998054297
 30
0.0
 11
14.99997657274434
 21
1526.999998054332
 31
0.0
  0
LINE
  5
103A
330
2
100
AcDbEntity
  8
0
  6
Continuous
 62
     7
100
AcDbLine
 10
24.99997657763015
 20
1527.999998054451
 30
0.0
 11
19.99997657275526
 21
1527.999998054619
 31
0.0
  0
LINE
  5
103B
330
2
100
AcDbEntity
  8
0
  6
Continuous
 62
     7
100
AcDbLine
 10
24.9999765775865
 20
1507.999998054451
 30
0.0
 11
19.99997657208587
 21
1507.999998054618
 31
0.0
  0
LINE
  5
103C
330
2
100
AcDbEntity
  8
0
  6
Continuous
 62
     7
100
AcDbLine
 10
19.99997657275526
 20
1527.999998054619
 30
0.0
 11
19.99997657208587
 21
1507.999998054618
 31
0.0
  0
LINE
  5
103D
330
2
100
AcDbEntity
  8
0
  6
Continuous
 62
     9
100
AcDbLine
 10
19.49997657276981
 20
1527.999998054601
 30
0.0
 11
19.49997657208587
 21
1507.999998054601
 31
0.0
  0
LINE
  5
103E
330
2
100
AcDbEntity
  8
0
  6
Continuous
 62
     7
100
AcDbLine
 10
19.49997657276981
 20
1527.999998054618
 30
0.0
 11
19.99997657275526
 21
1527.999998054601
 31
0.0
  0
LINE
  5
103F
330
2
100
AcDbEntity
  8
0
  6
Continuous
 62
     7
100
AcDbLine
 10
19.49997657208587
 20
1507.999998054618
 30
0.0
 11
19.99997657208587
 21
1507.999998054602
 31
0.0
  0
LINE
  5
1040
330
2
100
AcDbEntity
  8
0
  6
Continuous
 62
     7
100
AcDbLine
 10
19.07177334180232
 20
1507.999998054615
 30
0.0
 11
19.07177334114385
 21
1487.999998054616
 31
0.0
  0
LINE
  5
1041
330
2
100
AcDbEntity
  8
0
  6
Continuous
 62
     7
100
AcDbLine
 10
19.99997657141648
 20
1487.999998054618
 30
0.0
 11
19.07177334114385
 21
1487.99999805465
 31
0.0
  0
LINE
  5
1042
330
2
100
AcDbEntity
  8
0
  6
Continuous
 62
     7
100
AcDbLine
 10
16.99997657275526
 20
1527.999998054684
 30
0.0
 11
16.99997657141648
 21
1487.999998054684
 31
0.0
  0
LINE
  5
1043
330
2
100
AcDbEntity
  8
0
  6
Continuous
 62
     7
100
AcDbLine
 10
19.07177334114385
 20
1487.999998054616
 30
0.0
 11
16.99997657141648
 21
1487.999998054684
 31
0.0
  0
LINE
  5
1044
330
2
100
AcDbEntity
  8
0
  6
Continuous
 62
     7
100
AcDbLine
 10
19.49997657276981
 20
1527.999998054601
 30
0.0
 11
16.99997657275526
 21
1527.999998054684
 31
0.0
  0
LINE
  5
1045
330
2
100
AcDbEntity
  8
0
  6
Continuous
 62
     7
100
AcDbLine
 10
19.49997657208587
 20
1507.999998054601
 30
0.0
 11
19.07177334180232
 21
1507.999998054615
 31
0.0
  0
LINE
  5
1046
330
2
100
AcDbEntity
  8
0
  6
Continuous
 62
     9
100
AcDbLine
 10
16.49997657276981
 20
1527.99999805444
 30
0.0
 11
16.49997657142739
 21
1487.99999805444
 31
0.0
  0
LINE
  5
1047
330
2
100
AcDbEntity
  8
0
  6
Continuous
 62
     7
100
AcDbLine
 10
16.49997657142739
 20
1487.999998054457
 30
0.0
 11
16.99997657142739
 21
1487.999998054441
 31
0.0
  0
LINE
  5
1048
330
2
100
AcDbEntity
  8
0
  6
Continuous
 62
     7
100
AcDbLine
 10
16.49997657276981
 20
1527.999998054457
 30
0.0
 11
16.99997657276981
 21
1527.999998054441
 31
0.0
  0
LINE
  5
1049
330
2
100
AcDbEntity
  8
0
  6
Continuous
 62
     7
100
AcDbLine
 10
15.99997657276981
 20
1527.999998054457
 30
0.0
 11
15.99997657142739
 21
1487.999998054457
 31
0.0
  0
LINE
  5
104A
330
2
100
AcDbEntity
  8
0
  6
Continuous
 62
     7
100
AcDbLine
 10
16.49997657142739
 20
1487.99999805444
 30
0.0
 11
15.99997657142739
 21
1487.999998054457
 31
0.0
  0
LINE
  5
104B
330
2
100
AcDbEntity
  8
0
  6
Continuous
 62
     7
100
AcDbLine
 10
16.49997657276981
 20
1527.99999805444
 30
0.0
 11
15.99997657276981
 21
1527.999998054457
 31
0.0
  0
LINE
  5
104C
330
2
100
AcDbEntity
  8
0
  6
Continuous
 62
     7
100
AcDbLine
 10
34.49997657139828
 20
1487.999998054481
 30
0.0
 11
34.49997657170752
 21
1497.148270086783
 31
0.0
  0
LINE
  5
104D
330
2
100
AcDbEntity
  8
0
  6
Continuous
 62
     7
100
AcDbLine
 10
34.49997657170752
 20
1497.148270086783
 30
0.0
 11
34.49997657170752
 21
1497.287855417031
 31
0.0
  0
LINE
  5
104E
330
2
100
AcDbEntity
  8
0
  6
Continuous
 62
     7
100
AcDbLine
 10
34.49997657170752
 20
1497.287855417031
 30
0.0
 11
34.49997657242784
 21
1518.712140691108
 31
0.0
  0
LINE
  5
104F
330
2
100
AcDbEntity
  8
0
  6
Continuous
 62
     7
100
AcDbLine
 10
34.49997657242784
 20
1518.712140691108
 30
0.0
 11
34.49997657243875
 21
1518.851726022104
 31
0.0
  0
LINE
  5
1050
330
2
100
AcDbEntity
  8
0
  6
Continuous
 62
     7
100
AcDbLine
 10
34.49997657243875
 20
1518.851726022104
 30
0.0
 11
34.49997657273707
 21
1527.999998054481
 31
0.0
  0
LINE
  5
1051
330
2
100
AcDbEntity
  8
0
  6
Continuous
 62
     7
100
AcDbLine
 10
34.49997657273707
 20
1527.999998054481
 30
0.0
 11
46.1735383328305
 21
1527.999998054089
 31
0.0
  0
LINE
  5
1052
330
2
100
AcDbEntity
  8
0
  6
Continuous
 62
     7
100
AcDbLine
 10
46.1735383328305
 20
1527.999998054089
 30
0.0
 11
64.99997657763015
 21
1527.999998053457
 31
0.0
  0
LINE
  5
1053
330
2
100
AcDbEntity
  8
0
  6
Continuous
 62
     7
100
AcDbLine
 10
64.99997657763015
 20
1527.999998053457
 30
0.0
 11
65.99997657273707
 21
1527.999998053423
 31
0.0
  0
CIRCLE
  5
1054
330
2
100
AcDbEntity
  8
0
  6
Continuous
 62
     7
100
AcDbCircle
 10
50.99997657206768
 20
1507.999998053926
 30
0.0
 40
3.150000000000208
  0
LINE
  5
1055
330
2
100
AcDbEntity
  8
0
  6
Continuous
 62
     7
100
AcDbLine
 10
34.49997657139828
 20
1487.999998054481
 30
0.0
 11
46.17265863706778
 21
1487.999998054089
 31
0.0
  0
LINE
  5
1056
330
2
100
AcDbEntity
  8
0
  6
Continuous
 62
     7
100
AcDbLine
 10
46.17265863706778
 20
1487.999998054089
 30
0.0
 11
64.99997657755739
 21
1487.999998053458
 31
0.0
  0
LINE
  5
1057
330
2
100
AcDbEntity
  8
0
  6
Continuous
 62
     7
100
AcDbLine
 10
64.99997657755739
 20
1487.999998053458
 30
0.0
 11
65.99997657139829
 21
1487.999998053423
 31
0.0
  0
LINE
  5
1058
330
2
100
AcDbEntity
  8
0
  6
Continuous
 62
     7
100
AcDbLine
 10
65.99997657139829
 20
1487.999998053423
 30
0.0
 11
65.99997657273707
 21
1527.999998053423
 31
0.0
  0
LINE
  5
1059
330
2
100
AcDbEntity
  8
0
  6
Continuous
 62
     9
100
AcDbLine
 10
33.99997657172571
 20
1497.655434270588
 30
0.0
 11
33.99997657172571
 21
1497.801959033254
 31
0.0
  0
LINE
  5
105A
330
2
100
AcDbEntity
  8
0
  6
Continuous
 62
     9
100
AcDbLine
 10
33.99997657242057
 20
1518.198037074918
 30
0.0
 11
33.99997657242057
 21
1518.344561838334
 31
0.0
  0
LINE
  5
105B
330
2
100
AcDbEntity
  8
0
  6
Continuous
 62
     7
100
AcDbLine
 10
19.99997657141648
 20
1487.999998054618
 30
0.0
 11
24.99997657755739
 21
1487.999998054451
 31
0.0
  0
LINE
  5
105C
330
2
100
AcDbEntity
  8
0
  6
Continuous
 62
     7
100
AcDbLine
 10
19.99997657208587
 20
1507.999998054618
 30
0.0
 11
24.9999765775865
 21
1507.999998054451
 31
0.0
  0
LINE
  5
105D
330
2
100
AcDbEntity
  8
0
  6
Continuous
 62
     7
100
AcDbLine
 10
5.999976929415423
 20
3187.999998052721
 30
0.0
 11
1.999976929415424
 21
3187.999998052857
 31
0.0
  0
LINE
  5
105E
330
2
100
AcDbEntity
  8
0
  6
Continuous
 62
     9
100
AcDbLine
 10
1.999976929415424
 20
3187.999998052857
 30
0.0
 11
1.999976929437251
 21
3188.499998052874
 31
0.0
  0
LINE
  5
105F
330
2
100
AcDbEntity
  8
0
  6
Continuous
 62
     9
100
AcDbLine
 10
1.999976929437251
 20
3188.499998052874
 30
0.0
 11
5.999976929437253
 21
3188.499998052739
 31
0.0
  0
LINE
  5
1060
330
2
100
AcDbEntity
  8
0
  6
Continuous
 62
     7
100
AcDbLine
 10
5.999976929437253
 20
3188.499998052739
 30
0.0
 11
5.999976929415423
 21
3187.999998052721
 31
0.0
  0
LINE
  5
1061
330
2
100
AcDbEntity
  8
0
  6
Continuous
 62
     9
100
AcDbLine
 10
5.999976930743286
 20
3227.49999805274
 30
0.0
 11
1.999976930739649
 21
3227.499998052873
 31
0.0
  0
LINE
  5
1062
330
2
100
AcDbEntity
  8
0
  6
Continuous
 62
     9
100
AcDbLine
 10
1.999976929437251
 20
3188.499998052874
 30
0.0
 11
1.999976930739649
 21
3227.499998052873
 31
0.0
  0
LINE
  5
1063
330
2
100
AcDbEntity
  8
0
  6
Continuous
 62
     7
100
AcDbLine
 10
5.999976929437253
 20
3188.499998052739
 30
0.0
 11
5.999976930743286
 21
3227.49999805274
 31
0.0
  0
LINE
  5
1064
330
2
100
AcDbEntity
  8
0
  6
Continuous
 62
     7
100
AcDbLine
 10
1.999976929415424
 20
3187.999998052839
 30
0.0
 11
1.499976929426338
 21
3187.999998052855
 31
0.0
  0
ARC
  5
1065
330
2
100
AcDbEntity
  8
0
  6
Continuous
 62
     7
100
AcDbCircle
 10
1.499976929437251
 20
3188.499998052855
 30
0.0
 40
0.5000000000006111
100
AcDbArc
 50
179.9999999979546
 51
269.9999999979156
  0
LINE
  5
1066
330
2
100
AcDbEntity
  8
0
  6
Continuous
 62
     9
100
AcDbLine
 10
0.9999769294445286
 20
3188.499998052872
 30
0.0
 11
1.999976929437251
 21
3188.499998052839
 31
0.0
  0
LINE
  5
1067
330
2
100
AcDbEntity
  8
0
  6
Continuous
 62
     9
100
AcDbLine
 10
1.999976930739649
 20
3227.499998052838
 30
0.0
 11
0.999976930743287
 21
3227.499998052872
 31
0.0
  0
LINE
  5
1068
330
2
100
AcDbEntity
  8
0
  6
Continuous
 62
     7
100
AcDbLine
 10
0.9999769294445286
 20
3188.499998052872
 30
0.0
 11
0.999976930743287
 21
3227.499998052872
 31
0.0
  0
LINE
  5
1069
330
2
100
AcDbEntity
  8
0
  6
Continuous
 62
     9
100
AcDbLine
 10
1.999976930743286
 20
3227.499998052873
 30
0.0
 11
1.999976930768752
 21
3227.999998052857
 31
0.0
  0
LINE
  5
106A
330
2
100
AcDbEntity
  8
0
  6
Continuous
 62
     7
100
AcDbLine
 10
1.999976930768752
 20
3227.999998052857
 30
0.0
 11
5.999976930768752
 21
3227.999998052721
 31
0.0
  0
LINE
  5
106B
330
2
100
AcDbEntity
  8
0
  6
Continuous
 62
     7
100
AcDbLine
 10
5.999976930768752
 20
3227.999998052721
 30
0.0
 11
5.999976930743286
 21
3227.49999805274
 31
0.0
  0
ARC
  5
106C
330
2
100
AcDbEntity
  8
0
  6
Continuous
 62
     7
100
AcDbCircle
 10
1.499976930743286
 20
3227.499998052856
 30
0.0
 40
0.4999999999988347
100
AcDbArc
 50
89.999999998124
 51
179.9999999980719
  0
LINE
  5
106D
330
2
100
AcDbEntity
  8
0
  6
Continuous
 62
     7
100
AcDbLine
 10
1.499976930768752
 20
3227.999998052855
 30
0.0
 11
1.999976930768752
 21
3227.999998052837
 31
0.0
  0
LINE
  5
106E
330
2
100
AcDbEntity
  8
0
  6
Continuous
 62
     7
100
AcDbLine
 10
5.999976631668688
 20
3188.99999805264
 30
0.0
 11
6.999976631668688
 21
3188.999998052607
 31
0.0
  0
LINE
  5
106F
330
2
100
AcDbEntity
  8
0
  6
Continuous
 62
     9
100
AcDbLine
 10
5.999976631726893
 20
3190.999998052709
 30
0.0
 11
6.999976631726893
 21
3190.999998052675
 31
0.0
  0
LINE
  5
1070
330
2
100
AcDbEntity
  8
0
  6
Continuous
 62
     9
100
AcDbLine
 10
5.999976632869219
 20
3224.99999805271
 30
0.0
 11
6.999976632869219
 21
3224.999998052677
 31
0.0
  0
LINE
  5
1071
330
2
100
AcDbEntity
  8
0
  6
Continuous
 62
     7
100
AcDbLine
 10
5.999976632934703
 20
3226.999998052641
 30
0.0
 11
6.999976632934703
 21
3226.999998052607
 31
0.0
  0
LINE
  5
1072
330
2
100
AcDbEntity
  8
0
  6
Continuous
 62
     9
100
AcDbLine
 10
15.99997663172689
 20
3190.999998052377
 30
0.0
 11
14.99997663172689
 21
3190.999998052409
 31
0.0
  0
LINE
  5
1073
330
2
100
AcDbEntity
  8
0
  6
Continuous
 62
     7
100
AcDbLine
 10
15.99997663166869
 20
3188.999998052307
 30
0.0
 11
14.99997663165777
 21
3188.999998052341
 31
0.0
  0
LINE
  5
1074
330
2
100
AcDbEntity
  8
0
  6
Continuous
 62
     9
100
AcDbLine
 10
15.99997663286922
 20
3224.999998052372
 30
0.0
 11
14.99997663286922
 21
3224.999998052407
 31
0.0
  0
LINE
  5
1075
330
2
100
AcDbEntity
  8
0
  6
Continuous
 62
     7
100
AcDbLine
 10
15.9999766329347
 20
3226.999998052305
 30
0.0
 11
14.9999766329347
 21
3226.999998052337
 31
0.0
  0
LINE
  5
1076
330
2
100
AcDbEntity
  8
0
  6
Continuous
 62
     7
100
AcDbLine
 10
24.99997663455725
 20
3227.999998052454
 30
0.0
 11
19.99997663296744
 21
3227.999998052624
 31
0.0
  0
LINE
  5
1077
330
2
100
AcDbEntity
  8
0
  6
Continuous
 62
     7
100
AcDbLine
 10
24.99997663451722
 20
3207.999998052456
 30
0.0
 11
19.99997663229805
 21
3207.999998052623
 31
0.0
  0
LINE
  5
1078
330
2
100
AcDbEntity
  8
0
  6
Continuous
 62
     7
100
AcDbLine
 10
19.99997663296744
 20
3227.999998052624
 30
0.0
 11
19.99997663229805
 21
3207.999998052623
 31
0.0
  0
LINE
  5
1079
330
2
100
AcDbEntity
  8
0
  6
Continuous
 62
     9
100
AcDbLine
 10
19.49997663296744
 20
3227.999998052603
 30
0.0
 11
19.49997663230533
 21
3207.999998052604
 31
0.0
  0
LINE
  5
107A
330
2
100
AcDbEntity
  8
0
  6
Continuous
 62
     7
100
AcDbLine
 10
19.49997663296744
 20
3227.999998052621
 30
0.0
 11
19.99997663296744
 21
3227.999998052603
 31
0.0
  0
LINE
  5
107B
330
2
100
AcDbEntity
  8
0
  6
Continuous
 62
     7
100
AcDbLine
 10
19.49997663230533
 20
3207.999998052623
 30
0.0
 11
19.99997663229805
 21
3207.999998052605
 31
0.0
  0
LINE
  5
107C
330
2
100
AcDbEntity
  8
0
  6
Continuous
 62
     7
100
AcDbLine
 10
19.07177340201815
 20
3207.999998052617
 30
0.0
 11
19.07177340135604
 21
3187.999998052618
 31
0.0
  0
LINE
  5
107D
330
2
100
AcDbEntity
  8
0
  6
Continuous
 62
     7
100
AcDbLine
 10
19.99997663162867
 20
3187.999998052623
 30
0.0
 11
19.07177340135604
 21
3187.999998052653
 31
0.0
  0
LINE
  5
107E
330
2
100
AcDbEntity
  8
0
  6
Continuous
 62
     7
100
AcDbLine
 10
16.99997663296744
 20
3227.999998052688
 30
0.0
 11
16.99997663162867
 21
3187.999998052687
 31
0.0
  0
LINE
  5
107F
330
2
100
AcDbEntity
  8
0
  6
Continuous
 62
     7
100
AcDbLine
 10
19.07177340135604
 20
3187.999998052618
 30
0.0
 11
16.99997663162867
 21
3187.999998052687
 31
0.0
  0
LINE
  5
1080
330
2
100
AcDbEntity
  8
0
  6
Continuous
 62
     7
100
AcDbLine
 10
19.49997663296744
 20
3227.999998052603
 30
0.0
 11
16.99997663296744
 21
3227.999998052688
 31
0.0
  0
LINE
  5
1081
330
2
100
AcDbEntity
  8
0
  6
Continuous
 62
     7
100
AcDbLine
 10
19.49997663230533
 20
3207.999998052604
 30
0.0
 11
19.07177340201815
 21
3207.999998052617
 31
0.0
  0
LINE
  5
1082
330
2
100
AcDbEntity
  8
0
  6
Continuous
 62
     9
100
AcDbLine
 10
16.49997663296744
 20
3227.999998052445
 30
0.0
 11
16.49997663162867
 21
3187.999998052445
 31
0.0
  0
LINE
  5
1083
330
2
100
AcDbEntity
  8
0
  6
Continuous
 62
     7
100
AcDbLine
 10
16.49997663162867
 20
3187.999998052462
 30
0.0
 11
16.99997663162867
 21
3187.999998052445
 31
0.0
  0
LINE
  5
1084
330
2
100
AcDbEntity
  8
0
  6
Continuous
 62
     7
100
AcDbLine
 10
16.49997663296744
 20
3227.999998052461
 30
0.0
 11
16.99997663296744
 21
3227.999998052445
 31
0.0
  0
LINE
  5
1085
330
2
100
AcDbEntity
  8
0
  6
Continuous
 62
     7
100
AcDbLine
 10
15.99997663297472
 20
3227.999998052461
 30
0.0
 11
15.99997663162867
 21
3187.999998052462
 31
0.0
  0
LINE
  5
1086
330
2
100
AcDbEntity
  8
0
  6
Continuous
 62
     7
100
AcDbLine
 10
16.49997663162867
 20
3187.999998052445
 30
0.0
 11
15.99997663162867
 21
3187.999998052462
 31
0.0
  0
LINE
  5
1087
330
2
100
AcDbEntity
  8
0
  6
Continuous
 62
     7
100
AcDbLine
 10
16.49997663296744
 20
3227.999998052445
 30
0.0
 11
15.99997663297472
 21
3227.999998052461
 31
0.0
  0
LINE
  5
1088
330
2
100
AcDbEntity
  8
0
  6
Continuous
 62
     7
100
AcDbLine
 10
34.49997663162867
 20
3187.999998052482
 30
0.0
 11
34.49997663193426
 21
3197.148270083622
 31
0.0
  0
LINE
  5
1089
330
2
100
AcDbEntity
  8
0
  6
Continuous
 62
     7
100
AcDbLine
 10
34.49997663193426
 20
3197.148270083622
 30
0.0
 11
34.49997663193426
 21
3197.287855413829
 31
0.0
  0
LINE
  5
108A
330
2
100
AcDbEntity
  8
0
  6
Continuous
 62
     7
100
AcDbLine
 10
34.49997663193426
 20
3197.287855413829
 30
0.0
 11
34.49997663265458
 21
3218.71214069437
 31
0.0
  0
LINE
  5
108B
330
2
100
AcDbEntity
  8
0
  6
Continuous
 62
     7
100
AcDbLine
 10
34.49997663265458
 20
3218.71214069437
 30
0.0
 11
34.49997663266913
 21
3218.851726025325
 31
0.0
  0
LINE
  5
108C
330
2
100
AcDbEntity
  8
0
  6
Continuous
 62
     7
100
AcDbLine
 10
34.49997663266913
 20
3218.851726025325
 30
0.0
 11
34.49997663296745
 21
3227.999998052482
 31
0.0
  0
LINE
  5
108D
330
2
100
AcDbEntity
  8
0
  6
Continuous
 62
     7
100
AcDbLine
 10
34.49997663296745
 20
3227.999998052482
 30
0.0
 11
64.99997663455724
 21
3227.999998051459
 31
0.0
  0
LINE
  5
108E
330
2
100
AcDbEntity
  8
0
  6
Continuous
 62
     7
100
AcDbLine
 10
64.99997663455724
 20
3227.999998051459
 30
0.0
 11
65.99997663296743
 21
3227.999998051426
 31
0.0
  0
CIRCLE
  5
108F
330
2
100
AcDbEntity
  8
0
  6
Continuous
 62
     7
100
AcDbCircle
 10
50.99997663229806
 20
3207.999998051929
 30
0.0
 40
3.149999999999764
  0
LINE
  5
1090
330
2
100
AcDbEntity
  8
0
  6
Continuous
 62
     7
100
AcDbLine
 10
34.49997663162867
 20
3187.999998052482
 30
0.0
 11
64.99997663448812
 21
3187.99999805146
 31
0.0
  0
LINE
  5
1091
330
2
100
AcDbEntity
  8
0
  6
Continuous
 62
     7
100
AcDbLine
 10
64.99997663448812
 20
3187.99999805146
 30
0.0
 11
65.99997663162866
 21
3187.999998051426
 31
0.0
  0
LINE
  5
1092
330
2
100
AcDbEntity
  8
0
  6
Continuous
 62
     7
100
AcDbLine
 10
65.99997663162866
 20
3187.999998051426
 30
0.0
 11
65.99997663296743
 21
3227.999998051426
 31
0.0
  0
LINE
  5
1093
330
2
100
AcDbEntity
  8
0
  6
Continuous
 62
     9
100
AcDbLine
 10
33.99997663195609
 20
3197.655434267114
 30
0.0
 11
33.99997663195609
 21
3197.80195902973
 31
0.0
  0
LINE
  5
1094
330
2
100
AcDbEntity
  8
0
  6
Continuous
 62
     9
100
AcDbLine
 10
33.99997663264004
 20
3218.198037078504
 30
0.0
 11
33.99997663264731
 21
3218.344561841868
 31
0.0
  0
LINE
  5
1095
330
2
100
AcDbEntity
  8
0
  6
Continuous
 62
     7
100
AcDbLine
 10
19.99997663162867
 20
3187.999998052623
 30
0.0
 11
24.99997663448812
 21
3187.999998052454
 31
0.0
  0
LINE
  5
1096
330
2
100
AcDbEntity
  8
0
  6
Continuous
 62
     7
100
AcDbLine
 10
19.99997663229805
 20
3207.999998052623
 30
0.0
 11
24.99997663451722
 21
3207.999998052456
 31
0.0
  0
ARC
  5
1097
330
2
100
AcDbEntity
  8
0
  6
Continuous
 62
     7
100
AcDbCircle
 10
17.49997658912616
 20
1376.999998057524
 30
0.0
 40
2.000000000002239
100
AcDbArc
 50
120.0000007367113
 51
150.0000000692969
  0
LINE
  5
1098
330
2
100
AcDbEntity
  8
0
  6
Continuous
 62
     9
100
AcDbLine
 10
36.24997658909706
 20
1376.999998056841
 30
0.0
 11
36.2320273744881
 21
1376.99999805684
 31
0.0
  0
LINE
  5
1099
330
2
100
AcDbEntity
  8
0
  6
Continuous
 62
     7
100
AcDbLine
 10
36.24997658909706
 20
1376.999998056841
 30
0.0
 11
36.24997658906796
 21
1377.329154220171
 31
0.0
  0
LINE
  5
109A
330
2
100
AcDbEntity
  8
0
  6
Continuous
 62
     7
100
AcDbLine
 10
36.24997658909706
 20
1376.999998056841
 30
0.0
 11
36.24997658909706
 21
1376.968243853313
 31
0.0
  0
LINE
  5
109B
330
2
100
AcDbEntity
  8
0
  6
Continuous
 62
     7
100
AcDbLine
 10
36.24997659024666
 20
1359.031752260174
 30
0.0
 11
36.24997659030487
 21
1357.999998056841
 31
0.0
  0
LINE
  5
109C
330
2
100
AcDbEntity
  8
0
  6
Continuous
 62
     9
100
AcDbLine
 10
49.79997395323881
 20
1378.999998053558
 30
0.0
 11
49.79997395262762
 21
1360.999998057613
 31
0.0
  0
LINE
  5
109D
330
2
100
AcDbEntity
  8
0
  6
Continuous
 62
     9
100
AcDbLine
 10
50.5999740000734
 20
1378.999998053531
 30
0.0
 11
50.59997399981511
 21
1371.099995517325
 31
0.0
  0
LINE
  5
109E
330
2
100
AcDbEntity
  8
0
  6
Continuous
 62
     9
100
AcDbLine
 10
50.59997399960775
 20
1364.900000653953
 30
0.0
 11
50.59997399948041
 21
1360.999998057665
 31
0.0
  0
LINE
  5
109F
330
2
100
AcDbEntity
  8
0
  6
Continuous
 62
     7
100
AcDbLine
 10
48.99997595279636
 20
1365.999998053583
 30
0.0
 11
48.99997595262902
 21
1360.999998057563
 31
0.0
  0
LINE
  5
10A0
330
2
100
AcDbEntity
  8
0
  6
Continuous
 62
     9
100
AcDbLine
 10
40.19997795323797
 20
1378.99999805388
 30
0.0
 11
40.19997795305243
 21
1373.499998056999
 31
0.0
  0
LINE
  5
10A1
330
2
100
AcDbEntity
  8
0
  6
Continuous
 62
     9
100
AcDbLine
 10
40.19997795267772
 20
1362.499998056999
 30
0.0
 11
40.19997795263771
 21
1360.999998056999
 31
0.0
  0
LINE
  5
10A2
330
2
100
AcDbEntity
  8
0
  6
Continuous
 62
     7
100
AcDbLine
 10
40.99997726092988
 20
1362.499998057051
 30
0.0
 11
40.99997795262971
 21
1360.999998057049
 31
0.0
  0
LINE
  5
10A3
330
2
100
AcDbEntity
  8
0
  6
Continuous
 62
     7
100
AcDbLine
 10
40.99997731362964
 20
1362.499998057051
 30
0.0
 11
40.99997805802923
 21
1360.999998057049
 31
0.0
  0
LINE
  5
10A4
330
2
100
AcDbEntity
  8
0
  6
Continuous
 62
     7
100
AcDbLine
 10
39.39997800007404
 20
1378.999998053906
 30
0.0
 11
39.39997800005585
 21
1378.268107220819
 31
0.0
  0
LINE
  5
10A5
330
2
100
AcDbEntity
  8
0
  6
Continuous
 62
     7
100
AcDbLine
 10
50.59997472618853
 20
1378.999998053531
 30
0.0
 11
50.59997472591931
 21
1371.099996243426
 31
0.0
  0
LINE
  5
10A6
330
2
100
AcDbEntity
  8
0
  6
Continuous
 62
     7
100
AcDbLine
 10
50.59997472570467
 20
1364.89999992785
 30
0.0
 11
50.59997472558825
 21
1360.999998057665
 31
0.0
  0
LINE
  5
10A7
330
2
100
AcDbEntity
  8
0
  6
Continuous
 62
     9
100
AcDbLine
 10
48.44997653836617
 20
1365.999998053602
 30
0.0
 11
48.44997653819518
 21
1360.999998057528
 31
0.0
  0
LINE
  5
10A8
330
2
100
AcDbEntity
  8
0
  6
Continuous
 62
     7
100
AcDbLine
 10
47.99997656471896
 20
1365.999998053618
 30
0.0
 11
47.99997656454798
 21
1360.999998057499
 31
0.0
  0
LINE
  5
10A9
330
2
100
AcDbEntity
  8
0
  6
Continuous
 62
     9
100
AcDbLine
 10
41.54997853836539
 20
1365.999998053833
 30
0.0
 11
41.5499785381944
 21
1360.999998057085
 31
0.0
  0
LINE
  5
10AA
330
2
100
AcDbEntity
  8
0
  6
Continuous
 62
     7
100
AcDbLine
 10
41.99997856471964
 20
1365.999998053817
 30
0.0
 11
41.99997856454865
 21
1360.999998057114
 31
0.0
  0
LINE
  5
10AB
330
2
100
AcDbEntity
  8
0
  6
Continuous
 62
     7
100
AcDbLine
 10
51.49997658466964
 20
2371.999998052933
 30
0.0
 11
67.99997660432928
 21
2371.999998052073
 31
0.0
  0
LINE
  5
10AC
330
2
100
AcDbEntity
  8
0
  6
Continuous
 62
     9
100
AcDbLine
 10
67.99997660432928
 20
2371.999998052073
 30
0.0
 11
67.99997660428926
 21
2370.99999805201
 31
0.0
  0
LINE
  5
10AD
330
2
100
AcDbEntity
  8
0
  6
Continuous
 62
     9
100
AcDbLine
 10
67.99997660428926
 20
2370.99999805201
 30
0.0
 11
51.49997658463689
 21
2370.99999805287
 31
0.0
  0
ARC
  5
10AE
330
2
100
AcDbEntity
  8
0
  6
Continuous
 62
     7
100
AcDbCircle
 10
67.99997660428926
 20
2370.999998052074
 30
0.0
 40
0.9999999999994455
100
AcDbArc
 50
359.9999999969516
 51
89.99999999687338
  0
LINE
  5
10AF
330
2
100
AcDbEntity
  8
0
  6
Continuous
 62
     9
100
AcDbLine
 10
67.99997660428926
 20
2370.999998052074
 30
0.0
 11
68.99997660427835
 21
2370.999998052022
 31
0.0
  0
LINE
  5
10B0
330
2
100
AcDbEntity
  8
0
  6
Continuous
 62
     9
100
AcDbLine
 10
67.99997660333611
 20
2352.99999805201
 30
0.0
 11
67.99997660428926
 21
2370.99999805201
 31
0.0
  0
LINE
  5
10B1
330
2
100
AcDbEntity
  8
0
  6
Continuous
 62
     9
100
AcDbLine
 10
51.49997658402572
 20
2352.99999805287
 30
0.0
 11
67.99997660333611
 21
2352.99999805201
 31
0.0
  0
CIRCLE
  5
10B2
330
2
100
AcDbEntity
  8
0
  6
Continuous
 62
     7
100
AcDbCircle
 10
58.99997660380541
 20
2361.999998052479
 30
0.0
 40
7.141428428542262
  0
LINE
  5
10B3
330
2
100
AcDbEntity
  8
0
  6
Continuous
 62
     7
100
AcDbLine
 10
68.99997660427835
 20
2370.999998052022
 30
0.0
 11
68.9999766033361
 21
2352.99999805202
 31
0.0
  0
LINE
  5
10B4
330
2
100
AcDbEntity
  8
0
  6
Continuous
 62
     9
100
AcDbLine
 10
67.99997660333611
 20
2352.999998052073
 30
0.0
 11
68.9999766033361
 21
2352.99999805202
 31
0.0
  0
LINE
  5
10B5
330
2
100
AcDbEntity
  8
0
  6
Continuous
 62
     7
100
AcDbLine
 10
67.99997660328881
 20
2351.999998052074
 30
0.0
 11
51.49997658399661
 21
2351.999998052933
 31
0.0
  0
LINE
  5
10B6
330
2
100
AcDbEntity
  8
0
  6
Continuous
 62
     9
100
AcDbLine
 10
67.99997660333611
 20
2352.99999805201
 30
0.0
 11
67.99997660328881
 21
2351.999998052075
 31
0.0
  0
ARC
  5
10B7
330
2
100
AcDbEntity
  8
0
  6
Continuous
 62
     7
100
AcDbCircle
 10
67.99997660333611
 20
2352.999998052073
 30
0.0
 40
0.9999999999976694
100
AcDbArc
 50
269.9999999970818
 51
359.9999999970037
  0
LINE
  5
10B8
330
2
100
AcDbEntity
  8
0
  6
Continuous
 62
     9
100
AcDbLine
 10
38.499976617637
 20
3357.999998053936
 30
0.0
 11
38.49997661644739
 21
3322.479967215547
 31
0.0
  0
LINE
  5
10B9
330
2
100
AcDbEntity
  8
0
  6
Continuous
 62
     9
100
AcDbLine
 10
38.49997661574525
 20
3301.520028927679
 30
0.0
 11
38.49997661328962
 21
3227.999998052348
 31
0.0
  0
LINE
  5
10BA
330
2
100
AcDbEntity
  8
0
  6
Continuous
 62
     9
100
AcDbLine
 10
38.49997661195447
 20
3187.999998052348
 30
0.0
 11
38.49997655644621
 21
1527.999998054347
 31
0.0
  0
LINE
  5
10BB
330
2
100
AcDbEntity
  8
0
  6
Continuous
 62
     9
100
AcDbLine
 10
38.49997655510378
 20
1487.999998054347
 30
0.0
 11
38.49997655145853
 21
1378.999998053936
 31
0.0
  0
LINE
  5
10BC
330
2
100
AcDbEntity
  8
0
  6
Continuous
 62
     7
100
AcDbLine
 10
38.49997655145853
 20
1378.999998053936
 30
0.0
 11
51.49997655145853
 21
1378.9999980535
 31
0.0
  0
LINE
  5
10BD
330
2
100
AcDbEntity
  8
0
  6
Continuous
 62
     7
100
AcDbLine
 10
38.499976617637
 20
3357.999998053936
 30
0.0
 11
51.49997661763699
 21
3357.999998053501
 31
0.0
  0
LINE
  5
10BE
330
2
100
AcDbEntity
  8
0
  6
Continuous
 62
     7
100
AcDbLine
 10
51.49997661763699
 20
3357.999998053501
 30
0.0
 11
51.49997661328961
 21
3227.999998051911
 31
0.0
  0
LINE
  5
10BF
330
2
100
AcDbEntity
  8
0
  6
Continuous
 62
     7
100
AcDbLine
 10
51.49997661195448
 20
3187.999998051911
 30
0.0
 11
51.4999765564462
 21
1527.99999805391
 31
0.0
  0
LINE
  5
10C0
330
2
100
AcDbEntity
  8
0
  6
Continuous
 62
     7
100
AcDbLine
 10
51.49997655510379
 20
1487.99999805391
 30
0.0
 11
51.49997655145853
 21
1378.9999980535
 31
0.0
  0
LINE
  5
10C1
330
2
100
AcDbEntity
  8
0
  6
Continuous
 62
     7
100
AcDbLine
 10
14.99997657102722
 20
1378.999998054722
 30
0.0
 11
38.49997655145853
 21
1378.999998053936
 31
0.0
  0
LINE
  5
10C2
330
2
100
AcDbEntity
  8
0
  6
Continuous
 62
     7
100
AcDbLine
 10
14.99997663732574
 20
3357.999998054722
 30
0.0
 11
38.499976617637
 21
3357.999998053936
 31
0.0
  0
LINE
  5
10C3
330
2
100
AcDbEntity
  8
0
  6
Continuous
 62
     4
100
AcDbLine
 10
40.9999765710163
 20
1378.999998053853
 30
0.0
 11
40.99997657057975
 21
1365.999998053852
 31
0.0
  0
LINE
  5
10C4
330
2
100
AcDbEntity
  8
0
  6
Continuous
 62
     4
100
AcDbLine
 10
48.99997657101629
 20
1378.999998053585
 30
0.0
 11
48.99997657058702
 21
1365.999998053583
 31
0.0
  0
LINE
  5
10C5
330
2
100
AcDbEntity
  8
0
  6
Continuous
 62
     4
100
AcDbLine
 10
48.99997657058702
 20
1365.999998053583
 30
0.0
 11
40.99997657057975
 21
1365.999998053852
 31
0.0
  0
LINE
  5
10C6
330
2
100
AcDbEntity
  8
0
  6
Continuous
 62
     7
100
AcDbLine
 10
40.99997656916821
 20
1362.49999805705
 30
0.0
 11
40.99997656894628
 21
1365.999998053852
 31
0.0
  0
CIRCLE
  5
10C7
330
2
100
AcDbEntity
  8
0
  6
Continuous
 62
     7
100
AcDbCircle
 10
24.99997656762935
 20
1367.999998055001
 30
0.0
 40
2.000000000000223
  0
LINE
  5
10C8
330
2
100
AcDbEntity
  8
0
  6
Continuous
 62
     7
100
AcDbLine
 10
23.49997656757478
 20
1368.866023458689
 30
0.0
 11
24.99997656751657
 21
1369.732048862569
 31
0.0
  0
LINE
  5
10C9
330
2
100
AcDbEntity
  8
0
  6
Continuous
 62
     7
100
AcDbLine
 10
23.49997656768755
 20
1367.133972651119
 30
0.0
 11
23.49997656757478
 21
1368.866023458689
 31
0.0
  0
LINE
  5
10CA
330
2
100
AcDbEntity
  8
0
  6
Continuous
 62
     7
100
AcDbLine
 10
24.99997656773485
 20
1366.26794724743
 30
0.0
 11
23.49997656768755
 21
1367.133972651119
 31
0.0
  0
LINE
  5
10CB
330
2
100
AcDbEntity
  8
0
  6
Continuous
 62
     7
100
AcDbLine
 10
26.49997656768756
 20
1367.133972651312
 30
0.0
 11
24.99997656773485
 21
1366.26794724743
 31
0.0
  0
LINE
  5
10CC
330
2
100
AcDbEntity
  8
0
  6
Continuous
 62
     7
100
AcDbLine
 10
26.49997656757479
 20
1368.86602345888
 30
0.0
 11
26.49997656768756
 21
1367.133972651312
 31
0.0
  0
LINE
  5
10CD
330
2
100
AcDbEntity
  8
0
  6
Continuous
 62
     7
100
AcDbLine
 10
24.99997656751657
 20
1369.732048862569
 30
0.0
 11
26.49997656757479
 21
1368.86602345888
 31
0.0
  0
LINE
  5
10CE
330
2
100
AcDbEntity
  8
0
  6
Continuous
 62
     9
100
AcDbLine
 10
4.999976567036355
 20
1376.999998054732
 30
0.0
 11
6.999976567036355
 21
1376.999998054859
 31
0.0
  0
LINE
  5
10CF
330
2
100
AcDbEntity
  8
0
  6
Continuous
 62
     7
100
AcDbLine
 10
4.999976567036355
 20
1377.999998054733
 30
0.0
 11
6.999976567036355
 21
1377.99999805486
 31
0.0
  0
LINE
  5
10D0
330
2
100
AcDbEntity
  8
0
  6
Continuous
 62
     9
100
AcDbLine
 10
4.999976568116834
 20
1359.999998054732
 30
0.0
 11
6.99997656810592
 21
1359.999998054858
 31
0.0
  0
LINE
  5
10D1
330
2
100
AcDbEntity
  8
0
  6
Continuous
 62
     7
100
AcDbLine
 10
4.999976568244163
 20
1358.999998054732
 30
0.0
 11
6.999976568244163
 21
1358.99999805486
 31
0.0
  0
LINE
  5
10D2
330
2
100
AcDbEntity
  8
0
  6
Continuous
 62
     7
100
AcDbLine
 10
58.49997656802953
 20
1371.999998085523
 30
0.0
 11
58.49997656801861
 21
1363.999998085523
 31
0.0
  0
LINE
  5
10D3
330
2
100
AcDbEntity
  8
0
  6
Continuous
 62
     7
100
AcDbLine
 10
50.49997656801861
 20
1364.999998085544
 30
0.0
 11
50.49997656802953
 21
1370.999998085543
 31
0.0
  0
LINE
  5
10D4
330
2
100
AcDbEntity
  8
0
  6
Continuous
 62
     7
100
AcDbLine
 10
36.49997656700362
 20
1376.499998056757
 30
0.0
 11
36.49997656703636
 21
1375.99999805676
 31
0.0
  0
LINE
  5
10D5
330
2
100
AcDbEntity
  8
0
  6
Continuous
 62
     7
100
AcDbLine
 10
36.49997656703636
 20
1375.99999805676
 30
0.0
 11
36.49997656805499
 21
1359.999998056771
 31
0.0
  0
LINE
  5
10D6
330
2
100
AcDbEntity
  8
0
  6
Continuous
 62
     7
100
AcDbLine
 10
36.49997656805499
 20
1359.999998056771
 30
0.0
 11
36.49997656818596
 21
1357.999998056763
 31
0.0
  0
ARC
  5
10D7
330
2
100
AcDbEntity
  8
0
  6
Continuous
 62
     7
100
AcDbCircle
 10
34.99997656700362
 20
1376.49999805666
 30
0.0
 40
1.500000000000054
100
AcDbArc
 50
0.0000000036607421
 51
90.00000000375194
  0
LINE
  5
10D8
330
2
100
AcDbEntity
  8
0
  6
Continuous
 62
     7
100
AcDbLine
 10
34.99997656690539
 20
1377.99999805666
 30
0.0
 11
34.49997656690539
 21
1377.999998056628
 31
0.0
  0
LINE
  5
10D9
330
2
100
AcDbEntity
  8
0
  6
Continuous
 62
     7
100
AcDbLine
 10
34.49997656690539
 20
1377.999998056628
 30
0.0
 11
16.49997656690539
 21
1377.999998055475
 31
0.0
  0
LINE
  5
10DA
330
2
100
AcDbEntity
  8
0
  6
Continuous
 62
     7
100
AcDbLine
 10
16.49997656690539
 20
1377.999998055475
 30
0.0
 11
16.49997656683626
 21
1378.99999805467
 31
0.0
  0
ARC
  5
10DB
330
2
100
AcDbEntity
  8
0
  6
Continuous
 62
     7
100
AcDbCircle
 10
36.49997656693449
 20
1377.499998056757
 30
0.0
 40
2.999999999997418
100
AcDbArc
 50
0.0000000036737697
 51
29.99999993735738
  0
LINE
  5
10DC
330
2
100
AcDbEntity
  8
0
  6
Continuous
 62
     7
100
AcDbLine
 10
39.49997656799678
 20
1360.999998056954
 30
0.0
 11
39.49997656694541
 21
1377.499998056949
 31
0.0
  0
LINE
  5
10DD
330
2
100
AcDbEntity
  8
0
  6
Continuous
 62
     7
100
AcDbLine
 10
51.49997656799677
 20
1360.999998057723
 30
0.0
 11
39.49997656799678
 21
1360.999998056954
 31
0.0
  0
LINE
  5
10DE
330
2
100
AcDbEntity
  8
0
  6
Continuous
 62
     7
100
AcDbLine
 10
51.49997656703636
 20
1375.999998057718
 30
0.0
 11
51.49997656799677
 21
1360.999998057723
 31
0.0
  0
LINE
  5
10DF
330
2
100
AcDbEntity
  8
0
  6
Continuous
 62
     7
100
AcDbLine
 10
53.49997656703635
 20
1375.999998057845
 30
0.0
 11
51.49997656703636
 21
1375.999998057718
 31
0.0
  0
ARC
  5
10E0
330
2
100
AcDbEntity
  8
0
  6
Continuous
 62
     7
100
AcDbCircle
 10
53.49997656722917
 20
1372.999998057847
 30
0.0
 40
3.000000000000113
100
AcDbArc
 50
0.0000000036737697
 51
90.00000000375194
  0
LINE
  5
10E1
330
2
100
AcDbEntity
  8
0
  6
Continuous
 62
     7
100
AcDbLine
 10
56.49997656818595
 20
1357.999998058044
 30
0.0
 11
56.49997656722915
 21
1372.999998058039
 31
0.0
  0
LINE
  5
10E2
330
2
100
AcDbEntity
  8
0
  6
Continuous
 62
     7
100
AcDbLine
 10
15.49997656818596
 20
1357.999998055415
 30
0.0
 11
15.49997656690539
 21
1377.999998055414
 31
0.0
  0
LINE
  5
10E3
330
2
100
AcDbEntity
  8
0
  6
Continuous
 62
     7
100
AcDbLine
 10
34.49997656690539
 20
1377.999998056631
 30
0.0
 11
16.49997656690539
 21
1377.999998055478
 31
0.0
  0
LINE
  5
10E4
330
2
100
AcDbEntity
  8
0
  6
Continuous
 62
     7
100
AcDbLine
 10
16.49997656690539
 20
1377.999998055478
 30
0.0
 11
15.49997656690539
 21
1377.999998055414
 31
0.0
  0
ARC
  5
10E5
330
2
100
AcDbEntity
  8
0
  6
Continuous
 62
     7
100
AcDbCircle
 10
34.49997656702908
 20
1375.999998056632
 30
0.0
 40
2.000000000002444
100
AcDbArc
 50
0.0000000036737697
 51
90.00000000375194
  0
LINE
  5
10E6
330
2
100
AcDbEntity
  8
0
  6
Continuous
 62
     7
100
AcDbLine
 10
36.49997656805499
 20
1359.99999805676
 30
0.0
 11
36.49997656703636
 21
1375.99999805676
 31
0.0
  0
ARC
  5
10E7
330
2
100
AcDbEntity
  8
0
  6
Continuous
 62
     7
100
AcDbCircle
 10
34.49997656805499
 20
1359.999998056631
 30
0.0
 40
1.999999999999779
100
AcDbArc
 50
270.0000000037519
 51
0.0000000036607421
  0
ARC
  5
10E8
330
2
100
AcDbEntity
  8
0
  6
Continuous
 62
     7
100
AcDbCircle
 10
24.99997656754568
 20
1367.999998056022
 30
0.0
 40
2.999999999999669
100
AcDbArc
 50
180.0000000036607
 51
270.0000000037519
  0
ARC
  5
10E9
330
2
100
AcDbEntity
  8
0
  6
Continuous
 62
     7
100
AcDbCircle
 10
24.99997656754568
 20
1367.999998056022
 30
0.0
 40
3.000000000000113
100
AcDbArc
 50
270.0000000037519
 51
180.0000000036737
  0
CIRCLE
  5
10EA
330
2
100
AcDbEntity
  8
0
  6
Continuous
 62
     7
100
AcDbCircle
 10
24.99997656757479
 20
1367.999998056022
 30
0.0
 40
2.499999999999944
  0
LINE
  5
10EB
330
2
100
AcDbEntity
  8
0
  6
Continuous
 62
     7
100
AcDbLine
 10
1.499976568185956
 20
1357.999998054516
 30
0.0
 11
1.499976566905388
 21
1377.999998054517
 31
0.0
  0
LINE
  5
10EC
330
2
100
AcDbEntity
  8
0
  6
Continuous
 62
     7
100
AcDbLine
 10
4.999976568185957
 20
1357.999998054741
 30
0.0
 11
4.999976566905387
 21
1377.999998054741
 31
0.0
  0
LINE
  5
10ED
330
2
100
AcDbEntity
  8
0
  6
Continuous
 62
     7
100
AcDbLine
 10
4.999976566905387
 20
1377.999998054741
 30
0.0
 11
1.499976566905388
 21
1377.999998054517
 31
0.0
  0
LINE
  5
10EE
330
2
100
AcDbEntity
  8
0
  6
Continuous
 62
     7
100
AcDbLine
 10
2.999976755720126
 20
1357.999998054612
 30
0.0
 11
1.499976568185956
 21
1357.999998054516
 31
0.0
  0
LINE
  5
10EF
330
2
100
AcDbEntity
  8
0
  6
Continuous
 62
     7
100
AcDbLine
 10
15.49997656913911
 20
1377.999998055414
 30
0.0
 11
14.9999765709872
 21
1377.999998055381
 31
0.0
  0
LINE
  5
10F0
330
2
100
AcDbEntity
  8
0
  6
Continuous
 62
     4
100
AcDbLine
 10
6.999976570328726
 20
1357.999998054989
 30
0.0
 11
6.999976637325744
 21
3357.99999805499
 31
0.0
  0
LINE
  5
10F1
330
2
100
AcDbEntity
  8
0
  6
Continuous
 62
     4
100
AcDbLine
 10
14.99997657032873
 20
1357.999998054722
 30
0.0
 11
14.99997663732574
 21
3357.999998054722
 31
0.0
  0
LINE
  5
10F2
330
2
100
AcDbEntity
  8
0
  6
Continuous
 62
     4
100
AcDbLine
 10
6.999976570328726
 20
1357.999998054989
 30
0.0
 11
8.240575137955602
 21
1357.999998054949
 31
0.0
  0
LINE
  5
10F3
330
2
100
AcDbEntity
  8
0
  6
Continuous
 62
     4
100
AcDbLine
 10
8.240575137955602
 20
1357.999998054949
 30
0.0
 11
14.99997657032873
 21
1357.999998054722
 31
0.0
  0
LINE
  5
10F4
330
2
100
AcDbEntity
  8
0
  6
Continuous
 62
     4
100
AcDbLine
 10
6.999976637325744
 20
3357.99999805499
 30
0.0
 11
14.99997663732574
 21
3357.999998054722
 31
0.0
  0
LINE
  5
10F5
330
2
100
AcDbEntity
  8
0
  6
Continuous
 62
     7
100
AcDbLine
 10
802.9999767557164
 20
1357.999998105873
 30
0.0
 11
14.99997657032873
 21
1357.999998055382
 31
0.0
  0
LINE
  5
10F6
330
2
100
AcDbEntity
  8
0
  6
Continuous
 62
     7
100
AcDbLine
 10
14.99997657032873
 20
1357.999998055382
 30
0.0
 11
8.240575137955602
 21
1357.999998054949
 31
0.0
  0
LINE
  5
10F7
330
2
100
AcDbEntity
  8
0
  6
Continuous
 62
     7
100
AcDbLine
 10
8.240575137955602
 20
1357.999998054949
 30
0.0
 11
6.999976570328726
 21
1357.999998054869
 31
0.0
  0
LINE
  5
10F8
330
2
100
AcDbEntity
  8
0
  6
Continuous
 62
     7
100
AcDbLine
 10
6.999976570328726
 20
1357.999998054869
 30
0.0
 11
2.999976755720126
 21
1357.999998054612
 31
0.0
  0
LINE
  5
10F9
330
2
100
AcDbEntity
  8
0
  6
Continuous
 62
     7
100
AcDbLine
 10
802.9999767589178
 20
1307.999998105873
 30
0.0
 11
802.9999767557164
 21
1357.999998105873
 31
0.0
  0
LINE
  5
10FA
330
2
100
AcDbEntity
  8
0
  6
Continuous
 62
     7
100
AcDbLine
 10
2.99997675891791
 20
1307.999998054613
 30
0.0
 11
2.999976755720126
 21
1357.999998054612
 31
0.0
  0
LINE
  5
10FB
330
2
100
AcDbEntity
  8
0
  6
Continuous
 62
     7
100
AcDbLine
 10
802.9999767589178
 20
1307.999998105873
 30
0.0
 11
2.99997675891791
 21
1307.999998054613
 31
0.0
  0
LINE
  5
10FC
330
2
100
AcDbEntity
  8
0
  6
Continuous
 62
     9
100
AcDbLine
 10
30.49997663573959
 20
3310.499998054206
 30
0.0
 11
29.29999660749672
 21
3310.499998054246
 31
0.0
  0
LINE
  5
10FD
330
2
100
AcDbEntity
  8
0
  6
Continuous
 62
     9
100
AcDbLine
 10
29.29999660732574
 20
3305.499998054244
 30
0.0
 11
30.4999766355686
 21
3305.499998054205
 31
0.0
  0
LINE
  5
10FE
330
2
100
AcDbEntity
  8
0
  6
Continuous
 62
     9
100
AcDbLine
 10
30.89997662179303
 20
3327.736712666109
 30
0.0
 11
30.89997662179303
 21
3327.749998071802
 31
0.0
  0
LINE
  5
10FF
330
2
100
AcDbEntity
  8
0
  6
Continuous
 62
     9
100
AcDbLine
 10
25.89997662179303
 20
3327.749998071968
 30
0.0
 11
25.89997662179303
 21
3327.736769443813
 31
0.0
  0
LINE
  5
1100
330
2
100
AcDbEntity
  8
0
  6
Continuous
 62
     9
100
AcDbLine
 10
58.49997656802953
 20
1371.374998085524
 30
0.0
 11
56.4999765673274
 21
1371.374998085528
 31
0.0
  0
LINE
  5
1101
330
2
100
AcDbEntity
  8
0
  6
Continuous
 62
     9
100
AcDbLine
 10
51.4999765673274
 20
1371.374998085541
 30
0.0
 11
50.87497656802953
 21
1371.374998085541
 31
0.0
  0
LINE
  5
1102
330
2
100
AcDbEntity
  8
0
  6
Continuous
 62
     9
100
AcDbLine
 10
50.87497656801861
 20
1364.624998085543
 30
0.0
 11
51.49997656777123
 21
1364.624998085541
 31
0.0
  0
LINE
  5
1103
330
2
100
AcDbEntity
  8
0
  6
Continuous
 62
     9
100
AcDbLine
 10
56.49997656777123
 20
1364.624998085529
 30
0.0
 11
58.49997656801861
 21
1364.624998085523
 31
0.0
  0
LINE
  5
1104
330
2
100
AcDbEntity
  8
0
  6
Continuous
 62
     9
100
AcDbLine
 10
31.39997161179053
 20
3327.618949404072
 30
0.0
 11
31.39997161179053
 21
3327.619124914129
 31
0.0
  0
LINE
  5
1105
330
2
100
AcDbEntity
  8
0
  6
Continuous
 62
     7
100
AcDbLine
 10
51.49997661494854
 20
3277.499998053535
 30
0.0
 11
55.69997663617686
 21
3277.499998053535
 31
0.0
  0
LINE
  5
1106
330
2
100
AcDbEntity
  8
0
  6
Continuous
 62
     7
100
AcDbLine
 10
55.69997663617686
 20
3302.499998053536
 30
0.0
 11
51.49997661578891
 21
3302.499998053536
 31
0.0
  0
LINE
  5
1107
330
2
100
AcDbEntity
  8
0
  6
Continuous
 62
     7
100
AcDbLine
 10
55.69997663617686
 20
3277.499998053535
 30
0.0
 11
55.99997663617978
 21
3277.799998053534
 31
0.0
  0
LINE
  5
1108
330
2
100
AcDbEntity
  8
0
  6
Continuous
 62
     7
100
AcDbLine
 10
55.99997663617978
 20
3302.199998053534
 30
0.0
 11
55.69997663617686
 21
3302.499998053536
 31
0.0
  0
LINE
  5
1109
330
2
100
AcDbEntity
  8
0
  6
Continuous
 62
     7
100
AcDbLine
 10
51.49997661621818
 20
3315.499998053598
 30
0.0
 11
55.69997663617686
 21
3315.499998053598
 31
0.0
  0
LINE
  5
110A
330
2
100
AcDbEntity
  8
0
  6
Continuous
 62
     7
100
AcDbLine
 10
55.69997663617686
 20
3340.4999980536
 30
0.0
 11
51.49997661705857
 21
3340.4999980536
 31
0.0
  0
LINE
  5
110B
330
2
100
AcDbEntity
  8
0
  6
Continuous
 62
     7
100
AcDbLine
 10
55.69997663617686
 20
3315.499998053598
 30
0.0
 11
55.99997663617978
 21
3315.799998053598
 31
0.0
  0
LINE
  5
110C
330
2
100
AcDbEntity
  8
0
  6
Continuous
 62
     7
100
AcDbLine
 10
55.99997663617978
 20
3340.199998053599
 30
0.0
 11
55.69997663617686
 21
3340.4999980536
 31
0.0
  0
LINE
  5
110D
330
2
100
AcDbEntity
  8
0
  6
Continuous
 62
     7
100
AcDbLine
 10
5.99997663524482
 20
3295.999998055027
 30
0.0
 11
6.999976635255733
 21
3295.999998054993
 31
0.0
  0
LINE
  5
110E
330
2
100
AcDbEntity
  8
0
  6
Continuous
 62
     7
100
AcDbLine
 10
6.999976636056089
 20
3319.999998054994
 30
0.0
 11
5.999976636056089
 21
3319.999998055028
 31
0.0
  0
LINE
  5
110F
330
2
100
AcDbEntity
  8
0
  6
Continuous
 62
     7
100
AcDbLine
 10
5.999976636074278
 20
3320.499998055026
 30
0.0
 11
0.29997663607719
 21
3320.49999805522
 31
0.0
  0
LINE
  5
1110
330
2
100
AcDbEntity
  8
0
  6
Continuous
 62
     7
100
AcDbLine
 10
0.2999766352368169
 20
3295.499998055217
 30
0.0
 11
5.999976635237543
 21
3295.499998055026
 31
0.0
  0
LINE
  5
1111
330
2
100
AcDbEntity
  8
0
  6
Continuous
 62
     7
100
AcDbLine
 10
0.29997663607719
 20
3320.49999805522
 30
0.0
 11
-0.0000233639329963
 21
3320.199998055227
 31
0.0
  0
LINE
  5
1112
330
2
100
AcDbEntity
  8
0
  6
Continuous
 62
     7
100
AcDbLine
 10
-0.0000233647551795
 20
3295.799998055227
 30
0.0
 11
0.2999766352368169
 21
3295.499998055217
 31
0.0
  0
LINE
  5
1113
330
2
100
AcDbEntity
  8
0
  6
Continuous
 62
     7
100
AcDbLine
 10
29.99997663575414
 20
3310.999998054223
 30
0.0
 11
29.2999959699373
 21
3310.999998054246
 31
0.0
  0
LINE
  5
1114
330
2
100
AcDbEntity
  8
0
  6
Continuous
 62
     7
100
AcDbLine
 10
29.29999596994822
 20
3304.999998054246
 30
0.0
 11
29.99997663555405
 21
3304.999998054222
 31
0.0
  0
LINE
  5
1115
330
2
100
AcDbEntity
  8
0
  6
Continuous
 62
     7
100
AcDbLine
 10
29.99997663555405
 20
3304.999998054222
 30
0.0
 11
30.4999766355686
 21
3305.499998054205
 31
0.0
  0
LINE
  5
1116
330
2
100
AcDbEntity
  8
0
  6
Continuous
 62
     7
100
AcDbLine
 10
30.4999766355686
 20
3305.499998054205
 30
0.0
 11
30.99997663558679
 21
3305.99999805419
 31
0.0
  0
LINE
  5
1117
330
2
100
AcDbEntity
  8
0
  6
Continuous
 62
     7
100
AcDbLine
 10
30.99997663572868
 20
3309.999998054189
 30
0.0
 11
30.49997663573959
 21
3310.499998054206
 31
0.0
  0
LINE
  5
1118
330
2
100
AcDbEntity
  8
0
  6
Continuous
 62
     7
100
AcDbLine
 10
30.49997663573959
 20
3310.499998054206
 30
0.0
 11
29.99997663575414
 21
3310.999998054223
 31
0.0
  0
LINE
  5
1119
330
2
100
AcDbEntity
  8
0
  6
Continuous
 62
     7
100
AcDbLine
 10
16.49997663676913
 20
3320.499998055473
 30
0.0
 11
14.99997663676913
 21
3320.499998055608
 31
0.0
  0
LINE
  5
111A
330
2
100
AcDbEntity
  8
0
  6
Continuous
 62
     7
100
AcDbLine
 10
14.99997663454633
 20
3295.499998055606
 30
0.0
 11
16.49997663454633
 21
3295.499998055473
 31
0.0
  0
LINE
  5
111B
330
2
100
AcDbEntity
  8
0
  6
Continuous
 62
     7
100
AcDbLine
 10
16.49997663454633
 20
3295.499998055473
 30
0.0
 11
17.99997663503745
 21
3300.99999805534
 31
0.0
  0
LINE
  5
111C
330
2
100
AcDbEntity
  8
0
  6
Continuous
 62
     7
100
AcDbLine
 10
17.99997663627801
 20
3314.99999805534
 30
0.0
 11
16.49997663676913
 21
3320.499998055473
 31
0.0
  0
LINE
  5
111D
330
2
100
AcDbEntity
  8
0
  6
Continuous
 62
     7
100
AcDbLine
 10
20.85778833981749
 20
3314.999998055086
 30
0.0
 11
17.99997663627801
 21
3314.99999805534
 31
0.0
  0
LINE
  5
111E
330
2
100
AcDbEntity
  8
0
  6
Continuous
 62
     7
100
AcDbLine
 10
17.99997663503745
 20
3300.99999805534
 30
0.0
 11
20.85812953338609
 21
3300.999998055087
 31
0.0
  0
LINE
  5
111F
330
2
100
AcDbEntity
  8
0
  6
Continuous
 62
     7
100
AcDbLine
 10
27.34997662141906
 20
3318.299998071988
 30
0.0
 11
27.64997662147653
 21
3317.99999807191
 31
0.0
  0
LINE
  5
1120
330
2
100
AcDbEntity
  8
0
  6
Continuous
 62
     7
100
AcDbLine
 10
29.14997662147653
 20
3317.999998071858
 30
0.0
 11
29.44997662154492
 21
3318.299998071915
 31
0.0
  0
LINE
  5
1121
330
2
100
AcDbEntity
  8
0
  6
Continuous
 62
     7
100
AcDbLine
 10
30.89997662164751
 20
3327.749998071876
 30
0.0
 11
30.39997662180395
 21
3327.99999807182
 31
0.0
  0
LINE
  5
1122
330
2
100
AcDbEntity
  8
0
  6
Continuous
 62
     7
100
AcDbLine
 10
26.39997662180395
 20
3327.999998071952
 30
0.0
 11
25.89997663618851
 21
3327.749998079161
 31
0.0
  0
LINE
  5
1123
330
2
100
AcDbEntity
  8
0
  6
Continuous
 62
     7
100
AcDbLine
 10
28.29997660725712
 20
3303.549998054275
 30
0.0
 11
29.29997660727895
 21
3304.127348323431
 31
0.0
  0
LINE
  5
1124
330
2
100
AcDbEntity
  8
0
  6
Continuous
 62
     7
100
AcDbLine
 10
29.29997660753725
 20
3311.872647785052
 30
0.0
 11
28.29997660755545
 21
3312.449998054275
 31
0.0
  0
LINE
  5
1125
330
2
100
AcDbEntity
  8
0
  6
Continuous
 62
     7
100
AcDbLine
 10
21.15791198112856
 20
3303.549998054516
 30
0.0
 11
28.29997660725712
 21
3303.549998054275
 31
0.0
  0
LINE
  5
1126
330
2
100
AcDbEntity
  8
0
  6
Continuous
 62
     7
100
AcDbLine
 10
28.29997660755545
 20
3312.449998054275
 30
0.0
 11
21.15791198142688
 21
3312.449998054515
 31
0.0
  0
LINE
  5
1127
330
2
100
AcDbEntity
  8
0
  6
Continuous
 62
     7
100
AcDbLine
 10
19.99997657208587
 20
1507.999998054618
 30
0.0
 11
19.99997657141648
 21
1487.999998054618
 31
0.0
  0
LINE
  5
1128
330
2
100
AcDbEntity
  8
0
  6
Continuous
 62
     7
100
AcDbLine
 10
19.99997663229805
 20
3207.999998052623
 30
0.0
 11
19.99997663162867
 21
3187.999998052623
 31
0.0
  0
LINE
  5
1129
330
2
100
AcDbEntity
  8
0
  6
Continuous
 62
     7
100
AcDbLine
 10
51.12221632651927
 20
1360.999998057699
 30
0.0
 11
51.12221632662841
 21
1364.377758326925
 31
0.0
  0
LINE
  5
112A
330
2
100
AcDbEntity
  8
0
  6
Continuous
 62
     7
100
AcDbLine
 10
51.12221632687578
 20
1371.622237844383
 30
0.0
 11
51.12221632712681
 21
1378.999998053514
 31
0.0
  0
LINE
  5
112B
330
2
100
AcDbEntity
  8
0
  6
Continuous
 62
     7
100
AcDbLine
 10
39.49997656917549
 20
1362.499998056954
 30
0.0
 11
40.99997656916821
 21
1362.49999805705
 31
0.0
  0
LINE
  5
112C
330
2
100
AcDbEntity
  8
0
  6
Continuous
 62
     7
100
AcDbLine
 10
40.99997656846972
 20
1373.499998057049
 30
0.0
 11
39.49997656846972
 21
1373.499998056954
 31
0.0
  0
LINE
  5
112D
330
2
100
AcDbEntity
  8
0
  6
Continuous
 62
     7
100
AcDbLine
 10
15.49997656719279
 20
1373.499998055448
 30
0.0
 11
14.99997657084532
 21
1373.499998055384
 31
0.0
  0
LINE
  5
112E
330
2
100
AcDbEntity
  8
0
  6
Continuous
 62
     7
100
AcDbLine
 10
14.99997657047424
 20
1362.499998055383
 30
0.0
 11
15.49997656789855
 21
1362.499998055447
 31
0.0
  0
LINE
  5
112F
330
2
100
AcDbEntity
  8
0
  6
Continuous
 62
     7
100
AcDbLine
 10
58.49997656802953
 20
1371.999998085523
 30
0.0
 11
56.49997656728737
 21
1371.999998085528
 31
0.0
  0
LINE
  5
1130
330
2
100
AcDbEntity
  8
0
  6
Continuous
 62
     7
100
AcDbLine
 10
56.49997656780396
 20
1363.999998085528
 30
0.0
 11
58.49997656801861
 21
1363.999998085523
 31
0.0
  0
LINE
  5
1131
330
2
100
AcDbEntity
  8
0
  6
Continuous
 62
     7
100
AcDbLine
 10
51.49997656804043
 20
1371.999998085541
 30
0.0
 11
50.87497656802953
 21
1371.374998085541
 31
0.0
  0
LINE
  5
1132
330
2
100
AcDbEntity
  8
0
  6
Continuous
 62
     7
100
AcDbLine
 10
50.87497656802953
 20
1371.374998085541
 30
0.0
 11
50.49997656802953
 21
1370.999998085543
 31
0.0
  0
LINE
  5
1133
330
2
100
AcDbEntity
  8
0
  6
Continuous
 62
     7
100
AcDbLine
 10
50.49997656801861
 20
1364.999998085544
 30
0.0
 11
50.87497656801861
 21
1364.624998085543
 31
0.0
  0
LINE
  5
1134
330
2
100
AcDbEntity
  8
0
  6
Continuous
 62
     7
100
AcDbLine
 10
50.87497656801861
 20
1364.624998085543
 30
0.0
 11
51.49997656801861
 21
1363.999998085541
 31
0.0
  0
TEXT
  5
1150
330
2
100
AcDbEntity
  8
0
 62
     7
100
AcDbText
 10
1742.702128383607
 20
3534.87750644075
 30
0.0
 40
200.0
  1
BZ03
 41
0.9
100
AcDbText
1001
ACAD
1000
MTEXTBEGIN
1070
    73
1070
     1
1070
    44
1040
1.0
1070
    74
1070
     0
1000
MTEXTEND
  0
ARC
  5
1153
330
2
100
AcDbEntity
  8
0
  6
Continuous
 62
     7
100
AcDbCircle
 10
2521.682871271027
 20
7.78017152229251
 30
0.0
 40
13.09215855337722
100
AcDbArc
 50
93.48416375578127
 51
128.6838435998626
  0
ARC
  5
1154
330
2
100
AcDbEntity
  8
0
  6
Continuous
 62
     7
100
AcDbCircle
 10
2518.740879932068
 20
6.76402121380816
 30
0.0
 40
14.24671713431534
100
AcDbArc
 50
52.06151427965379
 51
81.33508529420918
  0
ARC
  5
1155
330
2
100
AcDbEntity
  8
0
  6
Continuous
 62
     7
100
AcDbCircle
 10
2021.635673106402
 20
7.908078210855611
 30
0.0
 40
12.96286871045918
100
AcDbArc
 50
93.3999306654166
 51
128.8742594804402
  0
ARC
  5
1156
330
2
100
AcDbEntity
  8
0
  6
Continuous
 62
     7
100
AcDbCircle
 10
2018.676188897372
 20
6.598204749256078
 30
0.0
 40
14.41733843948543
100
AcDbArc
 50
52.2639848556619
 51
81.26003281721002
  0
ENDSEC
  0
SECTION
  2
OBJECTS
  0
DICTIONARY
  5
7
330
0
100
AcDbDictionary
281
     1
  3
ACAD_COLOR
350
65C
  3
ACAD_GROUP
350
20
  3
ACAD_LAYOUT
350
B
  3
ACAD_MATERIAL
350
632
  3
ACAD_MLEADERSTYLE
350
681
  3
ACAD_MLINESTYLE
350
21
  3
ACAD_PLOTSETTINGS
350
22
  3
ACAD_PLOTSTYLENAME
350
6
  3
ACAD_SCALELIST
350
65F
  3
ACAD_TABLESTYLE
350
65D
  3
ACAD_VISUALSTYLE
350
64B
  3
ACDB_RECOMPOSE_DATA
350
6A0
  3
AcDbVariableDictionary
350
6A1
  3
ASE_INDEX_DICTIONARY
350
69B
  3
DWGPROPS
350
1158
  0
DICTIONARY
  5
68A
330
4
100
AcDbDictionary
280
     1
281
     1
  3
ADSK_XREC_LAYER_RECONCILED
360
68B
  0
DICTIONARY
  5
1151
330
2
100
AcDbDictionary
280
     1
281
     1
  3
ACAD_SORTENTS
360
1152
  0
DICTIONARY
  5
65C
102
{ACAD_REACTORS
330
7
102
}
330
7
100
AcDbDictionary
281
     1
  0
DICTIONARY
  5
20
102
{ACAD_REACTORS
330
7
102
}
330
7
100
AcDbDictionary
281
     1
  0
DICTIONARY
  5
B
102
{ACAD_REACTORS
330
7
102
}
330
7
100
AcDbDictionary
281
     1
  3
Layout1
350
F
  3
Model
350
A
  0
DICTIONARY
  5
632
102
{ACAD_REACTORS
330
7
102
}
330
7
100
AcDbDictionary
281
     1
  3
ByBlock
350
63B
  3
ByLayer
350
633
  3
Global
350
643
  0
DICTIONARY
  5
681
102
{ACAD_REACTORS
330
7
102
}
330
7
100
AcDbDictionary
281
     1
  3
Standard
350
682
  0
DICTIONARY
  5
21
102
{ACAD_REACTORS
330
7
102
}
330
7
100
AcDbDictionary
281
     1
  3
Standard
350
23
  0
DICTIONARY
  5
22
102
{ACAD_REACTORS
330
7
102
}
330
7
100
AcDbDictionary
281
     1
  0
ACDBDICTIONARYWDFLT
  5
6
102
{ACAD_REACTORS
330
7
102
}
330
7
100
AcDbDictionary
281
     1
  3
Normal
350
5
100
AcDbDictionaryWithDefault
340
5
  0
DICTIONARY
  5
65F
102
{ACAD_REACTORS
330
7
102
}
330
7
100
AcDbDictionary
281
     1
  3
A0
350
660
  3
A1
350
661
  3
A2
350
662
  3
A3
350
663
  3
A4
350
664
  3
A5
350
665
  3
A6
350
666
  3
A7
350
667
  3
A8
350
668
  3
A9
350
669
  3
B0
350
66A
  3
B1
350
66B
  3
B2
350
66C
  3
B3
350
66D
  3
B4
350
66E
  3
B5
350
66F
  3
B6
350
670
  3
B7
350
671
  3
B8
350
672
  3
B9
350
673
  3
C0
350
674
  3
C1
350
675
  3
C2
350
676
  3
C3
350
677
  3
C4
350
678
  3
C5
350
679
  3
C6
350
67A
  3
C7
350
67B
  3
C8
350
67C
  3
C9
350
67D
  3
D0
350
67E
  3
D1
350
67F
  3
D2
350
680
  0
DICTIONARY
  5
65D
102
{ACAD_REACTORS
330
7
102
}
330
7
100
AcDbDictionary
281
     1
  3
Standard
350
65E
  0
DICTIONARY
  5
64B
102
{ACAD_REACTORS
330
7
102
}
330
7
100
AcDbDictionary
281
     1
  3
2dWireframe
350
651
  3
3D Hidden
350
653
  3
3dWireframe
350
652
  3
Basic
350
650
  3
Brighten
350
657
  3
ColorChange
350
65B
  3
Conceptual
350
654
  3
Dim
350
656
  3
Facepattern
350
65A
  3
Flat
350
64C
  3
FlatWithEdges
350
64D
  3
Gouraud
350
64E
  3
GouraudWithEdges
350
64F
  3
Linepattern
350
659
  3
Realistic
350
655
  3
Thicken
350
658
  0
XRECORD
  5
6A0
102
{ACAD_REACTORS
330
7
102
}
330
7
100
AcDbXrecord
280
     1
 90
        1
330
65E
  0
DICTIONARY
  5
6A1
102
{ACAD_REACTORS
330
7
102
}
330
7
100
AcDbDictionary
281
     1
  3
CANNOSCALE
350
6A5
  3
CMLEADERSTYLE
350
6A3
  3
CTABLESTYLE
350
6A2
  3
DIMASSOC
350
113F
  3
INDEXCTL
350
113E
  3
LIGHTINGUNITS
350
6A6
  3
MSLTSCALE
350
6A4
  3
SORTENTS
350
113D
  0
DICTIONARY
  5
69B
102
{ACAD_REACTORS
330
7
102
}
330
7
100
AcDbDictionary
281
     1
  3
ASEBlockHierarchyIndexRecord
350
69D
1001
DCO15
1040
1678078617.738
  0
XRECORD
  5
1158
102
{ACAD_REACTORS
330
7
102
}
330
7
100
AcDbXrecord
280
     1
  1
DWGPROPS COOKIE
  2

  3

  4

  6

  7

  8
renzo.ceresoli
  9

300
=
301
=
302
=
303
=
304
=
305
=
306
=
307
=
308
=
309
=
 40
0.0005626273148148
 41
2455315.367779005
 42
2455315.369964953
  1

 90
        0
  0
XRECORD
  5
68B
102
{ACAD_REACTORS
330
68A
102
}
330
68A
100
AcDbXrecord
280
     1
290
     1
  0
SORTENTSTABLE
  5
1152
102
{ACAD_REACTORS
330
1151
102
}
330
1151
100
AcDbSortentsTable
330
2
331
F58
  5
F5C
331
E50
  5
E54
331
1069
  5
106D
331
F7A
  5
F7E
331
E6A
  5
E6E
331
108B
  5
108F
331
D7B
  5
D7B
331
F9C
  5
FA0
331
E8C
  5
E90
331
D24
  5
D24
331
D02
  5
D02
331
CE9
  5
CE9
331
10AD
  5
10B1
331
D9D
  5
D9D
331
FBE
  5
FC2
331
EAE
  5
EB2
331
D46
  5
D46
331
10C7
  5
10CB
331
DBF
  5
DBF
331
FD8
  5
FDC
331
ED0
  5
ED4
331
D68
  5
D68
331
10E9
  5
10ED
331
FFA
  5
FFE
331
EEA
  5
EEE
331
110B
  5
110F
331
DFB
  5
DFF
331
DE1
  5
DE1
331
101C
  5
1020
331
F0C
  5
F10
331
112D
  5
1131
331
E1D
  5
E21
331
103E
  5
1042
331
F2E
  5
F32
331
CB6
  5
CB6
331
C94
  5
C94
331
C81
  5
C81
331
C5F
  5
C5F
331
C3D
  5
C3D
331
C10
  5
C10
331
E3F
  5
E43
331
1058
  5
105C
331
F50
  5
F54
331
CD8
  5
CD8
331
F69
  5
F6D
331
E61
  5
E65
331
107A
  5
107E
331
F8B
  5
F8F
331
E7B
  5
E7F
331
D13
  5
D13
331
CFA
  5
CFA
331
109C
  5
10A0
331
D8C
  5
D8C
331
FAD
  5
FB1
331
E9D
  5
EA1
331
D35
  5
D35
331
10BE
  5
10C2
331
DAE
  5
DAE
331
FCF
  5
FD3
331
EBF
  5
EC3
331
D57
  5
D57
331
10D8
  5
10DC
331
10FA
  5
10FE
331
FE9
  5
FED
331
1134
  5
1155
331
100B
  5
100F
331
EFB
  5
EFF
331
111C
  5
1120
331
E0C
  5
E10
331
DD0
  5
DD0
331
102D
  5
1031
331
F1D
  5
F21
331
E2E
  5
E32
331
F3F
  5
F43
331
CC7
  5
CC7
331
CA5
  5
CA5
331
C70
  5
C70
331
C4E
  5
C4E
331
C2C
  5
C2C
331
C21
  5
C21
331
BFF
  5
BFF
331
F78
  5
F7C
331
E68
  5
E6C
331
1089
  5
108D
331
D79
  5
D79
331
F9A
  5
F9E
331
E8A
  5
E8E
331
D22
  5
D22
331
D00
  5
D00
331
10AB
  5
10AF
331
D9B
  5
D9B
331
FBC
  5
FC0
331
EAC
  5
EB0
331
D44
  5
D44
331
10C5
  5
10C9
331
DBD
  5
DBD
331
FD6
  5
FDA
331
ECE
  5
ED2
331
D66
  5
D66
331
10E7
  5
10EB
331
FF8
  5
FFC
331
EE8
  5
EEC
331
1109
  5
110D
331
DF9
  5
DFD
331
DDF
  5
DDF
331
101A
  5
101E
331
F0A
  5
F0E
331
112B
  5
112F
331
E1B
  5
E1F
331
103C
  5
1040
331
F2C
  5
F30
331
CB4
  5
CB4
331
C92
  5
C92
331
C7F
  5
C7F
331
C5D
  5
C5D
331
C3B
  5
C3B
331
E3D
  5
E41
331
1056
  5
105A
331
F4E
  5
F52
331
CD6
  5
CD6
331
F67
  5
F6B
331
E5F
  5
E63
331
1078
  5
107C
331
F89
  5
F8D
331
E79
  5
E7D
331
D11
  5
D11
331
CF8
  5
CF8
331
109A
  5
109E
331
D8A
  5
D8A
331
FAB
  5
FAF
331
E9B
  5
E9F
331
D33
  5
D33
331
10BC
  5
10C0
331
DAC
  5
DAC
331
FCD
  5
FD1
331
EBD
  5
EC1
331
D55
  5
D55
331
10D6
  5
10DA
331
DCE
  5
DCE
331
10F8
  5
10FC
331
FE7
  5
FEB
331
EDF
  5
EE3
331
1132
  5
1153
331
1009
  5
100D
331
EF9
  5
EFD
331
111A
  5
111E
331
E0A
  5
E0E
331
D77
  5
D77
331
102B
  5
102F
331
F1B
  5
F1F
331
E2C
  5
E30
331
F3D
  5
F41
331
CC5
  5
CC5
331
CA3
  5
CA3
331
C6E
  5
C6E
331
C4C
  5
C4C
331
C2A
  5
C2A
331
C1F
  5
C1F
331
E4E
  5
E52
331
1067
  5
106B
331
CE7
  5
CE7
331
C0E
  5
C0E
331
BFD
  5
BFD
331
F98
  5
F9C
331
E88
  5
E8C
331
D20
  5
D20
331
10A9
  5
10AD
331
D99
  5
D99
331
FBA
  5
FBE
331
EAA
  5
EAE
331
D42
  5
D42
331
10C3
  5
10C7
331
DBB
  5
DBB
331
FD4
  5
FD8
331
ECC
  5
ED0
331
D64
  5
D64
331
10E5
  5
10E9
331
1107
  5
110B
331
FF6
  5
FFA
331
EE6
  5
EEA
331
DDD
  5
DDD
331
1018
  5
101C
331
F08
  5
F0C
331
1129
  5
112D
331
E19
  5
E1D
331
103A
  5
103E
331
F2A
  5
F2E
331
CB2
  5
CB2
331
C90
  5
C90
331
C7D
  5
C7D
331
C5B
  5
C5B
331
C39
  5
C39
331
E3B
  5
E3F
331
1054
  5
1058
331
F4C
  5
F50
331
CD4
  5
CD4
331
F65
  5
F69
331
E5D
  5
E61
331
1076
  5
107A
331
F87
  5
F8B
331
E77
  5
E7B
331
D0F
  5
D0F
331
CF6
  5
CF6
331
1098
  5
109C
331
D88
  5
D88
331
FA9
  5
FAD
331
E99
  5
E9D
331
D31
  5
D31
331
10BA
  5
10BE
331
DAA
  5
DAA
331
FCB
  5
FCF
331
EBB
  5
EBF
331
D53
  5
D53
331
10D4
  5
10D8
331
DCC
  5
DCC
331
FE5
  5
FE9
331
EDD
  5
EE1
331
D75
  5
D75
331
10F6
  5
10FA
331
DEE
  5
DF0
331
1130
  5
1134
331
1007
  5
100B
331
EF7
  5
EFB
331
1118
  5
111C
331
E08
  5
E0C
331
1029
  5
102D
331
F19
  5
F1D
331
E2A
  5
E2E
331
F3B
  5
F3F
331
CC3
  5
CC3
331
CA1
  5
CA1
331
C8E
  5
C8E
331
C6C
  5
C6C
331
C4A
  5
C4A
331
C28
  5
C28
331
C1D
  5
C1D
331
E4C
  5
E50
331
1065
  5
1069
331
1087
  5
108B
331
F76
  5
F7A
331
CE5
  5
CE5
331
C0C
  5
C0C
331
BFB
  5
BFB
331
FB8
  5
FBC
331
EA8
  5
EAC
331
D40
  5
D40
331
10C1
  5
10C5
331
DB9
  5
DB9
331
FD2
  5
FD6
331
ECA
  5
ECE
331
D62
  5
D62
331
10E3
  5
10E7
331
1105
  5
1109
331
FF4
  5
FF8
331
EE4
  5
EE8
331
1016
  5
101A
331
F06
  5
F0A
331
1127
  5
112B
331
E17
  5
E1B
331
DDB
  5
DDB
331
1038
  5
103C
331
F28
  5
F2C
331
CB0
  5
CB0
331
C7B
  5
C7B
331
C59
  5
C59
331
E39
  5
E3D
331
1052
  5
1056
331
F4A
  5
F4E
331
CD2
  5
CD2
331
F63
  5
F67
331
E5B
  5
E5F
331
1074
  5
1078
331
F85
  5
F89
331
E75
  5
E79
331
1096
  5
109A
331
D86
  5
D86
331
FA7
  5
FAB
331
E97
  5
E9B
331
D2F
  5
D2F
331
D0D
  5
D0D
331
CF4
  5
CF4
331
10B8
  5
10BC
331
DA8
  5
DA8
331
FC9
  5
FCD
331
EB9
  5
EBD
331
D51
  5
D51
331
10D2
  5
10D6
331
DCA
  5
DCA
331
FE3
  5
FE7
331
EDB
  5
EDF
331
D73
  5
D73
331
10F4
  5
10F8
331
1005
  5
1009
331
EF5
  5
EF9
331
1155
  5
DEE
331
1116
  5
111A
331
E06
  5
E0A
331
1027
  5
102B
331
F17
  5
F1B
331
E28
  5
E2C
331
F39
  5
F3D
331
CC1
  5
CC1
331
C9F
  5
C9F
331
C8C
  5
C8C
331
C6A
  5
C6A
331
C48
  5
C48
331
C1B
  5
C1B
331
E4A
  5
E4E
331
1063
  5
1067
331
1085
  5
1089
331
F74
  5
F78
331
F96
  5
F9A
331
E86
  5
E8A
331
D1E
  5
D1E
331
CE3
  5
CE3
331
10A7
  5
10AB
331
D97
  5
D97
331
C37
  5
C37
331
C0A
  5
C0A
331
BF9
  5
BF9
331
FD0
  5
FD4
331
EC8
  5
ECC
331
D60
  5
D60
331
10E1
  5
10E5
331
1103
  5
1107
331
FF2
  5
FF6
331
EE2
  5
EE6
331
1014
  5
1018
331
1125
  5
1129
331
E15
  5
E19
331
F04
  5
F08
331
DD9
  5
DD9
331
1036
  5
103A
331
F26
  5
F2A
331
CAE
  5
CAE
331
C79
  5
C79
331
E37
  5
E3B
331
1050
  5
1054
331
F48
  5
F4C
331
CD0
  5
CD0
331
F61
  5
F65
331
E59
  5
E5D
331
1072
  5
1076
331
F83
  5
F87
331
E73
  5
E77
331
1094
  5
1098
331
D84
  5
D84
331
FA5
  5
FA9
331
E95
  5
E99
331
D2D
  5
D2D
331
D0B
  5
D0B
331
CF2
  5
CF2
331
10B6
  5
10BA
331
DA6
  5
DA6
331
FC7
  5
FCB
331
EB7
  5
EBB
331
D4F
  5
D4F
331
10D0
  5
10D4
331
DC8
  5
DC8
331
FE1
  5
FE5
331
ED9
  5
EDD
331
D71
  5
D71
331
10F2
  5
10F6
331
1003
  5
1007
331
EF3
  5
EF7
331
1153
  5
DFA
331
1114
  5
1118
331
E04
  5
E08
331
1025
  5
1029
331
F15
  5
F19
331
E26
  5
E2A
331
1047
  5
104B
331
F37
  5
F3B
331
CBF
  5
CBF
331
C9D
  5
C9D
331
C8A
  5
C8A
331
C68
  5
C68
331
C46
  5
C46
331
C19
  5
C19
331
E48
  5
E4C
331
1061
  5
1065
331
1083
  5
1087
331
F72
  5
F76
331
F94
  5
F98
331
E84
  5
E88
331
D1C
  5
D1C
331
CE1
  5
CE1
331
10A5
  5
10A9
331
D95
  5
D95
331
FB6
  5
FBA
331
EA6
  5
EAA
331
D3E
  5
D3E
331
DB7
  5
DB7
331
C57
  5
C57
331
C35
  5
C35
331
C08
  5
C08
331
BF7
  5
BF7
331
FF0
  5
FF4
331
EE0
  5
EE4
331
1101
  5
1105
331
DF1
  5
DF8
331
1012
  5
1016
331
1123
  5
1127
331
E13
  5
E17
331
F02
  5
F06
331
1034
  5
1038
331
F24
  5
F28
331
E35
  5
E39
331
104E
  5
1052
331
F46
  5
F4A
331
CCE
  5
CCE
331
CAC
  5
CAC
331
F5F
  5
F63
331
E57
  5
E5B
331
1070
  5
1074
331
F81
  5
F85
331
E71
  5
E75
331
1092
  5
1096
331
D82
  5
D82
331
FA3
  5
FA7
331
E93
  5
E97
331
D2B
  5
D2B
331
D09
  5
D09
331
CF0
  5
CF0
331
10B4
  5
10B8
331
DA4
  5
DA4
331
FC5
  5
FC9
331
EB5
  5
EB9
331
D4D
  5
D4D
331
10CE
  5
10D2
331
DC6
  5
DC6
331
FDF
  5
FE3
331
ED7
  5
EDB
331
D6F
  5
D6F
331
10F0
  5
10F4
331
1001
  5
1005
331
EF1
  5
EF5
331
1112
  5
1116
331
E02
  5
E06
331
DE8
  5
DE8
331
1023
  5
1027
331
F13
  5
F17
331
E24
  5
E28
331
1045
  5
1049
331
F35
  5
F39
331
CBD
  5
CBD
331
C9B
  5
C9B
331
C88
  5
C88
331
C66
  5
C66
331
C44
  5
C44
331
C17
  5
C17
331
E46
  5
E4A
331
105F
  5
1063
331
F57
  5
F5B
331
1081
  5
1085
331
F70
  5
F74
331
F92
  5
F96
331
E82
  5
E86
331
D1A
  5
D1A
331
CDF
  5
CDF
331
10A3
  5
10A7
331
D93
  5
D93
331
FB4
  5
FB8
331
EA4
  5
EA8
331
D3C
  5
D3C
331
DB5
  5
DB5
331
EC6
  5
ECA
331
D5E
  5
D5E
331
10DF
  5
10E3
331
DD7
  5
DD7
331
C77
  5
C77
331
C55
  5
C55
331
C33
  5
C33
331
C06
  5
C06
331
1010
  5
1014
331
F00
  5
F04
331
1121
  5
1125
331
E11
  5
E15
331
1032
  5
1036
331
F22
  5
F26
331
E33
  5
E37
331
104C
  5
1050
331
F44
  5
F48
331
CCC
  5
CCC
331
CAA
  5
CAA
331
F5D
  5
F61
331
E55
  5
E59
331
106E
  5
1072
331
F7F
  5
F83
331
E6F
  5
E73
331
1090
  5
1094
331
D80
  5
D80
331
FA1
  5
FA5
331
E91
  5
E95
331
D29
  5
D29
331
D07
  5
D07
331
CEE
  5
CEE
331
10B2
  5
10B6
331
DA2
  5
DA2
331
FC3
  5
FC7
331
EB3
  5
EB7
331
D4B
  5
D4B
331
10CC
  5
10D0
331
DC4
  5
DC4
331
FDD
  5
FE1
331
ED5
  5
ED9
331
D6D
  5
D6D
331
10EE
  5
10F2
331
FFF
  5
1003
331
EEF
  5
EF3
331
1110
  5
1114
331
E00
  5
E04
331
DE6
  5
DE6
331
1021
  5
1025
331
F11
  5
F15
331
E22
  5
E26
331
1043
  5
1047
331
F33
  5
F37
331
CBB
  5
CBB
331
C99
  5
C99
331
C86
  5
C86
331
C64
  5
C64
331
C42
  5
C42
331
C15
  5
C15
331
E44
  5
E48
331
105D
  5
1061
331
F55
  5
F59
331
CDD
  5
CDD
331
F6E
  5
F72
331
E66
  5
E6A
331
107F
  5
1083
331
F90
  5
F94
331
E80
  5
E84
331
D18
  5
D18
331
CFF
  5
CFF
331
10A1
  5
10A5
331
D91
  5
D91
331
FB2
  5
FB6
331
EA2
  5
EA6
331
D3A
  5
D3A
331
DB3
  5
DB3
331
EC4
  5
EC8
331
D5C
  5
D5C
331
10DD
  5
10E1
331
10FF
  5
1103
331
FEE
  5
FF2
331
DD5
  5
DD5
331
C75
  5
C75
331
C53
  5
C53
331
C31
  5
C31
331
C26
  5
C26
331
C04
  5
C04
331
1030
  5
1034
331
F20
  5
F24
331
E31
  5
E35
331
104A
  5
104E
331
F42
  5
F46
331
CCA
  5
CCA
331
CA8
  5
CA8
331
F5B
  5
F5F
331
E53
  5
E57
331
106C
  5
1070
331
F7D
  5
F81
331
E6D
  5
E71
331
108E
  5
1092
331
D7E
  5
D7E
331
F9F
  5
FA3
331
E8F
  5
E93
331
D27
  5
D27
331
D05
  5
D05
331
CEC
  5
CEC
331
10B0
  5
10B4
331
DA0
  5
DA0
331
FC1
  5
FC5
331
EB1
  5
EB5
331
D49
  5
D49
331
10CA
  5
10CE
331
DC2
  5
DC2
331
FDB
  5
FDF
331
ED3
  5
ED7
331
D6B
  5
D6B
331
10EC
  5
10F0
331
FFD
  5
1001
331
EED
  5
EF1
331
110E
  5
1112
331
DFE
  5
E02
331
DE4
  5
DE4
331
101F
  5
1023
331
F0F
  5
F13
331
E20
  5
E24
331
1041
  5
1045
331
F31
  5
F35
331
CB9
  5
CB9
331
C97
  5
C97
331
C84
  5
C84
331
C62
  5
C62
331
C40
  5
C40
331
C13
  5
C13
331
E42
  5
E46
331
105B
  5
105F
331
F53
  5
F57
331
CDB
  5
CDB
331
F6C
  5
F70
331
E64
  5
E68
331
107D
  5
1081
331
F8E
  5
F92
331
E7E
  5
E82
331
D16
  5
D16
331
CFD
  5
CFD
331
109F
  5
10A3
331
D8F
  5
D8F
331
FB0
  5
FB4
331
EA0
  5
EA4
331
D38
  5
D38
331
DB1
  5
DB1
331
EC2
  5
EC6
331
D5A
  5
D5A
331
10DB
  5
10DF
331
10FD
  5
1101
331
FEC
  5
FF0
331
100E
  5
1012
331
EFE
  5
F02
331
111F
  5
1123
331
E0F
  5
E13
331
DD3
  5
DD3
331
C73
  5
C73
331
C51
  5
C51
331
C2F
  5
C2F
331
C24
  5
C24
331
C02
  5
C02
331
1048
  5
104C
331
F40
  5
F44
331
CC8
  5
CC8
331
F59
  5
F5D
331
E51
  5
E55
331
106A
  5
106E
331
F7B
  5
F7F
331
E6B
  5
E6F
331
108C
  5
1090
331
D7C
  5
D7C
331
F9D
  5
FA1
331
E8D
  5
E91
331
D25
  5
D25
331
D03
  5
D03
331
CEA
  5
CEA
331
10AE
  5
10B2
331
D9E
  5
D9E
331
FBF
  5
FC3
331
EAF
  5
EB3
331
D47
  5
D47
331
10C8
  5
10CC
331
DC0
  5
DC0
331
FD9
  5
FDD
331
ED1
  5
ED5
331
D69
  5
D69
331
10EA
  5
10EE
331
FFB
  5
FFF
331
EEB
  5
EEF
331
110C
  5
1110
331
DFC
  5
E00
331
DE2
  5
DE2
331
101D
  5
1021
331
F0D
  5
F11
331
112E
  5
1132
331
E1E
  5
E22
331
103F
  5
1043
331
F2F
  5
F33
331
CB7
  5
CB7
331
C95
  5
C95
331
C82
  5
C82
331
C60
  5
C60
331
C3E
  5
C3E
331
C11
  5
C11
331
E40
  5
E44
331
1059
  5
105D
331
F51
  5
F55
331
CD9
  5
CD9
331
F6A
  5
F6E
331
E62
  5
E66
331
107B
  5
107F
331
F8C
  5
F90
331
E7C
  5
E80
331
D14
  5
D14
331
CFB
  5
CFB
331
109D
  5
10A1
331
D8D
  5
D8D
331
FAE
  5
FB2
331
E9E
  5
EA2
331
D36
  5
D36
331
10BF
  5
10C3
331
DAF
  5
DAF
331
EC0
  5
EC4
331
D58
  5
D58
331
10D9
  5
10DD
331
10FB
  5
10FF
331
FEA
  5
FEE
331
100C
  5
1010
331
EFC
  5
F00
331
111D
  5
1121
331
E0D
  5
E11
331
DD1
  5
DD1
331
102E
  5
1032
331
F1E
  5
F22
331
E2F
  5
E33
331
CA6
  5
CA6
331
C71
  5
C71
331
C4F
  5
C4F
331
C2D
  5
C2D
331
C22
  5
C22
331
C00
  5
C00
331
1068
  5
106C
331
F79
  5
F7D
331
E69
  5
E6D
331
108A
  5
108E
331
D7A
  5
D7A
331
F9B
  5
F9F
331
E8B
  5
E8F
331
D23
  5
D23
331
D01
  5
D01
331
CE8
  5
CE8
331
10AC
  5
10B0
331
D9C
  5
D9C
331
FBD
  5
FC1
331
EAD
  5
EB1
331
D45
  5
D45
331
10C6
  5
10CA
331
DBE
  5
DBE
331
FD7
  5
FDB
331
ECF
  5
ED3
331
D67
  5
D67
331
10E8
  5
10EC
331
FF9
  5
FFD
331
EE9
  5
EED
331
110A
  5
110E
331
DFA
  5
DFE
331
DE0
  5
DE0
331
101B
  5
101F
331
F0B
  5
F0F
331
112C
  5
1130
331
E1C
  5
E20
331
103D
  5
1041
331
F2D
  5
F31
331
CB5
  5
CB5
331
C93
  5
C93
331
C80
  5
C80
331
C5E
  5
C5E
331
C3C
  5
C3C
331
E3E
  5
E42
331
1057
  5
105B
331
F4F
  5
F53
331
CD7
  5
CD7
331
F68
  5
F6C
331
E60
  5
E64
331
1079
  5
107D
331
F8A
  5
F8E
331
E7A
  5
E7E
331
D12
  5
D12
331
CF9
  5
CF9
331
109B
  5
109F
331
D8B
  5
D8B
331
FAC
  5
FB0
331
E9C
  5
EA0
331
D34
  5
D34
331
10BD
  5
10C1
331
DAD
  5
DAD
331
FCE
  5
FD2
331
EBE
  5
EC2
331
D56
  5
D56
331
10D7
  5
10DB
331
10F9
  5
10FD
331
FE8
  5
FEC
331
1133
  5
1154
331
100A
  5
100E
331
EFA
  5
EFE
331
111B
  5
111F
331
E0B
  5
E0F
331
DCF
  5
DCF
331
102C
  5
1030
331
F1C
  5
F20
331
E2D
  5
E31
331
F3E
  5
F42
331
CC6
  5
CC6
331
CA4
  5
CA4
331
C6F
  5
C6F
331
C4D
  5
C4D
331
C2B
  5
C2B
331
C20
  5
C20
331
E4F
  5
E53
331
C0F
  5
C0F
331
BFE
  5
BFE
331
1088
  5
108C
331
D78
  5
D78
331
F99
  5
F9D
331
E89
  5
E8D
331
D21
  5
D21
331
10AA
  5
10AE
331
D9A
  5
D9A
331
FBB
  5
FBF
331
EAB
  5
EAF
331
D43
  5
D43
331
10C4
  5
10C8
331
DBC
  5
DBC
331
FD5
  5
FD9
331
ECD
  5
ED1
331
D65
  5
D65
331
10E6
  5
10EA
331
FF7
  5
FFB
331
EE7
  5
EEB
331
1108
  5
110C
331
DF8
  5
DFC
331
DDE
  5
DDE
331
1019
  5
101D
331
F09
  5
F0D
331
112A
  5
112E
331
E1A
  5
E1E
331
103B
  5
103F
331
F2B
  5
F2F
331
CB3
  5
CB3
331
C91
  5
C91
331
C7E
  5
C7E
331
C5C
  5
C5C
331
C3A
  5
C3A
331
E3C
  5
E40
331
1055
  5
1059
331
F4D
  5
F51
331
CD5
  5
CD5
331
F66
  5
F6A
331
E5E
  5
E62
331
1077
  5
107B
331
F88
  5
F8C
331
E78
  5
E7C
331
D10
  5
D10
331
CF7
  5
CF7
331
1099
  5
109D
331
D89
  5
D89
331
FAA
  5
FAE
331
E9A
  5
E9E
331
D32
  5
D32
331
10BB
  5
10BF
331
DAB
  5
DAB
331
FCC
  5
FD0
331
EBC
  5
EC0
331
D54
  5
D54
331
10D5
  5
10D9
331
DCD
  5
DCD
331
FE6
  5
FEA
331
EDE
  5
EE2
331
D76
  5
D76
331
10F7
  5
10FB
331
DEF
  5
DF1
331
1131
  5
1150
331
1008
  5
100C
331
EF8
  5
EFC
331
1119
  5
111D
331
E09
  5
E0D
331
102A
  5
102E
331
F1A
  5
F1E
331
E2B
  5
E2F
331
F3C
  5
F40
331
CC4
  5
CC4
331
CA2
  5
CA2
331
C8F
  5
C8F
331
C6D
  5
C6D
331
C4B
  5
C4B
331
C29
  5
C29
331
C1E
  5
C1E
331
E4D
  5
E51
331
1066
  5
106A
331
F77
  5
F7B
331
CE6
  5
CE6
331
C0D
  5
C0D
331
BFC
  5
BFC
331
10A8
  5
10AC
331
D98
  5
D98
331
FB9
  5
FBD
331
EA9
  5
EAD
331
D41
  5
D41
331
10C2
  5
10C6
331
DBA
  5
DBA
331
FD3
  5
FD7
331
ECB
  5
ECF
331
D63
  5
D63
331
10E4
  5
10E8
331
1106
  5
110A
331
FF5
  5
FF9
331
EE5
  5
EE9
331
1017
  5
101B
331
F07
  5
F0B
331
1128
  5
112C
331
E18
  5
E1C
331
DDC
  5
DDC
331
1039
  5
103D
331
F29
  5
F2D
331
CB1
  5
CB1
331
C7C
  5
C7C
331
C5A
  5
C5A
331
C38
  5
C38
331
E3A
  5
E3E
331
1053
  5
1057
331
F4B
  5
F4F
331
CD3
  5
CD3
331
F64
  5
F68
331
E5C
  5
E60
331
1075
  5
1079
331
F86
  5
F8A
331
E76
  5
E7A
331
1097
  5
109B
331
D87
  5
D87
331
FA8
  5
FAC
331
E98
  5
E9C
331
D30
  5
D30
331
D0E
  5
D0E
331
CF5
  5
CF5
331
10B9
  5
10BD
331
DA9
  5
DA9
331
FCA
  5
FCE
331
EBA
  5
EBE
331
D52
  5
D52
331
10D3
  5
10D7
331
DCB
  5
DCB
331
FE4
  5
FE8
331
EDC
  5
EE0
331
D74
  5
D74
331
10F5
  5
10F9
331
1006
  5
100A
331
EF6
  5
EFA
331
1156
  5
DEF
331
1117
  5
111B
331
E07
  5
E0B
331
1028
  5
102C
331
F18
  5
F1C
331
E29
  5
E2D
331
F3A
  5
F3E
331
CC2
  5
CC2
331
CA0
  5
CA0
331
C8D
  5
C8D
331
C6B
  5
C6B
331
C49
  5
C49
331
C1C
  5
C1C
331
E4B
  5
E4F
331
1064
  5
1068
331
1086
  5
108A
331
F75
  5
F79
331
F97
  5
F9B
331
E87
  5
E8B
331
D1F
  5
D1F
331
CE4
  5
CE4
331
C0B
  5
C0B
331
BFA
  5
BFA
331
10C0
  5
10C4
331
DB8
  5
DB8
331
FD1
  5
FD5
331
EC9
  5
ECD
331
D61
  5
D61
331
10E2
  5
10E6
331
1104
  5
1108
331
FF3
  5
FF7
331
EE3
  5
EE7
331
1015
  5
1019
331
F05
  5
F09
331
1126
  5
112A
331
E16
  5
E1A
331
DDA
  5
DDA
331
1037
  5
103B
331
F27
  5
F2B
331
CAF
  5
CAF
331
C7A
  5
C7A
331
C58
  5
C58
331
E38
  5
E3C
331
1051
  5
1055
331
F49
  5
F4D
331
CD1
  5
CD1
331
F62
  5
F66
331
E5A
  5
E5E
331
1073
  5
1077
331
F84
  5
F88
331
E74
  5
E78
331
1095
  5
1099
331
D85
  5
D85
331
FA6
  5
FAA
331
E96
  5
E9A
331
D2E
  5
D2E
331
D0C
  5
D0C
331
CF3
  5
CF3
331
10B7
  5
10BB
331
DA7
  5
DA7
331
FC8
  5
FCC
331
EB8
  5
EBC
331
D50
  5
D50
331
10D1
  5
10D5
331
DC9
  5
DC9
331
FE2
  5
FE6
331
EDA
  5
EDE
331
D72
  5
D72
331
10F3
  5
10F7
331
1004
  5
1008
331
EF4
  5
EF8
331
1154
  5
DFB
331
1115
  5
1119
331
E05
  5
E09
331
1026
  5
102A
331
F16
  5
F1A
331
E27
  5
E2B
331
F38
  5
F3C
331
CC0
  5
CC0
331
C9E
  5
C9E
331
C8B
  5
C8B
331
C69
  5
C69
331
C47
  5
C47
331
C1A
  5
C1A
331
E49
  5
E4D
331
1062
  5
1066
331
1084
  5
1088
331
F73
  5
F77
331
F95
  5
F99
331
E85
  5
E89
331
D1D
  5
D1D
331
CE2
  5
CE2
331
10A6
  5
10AA
331
D96
  5
D96
331
FB7
  5
FBB
331
EA7
  5
EAB
331
D3F
  5
D3F
331
C36
  5
C36
331
C09
  5
C09
331
BF8
  5
BF8
331
10E0
  5
10E4
331
FF1
  5
FF5
331
EE1
  5
EE5
331
1102
  5
1106
331
DF2
  5
DF9
331
1013
  5
1017
331
1124
  5
1128
331
E14
  5
E18
331
F03
  5
F07
331
DD8
  5
DD8
331
1035
  5
1039
331
F25
  5
F29
331
CAD
  5
CAD
331
C78
  5
C78
331
E36
  5
E3A
331
104F
  5
1053
331
F47
  5
F4B
331
CCF
  5
CCF
331
F60
  5
F64
331
E58
  5
E5C
331
1071
  5
1075
331
F82
  5
F86
331
E72
  5
E76
331
1093
  5
1097
331
D83
  5
D83
331
FA4
  5
FA8
331
E94
  5
E98
331
D2C
  5
D2C
331
D0A
  5
D0A
331
CF1
  5
CF1
331
10B5
  5
10B9
331
DA5
  5
DA5
331
FC6
  5
FCA
331
EB6
  5
EBA
331
D4E
  5
D4E
331
10CF
  5
10D3
331
DC7
  5
DC7
331
FE0
  5
FE4
331
ED8
  5
EDC
331
D70
  5
D70
331
10F1
  5
10F5
331
1002
  5
1006
331
EF2
  5
EF6
331
1113
  5
1117
331
E03
  5
E07
331
1024
  5
1028
331
F14
  5
F18
331
E25
  5
E29
331
1046
  5
104A
331
F36
  5
F3A
331
CBE
  5
CBE
331
C9C
  5
C9C
331
C89
  5
C89
331
C67
  5
C67
331
C45
  5
C45
331
C18
  5
C18
331
E47
  5
E4B
331
1060
  5
1064
331
1082
  5
1086
331
F71
  5
F75
331
F93
  5
F97
331
E83
  5
E87
331
D1B
  5
D1B
331
CE0
  5
CE0
331
10A4
  5
10A8
331
D94
  5
D94
331
FB5
  5
FB9
331
EA5
  5
EA9
331
D3D
  5
D3D
331
DB6
  5
DB6
331
EC7
  5
ECB
331
D5F
  5
D5F
331
C56
  5
C56
331
C34
  5
C34
331
C07
  5
C07
331
BF6
  5
BF6
331
1100
  5
1104
331
DF0
  5
DF2
331
1011
  5
1015
331
F01
  5
F05
331
1122
  5
1126
331
E12
  5
E16
331
1033
  5
1037
331
F23
  5
F27
331
E34
  5
E38
331
104D
  5
1051
331
F45
  5
F49
331
CCD
  5
CCD
331
CAB
  5
CAB
331
F5E
  5
F62
331
E56
  5
E5A
331
106F
  5
1073
331
F80
  5
F84
331
E70
  5
E74
331
1091
  5
1095
331
D81
  5
D81
331
FA2
  5
FA6
331
E92
  5
E96
331
D2A
  5
D2A
331
D08
  5
D08
331
CEF
  5
CEF
331
10B3
  5
10B7
331
DA3
  5
DA3
331
FC4
  5
FC8
331
EB4
  5
EB8
331
D4C
  5
D4C
331
10CD
  5
10D1
331
DC5
  5
DC5
331
FDE
  5
FE2
331
ED6
  5
EDA
331
D6E
  5
D6E
331
1150
  5
1156
331
10EF
  5
10F3
331
1000
  5
1004
331
EF0
  5
EF4
331
1111
  5
1115
331
E01
  5
E05
331
DE7
  5
DE7
331
1022
  5
1026
331
F12
  5
F16
331
E23
  5
E27
331
1044
  5
1048
331
F34
  5
F38
331
CBC
  5
CBC
331
C9A
  5
C9A
331
C87
  5
C87
331
C65
  5
C65
331
C43
  5
C43
331
C16
  5
C16
331
E45
  5
E49
331
105E
  5
1062
331
F56
  5
F5A
331
CDE
  5
CDE
331
1080
  5
1084
331
F6F
  5
F73
331
E67
  5
E6B
331
F91
  5
F95
331
E81
  5
E85
331
D19
  5
D19
331
10A2
  5
10A6
331
D92
  5
D92
331
FB3
  5
FB7
331
EA3
  5
EA7
331
D3B
  5
D3B
331
DB4
  5
DB4
331
EC5
  5
EC9
331
D5D
  5
D5D
331
10DE
  5
10E2
331
FEF
  5
FF3
331
DD6
  5
DD6
331
C76
  5
C76
331
C54
  5
C54
331
C32
  5
C32
331
C27
  5
C27
331
C05
  5
C05
331
1120
  5
1124
331
E10
  5
E14
331
1031
  5
1035
331
F21
  5
F25
331
E32
  5
E36
331
104B
  5
104F
331
F43
  5
F47
331
CCB
  5
CCB
331
CA9
  5
CA9
331
F5C
  5
F60
331
E54
  5
E58
331
106D
  5
1071
331
F7E
  5
F82
331
E6E
  5
E72
331
108F
  5
1093
331
D7F
  5
D7F
331
FA0
  5
FA4
331
E90
  5
E94
331
D28
  5
D28
331
D06
  5
D06
331
CED
  5
CED
331
10B1
  5
10B5
331
DA1
  5
DA1
331
FC2
  5
FC6
331
EB2
  5
EB6
331
D4A
  5
D4A
331
10CB
  5
10CF
331
DC3
  5
DC3
331
FDC
  5
FE0
331
ED4
  5
ED8
331
D6C
  5
D6C
331
10ED
  5
10F1
331
FFE
  5
1002
331
EEE
  5
EF2
331
110F
  5
1113
331
DFF
  5
E03
331
DE5
  5
DE5
331
1020
  5
1024
331
F10
  5
F14
331
E21
  5
E25
331
1042
  5
1046
331
F32
  5
F36
331
CBA
  5
CBA
331
C98
  5
C98
331
C85
  5
C85
331
C63
  5
C63
331
C41
  5
C41
331
C14
  5
C14
331
E43
  5
E47
331
105C
  5
1060
331
F54
  5
F58
331
CDC
  5
CDC
331
F6D
  5
F71
331
E65
  5
E69
331
107E
  5
1082
331
F8F
  5
F93
331
E7F
  5
E83
331
D17
  5
D17
331
CFE
  5
CFE
331
10A0
  5
10A4
331
D90
  5
D90
331
FB1
  5
FB5
331
EA1
  5
EA5
331
D39
  5
D39
331
DB2
  5
DB2
331
EC3
  5
EC7
331
D5B
  5
D5B
331
10DC
  5
10E0
331
10FE
  5
1102
331
FED
  5
FF1
331
100F
  5
1013
331
EFF
  5
F03
331
DD4
  5
DD4
331
C74
  5
C74
331
C52
  5
C52
331
C30
  5
C30
331
C25
  5
C25
331
C03
  5
C03
331
E30
  5
E34
331
1049
  5
104D
331
F41
  5
F45
331
CC9
  5
CC9
331
F5A
  5
F5E
331
E52
  5
E56
331
106B
  5
106F
331
F7C
  5
F80
331
E6C
  5
E70
331
108D
  5
1091
331
D7D
  5
D7D
331
F9E
  5
FA2
331
E8E
  5
E92
331
D26
  5
D26
331
D04
  5
D04
331
CEB
  5
CEB
331
10AF
  5
10B3
331
D9F
  5
D9F
331
FC0
  5
FC4
331
EB0
  5
EB4
331
D48
  5
D48
331
10C9
  5
10CD
331
DC1
  5
DC1
331
FDA
  5
FDE
331
ED2
  5
ED6
331
D6A
  5
D6A
331
10EB
  5
10EF
331
FFC
  5
1000
331
EEC
  5
EF0
331
110D
  5
1111
331
DFD
  5
E01
331
DE3
  5
DE3
331
101E
  5
1022
331
F0E
  5
F12
331
112F
  5
1133
331
E1F
  5
E23
331
1040
  5
1044
331
F30
  5
F34
331
CB8
  5
CB8
331
C96
  5
C96
331
C83
  5
C83
331
C61
  5
C61
331
C3F
  5
C3F
331
C12
  5
C12
331
E41
  5
E45
331
105A
  5
105E
331
F52
  5
F56
331
CDA
  5
CDA
331
F6B
  5
F6F
331
E63
  5
E67
331
107C
  5
1080
331
F8D
  5
F91
331
E7D
  5
E81
331
D15
  5
D15
331
CFC
  5
CFC
331
109E
  5
10A2
331
D8E
  5
D8E
331
FAF
  5
FB3
331
E9F
  5
EA3
331
D37
  5
D37
331
DB0
  5
DB0
331
EC1
  5
EC5
331
D59
  5
D59
331
10DA
  5
10DE
331
10FC
  5
1100
331
FEB
  5
FEF
331
100D
  5
1011
331
EFD
  5
F01
331
111E
  5
1122
331
E0E
  5
E12
331
DD2
  5
DD2
331
102F
  5
1033
331
F1F
  5
F23
331
CA7
  5
CA7
331
C72
  5
C72
331
C50
  5
C50
331
C2E
  5
C2E
331
C23
  5
C23
331
C01
  5
C01
  0
LAYOUT
  5
F
102
{ACAD_XDICTIONARY
360
115B
102
}
102
{ACAD_REACTORS
330
B
102
}
330
B
100
AcDbPlotSettings
  1

  2
hp deskjet 930c series
  4

  6

 40
0.0
 41
0.0
 42
0.0
 43
0.0
 44
0.0
 45
0.0
 46
0.0
 47
0.0
 48
0.0
 49
0.0
140
0.0
141
0.0
142
1.0
143
1.0
 70
   688
 72
     0
 73
     0
 74
     5
  7
monochrome.ctb
 75
    16
147
1.0
148
0.0
149
0.0
100
AcDbLayout
  1
Layout1
 70
     1
 71
     1
 10
0.0
 20
0.0
 11
420.0
 21
297.0
 12
0.0
 22
0.0
 32
0.0
 14
1.000000000000000E+20
 24
1.000000000000000E+20
 34
1.000000000000000E+20
 15
-1.000000000000000E+20
 25
-1.000000000000000E+20
 35
-1.000000000000000E+20
146
0.0
 13
0.0
 23
0.0
 33
0.0
 16
1.0
 26
0.0
 36
0.0
 17
0.0
 27
1.0
 37
0.0
 76
     0
330
C
  0
LAYOUT
  5
A
102
{ACAD_XDICTIONARY
360
1159
102
}
102
{ACAD_REACTORS
330
B
102
}
330
B
100
AcDbPlotSettings
  1

  2
HP DeskJet 1120C Printer
  4
A4
  6

 40
4.180416584014891
 41
13.49374103546142
 42
4.180404663085936
 43
3.757080078125
 44
209.9733276367186
 45
296.9259948730469
 46
0.0
 47
0.0
 48
232.1274484221087
 49
0.0
140
429.5274484221087
141
279.18
142
1.0
143
1.0
 70
 11952
 72
     1
 73
     0
 74
     4
  7
monochrome.ctb
 75
    16
147
1.0
148
-232.1274484221087
149
0.0
100
AcDbLayout
  1
Model
 70
     1
 71
     0
 10
0.0
 20
0.0
 11
12.0
 21
9.0
 12
0.0
 22
0.0
 32
0.0
 14
0.0
 24
0.0
 34
0.0
 15
0.0
 25
0.0
 35
0.0
146
0.0
 13
0.0
 23
0.0
 33
0.0
 16
1.0
 26
0.0
 36
0.0
 17
0.0
 27
1.0
 37
0.0
 76
     0
330
2
331
630
  0
MATERIAL
  5
63B
102
{ACAD_XDICTIONARY
360
63C
102
}
102
{ACAD_REACTORS
330
632
102
}
330
632
100
AcDbMaterial
  1
ByBlock
 72
     0
 43
0.0008202099737533
 43
0.0
 43
0.0
 43
0.0
 43
0.0
 43
0.0008202099737533
 43
0.0
 43
0.0
 43
0.0
 43
0.0
 43
1.0
 43
0.0
 43
0.0
 43
0.0
 43
0.0
 43
1.0
 77
     0
 47
0.0008202099737533
 47
0.0
 47
0.0
 47
0.0
 47
0.0
 47
0.0008202099737533
 47
0.0
 47
0.0
 47
0.0
 47
0.0
 47
1.0
 47
0.0
 47
0.0
 47
0.0
 47
0.0
 47
1.0
171
     0
 49
0.0008202099737533
 49
0.0
 49
0.0
 49
0.0
 49
0.0
 49
0.0008202099737533
 49
0.0
 49
0.0
 49
0.0
 49
0.0
 49
1.0
 49
0.0
 49
0.0
 49
0.0
 49
0.0
 49
1.0
175
     0
142
0.0008202099737533
142
0.0
142
0.0
142
0.0
142
0.0
142
0.0008202099737533
142
0.0
142
0.0
142
0.0
142
0.0
142
1.0
142
0.0
142
0.0
142
0.0
142
0.0
142
1.0
179
     0
144
0.0008202099737533
144
0.0
144
0.0
144
0.0
144
0.0
144
0.0008202099737533
144
0.0
144
0.0
144
0.0
144
0.0
144
1.0
144
0.0
144
0.0
144
0.0
144
0.0
144
1.0
147
0.0008202099737533
147
0.0
147
0.0
147
0.0
147
0.0
147
0.0008202099737533
147
0.0
147
0.0
147
0.0
147
0.0
147
1.0
147
0.0
147
0.0
147
0.0
147
0.0
147
1.0
  0
MATERIAL
  5
633
102
{ACAD_XDICTIONARY
360
634
102
}
102
{ACAD_REACTORS
330
632
102
}
330
632
100
AcDbMaterial
  1
ByLayer
 72
     0
 43
0.0008202099737533
 43
0.0
 43
0.0
 43
0.0
 43
0.0
 43
0.0008202099737533
 43
0.0
 43
0.0
 43
0.0
 43
0.0
 43
1.0
 43
0.0
 43
0.0
 43
0.0
 43
0.0
 43
1.0
 77
     0
 47
0.0008202099737533
 47
0.0
 47
0.0
 47
0.0
 47
0.0
 47
0.0008202099737533
 47
0.0
 47
0.0
 47
0.0
 47
0.0
 47
1.0
 47
0.0
 47
0.0
 47
0.0
 47
0.0
 47
1.0
171
     0
 49
0.0008202099737533
 49
0.0
 49
0.0
 49
0.0
 49
0.0
 49
0.0008202099737533
 49
0.0
 49
0.0
 49
0.0
 49
0.0
 49
1.0
 49
0.0
 49
0.0
 49
0.0
 49
0.0
 49
1.0
175
     0
142
0.0008202099737533
142
0.0
142
0.0
142
0.0
142
0.0
142
0.0008202099737533
142
0.0
142
0.0
142
0.0
142
0.0
142
1.0
142
0.0
142
0.0
142
0.0
142
0.0
142
1.0
179
     0
144
0.0008202099737533
144
0.0
144
0.0
144
0.0
144
0.0
144
0.0008202099737533
144
0.0
144
0.0
144
0.0
144
0.0
144
1.0
144
0.0
144
0.0
144
0.0
144
0.0
144
1.0
147
0.0008202099737533
147
0.0
147
0.0
147
0.0
147
0.0
147
0.0008202099737533
147
0.0
147
0.0
147
0.0
147
0.0
147
1.0
147
0.0
147
0.0
147
0.0
147
0.0
147
1.0
  0
MATERIAL
  5
643
102
{ACAD_XDICTIONARY
360
644
102
}
102
{ACAD_REACTORS
330
632
102
}
330
632
100
AcDbMaterial
  1
Global
 72
     0
 43
0.0008202099737533
 43
0.0
 43
0.0
 43
0.0
 43
0.0
 43
0.0008202099737533
 43
0.0
 43
0.0
 43
0.0
 43
0.0
 43
1.0
 43
0.0
 43
0.0
 43
0.0
 43
0.0
 43
1.0
 77
     0
 47
0.0008202099737533
 47
0.0
 47
0.0
 47
0.0
 47
0.0
 47
0.0008202099737533
 47
0.0
 47
0.0
 47
0.0
 47
0.0
 47
1.0
 47
0.0
 47
0.0
 47
0.0
 47
0.0
 47
1.0
171
     0
 49
0.0008202099737533
 49
0.0
 49
0.0
 49
0.0
 49
0.0
 49
0.0008202099737533
 49
0.0
 49
0.0
 49
0.0
 49
0.0
 49
1.0
 49
0.0
 49
0.0
 49
0.0
 49
0.0
 49
1.0
175
     0
142
0.0008202099737533
142
0.0
142
0.0
142
0.0
142
0.0
142
0.0008202099737533
142
0.0
142
0.0
142
0.0
142
0.0
142
1.0
142
0.0
142
0.0
142
0.0
142
0.0
142
1.0
179
     0
144
0.0008202099737533
144
0.0
144
0.0
144
0.0
144
0.0
144
0.0008202099737533
144
0.0
144
0.0
144
0.0
144
0.0
144
1.0
144
0.0
144
0.0
144
0.0
144
0.0
144
1.0
147
0.0008202099737533
147
0.0
147
0.0
147
0.0
147
0.0
147
0.0008202099737533
147
0.0
147
0.0
147
0.0
147
0.0
147
1.0
147
0.0
147
0.0
147
0.0
147
0.0
147
1.0
  0
MLEADERSTYLE
  5
682
102
{ACAD_REACTORS
330
681
102
}
330
681
100
AcDbMLeaderStyle
170
     2
171
     1
172
     0
 90
        2
 40
0.0
 41
0.0
173
     1
 91
-1056964608
340
15
 92
       -2
290
     1
 42
2.0
291
     1
 43
0.36
  3
Standard
 44
4.0
300

342
12
174
     1
178
     6
175
     1
176
     0
 93
-1056964608
 45
4.0
292
     0
297
     0
 46
4.0
 94
-1056964608
 47
1.0
 49
1.0
140
1.0
293
     1
141
0.0
294
     1
177
     0
142
1.0
295
     0
296
     0
143
0.125
1001
ACAD_MLEADERVER
1070
     2
  0
MLINESTYLE
  5
23
102
{ACAD_REACTORS
330
21
102
}
330
21
100
AcDbMlineStyle
  2
STANDARD
 70
     0
  3

 62
   256
 51
90.0
 52
90.0
 71
     2
 49
0.5
 62
   256
  6
BYLAYER
 49
-0.5
 62
   256
  6
BYLAYER
  0
ACDBPLACEHOLDER
  5
5
102
{ACAD_REACTORS
330
6
102
}
330
6
  0
SCALE
  5
660
102
{ACAD_REACTORS
330
65F
102
}
330
65F
100
AcDbScale
 70
     0
300
1:1
140
1.0
141
1.0
290
     1
  0
SCALE
  5
661
102
{ACAD_REACTORS
330
65F
102
}
330
65F
100
AcDbScale
 70
     0
300
1:2
140
1.0
141
2.0
290
     0
  0
SCALE
  5
662
102
{ACAD_REACTORS
330
65F
102
}
330
65F
100
AcDbScale
 70
     0
300
1:4
140
1.0
141
4.0
290
     0
  0
SCALE
  5
663
102
{ACAD_REACTORS
330
65F
102
}
330
65F
100
AcDbScale
 70
     0
300
1:5
140
1.0
141
5.0
290
     0
  0
SCALE
  5
664
102
{ACAD_REACTORS
330
65F
102
}
330
65F
100
AcDbScale
 70
     0
300
1:8
140
1.0
141
8.0
290
     0
  0
SCALE
  5
665
102
{ACAD_REACTORS
330
65F
102
}
330
65F
100
AcDbScale
 70
     0
300
1:10
140
1.0
141
10.0
290
     0
  0
SCALE
  5
666
102
{ACAD_REACTORS
330
65F
102
}
330
65F
100
AcDbScale
 70
     0
300
1:16
140
1.0
141
16.0
290
     0
  0
SCALE
  5
667
102
{ACAD_REACTORS
330
65F
102
}
330
65F
100
AcDbScale
 70
     0
300
1:20
140
1.0
141
20.0
290
     0
  0
SCALE
  5
668
102
{ACAD_REACTORS
330
65F
102
}
330
65F
100
AcDbScale
 70
     0
300
1:30
140
1.0
141
30.0
290
     0
  0
SCALE
  5
669
102
{ACAD_REACTORS
330
65F
102
}
330
65F
100
AcDbScale
 70
     0
300
1:40
140
1.0
141
40.0
290
     0
  0
SCALE
  5
66A
102
{ACAD_REACTORS
330
65F
102
}
330
65F
100
AcDbScale
 70
     0
300
1:50
140
1.0
141
50.0
290
     0
  0
SCALE
  5
66B
102
{ACAD_REACTORS
330
65F
102
}
330
65F
100
AcDbScale
 70
     0
300
1:100
140
1.0
141
100.0
290
     0
  0
SCALE
  5
66C
102
{ACAD_REACTORS
330
65F
102
}
330
65F
100
AcDbScale
 70
     0
300
2:1
140
2.0
141
1.0
290
     0
  0
SCALE
  5
66D
102
{ACAD_REACTORS
330
65F
102
}
330
65F
100
AcDbScale
 70
     0
300
4:1
140
4.0
141
1.0
290
     0
  0
SCALE
  5
66E
102
{ACAD_REACTORS
330
65F
102
}
330
65F
100
AcDbScale
 70
     0
300
8:1
140
8.0
141
1.0
290
     0
  0
SCALE
  5
66F
102
{ACAD_REACTORS
330
65F
102
}
330
65F
100
AcDbScale
 70
     0
300
10:1
140
10.0
141
1.0
290
     0
  0
SCALE
  5
670
102
{ACAD_REACTORS
330
65F
102
}
330
65F
100
AcDbScale
 70
     0
300
100:1
140
100.0
141
1.0
290
     0
  0
SCALE
  5
671
102
{ACAD_REACTORS
330
65F
102
}
330
65F
100
AcDbScale
 70
     0
300
1/128" = 1'-0"
140
0.0078125
141
12.0
290
     0
  0
SCALE
  5
672
102
{ACAD_REACTORS
330
65F
102
}
330
65F
100
AcDbScale
 70
     0
300
1/64" = 1'-0"
140
0.015625
141
12.0
290
     0
  0
SCALE
  5
673
102
{ACAD_REACTORS
330
65F
102
}
330
65F
100
AcDbScale
 70
     0
300
1/32" = 1'-0"
140
0.03125
141
12.0
290
     0
  0
SCALE
  5
674
102
{ACAD_REACTORS
330
65F
102
}
330
65F
100
AcDbScale
 70
     0
300
1/16" = 1'-0"
140
0.0625
141
12.0
290
     0
  0
SCALE
  5
675
102
{ACAD_REACTORS
330
65F
102
}
330
65F
100
AcDbScale
 70
     0
300
3/32" = 1'-0"
140
0.09375
141
12.0
290
     0
  0
SCALE
  5
676
102
{ACAD_REACTORS
330
65F
102
}
330
65F
100
AcDbScale
 70
     0
300
1/8" = 1'-0"
140
0.125
141
12.0
290
     0
  0
SCALE
  5
677
102
{ACAD_REACTORS
330
65F
102
}
330
65F
100
AcDbScale
 70
     0
300
3/16" = 1'-0"
140
0.1875
141
12.0
290
     0
  0
SCALE
  5
678
102
{ACAD_REACTORS
330
65F
102
}
330
65F
100
AcDbScale
 70
     0
300
1/4" = 1'-0"
140
0.25
141
12.0
290
     0
  0
SCALE
  5
679
102
{ACAD_REACTORS
330
65F
102
}
330
65F
100
AcDbScale
 70
     0
300
3/8" = 1'-0"
140
0.375
141
12.0
290
     0
  0
SCALE
  5
67A
102
{ACAD_REACTORS
330
65F
102
}
330
65F
100
AcDbScale
 70
     0
300
1/2" = 1'-0"
140
0.5
141
12.0
290
     0
  0
SCALE
  5
67B
102
{ACAD_REACTORS
330
65F
102
}
330
65F
100
AcDbScale
 70
     0
300
3/4" = 1'-0"
140
0.75
141
12.0
290
     0
  0
SCALE
  5
67C
102
{ACAD_REACTORS
330
65F
102
}
330
65F
100
AcDbScale
 70
     0
300
1" = 1'-0"
140
1.0
141
12.0
290
     0
  0
SCALE
  5
67D
102
{ACAD_REACTORS
330
65F
102
}
330
65F
100
AcDbScale
 70
     0
300
1-1/2" = 1'-0"
140
1.5
141
12.0
290
     0
  0
SCALE
  5
67E
102
{ACAD_REACTORS
330
65F
102
}
330
65F
100
AcDbScale
 70
     0
300
3" = 1'-0"
140
3.0
141
12.0
290
     0
  0
SCALE
  5
67F
102
{ACAD_REACTORS
330
65F
102
}
330
65F
100
AcDbScale
 70
     0
300
6" = 1'-0"
140
6.0
141
12.0
290
     0
  0
SCALE
  5
680
102
{ACAD_REACTORS
330
65F
102
}
330
65F
100
AcDbScale
 70
     0
300
1'-0" = 1'-0"
140
12.0
141
12.0
290
     0
  0
TABLESTYLE
  5
65E
102
{ACAD_XDICTIONARY
360
69E
102
}
102
{ACAD_REACTORS
330
65D
102
}
330
65D
100
AcDbTableStyle
  3
Standard
 70
     0
 71
     0
 40
1.5
 41
1.5
280
     0
281
     0
  7
Standard
140
4.5
170
     2
 62
     0
 63
     7
283
     0
274
    -2
284
     1
 64
     0
275
    -2
285
     1
 65
     0
276
    -2
286
     1
 66
     0
277
    -2
287
     1
 67
     0
278
    -2
288
     1
 68
     0
279
    -2
289
     1
 69
     0
  7
Standard
140
6.0
170
     5
 62
     0
 63
     7
283
     0
274
    -2
284
     1
 64
     0
275
    -2
285
     1
 65
     0
276
    -2
286
     1
 66
     0
277
    -2
287
     1
 67
     0
278
    -2
288
     1
 68
     0
279
    -2
289
     1
 69
     0
  7
Standard
140
4.5
170
     5
 62
     0
 63
     7
283
     0
274
    -2
284
     1
 64
     0
275
    -2
285
     1
 65
     0
276
    -2
286
     1
 66
     0
277
    -2
287
     1
 67
     0
278
    -2
288
     1
 68
     0
279
    -2
289
     1
 69
     0
  0
VISUALSTYLE
  5
651
102
{ACAD_REACTORS
330
64B
102
}
330
64B
100
AcDbVisualStyle
  2
2dWireframe
 70
     4
 71
     0
 72
     2
 73
     0
 90
        0
 40
-0.6
 41
-30.0
 62
     5
 63
     7
 74
     1
 91
        4
 64
     7
 65
   257
 75
     1
175
     1
 42
1.0
 92
        0
 66
   257
 43
1.0
 76
     1
 77
     6
 78
     2
 67
     7
 79
     5
170
     0
171
     0
290
     0
174
     0
 93
        1
 44
0.0
173
     0
291
     0
 45
0.0
1001
ACAD
1000
AcDbSavedByObjectVersion
1070
     0
1000
AcDbSavedByObjectVersion
1070
     0
  0
VISUALSTYLE
  5
653
102
{ACAD_REACTORS
330
64B
102
}
330
64B
100
AcDbVisualStyle
  2
3D Hidden
 70
     6
 71
     1
 72
     2
 73
     2
 90
        0
 40
-0.6
 41
-30.0
 62
     5
 63
     7
 74
     2
 91
        2
 64
     7
 65
   257
 75
     2
175
     1
 42
40.0
 92
        0
 66
   257
 43
1.0
 76
     1
 77
     6
 78
     2
 67
     7
 79
     3
170
     0
171
     0
290
     0
174
     0
 93
        1
 44
0.0
173
     0
291
     0
 45
0.0
1001
ACAD
1000
AcDbSavedByObjectVersion
1070
     0
1000
AcDbSavedByObjectVersion
1070
     0
  0
VISUALSTYLE
  5
652
102
{ACAD_REACTORS
330
64B
102
}
330
64B
100
AcDbVisualStyle
  2
3dWireframe
 70
     5
 71
     0
 72
     2
 73
     0
 90
        0
 40
-0.6
 41
-30.0
 62
     5
 63
     7
 74
     1
 91
        4
 64
     7
 65
   257
 75
     1
175
     1
 42
1.0
 92
        0
 66
   257
 43
1.0
 76
     1
 77
     6
 78
     2
 67
     7
 79
     5
170
     0
171
     0
290
     0
174
     0
 93
        1
 44
0.0
173
     0
291
     0
 45
0.0
1001
ACAD
1000
AcDbSavedByObjectVersion
1070
     0
1000
AcDbSavedByObjectVersion
1070
     0
  0
VISUALSTYLE
  5
650
102
{ACAD_REACTORS
330
64B
102
}
330
64B
100
AcDbVisualStyle
  2
Basic
 70
     7
 71
     1
 72
     0
 73
     1
 90
        0
 40
-0.6
 41
-30.0
 62
     5
 63
     7
 74
     0
 91
        4
 64
     7
 65
   257
 75
     1
175
     1
 42
1.0
 92
        8
 66
     7
 43
1.0
 76
     1
 77
     6
 78
     2
 67
     7
 79
     5
170
     0
171
     0
290
     0
174
     0
 93
        1
 44
0.0
173
     0
291
     1
 45
0.0
1001
ACAD
1000
AcDbSavedByObjectVersion
1070
     0
1000
AcDbSavedByObjectVersion
1070
     0
  0
VISUALSTYLE
  5
657
102
{ACAD_REACTORS
330
64B
102
}
330
64B
100
AcDbVisualStyle
  2
Brighten
 70
    12
 71
     2
 72
     2
 73
     0
 90
        0
 40
-0.6
 41
-30.0
 62
     5
 63
     7
 74
     1
 91
        4
 64
     7
 65
   257
 75
     1
175
     1
 42
1.0
 92
        8
 66
     7
 43
1.0
 76
     1
 77
     6
 78
     2
 67
     7
 79
     5
170
     0
171
     0
290
     0
174
     0
 93
        1
 44
50.0
173
     0
291
     1
 45
0.0
1001
ACAD
1000
AcDbSavedByObjectVersion
1070
     0
1000
AcDbSavedByObjectVersion
1070
     0
  0
VISUALSTYLE
  5
65B
102
{ACAD_REACTORS
330
64B
102
}
330
64B
100
AcDbVisualStyle
  2
ColorChange
 70
    16
 71
     2
 72
     2
 73
     3
 90
        0
 40
-0.6
 41
-30.0
 62
     5
 63
     8
 74
     1
 91
        4
 64
     7
 65
   257
 75
     1
175
     1
 42
1.0
 92
        8
 66
     8
 43
1.0
 76
     1
 77
     6
 78
     2
 67
     7
 79
     5
170
     0
171
     0
290
     0
174
     0
 93
        1
 44
0.0
173
     0
291
     1
 45
0.0
1001
ACAD
1000
AcDbSavedByObjectVersion
1070
     0
1000
AcDbSavedByObjectVersion
1070
     0
  0
VISUALSTYLE
  5
654
102
{ACAD_REACTORS
330
64B
102
}
330
64B
100
AcDbVisualStyle
  2
Conceptual
 70
     9
 71
     3
 72
     2
 73
     0
 90
        0
 40
-0.6
 41
-30.0
 62
     5
 63
     7
 74
     2
 91
        2
 64
     7
 65
   257
 75
     1
175
     1
 42
40.0
 92
        8
 66
     7
 43
1.0
 76
     1
 77
     6
 78
     2
 67
     7
 79
     3
170
     0
171
     0
290
     0
174
     0
 93
        1
 44
0.0
173
     0
291
     0
 45
0.0
1001
ACAD
1000
AcDbSavedByObjectVersion
1070
     0
1000
AcDbSavedByObjectVersion
1070
     0
  0
VISUALSTYLE
  5
656
102
{ACAD_REACTORS
330
64B
102
}
330
64B
100
AcDbVisualStyle
  2
Dim
 70
    11
 71
     2
 72
     2
 73
     0
 90
        0
 40
-0.6
 41
-30.0
 62
     5
 63
     7
 74
     1
 91
        4
 64
     7
 65
   257
 75
     1
175
     1
 42
1.0
 92
        8
 66
     7
 43
1.0
 76
     1
 77
     6
 78
     2
 67
     7
 79
     5
170
     0
171
     0
290
     0
174
     0
 93
        1
 44
-50.0
173
     0
291
     1
 45
0.0
1001
ACAD
1000
AcDbSavedByObjectVersion
1070
     0
1000
AcDbSavedByObjectVersion
1070
     0
  0
VISUALSTYLE
  5
65A
102
{ACAD_REACTORS
330
64B
102
}
330
64B
100
AcDbVisualStyle
  2
Facepattern
 70
    15
 71
     2
 72
     2
 73
     0
 90
        0
 40
-0.6
 41
-30.0
 62
     5
 63
     7
 74
     1
 91
        4
 64
     7
 65
   257
 75
     1
175
     1
 42
1.0
 92
        8
 66
     7
 43
1.0
 76
     1
 77
     6
 78
     2
 67
     7
 79
     5
170
     0
171
     0
290
     0
174
     0
 93
        1
 44
0.0
173
     0
291
     1
 45
0.0
1001
ACAD
1000
AcDbSavedByObjectVersion
1070
     0
1000
AcDbSavedByObjectVersion
1070
     0
  0
VISUALSTYLE
  5
64C
102
{ACAD_REACTORS
330
64B
102
}
330
64B
100
AcDbVisualStyle
  2
Flat
 70
     0
 71
     2
 72
     1
 73
     1
 90
        2
 40
-0.6
 41
30.0
 62
     5
 63
     7
 74
     0
 91
        4
 64
     7
 65
   257
 75
     1
175
     1
 42
1.0
 92
        8
 66
     7
 43
1.0
 76
     1
 77
     6
 78
     2
 67
     7
 79
     5
170
     0
171
     0
290
     0
174
     0
 93
       13
 44
0.0
173
     0
291
     1
 45
0.0
1001
ACAD
1000
AcDbSavedByObjectVersion
1070
     0
1000
AcDbSavedByObjectVersion
1070
     0
  0
VISUALSTYLE
  5
64D
102
{ACAD_REACTORS
330
64B
102
}
330
64B
100
AcDbVisualStyle
  2
FlatWithEdges
 70
     1
 71
     2
 72
     1
 73
     1
 90
        2
 40
-0.6
 41
30.0
 62
     5
 63
     7
 74
     1
 91
        4
 64
     7
 65
   257
 75
     1
175
     1
 42
1.0
 92
        0
 66
   257
 43
1.0
 76
     1
 77
     6
 78
     2
 67
     7
 79
     5
170
     0
171
     0
290
     0
174
     0
 93
       13
 44
0.0
173
     0
291
     1
 45
0.0
1001
ACAD
1000
AcDbSavedByObjectVersion
1070
     0
1000
AcDbSavedByObjectVersion
1070
     0
  0
VISUALSTYLE
  5
64E
102
{ACAD_REACTORS
330
64B
102
}
330
64B
100
AcDbVisualStyle
  2
Gouraud
 70
     2
 71
     2
 72
     2
 73
     1
 90
        2
 40
-0.6
 41
30.0
 62
     5
 63
     7
 74
     0
 91
        4
 64
     7
 65
   257
 75
     1
175
     1
 42
1.0
 92
        0
 66
     7
 43
1.0
 76
     1
 77
     6
 78
     2
 67
     7
 79
     5
170
     0
171
     0
290
     0
174
     0
 93
       13
 44
0.0
173
     0
291
     1
 45
0.0
1001
ACAD
1000
AcDbSavedByObjectVersion
1070
     0
1000
AcDbSavedByObjectVersion
1070
     0
  0
VISUALSTYLE
  5
64F
102
{ACAD_REACTORS
330
64B
102
}
330
64B
100
AcDbVisualStyle
  2
GouraudWithEdges
 70
     3
 71
     2
 72
     2
 73
     1
 90
        2
 40
-0.6
 41
30.0
 62
     5
 63
     7
 74
     1
 91
        4
 64
     7
 65
   257
 75
     1
175
     1
 42
1.0
 92
        0
 66
   257
 43
1.0
 76
     1
 77
     6
 78
     2
 67
     7
 79
     5
170
     0
171
     0
290
     0
174
     0
 93
       13
 44
0.0
173
     0
291
     1
 45
0.0
1001
ACAD
1000
AcDbSavedByObjectVersion
1070
     0
1000
AcDbSavedByObjectVersion
1070
     0
  0
VISUALSTYLE
  5
659
102
{ACAD_REACTORS
330
64B
102
}
330
64B
100
AcDbVisualStyle
  2
Linepattern
 70
    14
 71
     2
 72
     2
 73
     0
 90
        0
 40
-0.6
 41
-30.0
 62
     5
 63
     7
 74
     1
 91
        4
 64
     7
 65
   257
 75
     7
175
     7
 42
1.0
 92
        8
 66
     7
 43
1.0
 76
     1
 77
     6
 78
     2
 67
     7
 79
     5
170
     0
171
     0
290
     0
174
     0
 93
        1
 44
0.0
173
     0
291
     1
 45
0.0
1001
ACAD
1000
AcDbSavedByObjectVersion
1070
     0
1000
AcDbSavedByObjectVersion
1070
     0
  0
VISUALSTYLE
  5
655
102
{ACAD_REACTORS
330
64B
102
}
330
64B
100
AcDbVisualStyle
  2
Realistic
 70
     8
 71
     2
 72
     2
 73
     0
 90
        0
 40
-0.6
 41
-30.0
 62
     5
 63
     7
 74
     1
 91
        0
 64
     7
 65
   257
 75
     1
175
     1
 42
1.0
 92
        8
 66
     8
 43
1.0
 76
     1
 77
     6
 78
     2
 67
     7
 79
     5
170
     0
171
     0
290
     0
174
     0
 93
       13
 44
0.0
173
     0
291
     0
 45
0.0
1001
ACAD
1000
AcDbSavedByObjectVersion
1070
     0
1000
AcDbSavedByObjectVersion
1070
     0
  0
VISUALSTYLE
  5
658
102
{ACAD_REACTORS
330
64B
102
}
330
64B
100
AcDbVisualStyle
  2
Thicken
 70
    13
 71
     2
 72
     2
 73
     0
 90
        0
 40
-0.6
 41
-30.0
 62
     5
 63
     7
 74
     1
 91
        4
 64
     7
 65
   257
 75
     1
175
     1
 42
1.0
 92
       12
 66
     7
 43
1.0
 76
     1
 77
     6
 78
     2
 67
     7
 79
     5
170
     0
171
     0
290
     0
174
     0
 93
        1
 44
0.0
173
     0
291
     1
 45
0.0
1001
ACAD
1000
AcDbSavedByObjectVersion
1070
     0
1000
AcDbSavedByObjectVersion
1070
     0
  0
DICTIONARYVAR
  5
6A5
102
{ACAD_REACTORS
330
6A1
102
}
330
6A1
100
DictionaryVariables
280
     0
  1
1:1
  0
DICTIONARYVAR
  5
6A3
102
{ACAD_REACTORS
330
6A1
102
}
330
6A1
100
DictionaryVariables
280
     0
  1
STANDARD
  0
DICTIONARYVAR
  5
6A2
102
{ACAD_REACTORS
330
6A1
102
}
330
6A1
100
DictionaryVariables
280
     0
  1
STANDARD
  0
DICTIONARYVAR
  5
113F
102
{ACAD_REACTORS
330
6A1
102
}
330
6A1
100
DictionaryVariables
280
     0
  1
1
  0
DICTIONARYVAR
  5
113E
102
{ACAD_REACTORS
330
6A1
102
}
330
6A1
100
DictionaryVariables
280
     0
  1
0
  0
DICTIONARYVAR
  5
6A6
102
{ACAD_REACTORS
330
6A1
102
}
330
6A1
100
DictionaryVariables
280
     0
  1
0
  0
DICTIONARYVAR
  5
6A4
102
{ACAD_REACTORS
330
6A1
102
}
330
6A1
100
DictionaryVariables
280
     0
  1
0
  0
DICTIONARYVAR
  5
113D
102
{ACAD_REACTORS
330
6A1
102
}
330
6A1
100
DictionaryVariables
280
     0
  1
127
  0
XRECORD
  5
69D
102
{ACAD_REACTORS
330
69B
102
}
330
69B
100
AcDbXrecord
280
     1
330
39
330
F2
  0
DICTIONARY
  5
115B
330
F
100
AcDbDictionary
280
     1
281
     1
  3
ACAD_XREC_ROUNDTRIP
360
115C
  0
DICTIONARY
  5
1159
330
A
100
AcDbDictionary
280
     1
281
     1
  3
ACAD_XREC_ROUNDTRIP
360
115A
  0
DICTIONARY
  5
63C
330
63B
100
AcDbDictionary
280
     1
281
     1
  3
ACAD_XREC_ROUNDTRIP
360
114A
  3
BUMPTILE
360
63E
  3
DIFFUSETILE
360
63D
  3
OPACITYTILE
360
641
  3
REFLECTIONTILE
360
640
  3
REFRACTIONTILE
360
642
  3
SPECULARTILE
360
63F
  0
DICTIONARY
  5
634
330
633
100
AcDbDictionary
280
     1
281
     1
  3
ACAD_XREC_ROUNDTRIP
360
1149
  3
BUMPTILE
360
636
  3
DIFFUSETILE
360
635
  3
OPACITYTILE
360
639
  3
REFLECTIONTILE
360
638
  3
REFRACTIONTILE
360
63A
  3
SPECULARTILE
360
637
  0
DICTIONARY
  5
644
330
643
100
AcDbDictionary
280
     1
281
     1
  3
ACAD_XREC_ROUNDTRIP
360
114B
  3
BUMPTILE
360
646
  3
DIFFUSETILE
360
645
  3
OPACITYTILE
360
649
  3
REFLECTIONTILE
360
648
  3
REFRACTIONTILE
360
64A
  3
SPECULARTILE
360
647
  0
DICTIONARY
  5
69E
330
65E
100
AcDbDictionary
280
     1
281
     1
  3
ACAD_ROUNDTRIP_2008_TABLESTYLE_CELLSTYLEMAP
360
1157
  3
ACAD_XREC_ROUNDTRIP
360
115D
  0
XRECORD
  5
115C
102
{ACAD_REACTORS
330
115B
102
}
330
115B
100
AcDbXrecord
280
     1
102
SHADEPLOT
 70
     0
102
SHADEPLOTRESLEVEL
 70
     2
102
SHADEPLOTCUSTOMDPI
 70
   300
  0
XRECORD
  5
115A
102
{ACAD_REACTORS
330
1159
102
}
330
1159
100
AcDbXrecord
280
     1
102
SHADEPLOT
 70
     0
102
SHADEPLOTRESLEVEL
 70
     2
102
SHADEPLOTCUSTOMDPI
 70
   300
  0
XRECORD
  5
114A
102
{ACAD_REACTORS
330
63C
102
}
330
63C
100
AcDbXrecord
280
     1
102
MATERIAL
148
0.0
149
0.0
149
0.0
 93
        0
 94
      127
282
     0
 72
     0
 77
     0
171
     0
175
     0
179
     0
273
     0
  0
XRECORD
  5
63E
102
{ACAD_REACTORS
330
63C
102
}
330
63C
100
AcDbXrecord
280
     1
270
     1
271
     1
  0
XRECORD
  5
63D
102
{ACAD_REACTORS
330
63C
102
}
330
63C
100
AcDbXrecord
280
     1
270
     1
271
     1
  0
XRECORD
  5
641
102
{ACAD_REACTORS
330
63C
102
}
330
63C
100
AcDbXrecord
280
     1
270
     1
271
     1
  0
XRECORD
  5
640
102
{ACAD_REACTORS
330
63C
102
}
330
63C
100
AcDbXrecord
280
     1
270
     1
271
     1
  0
XRECORD
  5
642
102
{ACAD_REACTORS
330
63C
102
}
330
63C
100
AcDbXrecord
280
     1
270
     1
271
     1
  0
XRECORD
  5
63F
102
{ACAD_REACTORS
330
63C
102
}
330
63C
100
AcDbXrecord
280
     1
270
     1
271
     1
  0
XRECORD
  5
1149
102
{ACAD_REACTORS
330
634
102
}
330
634
100
AcDbXrecord
280
     1
102
MATERIAL
148
0.0
149
0.0
149
0.0
 93
        0
 94
      127
282
     0
 72
     0
 77
     0
171
     0
175
     0
179
     0
273
     0
  0
XRECORD
  5
636
102
{ACAD_REACTORS
330
634
102
}
330
634
100
AcDbXrecord
280
     1
270
     1
271
     1
  0
XRECORD
  5
635
102
{ACAD_REACTORS
330
634
102
}
330
634
100
AcDbXrecord
280
     1
270
     1
271
     1
  0
XRECORD
  5
639
102
{ACAD_REACTORS
330
634
102
}
330
634
100
AcDbXrecord
280
     1
270
     1
271
     1
  0
XRECORD
  5
638
102
{ACAD_REACTORS
330
634
102
}
330
634
100
AcDbXrecord
280
     1
270
     1
271
     1
  0
XRECORD
  5
63A
102
{ACAD_REACTORS
330
634
102
}
330
634
100
AcDbXrecord
280
     1
270
     1
271
     1
  0
XRECORD
  5
637
102
{ACAD_REACTORS
330
634
102
}
330
634
100
AcDbXrecord
280
     1
270
     1
271
     1
  0
XRECORD
  5
114B
102
{ACAD_REACTORS
330
644
102
}
330
644
100
AcDbXrecord
280
     1
102
MATERIAL
148
0.0
149
0.0
149
0.0
 93
        0
 94
      127
282
     0
 72
     0
 77
     0
171
     0
175
     0
179
     0
273
     0
  0
XRECORD
  5
646
102
{ACAD_REACTORS
330
644
102
}
330
644
100
AcDbXrecord
280
     1
270
     1
271
     1
  0
XRECORD
  5
645
102
{ACAD_REACTORS
330
644
102
}
330
644
100
AcDbXrecord
280
     1
270
     1
271
     1
  0
XRECORD
  5
649
102
{ACAD_REACTORS
330
644
102
}
330
644
100
AcDbXrecord
280
     1
270
     1
271
     1
  0
XRECORD
  5
648
102
{ACAD_REACTORS
330
644
102
}
330
644
100
AcDbXrecord
280
     1
270
     1
271
     1
  0
XRECORD
  5
64A
102
{ACAD_REACTORS
330
644
102
}
330
644
100
AcDbXrecord
280
     1
270
     1
271
     1
  0
XRECORD
  5
647
102
{ACAD_REACTORS
330
644
102
}
330
644
100
AcDbXrecord
280
     1
270
     1
271
     1
  0
CELLSTYLEMAP
  5
1157
102
{ACAD_REACTORS
330
69E
102
}
330
69E
100
AcDbCellStyleMap
 90
        3
300
CELLSTYLE
  1
TABLEFORMAT_BEGIN
 90
        5
170
     1
 91
        0
 92
    32768
 62
   257
 93
        1
300
CONTENTFORMAT
  1
CONTENTFORMAT_BEGIN
 90
        0
 91
        0
 92
      512
 93
        0
300

 40
0.0
140
1.0
 94
        5
 62
     0
340
12
144
6.0
309
CONTENTFORMAT_END
171
     1
301
MARGIN
  1
CELLMARGIN_BEGIN
 40
1.5
 40
1.5
 40
1.5
 40
1.5
 40
0.18
 40
0.18
309
CELLMARGIN_END
 94
        6
 95
        1
302
GRIDFORMAT
  1
GRIDFORMAT_BEGIN
 90
        0
 91
        1
 62
     0
 92
       -2
340
0
 93
        0
 40
1.125
309
GRIDFORMAT_END
 95
        2
302
GRIDFORMAT
  1
GRIDFORMAT_BEGIN
 90
        0
 91
        1
 62
     0
 92
       -2
340
0
 93
        0
 40
1.125
309
GRIDFORMAT_END
 95
        4
302
GRIDFORMAT
  1
GRIDFORMAT_BEGIN
 90
        0
 91
        1
 62
     0
 92
       -2
340
0
 93
        0
 40
1.125
309
GRIDFORMAT_END
 95
        8
302
GRIDFORMAT
  1
GRIDFORMAT_BEGIN
 90
        0
 91
        1
 62
     0
 92
       -2
340
0
 93
        0
 40
1.125
309
GRIDFORMAT_END
 95
       16
302
GRIDFORMAT
  1
GRIDFORMAT_BEGIN
 90
        0
 91
        1
 62
     0
 92
       -2
340
0
 93
        0
 40
1.125
309
GRIDFORMAT_END
 95
       32
302
GRIDFORMAT
  1
GRIDFORMAT_BEGIN
 90
        0
 91
        1
 62
     0
 92
       -2
340
0
 93
        0
 40
1.125
309
GRIDFORMAT_END
309
TABLEFORMAT_END
  1
CELLSTYLE_BEGIN
 90
        1
 91
        1
300
_TITLE
309
CELLSTYLE_END
300
CELLSTYLE
  1
TABLEFORMAT_BEGIN
 90
        5
170
     1
 91
        0
 92
        0
 62
   257
 93
        1
300
CONTENTFORMAT
  1
CONTENTFORMAT_BEGIN
 90
        0
 91
        0
 92
      512
 93
        0
300

 40
0.0
140
1.0
 94
        5
 62
     0
340
12
144
4.5
309
CONTENTFORMAT_END
171
     1
301
MARGIN
  1
CELLMARGIN_BEGIN
 40
1.5
 40
1.5
 40
1.5
 40
1.5
 40
0.18
 40
0.18
309
CELLMARGIN_END
 94
        6
 95
        1
302
GRIDFORMAT
  1
GRIDFORMAT_BEGIN
 90
        0
 91
        1
 62
     0
 92
       -2
340
0
 93
        0
 40
1.125
309
GRIDFORMAT_END
 95
        2
302
GRIDFORMAT
  1
GRIDFORMAT_BEGIN
 90
        0
 91
        1
 62
     0
 92
       -2
340
0
 93
        0
 40
1.125
309
GRIDFORMAT_END
 95
        4
302
GRIDFORMAT
  1
GRIDFORMAT_BEGIN
 90
        0
 91
        1
 62
     0
 92
       -2
340
0
 93
        0
 40
1.125
309
GRIDFORMAT_END
 95
        8
302
GRIDFORMAT
  1
GRIDFORMAT_BEGIN
 90
        0
 91
        1
 62
     0
 92
       -2
340
0
 93
        0
 40
1.125
309
GRIDFORMAT_END
 95
       16
302
GRIDFORMAT
  1
GRIDFORMAT_BEGIN
 90
        0
 91
        1
 62
     0
 92
       -2
340
0
 93
        0
 40
1.125
309
GRIDFORMAT_END
 95
       32
302
GRIDFORMAT
  1
GRIDFORMAT_BEGIN
 90
        0
 91
        1
 62
     0
 92
       -2
340
0
 93
        0
 40
1.125
309
GRIDFORMAT_END
309
TABLEFORMAT_END
  1
CELLSTYLE_BEGIN
 90
        2
 91
        1
300
_HEADER
309
CELLSTYLE_END
300
CELLSTYLE
  1
TABLEFORMAT_BEGIN
 90
        5
170
     1
 91
        0
 92
        0
 62
   257
 93
        1
300
CONTENTFORMAT
  1
CONTENTFORMAT_BEGIN
 90
        0
 91
        0
 92
      512
 93
        0
300

 40
0.0
140
1.0
 94
        2
 62
     0
340
12
144
4.5
309
CONTENTFORMAT_END
171
     1
301
MARGIN
  1
CELLMARGIN_BEGIN
 40
1.5
 40
1.5
 40
1.5
 40
1.5
 40
0.18
 40
0.18
309
CELLMARGIN_END
 94
        6
 95
        1
302
GRIDFORMAT
  1
GRIDFORMAT_BEGIN
 90
        0
 91
        1
 62
     0
 92
       -2
340
0
 93
        0
 40
1.125
309
GRIDFORMAT_END
 95
        2
302
GRIDFORMAT
  1
GRIDFORMAT_BEGIN
 90
        0
 91
        1
 62
     0
 92
       -2
340
0
 93
        0
 40
1.125
309
GRIDFORMAT_END
 95
        4
302
GRIDFORMAT
  1
GRIDFORMAT_BEGIN
 90
        0
 91
        1
 62
     0
 92
       -2
340
0
 93
        0
 40
1.125
309
GRIDFORMAT_END
 95
        8
302
GRIDFORMAT
  1
GRIDFORMAT_BEGIN
 90
        0
 91
        1
 62
     0
 92
       -2
340
0
 93
        0
 40
1.125
309
GRIDFORMAT_END
 95
       16
302
GRIDFORMAT
  1
GRIDFORMAT_BEGIN
 90
        0
 91
        1
 62
     0
 92
       -2
340
0
 93
        0
 40
1.125
309
GRIDFORMAT_END
 95
       32
302
GRIDFORMAT
  1
GRIDFORMAT_BEGIN
 90
        0
 91
        1
 62
     0
 92
       -2
340
0
 93
        0
 40
1.125
309
GRIDFORMAT_END
309
TABLEFORMAT_END
  1
CELLSTYLE_BEGIN
 90
        3
 91
        2
300
_DATA
309
CELLSTYLE_END
  0
XRECORD
  5
115D
102
{ACAD_REACTORS
330
69E
102
}
330
69E
100
AcDbXrecord
280
     1
102
ACAD_ROUNDTRIP_PRE2007_TABLESTYLE
 90
      512
 91
        0
  1

 92
      512
 93
        0
  2

 94
      512
 95
        0
  3

  0
ENDSEC
  0
EOF
