  0
SECTION
  2
HEADER
  9
$ACADVER
  1
AC1027
  9
$ACADMAINTVER
 70
   105
  9
$DWGCODEPAGE
  3
ANSI_1252
  9
$REQUIREDVERSIONS
160
                 0
  9
$LASTSAVEDBY
  1
cesare
  9
$INSBASE
 10
0.0
 20
0.0
 30
0.0
  9
$EXTMIN
 10
349.8192309104097
 20
-125.4851656564732
 30
0.0
  9
$EXTMAX
 10
609.0916927507988
 20
74.25376138576445
 30
0.0
  9
$LIMMIN
 10
-20.0
 20
-0.021978
  9
$LIMMAX
 10
2645.85
 20
758.35
  9
$ORTHOMODE
 70
     0
  9
$REGENMODE
 70
     1
  9
$FILLMODE
 70
     1
  9
$QTEXTMODE
 70
     0
  9
$MIRRTEXT
 70
     1
  9
$LTSCALE
 40
10.0
  9
$ATTMODE
 70
     1
  9
$TEXTSIZE
 40
0.0
  9
$TRACEWID
 40
0.05
  9
$TEXTSTYLE
  7
STANDARD
  9
$CLAYER
  8
0
  9
$CELTYPE
  6
CONTINUOUS
  9
$CECOLOR
 62
   256
  9
$CELTSCALE
 40
1.0
  9
$DISPSILH
 70
     0
  9
$DIMSCALE
 40
1.0
  9
$DIMASZ
 40
1.25
  9
$DIMEXO
 40
0.0
  9
$DIMDLI
 40
0.38
  9
$DIMRND
 40
0.0
  9
$DIMDLE
 40
0.0
  9
$DIMEXE
 40
0.75
  9
$DIMTP
 40
0.0
  9
$DIMTM
 40
0.0
  9
$DIMTXT
 40
2.5
  9
$DIMCEN
 40
0.09
  9
$DIMTSZ
 40
0.0
  9
$DIMTOL
 70
     0
  9
$DIMLIM
 70
     0
  9
$DIMTIH
 70
     0
  9
$DIMTOH
 70
     0
  9
$DIMSE1
 70
     0
  9
$DIMSE2
 70
     0
  9
$DIMTAD
 70
     1
  9
$DIMZIN
 70
     0
  9
$DIMBLK
  1

  9
$DIMASO
 70
     1
  9
$DIMSHO
 70
     1
  9
$DIMPOST
  1

  9
$DIMAPOST
  1

  9
$DIMALT
 70
     0
  9
$DIMALTD
 70
     2
  9
$DIMALTF
 40
25.4
  9
$DIMLFAC
 40
1.0
  9
$DIMTOFL
 70
     0
  9
$DIMTVP
 40
0.0
  9
$DIMTIX
 70
     0
  9
$DIMSOXD
 70
     0
  9
$DIMSAH
 70
     0
  9
$DIMBLK1
  1

  9
$DIMBLK2
  1

  9
$DIMSTYLE
  2
STANDARD
  9
$DIMCLRD
 70
     7
  9
$DIMCLRE
 70
     7
  9
$DIMCLRT
 70
     7
  9
$DIMTFAC
 40
0.8
  9
$DIMGAP
 40
1.25
  9
$DIMJUST
 70
     0
  9
$DIMSD1
 70
     0
  9
$DIMSD2
 70
     0
  9
$DIMTOLJ
 70
     1
  9
$DIMTZIN
 70
     0
  9
$DIMALTZ
 70
     0
  9
$DIMALTTZ
 70
     0
  9
$DIMUPT
 70
     0
  9
$DIMDEC
 70
     4
  9
$DIMTDEC
 70
     4
  9
$DIMALTU
 70
     2
  9
$DIMALTTD
 70
     2
  9
$DIMTXSTY
  7
STANDARD
  9
$DIMAUNIT
 70
     0
  9
$DIMADEC
 70
     0
  9
$DIMALTRND
 40
0.0
  9
$DIMAZIN
 70
     0
  9
$DIMDSEP
 70
    46
  9
$DIMATFIT
 70
     3
  9
$DIMFRAC
 70
     0
  9
$DIMLDRBLK
  1

  9
$DIMLUNIT
 70
     2
  9
$DIMLWD
 70
    -2
  9
$DIMLWE
 70
    -2
  9
$DIMTMOVE
 70
     2
  9
$DIMFXL
 40
1.0
  9
$DIMFXLON
 70
     0
  9
$DIMJOGANG
 40
0.7853981633974483
  9
$DIMTFILL
 70
     0
  9
$DIMTFILLCLR
 70
     0
  9
$DIMARCSYM
 70
     0
  9
$DIMLTYPE
  6

  9
$DIMLTEX1
  6

  9
$DIMLTEX2
  6

  9
$DIMTXTDIRECTION
 70
     0
  9
$LUNITS
 70
     2
  9
$LUPREC
 70
     4
  9
$SKETCHINC
 40
0.1
  9
$FILLETRAD
 40
0.0
  9
$AUNITS
 70
     0
  9
$AUPREC
 70
     0
  9
$MENU
  1
acad
  9
$ELEVATION
 40
0.0
  9
$PELEVATION
 40
0.0
  9
$THICKNESS
 40
0.0
  9
$LIMCHECK
 70
     0
  9
$CHAMFERA
 40
0.0
  9
$CHAMFERB
 40
0.0
  9
$CHAMFERC
 40
0.0
  9
$CHAMFERD
 40
0.0
  9
$SKPOLY
 70
     0
  9
$TDCREATE
 40
2455329.702198461
  9
$TDUCREATE
 40
2455329.618865127
  9
$TDUPDATE
 40
2457898.37937309
  9
$TDUUPDATE
 40
2457898.296039757
  9
$TDINDWG
 40
0.0562132986
  9
$TDUSRTIMER
 40
2457898.294675683
  9
$USRTIMER
 70
     1
  9
$ANGBASE
 50
0.0
  9
$ANGDIR
 70
     0
  9
$PDMODE
 70
     0
  9
$PDSIZE
 40
0.0
  9
$PLINEWID
 40
0.0
  9
$SPLFRAME
 70
     0
  9
$SPLINETYPE
 70
     6
  9
$SPLINESEGS
 70
     8
  9
$HANDSEED
  5
8B4D
  9
$SURFTAB1
 70
     6
  9
$SURFTAB2
 70
     6
  9
$SURFTYPE
 70
     6
  9
$SURFU
 70
     6
  9
$SURFV
 70
     6
  9
$UCSBASE
  2

  9
$UCSNAME
  2

  9
$UCSORG
 10
0.0
 20
0.0
 30
0.0
  9
$UCSXDIR
 10
1.0
 20
0.0
 30
0.0
  9
$UCSYDIR
 10
0.0
 20
1.0
 30
0.0
  9
$UCSORTHOREF
  2

  9
$UCSORTHOVIEW
 70
     0
  9
$UCSORGTOP
 10
0.0
 20
0.0
 30
0.0
  9
$UCSORGBOTTOM
 10
0.0
 20
0.0
 30
0.0
  9
$UCSORGLEFT
 10
0.0
 20
0.0
 30
0.0
  9
$UCSORGRIGHT
 10
0.0
 20
0.0
 30
0.0
  9
$UCSORGFRONT
 10
0.0
 20
0.0
 30
0.0
  9
$UCSORGBACK
 10
0.0
 20
0.0
 30
0.0
  9
$PUCSBASE
  2

  9
$PUCSNAME
  2

  9
$PUCSORG
 10
0.0
 20
0.0
 30
0.0
  9
$PUCSXDIR
 10
1.0
 20
0.0
 30
0.0
  9
$PUCSYDIR
 10
0.0
 20
1.0
 30
0.0
  9
$PUCSORTHOREF
  2

  9
$PUCSORTHOVIEW
 70
     0
  9
$PUCSORGTOP
 10
0.0
 20
0.0
 30
0.0
  9
$PUCSORGBOTTOM
 10
0.0
 20
0.0
 30
0.0
  9
$PUCSORGLEFT
 10
0.0
 20
0.0
 30
0.0
  9
$PUCSORGRIGHT
 10
0.0
 20
0.0
 30
0.0
  9
$PUCSORGFRONT
 10
0.0
 20
0.0
 30
0.0
  9
$PUCSORGBACK
 10
0.0
 20
0.0
 30
0.0
  9
$USERI1
 70
     0
  9
$USERI2
 70
     0
  9
$USERI3
 70
     0
  9
$USERI4
 70
     0
  9
$USERI5
 70
     0
  9
$USERR1
 40
0.0
  9
$USERR2
 40
0.0
  9
$USERR3
 40
0.0
  9
$USERR4
 40
0.0
  9
$USERR5
 40
0.0
  9
$WORLDVIEW
 70
     1
  9
$SHADEDGE
 70
     3
  9
$SHADEDIF
 70
    70
  9
$TILEMODE
 70
     1
  9
$MAXACTVP
 70
    16
  9
$PINSBASE
 10
0.0
 20
0.0
 30
0.0
  9
$PLIMCHECK
 70
     0
  9
$PEXTMIN
 10
1.000000000000000E+20
 20
1.000000000000000E+20
 30
1.000000000000000E+20
  9
$PEXTMAX
 10
-1.000000000000000E+20
 20
-1.000000000000000E+20
 30
-1.000000000000000E+20
  9
$PLIMMIN
 10
0.0
 20
0.0
  9
$PLIMMAX
 10
0.0
 20
0.0
  9
$UNITMODE
 70
     0
  9
$VISRETAIN
 70
     0
  9
$PLINEGEN
 70
     1
  9
$PSLTSCALE
 70
     0
  9
$TREEDEPTH
 70
  3020
  9
$CMLSTYLE
  2
Standard
  9
$CMLJUST
 70
     0
  9
$CMLSCALE
 40
1.0
  9
$PROXYGRAPHICS
 70
     1
  9
$MEASUREMENT
 70
     0
  9
$CELWEIGHT
370
    -1
  9
$ENDCAPS
280
     0
  9
$JOINSTYLE
280
     0
  9
$LWDISPLAY
290
     0
  9
$INSUNITS
 70
     0
  9
$HYPERLINKBASE
  1

  9
$STYLESHEET
  1

  9
$XEDIT
290
     1
  9
$CEPSNTYPE
380
     0
  9
$PSTYLEMODE
290
     0
  9
$FINGERPRINTGUID
  2
{026A0533-3704-44B4-8691-EDF28938D45B}
  9
$VERSIONGUID
  2
{FAEB1C32-E019-11D5-929B-00C0DF256EC4}
  9
$EXTNAMES
290
     1
  9
$PSVPSCALE
 40
0.0
  9
$OLESTARTUP
290
     0
  9
$SORTENTS
280
   127
  9
$INDEXCTL
280
     0
  9
$HIDETEXT
280
     1
  9
$XCLIPFRAME
280
     2
  9
$HALOGAP
280
     0
  9
$OBSCOLOR
 70
   257
  9
$OBSLTYPE
280
     0
  9
$INTERSECTIONDISPLAY
280
     0
  9
$INTERSECTIONCOLOR
 70
   257
  9
$DIMASSOC
280
     2
  9
$PROJECTNAME
  1

  9
$CAMERADISPLAY
290
     0
  9
$LENSLENGTH
 40
50.0
  9
$CAMERAHEIGHT
 40
0.0
  9
$STEPSPERSEC
 40
2.0
  9
$STEPSIZE
 40
6.0
  9
$3DDWFPREC
 40
2.0
  9
$PSOLWIDTH
 40
0.25
  9
$PSOLHEIGHT
 40
4.0
  9
$LOFTANG1
 40
1.570796326794897
  9
$LOFTANG2
 40
1.570796326794897
  9
$LOFTMAG1
 40
0.0
  9
$LOFTMAG2
 40
0.0
  9
$LOFTPARAM
 70
     7
  9
$LOFTNORMALS
280
     1
  9
$LATITUDE
 40
37.795
  9
$LONGITUDE
 40
-122.394
  9
$NORTHDIRECTION
 40
0.0
  9
$TIMEZONE
 70
 -8000
  9
$LIGHTGLYPHDISPLAY
280
     1
  9
$TILEMODELIGHTSYNCH
280
     1
  9
$SOLIDHIST
280
     0
  9
$SHOWHIST
280
     1
  9
$DWFFRAME
280
     2
  9
$DGNFRAME
280
     2
  9
$REALWORLDSCALE
290
     1
  9
$INTERFERECOLOR
 62
   256
  9
$CSHADOW
280
     0
  9
$SHADOWPLANELOCATION
 40
0.0
  0
ENDSEC
  0
SECTION
  2
CLASSES
  0
CLASS
  1
ACDBDICTIONARYWDFLT
  2
AcDbDictionaryWithDefault
  3
ObjectDBX Classes
 90
        0
 91
        4
280
     0
281
     0
  0
CLASS
  1
MATERIAL
  2
AcDbMaterial
  3
ObjectDBX Classes
 90
     1153
 91
        4
280
     0
281
     0
  0
CLASS
  1
SCALE
  2
AcDbScale
  3
ObjectDBX Classes
 90
     1153
 91
        4
280
     0
281
     0
  0
CLASS
  1
VISUALSTYLE
  2
AcDbVisualStyle
  3
ObjectDBX Classes
 90
     4095
 91
        4
280
     0
281
     0
  0
CLASS
  1
TABLESTYLE
  2
AcDbTableStyle
  3
ObjectDBX Classes
 90
     4095
 91
        4
280
     0
281
     0
  0
CLASS
  1
MLEADERSTYLE
  2
AcDbMLeaderStyle
  3
ACDB_MLEADERSTYLE_CLASS
 90
     4095
 91
        4
280
     0
281
     0
  0
CLASS
  1
SUN
  2
AcDbSun
  3
SCENEOE
 90
     1153
 91
        4
280
     0
281
     0
  0
CLASS
  1
RASTERVARIABLES
  2
AcDbRasterVariables
  3
ISM
 90
        0
 91
        4
280
     0
281
     0
  0
CLASS
  1
DICTIONARYVAR
  2
AcDbDictionaryVar
  3
ObjectDBX Classes
 90
        0
 91
        4
280
     0
281
     0
  0
CLASS
  1
CELLSTYLEMAP
  2
AcDbCellStyleMap
  3
ObjectDBX Classes
 90
     1152
 91
        4
280
     0
281
     0
  0
ENDSEC
  0
SECTION
  2
TABLES
  0
TABLE
  2
VPORT
  5
8597
330
0
100
AcDbSymbolTable
 70
     1
  0
VPORT
  5
85AE
330
8597
100
AcDbSymbolTableRecord
100
AcDbViewportTableRecord
  2
*ACTIVE
 70
     0
 10
0.0
 20
0.0
 11
1.0
 21
1.0
 12
479.4554618306042
 22
-25.61570213535435
 13
0.0
 23
0.0
 14
1.0
 24
1.0
 15
0.0
 25
0.0
 16
0.0
 26
0.0
 36
1.0
 17
0.0
 27
0.0
 37
0.0
 40
203.7337055830824
 41
2.128133704735376
 42
50.0
 43
0.0
 44
0.0
 50
0.0
 51
0.0
 71
    16
 72
   100
 73
     1
 74
     1
 75
     0
 76
     1
 77
     0
 78
     0
281
     0
 65
     0
110
0.0
120
0.0
130
0.0
111
1.0
121
0.0
131
0.0
112
0.0
122
1.0
132
0.0
 79
     0
146
0.0
348
85F0
 60
     3
 61
     5
292
     1
282
     1
141
0.0
142
0.0
 63
   256
361
8609
  0
ENDTAB
  0
TABLE
  2
LTYPE
  5
8594
330
0
100
AcDbSymbolTable
 70
     4
  0
LTYPE
  5
85A2
330
8594
100
AcDbSymbolTableRecord
100
AcDbLinetypeTableRecord
  2
ByBlock
 70
     0
  3

 72
    65
 73
     0
 40
0.0
  0
LTYPE
  5
85A3
330
8594
100
AcDbSymbolTableRecord
100
AcDbLinetypeTableRecord
  2
ByLayer
 70
     0
  3

 72
    65
 73
     0
 40
0.0
  0
LTYPE
  5
85A4
330
8594
100
AcDbSymbolTableRecord
100
AcDbLinetypeTableRecord
  2
CONTINUOUS
 70
     0
  3
Solid line
 72
    65
 73
     0
 40
0.0
  0
LTYPE
  5
85B0
330
8594
100
AcDbSymbolTableRecord
100
AcDbLinetypeTableRecord
  2
CENTER
 70
     0
  3
____ _ ____ _ ____ _ ____ _ ____ _ ____ _ ____
 72
    65
 73
     4
 40
2.0
 49
1.25
 74
     0
 49
-0.25
 74
     0
 49
0.25
 74
     0
 49
-0.25
 74
     0
  0
LTYPE
  5
85B1
330
8594
100
AcDbSymbolTableRecord
100
AcDbLinetypeTableRecord
  2
________________0
 70
     0
  3

 72
    65
 73
     4
 40
7.2
 49
2.7
 74
     0
 49
-1.8
 74
     0
 49
0.8999999999999999
 74
     0
 49
-1.8
 74
     0
  0
LTYPE
  5
85B2
330
8594
100
AcDbSymbolTableRecord
100
AcDbLinetypeTableRecord
  2
________________
 70
     0
  3

 72
    65
 73
     0
 40
0.0
  0
ENDTAB
  0
TABLE
  2
LAYER
  5
8591
330
0
100
AcDbSymbolTable
 70
     2
  0
LAYER
  5
859F
330
8591
100
AcDbSymbolTableRecord
100
AcDbLayerTableRecord
  2
0
 70
     0
 62
     7
  6
CONTINUOUS
370
    -3
390
859E
347
85B7
348
0
  0
LAYER
  5
85B8
330
8591
100
AcDbSymbolTableRecord
100
AcDbLayerTableRecord
  2
DEFPOINTS
 70
     0
 62
     7
  6
CONTINUOUS
290
     0
370
    -3
390
859E
347
85B7
348
0
  0
ENDTAB
  0
TABLE
  2
STYLE
  5
8592
330
0
100
AcDbSymbolTable
 70
     2
  0
STYLE
  5
85A0
330
8592
100
AcDbSymbolTableRecord
100
AcDbTextStyleTableRecord
  2
STANDARD
 70
     0
 40
0.0
 41
1.0
 50
0.0
 71
     0
 42
0.0
  3
I011000D_0.TTF
  4

  0
STYLE
  5
860F
330
8592
100
AcDbSymbolTableRecord
100
AcDbTextStyleTableRecord
  2
SLDTEXTSTYLE0
 70
     0
 40
0.0
 41
0.75
 50
0.0
 71
     0
 42
0.0
  3
TXT
  4

  0
ENDTAB
  0
TABLE
  2
VIEW
  5
8595
330
0
100
AcDbSymbolTable
 70
     0
  0
ENDTAB
  0
TABLE
  2
UCS
  5
8596
330
0
100
AcDbSymbolTable
 70
     0
  0
ENDTAB
  0
TABLE
  2
APPID
  5
8598
330
0
100
AcDbSymbolTable
 70
     4
  0
APPID
  5
85A1
330
8598
100
AcDbSymbolTableRecord
100
AcDbRegAppTableRecord
  2
ACAD
 70
     0
  0
APPID
  5
85BB
330
8598
100
AcDbSymbolTableRecord
100
AcDbRegAppTableRecord
  2
TOPSOLID_DRAFT
 70
     0
  0
APPID
  5
85BC
330
8598
100
AcDbSymbolTableRecord
100
AcDbRegAppTableRecord
  2
ACAD_MLEADERVER
 70
     0
  0
APPID
  5
85BD
330
8598
100
AcDbSymbolTableRecord
100
AcDbRegAppTableRecord
  2
DCO15
 70
     0
  0
ENDTAB
  0
TABLE
  2
DIMSTYLE
  5
8599
330
0
100
AcDbSymbolTable
 70
     2
100
AcDbDimStyleTable
  0
DIMSTYLE
105
85BE
330
8599
100
AcDbSymbolTableRecord
100
AcDbDimStyleTableRecord
  2
STANDARD
 70
     0
 41
1.25
 42
0.0
 44
0.75
 73
     0
 74
     0
 77
     1
140
2.5
146
0.8
147
1.25
176
     7
177
     7
178
     7
340
85A0
  0
DIMSTYLE
105
860D
330
8599
100
AcDbSymbolTableRecord
100
AcDbDimStyleTableRecord
  2
ISO-25
 70
     0
 41
2.5
 42
0.625
 43
3.75
 44
1.25
 73
     0
 74
     0
 77
     1
 78
     8
140
2.5
141
2.5
143
0.03937007874016
147
0.625
171
     3
172
     1
178
     0
271
     2
272
     2
274
     3
278
    44
283
     0
284
     8
340
85A0
  0
ENDTAB
  0
TABLE
  2
BLOCK_RECORD
  5
8590
330
0
100
AcDbSymbolTable
 70
     5
  0
BLOCK_RECORD
  5
85AB
330
8590
100
AcDbSymbolTableRecord
100
AcDbBlockTableRecord
  2
*Model_Space
340
85AC
 70
     0
280
     1
281
     0
  0
BLOCK_RECORD
  5
85A9
330
8590
100
AcDbSymbolTableRecord
100
AcDbBlockTableRecord
  2
*Paper_Space
340
85AA
 70
     0
280
     1
281
     0
  0
BLOCK_RECORD
  5
85C2
330
8590
100
AcDbSymbolTableRecord
100
AcDbBlockTableRecord
  2
D_FRAME_VIEW_411
340
0
 70
     0
280
     1
281
     0
  0
BLOCK_RECORD
  5
85C4
330
8590
100
AcDbSymbolTableRecord
100
AcDbBlockTableRecord
  2
D_FRAME_VIEW_409
340
0
 70
     0
280
     1
281
     0
  0
BLOCK_RECORD
  5
85C6
330
8590
100
AcDbSymbolTableRecord
100
AcDbBlockTableRecord
  2
D_FRAME_VIEW_403
340
0
 70
     0
280
     1
281
     0
  0
BLOCK_RECORD
  5
85C8
330
8590
100
AcDbSymbolTableRecord
100
AcDbBlockTableRecord
  2
D_FRAME_VIEW_415
340
0
 70
     0
280
     1
281
     0
  0
ENDTAB
  0
ENDSEC
  0
SECTION
  2
BLOCKS
  0
BLOCK
  5
85BF
330
85AB
100
AcDbEntity
  8
0
100
AcDbBlockBegin
  2
*Model_Space
 70
     0
 10
0.0
 20
0.0
 30
0.0
  3
*Model_Space
  1

  0
ENDBLK
  5
E
330
85AB
100
AcDbEntity
  8
0
100
AcDbBlockEnd
  0
BLOCK
  5
85C0
330
85A9
100
AcDbEntity
 67
     1
  8
0
100
AcDbBlockBegin
  2
*Paper_Space
 70
     0
 10
0.0
 20
0.0
 30
0.0
  3
*Paper_Space
  1

  0
ENDBLK
  5
10
330
85A9
100
AcDbEntity
 67
     1
  8
0
100
AcDbBlockEnd
  0
BLOCK
  5
85C1
330
85C2
100
AcDbEntity
  8
0
100
AcDbBlockBegin
  2
D_FRAME_VIEW_411
 70
     0
 10
0.0
 20
0.0
 30
0.0
  3
D_FRAME_VIEW_411
  1

  0
LINE
  5
7C6B
330
85C2
100
AcDbEntity
  8
0
  6
________________
 62
     7
100
AcDbLine
 10
39.99999999999999
 20
142.8502246779625
 30
0.0
 11
39.99999999999999
 21
141.1000000002348
 31
0.0
  0
LINE
  5
7C6C
330
85C2
100
AcDbEntity
  8
0
  6
________________
 62
     7
100
AcDbLine
 10
39.99999999999999
 20
141.1000000002348
 30
0.0
 11
38.24977532225534
 21
141.1000000002179
 31
0.0
  0
ARC
  5
7C6D
330
85C2
100
AcDbEntity
  8
0
  6
________________
 62
     7
100
AcDbCircle
 10
40.49999999999999
 20
140.6000000002179
 30
0.0
 40
2.305105442345541
100
AcDbArc
 50
167.4724037601814
 51
192.5275962398054
  0
LINE
  5
7C6E
330
85C2
100
AcDbEntity
  8
0
  6
________________
 62
     7
100
AcDbLine
 10
38.24977532225287
 20
140.1000000002179
 30
0.0
 11
39.99999999999999
 21
140.1000000002348
 31
0.0
  0
LINE
  5
7C6F
330
85C2
100
AcDbEntity
  8
0
  6
________________
 62
     7
100
AcDbLine
 10
39.99999999999999
 20
140.1000000002348
 30
0.0
 11
39.99999999999999
 21
138.3497753224732
 31
0.0
  0
ARC
  5
7C70
330
85C2
100
AcDbEntity
  8
0
  6
________________
 62
     7
100
AcDbCircle
 10
40.49999999999999
 20
140.6000000002179
 30
0.0
 40
2.305105442345548
100
AcDbArc
 50
257.4724037601814
 51
282.5275962398188
  0
LINE
  5
7C71
330
85C2
100
AcDbEntity
  8
0
  6
________________
 62
     7
100
AcDbLine
 10
40.99999999999999
 20
138.3497753224732
 30
0.0
 11
40.99999999999999
 21
140.1000000002348
 31
0.0
  0
LINE
  5
7C72
330
85C2
100
AcDbEntity
  8
0
  6
________________
 62
     7
100
AcDbLine
 10
40.99999999999999
 20
140.1000000002348
 30
0.0
 11
42.75022467774465
 21
140.1000000002179
 31
0.0
  0
ARC
  5
7C73
330
85C2
100
AcDbEntity
  8
0
  6
________________
 62
     7
100
AcDbCircle
 10
40.49999999999999
 20
140.6000000002179
 30
0.0
 40
2.305105442345548
100
AcDbArc
 50
347.4724037601814
 51
12.52759623981876
  0
LINE
  5
7C74
330
85C2
100
AcDbEntity
  8
0
  6
________________
 62
     7
100
AcDbLine
 10
42.75022467774463
 20
141.1000000002179
 30
0.0
 11
40.99999999999999
 21
141.100000000235
 31
0.0
  0
LINE
  5
7C75
330
85C2
100
AcDbEntity
  8
0
  6
________________
 62
     7
100
AcDbLine
 10
40.99999999999999
 20
141.100000000235
 30
0.0
 11
40.99999999999999
 21
142.8502246779625
 31
0.0
  0
ARC
  5
7C76
330
85C2
100
AcDbEntity
  8
0
  6
________________
 62
     7
100
AcDbCircle
 10
40.49999999999999
 20
140.6000000002179
 30
0.0
 40
2.305105442345521
100
AcDbArc
 50
77.47240376018132
 51
102.5275962398188
  0
CIRCLE
  5
7C77
330
85C2
100
AcDbEntity
  8
0
  6
________________
 62
     7
100
AcDbCircle
 10
40.49999999999999
 20
140.6000000001727
 30
0.0
 40
4.200000000000002
  0
ARC
  5
7C78
330
85C2
100
AcDbEntity
  8
0
  6
________________
 62
     7
100
AcDbCircle
 10
40.49999999999999
 20
140.6000000000382
 30
0.0
 40
0.9368318729904139
100
AcDbArc
 50
237.7432806739904
 51
302.2567193260096
  0
ARC
  5
7C79
330
85C2
100
AcDbEntity
  8
0
  6
________________
 62
     7
100
AcDbCircle
 10
40.49999999999999
 20
140.6000000000382
 30
0.0
 40
0.9368318729904139
100
AcDbArc
 50
147.7432806739904
 51
212.2567193260096
  0
ARC
  5
7C7A
330
85C2
100
AcDbEntity
  8
0
  6
________________
 62
     7
100
AcDbCircle
 10
40.49999999999999
 20
140.6000000000382
 30
0.0
 40
0.9368318729904139
100
AcDbArc
 50
327.7432806739903
 51
32.2567193260096
  0
ARC
  5
7C7B
330
85C2
100
AcDbEntity
  8
0
  6
________________
 62
     7
100
AcDbCircle
 10
40.49999999999999
 20
140.6000000000382
 30
0.0
 40
0.9368318729904139
100
AcDbArc
 50
57.74328067399023
 51
122.2567193260098
  0
LINE
  5
7C7C
330
85C2
100
AcDbEntity
  8
0
  6
________________
 62
     7
100
AcDbLine
 10
69.99999999999999
 20
142.8502246779625
 30
0.0
 11
69.99999999999999
 21
141.1000000002348
 31
0.0
  0
LINE
  5
7C7D
330
85C2
100
AcDbEntity
  8
0
  6
________________
 62
     7
100
AcDbLine
 10
69.99999999999999
 20
141.1000000002348
 30
0.0
 11
68.24977532225533
 21
141.1000000002179
 31
0.0
  0
ARC
  5
7C7E
330
85C2
100
AcDbEntity
  8
0
  6
________________
 62
     7
100
AcDbCircle
 10
70.49999999999999
 20
140.6000000002179
 30
0.0
 40
2.305105442345548
100
AcDbArc
 50
167.4724037601814
 51
192.5275962398054
  0
LINE
  5
7C7F
330
85C2
100
AcDbEntity
  8
0
  6
________________
 62
     7
100
AcDbLine
 10
68.24977532225287
 20
140.1000000002179
 30
0.0
 11
69.99999999999999
 21
140.1000000002348
 31
0.0
  0
LINE
  5
7C80
330
85C2
100
AcDbEntity
  8
0
  6
________________
 62
     7
100
AcDbLine
 10
69.99999999999999
 20
140.1000000002348
 30
0.0
 11
69.99999999999999
 21
138.3497753224732
 31
0.0
  0
ARC
  5
7C81
330
85C2
100
AcDbEntity
  8
0
  6
________________
 62
     7
100
AcDbCircle
 10
70.49999999999999
 20
140.6000000002179
 30
0.0
 40
2.305105442345548
100
AcDbArc
 50
257.4724037601814
 51
282.5275962398188
  0
LINE
  5
7C82
330
85C2
100
AcDbEntity
  8
0
  6
________________
 62
     7
100
AcDbLine
 10
70.99999999999999
 20
138.3497753224732
 30
0.0
 11
70.99999999999999
 21
140.1000000002348
 31
0.0
  0
LINE
  5
7C83
330
85C2
100
AcDbEntity
  8
0
  6
________________
 62
     7
100
AcDbLine
 10
70.99999999999999
 20
140.1000000002348
 30
0.0
 11
72.75022467774465
 21
140.1000000002179
 31
0.0
  0
ARC
  5
7C84
330
85C2
100
AcDbEntity
  8
0
  6
________________
 62
     7
100
AcDbCircle
 10
70.49999999999999
 20
140.6000000002179
 30
0.0
 40
2.305105442345548
100
AcDbArc
 50
347.4724037601814
 51
12.52759623981876
  0
LINE
  5
7C85
330
85C2
100
AcDbEntity
  8
0
  6
________________
 62
     7
100
AcDbLine
 10
72.75022467774464
 20
141.1000000002179
 30
0.0
 11
70.99999999999999
 21
141.100000000235
 31
0.0
  0
LINE
  5
7C86
330
85C2
100
AcDbEntity
  8
0
  6
________________
 62
     7
100
AcDbLine
 10
70.99999999999999
 20
141.100000000235
 30
0.0
 11
70.99999999999999
 21
142.8502246779625
 31
0.0
  0
ARC
  5
7C87
330
85C2
100
AcDbEntity
  8
0
  6
________________
 62
     7
100
AcDbCircle
 10
70.49999999999999
 20
140.6000000002179
 30
0.0
 40
2.305105442345521
100
AcDbArc
 50
77.47240376018132
 51
102.5275962398188
  0
CIRCLE
  5
7C88
330
85C2
100
AcDbEntity
  8
0
  6
________________
 62
     7
100
AcDbCircle
 10
70.49999999999999
 20
140.6000000001727
 30
0.0
 40
4.199999999999996
  0
ARC
  5
7C89
330
85C2
100
AcDbEntity
  8
0
  6
________________
 62
     7
100
AcDbCircle
 10
70.49999999999999
 20
140.6000000000382
 30
0.0
 40
0.9368318729904139
100
AcDbArc
 50
237.7432806739904
 51
302.2567193260096
  0
ARC
  5
7C8A
330
85C2
100
AcDbEntity
  8
0
  6
________________
 62
     7
100
AcDbCircle
 10
70.49999999999999
 20
140.6000000000382
 30
0.0
 40
0.9368318729904139
100
AcDbArc
 50
147.7432806739904
 51
212.2567193260095
  0
ARC
  5
7C8B
330
85C2
100
AcDbEntity
  8
0
  6
________________
 62
     7
100
AcDbCircle
 10
70.49999999999999
 20
140.6000000000382
 30
0.0
 40
0.9368318729904139
100
AcDbArc
 50
327.7432806739905
 51
32.2567193260096
  0
ARC
  5
7C8C
330
85C2
100
AcDbEntity
  8
0
  6
________________
 62
     7
100
AcDbCircle
 10
70.49999999999999
 20
140.6000000000382
 30
0.0
 40
0.9368318729904139
100
AcDbArc
 50
57.74328067399023
 51
122.2567193260098
  0
LINE
  5
7C8D
330
85C2
100
AcDbEntity
  8
0
  6
________________
 62
     7
100
AcDbLine
 10
61.49999999999999
 20
145.5999999999998
 30
0.0
 11
49.49999999999999
 21
145.5999999999998
 31
0.0
  0
LINE
  5
7C8E
330
85C2
100
AcDbEntity
  8
0
  6
________________
 62
     7
100
AcDbLine
 10
49.49999999999999
 20
145.5999999999998
 30
0.0
 11
49.49999999999999
 21
140.5999999999998
 31
0.0
  0
ARC
  5
7C8F
330
85C2
100
AcDbEntity
  8
0
  6
________________
 62
     7
100
AcDbCircle
 10
44.5
 20
140.5999999999998
 30
0.0
 40
4.999999999999977
100
AcDbArc
 50
269.9999999999999
 51
0.0
  0
LINE
  5
7C90
330
85C2
100
AcDbEntity
  8
0
  6
________________
 62
     7
100
AcDbLine
 10
44.49999999999999
 20
135.5999999999998
 30
0.0
 11
30.6086335410398
 21
135.5999999999998
 31
0.0
  0
LINE
  5
7C91
330
85C2
100
AcDbEntity
  8
0
  6
________________
 62
     7
100
AcDbLine
 10
30.6086335410398
 20
135.5999999999998
 30
0.0
 11
30.49999999999999
 21
135.5999999999998
 31
0.0
  0
LINE
  5
7C92
330
85C2
100
AcDbEntity
  8
0
  6
________________
 62
     7
100
AcDbLine
 10
30.5
 20
160.5999999999998
 30
0.0
 11
30.49999999999999
 21
135.5999999999998
 31
0.0
  0
LINE
  5
7C93
330
85C2
100
AcDbEntity
  8
0
  6
________________
 62
     7
100
AcDbLine
 10
80.5
 20
160.5999999999998
 30
0.0
 11
30.5
 21
160.5999999999998
 31
0.0
  0
LINE
  5
7C94
330
85C2
100
AcDbEntity
  8
0
  6
________________
 62
     7
100
AcDbLine
 10
80.5
 20
160.5999999999998
 30
0.0
 11
80.49999999999999
 21
135.5999999999998
 31
0.0
  0
LINE
  5
7C95
330
85C2
100
AcDbEntity
  8
0
  6
________________
 62
     7
100
AcDbLine
 10
80.49999999999999
 20
135.5999999999998
 30
0.0
 11
80.39136645896018
 21
135.5999999999998
 31
0.0
  0
LINE
  5
7C96
330
85C2
100
AcDbEntity
  8
0
  6
________________
 62
     7
100
AcDbLine
 10
80.39136645896018
 20
135.5999999999998
 30
0.0
 11
66.5
 21
135.5999999999998
 31
0.0
  0
ARC
  5
7C97
330
85C2
100
AcDbEntity
  8
0
  6
________________
 62
     7
100
AcDbCircle
 10
66.5
 20
140.5999999999998
 30
0.0
 40
5.000000000000004
100
AcDbArc
 50
180.0
 51
270.0
  0
LINE
  5
7C98
330
85C2
100
AcDbEntity
  8
0
  6
________________
 62
     7
100
AcDbLine
 10
61.49999999999999
 20
140.5999999999998
 30
0.0
 11
61.49999999999999
 21
145.5999999999998
 31
0.0
  0
LINE
  5
7C99
330
85C2
100
AcDbEntity
  8
0
  6
________________
 62
     7
100
AcDbLine
 10
67.99999999999923
 20
123.9000000000001
 30
0.0
 11
43.00000000000069
 21
123.9000000000001
 31
0.0
  0
LINE
  5
7C9A
330
85C2
100
AcDbEntity
  8
0
  6
________________
 62
     7
100
AcDbLine
 10
43.50000000000066
 20
124.4000000000001
 30
0.0
 11
67.49999999999926
 21
124.4000000000001
 31
0.0
  0
LINE
  5
7C9B
330
85C2
100
AcDbEntity
  8
0
  6
________________
 62
     7
100
AcDbLine
 10
43.00000000000069
 20
118.9000000000002
 30
0.0
 11
67.99999999999923
 21
118.9000000000002
 31
0.0
  0
LINE
  5
7C9C
330
85C2
100
AcDbEntity
  8
0
  6
________________
 62
     7
100
AcDbLine
 10
67.49999999999926
 20
118.4000000000002
 30
0.0
 11
43.50000000000066
 21
118.4000000000002
 31
0.0
  0
LINE
  5
7C9D
330
85C2
100
AcDbEntity
  8
0
  6
________________
 62
     7
100
AcDbLine
 10
64.49999999999945
 20
131.8999999999998
 30
0.0
 11
46.50000000000048
 21
131.8999999999998
 31
0.0
  0
LINE
  5
7C9E
330
85C2
100
AcDbEntity
  8
0
  6
________________
 62
     7
100
AcDbLine
 10
47.00000000000045
 20
132.3999999999998
 30
0.0
 11
63.99999999999947
 21
132.3999999999998
 31
0.0
  0
CIRCLE
  5
7C9F
330
85C2
100
AcDbEntity
  8
0
  6
________________
 62
     7
100
AcDbCircle
 10
55.49999999999999
 20
138.8999999999998
 30
0.0
 40
3.42264973081037
  0
CIRCLE
  5
7CA0
330
85C2
100
AcDbEntity
  8
0
  6
________________
 62
     7
100
AcDbCircle
 10
-55.49999999999999
 20
138.8999999999998
 30
0.0
 40
4.000000000000004
210
0.0
220
0.0
230
-1.0
  0
LINE
  5
7CA1
330
85C2
100
AcDbEntity
  8
0
  6
________________
 62
     7
100
AcDbLine
 10
49.74999999999999
 20
142.7794494717702
 30
0.0
 11
49.74999999999999
 21
144.8999999999998
 31
0.0
  0
LINE
  5
7CA2
330
85C2
100
AcDbEntity
  8
0
  6
________________
 62
     7
100
AcDbLine
 10
50.25
 20
145.3999999999998
 30
0.0
 11
49.74999999999999
 21
144.8999999999998
 31
0.0
  0
LINE
  5
7CA3
330
85C2
100
AcDbEntity
  8
0
  6
________________
 62
     7
100
AcDbLine
 10
60.74999999999999
 20
145.3999999999998
 30
0.0
 11
50.25
 21
145.3999999999998
 31
0.0
  0
LINE
  5
7CA4
330
85C2
100
AcDbEntity
  8
0
  6
________________
 62
     7
100
AcDbLine
 10
61.24999999999999
 20
144.8999999999998
 30
0.0
 11
60.74999999999999
 21
145.3999999999998
 31
0.0
  0
LINE
  5
7CA5
330
85C2
100
AcDbEntity
  8
0
  6
________________
 62
     7
100
AcDbLine
 10
61.24999999999999
 20
144.8999999999998
 30
0.0
 11
61.24999999999999
 21
142.7794494717702
 31
0.0
  0
ARC
  5
7CA6
330
85C2
100
AcDbEntity
  8
0
  6
________________
 62
     7
100
AcDbCircle
 10
65.75
 20
140.5999999999998
 30
0.0
 40
5.000000000000013
100
AcDbArc
 50
154.158067236833
 51
270.0
  0
LINE
  5
7CA7
330
85C2
100
AcDbEntity
  8
0
  6
________________
 62
     7
100
AcDbLine
 10
65.75
 20
135.5999999999998
 30
0.0
 11
66.49999999999999
 21
135.5999999999998
 31
0.0
  0
LINE
  5
7CA8
330
85C2
100
AcDbEntity
  8
0
  6
________________
 62
     7
100
AcDbLine
 10
66.49999999999999
 20
135.5999999999998
 30
0.0
 11
80.39136645896018
 21
135.5999999999998
 31
0.0
  0
ARC
  5
7CA9
330
85C2
100
AcDbEntity
  8
0
  6
________________
 62
     7
100
AcDbCircle
 10
77.49999999999999
 20
136.3999999999998
 30
0.0
 40
3.000000000000003
100
AcDbArc
 50
270.0
 51
344.5339900465793
  0
LINE
  5
7CAA
330
85C2
100
AcDbEntity
  8
0
  6
________________
 62
     7
100
AcDbLine
 10
77.49999999999999
 20
133.3999999999998
 30
0.0
 11
33.49999999999999
 21
133.3999999999998
 31
0.0
  0
ARC
  5
7CAB
330
85C2
100
AcDbEntity
  8
0
  6
________________
 62
     7
100
AcDbCircle
 10
33.49999999999999
 20
136.3999999999998
 30
0.0
 40
2.999999999999996
100
AcDbArc
 50
195.4660099534206
 51
270.0000000000001
  0
CIRCLE
  5
7CAC
330
85C2
100
AcDbEntity
  8
0
  6
________________
 62
     7
100
AcDbCircle
 10
-55.49999999999999
 20
138.8999999999998
 30
0.0
 40
4.200000000000002
210
0.0
220
0.0
230
-1.0
  0
LINE
  5
7CAD
330
85C2
100
AcDbEntity
  8
0
  6
________________
 62
     7
100
AcDbLine
 10
30.6086335410398
 20
135.5999999999998
 30
0.0
 11
44.5
 21
135.5999999999998
 31
0.0
  0
LINE
  5
7CAE
330
85C2
100
AcDbEntity
  8
0
  6
________________
 62
     7
100
AcDbLine
 10
44.5
 20
135.5999999999998
 30
0.0
 11
45.24999999999999
 21
135.5999999999998
 31
0.0
  0
ARC
  5
7CAF
330
85C2
100
AcDbEntity
  8
0
  6
________________
 62
     7
100
AcDbCircle
 10
45.24999999999999
 20
140.5999999999998
 30
0.0
 40
5.000000000000004
100
AcDbArc
 50
270.0
 51
25.84193276316699
  0
LINE
  5
7CB0
330
85C2
100
AcDbEntity
  8
0
  6
________________
 62
     7
100
AcDbLine
 10
50.24999999999999
 20
145.3999999999998
 30
0.0
 11
49.49999999999999
 21
145.3999999999998
 31
0.0
  0
LINE
  5
7CB1
330
85C2
100
AcDbEntity
  8
0
  6
________________
 62
     7
100
AcDbLine
 10
61.49999999999999
 20
145.3999999999998
 30
0.0
 11
60.74999999999999
 21
145.3999999999998
 31
0.0
  0
LINE
  5
7CB2
330
85C2
100
AcDbEntity
  8
0
  6
________________
 62
     7
100
AcDbLine
 10
67.99999999999974
 20
123.9000000000001
 30
0.0
 11
67.49999999999976
 21
124.4000000000001
 31
0.0
  0
LINE
  5
7CB3
330
85C2
100
AcDbEntity
  8
0
  6
________________
 62
     7
100
AcDbLine
 10
43.50000000000018
 20
124.4000000000001
 30
0.0
 11
43.00000000000019
 21
123.9000000000001
 31
0.0
  0
LINE
  5
7CB4
330
85C2
100
AcDbEntity
  8
0
  6
________________
 62
     7
100
AcDbLine
 10
67.99999999999974
 20
118.9000000000002
 30
0.0
 11
67.99999999999974
 21
123.9000000000001
 31
0.0
  0
LINE
  5
7CB5
330
85C2
100
AcDbEntity
  8
0
  6
________________
 62
     7
100
AcDbLine
 10
43.00000000000019
 20
123.9000000000001
 30
0.0
 11
43.00000000000019
 21
118.9000000000002
 31
0.0
  0
LINE
  5
7CB6
330
85C2
100
AcDbEntity
  8
0
  6
________________
 62
     7
100
AcDbLine
 10
43.00000000000019
 20
118.9000000000002
 30
0.0
 11
43.50000000000018
 21
118.4000000000002
 31
0.0
  0
LINE
  5
7CB7
330
85C2
100
AcDbEntity
  8
0
  6
________________
 62
     7
100
AcDbLine
 10
67.49999999999976
 20
118.4000000000002
 30
0.0
 11
67.99999999999974
 21
118.9000000000002
 31
0.0
  0
LINE
  5
7CB8
330
85C2
100
AcDbEntity
  8
0
  6
________________
 62
     7
100
AcDbLine
 10
64.4999999999998
 20
131.8999999999998
 30
0.0
 11
63.99999999999981
 21
132.3999999999998
 31
0.0
  0
LINE
  5
7CB9
330
85C2
100
AcDbEntity
  8
0
  6
________________
 62
     7
100
AcDbLine
 10
47.00000000000011
 20
132.3999999999998
 30
0.0
 11
46.50000000000012
 21
131.8999999999998
 31
0.0
  0
LINE
  5
7CBA
330
85C2
100
AcDbEntity
  8
0
  6
________________
 62
     7
100
AcDbLine
 10
64.4999999999998
 20
124.4000000000001
 30
0.0
 11
64.4999999999998
 21
131.8999999999998
 31
0.0
  0
LINE
  5
7CBB
330
85C2
100
AcDbEntity
  8
0
  6
________________
 62
     7
100
AcDbLine
 10
46.50000000000012
 20
131.8999999999998
 30
0.0
 11
46.50000000000012
 21
124.4000000000001
 31
0.0
  0
LINE
  5
7CBC
330
85C2
100
AcDbEntity
  8
0
  6
________________
 62
     7
100
AcDbLine
 10
62.49999999999999
 20
132.3999999999998
 30
0.0
 11
62.49999999999999
 21
133.3999999999998
 31
0.0
  0
LINE
  5
7CBD
330
85C2
100
AcDbEntity
  8
0
  6
________________
 62
     7
100
AcDbLine
 10
48.49999999999999
 20
133.3999999999998
 30
0.0
 11
48.49999999999999
 21
132.3999999999998
 31
0.0
  0
ENDBLK
  5
7CBE
330
85C2
100
AcDbEntity
  8
0
100
AcDbBlockEnd
  0
BLOCK
  5
85C3
330
85C4
100
AcDbEntity
  8
0
100
AcDbBlockBegin
  2
D_FRAME_VIEW_409
 70
     0
 10
0.0
 20
0.0
 30
0.0
  3
D_FRAME_VIEW_409
  1

  0
LINE
  5
7CCE
330
85C4
100
AcDbEntity
  8
0
  6
________________
 62
     7
100
AcDbLine
 10
143.5948945574366
 20
245.5382374704551
 30
0.0
 11
143.6497753220375
 21
245.5382374704586
 31
0.0
  0
LINE
  5
7CCF
330
85C4
100
AcDbEntity
  8
0
  6
________________
 62
     7
100
AcDbLine
 10
141.6999999998273
 20
244.8328609147535
 30
0.0
 11
150.0999999998273
 21
244.8328609152913
 31
0.0
  0
LINE
  5
7CD0
330
85C4
100
AcDbEntity
  8
0
  6
________________
 62
     7
100
AcDbLine
 10
143.6497753220375
 20
245.5382374704585
 30
0.0
 11
145.3999999997652
 21
245.8033106221583
 31
0.0
  0
LINE
  5
7CD1
330
85C4
100
AcDbEntity
  8
0
  6
________________
 62
     7
100
AcDbLine
 10
145.3999999997652
 20
245.8033106221583
 30
0.0
 11
145.3999999997822
 21
245.5382374705707
 31
0.0
  0
LINE
  5
7CD2
330
85C4
100
AcDbEntity
  8
0
  6
________________
 62
     7
100
AcDbLine
 10
145.3999999997822
 20
245.5382374705707
 30
0.0
 11
146.3999999997816
 21
245.5382374706347
 31
0.0
  0
LINE
  5
7CD3
330
85C4
100
AcDbEntity
  8
0
  6
________________
 62
     7
100
AcDbLine
 10
146.3999999997822
 20
245.5382374706396
 30
0.0
 11
146.3999999997652
 21
245.8033106222224
 31
0.0
  0
LINE
  5
7CD4
330
85C4
100
AcDbEntity
  8
0
  6
________________
 62
     7
100
AcDbLine
 10
146.3999999997652
 20
245.8033106222224
 30
0.0
 11
148.1502246775268
 21
245.5382374707468
 31
0.0
  0
LINE
  5
7CD5
330
85C4
100
AcDbEntity
  8
0
  6
________________
 62
     7
100
AcDbLine
 10
148.1502246775268
 20
245.5382374707468
 30
0.0
 11
148.2051054421277
 21
245.5382374707503
 31
0.0
  0
LINE
  5
7CD6
330
85C4
100
AcDbEntity
  8
0
  6
________________
 62
     7
100
AcDbLine
 10
141.6999999998593
 20
244.3328609147535
 30
0.0
 11
150.0999999998593
 21
244.3328609152913
 31
0.0
  0
LINE
  5
7CD7
330
85C4
100
AcDbEntity
  8
0
  6
________________
 62
   253
100
AcDbLine
 10
128.9000000000002
 20
238.1328609150224
 30
0.0
 11
129.9000000000002
 21
238.1328609150224
 31
0.0
  0
LINE
  5
7CD8
330
85C4
100
AcDbEntity
  8
0
  6
________________
 62
     7
100
AcDbLine
 10
128.9000000000002
 20
240.1328609150224
 30
0.0
 11
129.9000000000002
 21
240.1328609150224
 31
0.0
  0
LINE
  5
7CD9
330
85C4
100
AcDbEntity
  8
0
  6
________________
 62
     7
100
AcDbLine
 10
129.9000000000002
 20
240.1328609150224
 30
0.0
 11
129.9000000000002
 21
238.1328609150224
 31
0.0
  0
LINE
  5
7CDA
330
85C4
100
AcDbEntity
  8
0
  6
________________
 62
   253
100
AcDbLine
 10
128.9000000000002
 20
187.1328609150224
 30
0.0
 11
129.9000000000002
 21
187.1328609150224
 31
0.0
  0
LINE
  5
7CDB
330
85C4
100
AcDbEntity
  8
0
  6
________________
 62
     7
100
AcDbLine
 10
129.9000000000002
 20
238.1328609150224
 30
0.0
 11
129.9000000000002
 21
187.1328609150224
 31
0.0
  0
LINE
  5
7CDC
330
85C4
100
AcDbEntity
  8
0
  6
________________
 62
     7
100
AcDbLine
 10
128.9000000000002
 20
185.1328609150224
 30
0.0
 11
129.9000000000002
 21
185.1328609150224
 31
0.0
  0
LINE
  5
7CDD
330
85C4
100
AcDbEntity
  8
0
  6
________________
 62
     7
100
AcDbLine
 10
129.9000000000002
 20
187.1328609150224
 30
0.0
 11
129.9000000000002
 21
185.1328609150224
 31
0.0
  0
LINE
  5
7CDE
330
85C4
100
AcDbEntity
  8
0
  6
________________
 62
     7
100
AcDbLine
 10
125.9000000000002
 20
244.1328609150225
 30
0.0
 11
150.9000000000002
 21
244.1328609150225
 31
0.0
  0
LINE
  5
7CDF
330
85C4
100
AcDbEntity
  8
0
  6
________________
 62
     7
100
AcDbLine
 10
150.9000000000002
 20
244.1328609150225
 30
0.0
 11
150.9000000000002
 21
241.1328609150224
 31
0.0
  0
LINE
  5
7CE0
330
85C4
100
AcDbEntity
  8
0
  6
________________
 62
     7
100
AcDbLine
 10
150.9000000000002
 20
241.1328609150224
 30
0.0
 11
150.1000000000002
 21
241.1328609150224
 31
0.0
  0
LINE
  5
7CE1
330
85C4
100
AcDbEntity
  8
0
  6
________________
 62
     7
100
AcDbLine
 10
150.1000000000002
 20
241.1328609150224
 30
0.0
 11
141.1000000000002
 21
241.1328609150224
 31
0.0
  0
LINE
  5
7CE2
330
85C4
100
AcDbEntity
  8
0
  6
________________
 62
     7
100
AcDbLine
 10
141.1000000000002
 20
241.1328609150224
 30
0.0
 11
128.9000000000002
 21
241.1328609150224
 31
0.0
  0
LINE
  5
7CE3
330
85C4
100
AcDbEntity
  8
0
  6
________________
 62
     7
100
AcDbLine
 10
128.9000000000002
 20
241.1328609150224
 30
0.0
 11
128.9000000000002
 21
187.1328609150224
 31
0.0
  0
LINE
  5
7CE4
330
85C4
100
AcDbEntity
  8
0
  6
________________
 62
   253
100
AcDbLine
 10
125.9000000000002
 20
187.1328609150224
 30
0.0
 11
128.9000000000002
 21
187.1328609150224
 31
0.0
  0
LINE
  5
7CE5
330
85C4
100
AcDbEntity
  8
0
  6
________________
 62
     7
100
AcDbLine
 10
125.9000000000002
 20
187.1328609150224
 30
0.0
 11
125.9000000000002
 21
244.1328609150225
 31
0.0
  0
LINE
  5
7CE6
330
85C4
100
AcDbEntity
  8
0
  6
________________
 62
     7
100
AcDbLine
 10
128.9000000000002
 20
184.1328609150224
 30
0.0
 11
125.9000000000002
 21
184.1328609150225
 31
0.0
  0
LINE
  5
7CE7
330
85C4
100
AcDbEntity
  8
0
  6
________________
 62
     7
100
AcDbLine
 10
125.9000000000002
 20
184.1328609150225
 30
0.0
 11
125.9000000000002
 21
187.1328609150224
 31
0.0
  0
LINE
  5
7CE8
330
85C4
100
AcDbEntity
  8
0
  6
________________
 62
     7
100
AcDbLine
 10
128.9000000000002
 20
187.1328609150224
 30
0.0
 11
128.9000000000002
 21
184.1328609150224
 31
0.0
  0
LINE
  5
7CE9
330
85C4
100
AcDbEntity
  8
0
  6
________________
 62
     7
100
AcDbLine
 10
140.0999999999814
 20
185.1328609150257
 30
0.0
 11
141.0999999999814
 21
185.1328609150252
 31
0.0
  0
LINE
  5
7CEA
330
85C4
100
AcDbEntity
  8
0
  6
________________
 62
     7
100
AcDbLine
 10
140.0999999999822
 20
187.1328609150259
 30
0.0
 11
140.0999999999814
 21
185.1328609150257
 31
0.0
  0
LINE
  5
7CEB
330
85C4
100
AcDbEntity
  8
0
  6
________________
 62
   253
100
AcDbLine
 10
140.0999999999815
 20
187.1328609150259
 30
0.0
 11
141.0999999999815
 21
187.1328609150255
 31
0.0
  0
LINE
  5
7CEC
330
85C4
100
AcDbEntity
  8
0
  6
________________
 62
     7
100
AcDbLine
 10
140.1000000000018
 20
238.1328609150259
 30
0.0
 11
140.0999999999815
 21
187.1328609150259
 31
0.0
  0
LINE
  5
7CED
330
85C4
100
AcDbEntity
  8
0
  6
________________
 62
   253
100
AcDbLine
 10
140.1000000000018
 20
238.1328609150259
 30
0.0
 11
141.1000000000018
 21
238.1328609150256
 31
0.0
  0
LINE
  5
7CEE
330
85C4
100
AcDbEntity
  8
0
  6
________________
 62
     7
100
AcDbLine
 10
140.1000000000033
 20
240.1328609150257
 30
0.0
 11
141.1000000000033
 21
240.1328609150253
 31
0.0
  0
LINE
  5
7CEF
330
85C4
100
AcDbEntity
  8
0
  6
________________
 62
     7
100
AcDbLine
 10
140.1000000000033
 20
240.1328609150257
 30
0.0
 11
140.1000000000025
 21
238.1328609150259
 31
0.0
  0
LINE
  5
7CF0
330
85C4
100
AcDbEntity
  8
0
  6
________________
 62
     7
100
AcDbLine
 10
157.8000000000002
 20
202.1328609150319
 30
0.0
 11
160.3927011508361
 21
202.1328609150319
 31
0.0
  0
LINE
  5
7CF1
330
85C4
100
AcDbEntity
  8
0
  6
________________
 62
     7
100
AcDbLine
 10
160.3927011508361
 20
202.1328609150319
 30
0.0
 11
160.4000000000002
 21
202.1328609150319
 31
0.0
  0
LINE
  5
7CF2
330
85C4
100
AcDbEntity
  8
0
  6
________________
 62
     7
100
AcDbLine
 10
168.0999999999998
 20
223.1328609150218
 30
0.0
 11
168.0999999999998
 21
199.1328609150232
 31
0.0
  0
LINE
  5
7CF3
330
85C4
100
AcDbEntity
  8
0
  6
________________
 62
     7
100
AcDbLine
 10
167.5999999999998
 20
198.6328609150232
 30
0.0
 11
167.5999999999998
 21
223.6328609150217
 31
0.0
  0
LINE
  5
7CF4
330
85C4
100
AcDbEntity
  8
0
  6
________________
 62
     7
100
AcDbLine
 10
162.5999999999999
 20
223.6328609150217
 30
0.0
 11
162.5999999999999
 21
211.1328609150225
 31
0.0
  0
LINE
  5
7CF5
330
85C4
100
AcDbEntity
  8
0
  6
________________
 62
     7
100
AcDbLine
 10
162.5999999999999
 20
211.1328609150225
 30
0.0
 11
162.5999999999999
 21
198.6328609150236
 31
0.0
  0
LINE
  5
7CF6
330
85C4
100
AcDbEntity
  8
0
  6
________________
 62
     7
100
AcDbLine
 10
162.1
 20
199.1328609150232
 30
0.0
 11
162.1
 21
211.1328609150225
 31
0.0
  0
LINE
  5
7CF7
330
85C4
100
AcDbEntity
  8
0
  6
________________
 62
     7
100
AcDbLine
 10
162.1
 20
211.1328609150225
 30
0.0
 11
162.1
 21
223.1328609150214
 31
0.0
  0
LINE
  5
7CF8
330
85C4
100
AcDbEntity
  8
0
  6
________________
 62
     7
100
AcDbLine
 10
154.6000000000002
 20
220.132860915022
 30
0.0
 11
154.6000000000002
 21
211.1328609150225
 31
0.0
  0
ARC
  5
7CF9
330
85C4
100
AcDbEntity
  8
0
  6
________________
 62
     7
100
AcDbCircle
 10
159.1000000000001
 20
193.4185737894865
 30
0.0
 40
9.000072227837025
100
AcDbArc
 50
75.52260653724534
 51
104.4773934627547
  0
LINE
  5
7CFA
330
85C4
100
AcDbEntity
  8
0
  6
________________
 62
     7
100
AcDbLine
 10
154.6000000000002
 20
211.1328609150225
 30
0.0
 11
154.6000000000002
 21
202.1328609150233
 31
0.0
  0
LINE
  5
7CFB
330
85C4
100
AcDbEntity
  8
0
  6
________________
 62
     7
100
AcDbLine
 10
154.1000000000002
 20
202.632860915023
 30
0.0
 11
154.1000000000002
 21
211.1328609150225
 31
0.0
  0
LINE
  5
7CFC
330
85C4
100
AcDbEntity
  8
0
  6
________________
 62
     7
100
AcDbLine
 10
154.1000000000002
 20
211.1328609150225
 30
0.0
 11
154.1000000000002
 21
219.6328609150217
 31
0.0
  0
LINE
  5
7CFD
330
85C4
100
AcDbEntity
  8
0
  6
________________
 62
     7
100
AcDbLine
 10
149.8365611122956
 20
244.9593364062549
 30
0.0
 11
149.9689073756713
 21
244.9593364062549
 31
0.0
  0
LINE
  5
7CFE
330
85C4
100
AcDbEntity
  8
0
  6
________________
 62
     7
100
AcDbLine
 10
149.9689073756713
 20
244.9593364062549
 30
0.0
 11
151.0226497308106
 21
244.9593364062549
 31
0.0
  0
LINE
  5
7CFF
330
85C4
100
AcDbEntity
  8
0
  6
________________
 62
     7
100
AcDbLine
 10
150.9000000000002
 20
244.1328609150225
 30
0.0
 11
153.1000000000002
 21
244.1328609150225
 31
0.0
  0
LINE
  5
7D00
330
85C4
100
AcDbEntity
  8
0
  6
________________
 62
     7
100
AcDbLine
 10
153.1000000000002
 20
244.1328609150225
 30
0.0
 11
153.1000000000002
 21
187.1328609150224
 31
0.0
  0
LINE
  5
7D01
330
85C4
100
AcDbEntity
  8
0
  6
________________
 62
   253
100
AcDbLine
 10
150.1000000000002
 20
187.1328609150224
 30
0.0
 11
153.1000000000002
 21
187.1328609150224
 31
0.0
  0
LINE
  5
7D02
330
85C4
100
AcDbEntity
  8
0
  6
________________
 62
   253
100
AcDbLine
 10
150.1000000000002
 20
187.1328609150224
 30
0.0
 11
150.1000000000002
 21
241.1328609150224
 31
0.0
  0
LINE
  5
7D03
330
85C4
100
AcDbEntity
  8
0
  6
________________
 62
     7
100
AcDbLine
 10
150.1000000000002
 20
241.1328609150224
 30
0.0
 11
150.9000000000002
 21
241.1328609150224
 31
0.0
  0
ARC
  5
7D04
330
85C4
100
AcDbEntity
  8
0
  6
________________
 62
     7
100
AcDbCircle
 10
150.1000000000002
 20
187.1328609150224
 30
0.0
 40
3.000000000000003
100
AcDbArc
 50
270.0
 51
0.0
  0
LINE
  5
7D05
330
85C4
100
AcDbEntity
  8
0
  6
________________
 62
   253
100
AcDbLine
 10
150.1000000000002
 20
187.1328609150224
 30
0.0
 11
150.1000000000002
 21
184.1328609150224
 31
0.0
  0
LINE
  5
7D06
330
85C4
100
AcDbEntity
  8
0
  6
________________
 62
     7
100
AcDbLine
 10
141.1000000000002
 20
241.1328609150224
 30
0.0
 11
141.1000000000002
 21
187.1328609150224
 31
0.0
  0
LINE
  5
7D07
330
85C4
100
AcDbEntity
  8
0
  6
________________
 62
   253
100
AcDbLine
 10
141.1000000000002
 20
187.1328609150224
 30
0.0
 11
150.1000000000002
 21
187.1328609150224
 31
0.0
  0
LINE
  5
7D08
330
85C4
100
AcDbEntity
  8
0
  6
________________
 62
     7
100
AcDbLine
 10
141.1000000000002
 20
241.1328609150224
 30
0.0
 11
150.1000000000002
 21
241.1328609150224
 31
0.0
  0
LINE
  5
7D09
330
85C4
100
AcDbEntity
  8
0
  6
________________
 62
     7
100
AcDbLine
 10
150.1000000000002
 20
184.1328609150224
 30
0.0
 11
141.1000000000002
 21
184.1328609150224
 31
0.0
  0
LINE
  5
7D0A
330
85C4
100
AcDbEntity
  8
0
  6
________________
 62
     7
100
AcDbLine
 10
141.1000000000002
 20
184.1328609150224
 30
0.0
 11
141.1000000000002
 21
187.1328609150224
 31
0.0
  0
ARC
  5
7D0B
330
85C4
100
AcDbEntity
  8
0
  6
________________
 62
     7
100
AcDbCircle
 10
145.8571658496672
 20
236.3329574820614
 30
0.0
 40
9.50000000000002
100
AcDbArc
 50
63.47334390354366
 51
75.6909814485892
  0
ARC
  5
7D0C
330
85C4
100
AcDbEntity
  8
0
  6
________________
 62
     7
100
AcDbCircle
 10
145.9428341510759
 20
236.3329574820668
 30
0.0
 40
9.50000000000001
100
AcDbArc
 50
104.3090185587481
 51
116.5266561037936
  0
LINE
  5
7D0D
330
85C4
100
AcDbEntity
  8
0
  6
________________
 62
     7
100
AcDbLine
 10
141.6999999998273
 20
244.8328609147535
 30
0.0
 11
141.6999999998593
 21
244.3328609147535
 31
0.0
  0
LINE
  5
7D0E
330
85C4
100
AcDbEntity
  8
0
  6
________________
 62
     7
100
AcDbLine
 10
150.0999999998593
 20
244.3328609152913
 30
0.0
 11
150.0999999998273
 21
244.8328609152914
 31
0.0
  0
LINE
  5
7D0F
330
85C4
100
AcDbEntity
  8
0
  6
________________
 62
     7
100
AcDbLine
 10
141.6999999998593
 20
244.3328609147535
 30
0.0
 11
141.899999999616
 21
244.1328609150225
 31
0.0
  0
LINE
  5
7D10
330
85C4
100
AcDbEntity
  8
0
  6
________________
 62
     7
100
AcDbLine
 10
149.899999999616
 20
244.1328609150225
 30
0.0
 11
150.0999999998593
 21
244.3328609152913
 31
0.0
  0
LINE
  5
7D11
330
85C4
100
AcDbEntity
  8
0
  6
________________
 62
     7
100
AcDbLine
 10
157.5288972270633
 20
202.2780945433909
 30
0.0
 11
157.8000000000002
 21
202.1328609150319
 31
0.0
  0
LINE
  5
7D12
330
85C4
100
AcDbEntity
  8
0
  6
________________
 62
     7
100
AcDbLine
 10
160.4000000000002
 20
202.1328609150319
 30
0.0
 11
160.6711089174491
 21
202.2780978350938
 31
0.0
  0
LINE
  5
7D13
330
85C4
100
AcDbEntity
  8
0
  6
________________
 62
     7
100
AcDbLine
 10
167.5999999999998
 20
198.6328609150226
 30
0.0
 11
168.0999999999998
 21
199.1328609150226
 31
0.0
  0
LINE
  5
7D14
330
85C4
100
AcDbEntity
  8
0
  6
________________
 62
     7
100
AcDbLine
 10
168.0999999999998
 20
223.1328609150223
 30
0.0
 11
167.5999999999998
 21
223.6328609150223
 31
0.0
  0
LINE
  5
7D15
330
85C4
100
AcDbEntity
  8
0
  6
________________
 62
     7
100
AcDbLine
 10
167.5999999999998
 20
223.6328609150223
 30
0.0
 11
162.5999999999999
 21
223.6328609150223
 31
0.0
  0
LINE
  5
7D16
330
85C4
100
AcDbEntity
  8
0
  6
________________
 62
     7
100
AcDbLine
 10
162.5999999999999
 20
198.6328609150226
 30
0.0
 11
167.5999999999998
 21
198.6328609150226
 31
0.0
  0
LINE
  5
7D17
330
85C4
100
AcDbEntity
  8
0
  6
________________
 62
     7
100
AcDbLine
 10
162.5999999999999
 20
223.6328609150223
 30
0.0
 11
162.1
 21
223.1328609150223
 31
0.0
  0
LINE
  5
7D18
330
85C4
100
AcDbEntity
  8
0
  6
________________
 62
     7
100
AcDbLine
 10
162.1
 20
199.1328609150226
 30
0.0
 11
162.5999999999999
 21
198.6328609150226
 31
0.0
  0
LINE
  5
7D19
330
85C4
100
AcDbEntity
  8
0
  6
________________
 62
     7
100
AcDbLine
 10
162.1
 20
220.1328609150224
 30
0.0
 11
154.6000000000002
 21
220.1328609150224
 31
0.0
  0
LINE
  5
7D1A
330
85C4
100
AcDbEntity
  8
0
  6
________________
 62
     7
100
AcDbLine
 10
161.35
 20
202.1328609150226
 30
0.0
 11
162.1
 21
202.1328609150226
 31
0.0
  0
LINE
  5
7D1B
330
85C4
100
AcDbEntity
  8
0
  6
________________
 62
     7
100
AcDbLine
 10
154.6000000000002
 20
202.1328609150226
 30
0.0
 11
156.8500000000001
 21
202.1328609150226
 31
0.0
  0
LINE
  5
7D1C
330
85C4
100
AcDbEntity
  8
0
  6
________________
 62
     7
100
AcDbLine
 10
156.8500000000001
 20
202.1328609150226
 30
0.0
 11
156.8504109561913
 21
202.1328609150226
 31
0.0
  0
LINE
  5
7D1D
330
85C4
100
AcDbEntity
  8
0
  6
________________
 62
     7
100
AcDbLine
 10
154.6000000000002
 20
220.1328609150224
 30
0.0
 11
154.1000000000002
 21
219.6328609150224
 31
0.0
  0
LINE
  5
7D1E
330
85C4
100
AcDbEntity
  8
0
  6
________________
 62
     7
100
AcDbLine
 10
154.1000000000002
 20
202.6328609150225
 30
0.0
 11
154.6000000000002
 21
202.1328609150226
 31
0.0
  0
LINE
  5
7D1F
330
85C4
100
AcDbEntity
  8
0
  6
________________
 62
     7
100
AcDbLine
 10
151.4998155781523
 20
244.1328609150225
 30
0.0
 11
151.0226497308106
 21
244.9593364062549
 31
0.0
  0
LINE
  5
7D20
330
85C4
100
AcDbEntity
  8
0
  6
________________
 62
     7
100
AcDbLine
 10
154.1000000000002
 20
218.1328609150224
 30
0.0
 11
153.1000000000002
 21
218.1328609150224
 31
0.0
  0
LINE
  5
7D21
330
85C4
100
AcDbEntity
  8
0
  6
________________
 62
     7
100
AcDbLine
 10
153.1000000000002
 20
204.1328609150224
 30
0.0
 11
154.1000000000002
 21
204.1328609150224
 31
0.0
  0
ENDBLK
  5
7D22
330
85C4
100
AcDbEntity
  8
0
100
AcDbBlockEnd
  0
BLOCK
  5
85C5
330
85C6
100
AcDbEntity
  8
0
100
AcDbBlockBegin
  2
D_FRAME_VIEW_403
 70
     0
 10
0.0
 20
0.0
 30
0.0
  3
D_FRAME_VIEW_403
  1

  0
LINE
  5
7D26
330
85C6
100
AcDbEntity
  8
0
  6
________________
 62
     7
100
AcDbLine
 10
36.3
 20
244.3328609150224
 30
0.0
 11
44.7
 21
244.3328609150224
 31
0.0
  0
LINE
  5
7D27
330
85C6
100
AcDbEntity
  8
0
  6
________________
 62
     7
100
AcDbLine
 10
36.3
 20
244.8328609150224
 30
0.0
 11
44.7
 21
244.8328609150224
 31
0.0
  0
LINE
  5
7D28
330
85C6
100
AcDbEntity
  8
0
  6
________________
 62
     7
100
AcDbLine
 10
38.19489455765446
 20
245.5382374706027
 30
0.0
 11
38.24977532225523
 21
245.5382374706027
 31
0.0
  0
LINE
  5
7D29
330
85C6
100
AcDbEntity
  8
0
  6
________________
 62
     7
100
AcDbLine
 10
38.24977532225287
 20
245.5382374706396
 30
0.0
 11
40.0
 21
245.8033106222224
 31
0.0
  0
LINE
  5
7D2A
330
85C6
100
AcDbEntity
  8
0
  6
________________
 62
     7
100
AcDbLine
 10
40.0
 20
245.8033106222224
 30
0.0
 11
40.0
 21
245.5382374707468
 31
0.0
  0
LINE
  5
7D2B
330
85C6
100
AcDbEntity
  8
0
  6
________________
 62
     7
100
AcDbLine
 10
40.0
 20
245.5382374706027
 30
0.0
 11
41.00000000000001
 21
245.5382374706027
 31
0.0
  0
LINE
  5
7D2C
330
85C6
100
AcDbEntity
  8
0
  6
________________
 62
     7
100
AcDbLine
 10
41.0
 20
245.5382374707467
 30
0.0
 11
41.0
 21
245.8033106222224
 31
0.0
  0
LINE
  5
7D2D
330
85C6
100
AcDbEntity
  8
0
  6
________________
 62
     7
100
AcDbLine
 10
41.0
 20
245.8033106222224
 30
0.0
 11
42.75022467774465
 21
245.5382374706347
 31
0.0
  0
LINE
  5
7D2E
330
85C6
100
AcDbEntity
  8
0
  6
________________
 62
     7
100
AcDbLine
 10
42.75022467774465
 20
245.5382374706027
 30
0.0
 11
42.80510544234554
 21
245.5382374706027
 31
0.0
  0
LINE
  5
7D2F
330
85C6
100
AcDbEntity
  8
0
  6
________________
 62
     7
100
AcDbLine
 10
66.3
 20
244.3328609150224
 30
0.0
 11
74.7
 21
244.3328609150224
 31
0.0
  0
LINE
  5
7D30
330
85C6
100
AcDbEntity
  8
0
  6
________________
 62
     7
100
AcDbLine
 10
66.3
 20
244.8328609150224
 30
0.0
 11
74.7
 21
244.8328609150224
 31
0.0
  0
LINE
  5
7D31
330
85C6
100
AcDbEntity
  8
0
  6
________________
 62
     7
100
AcDbLine
 10
68.19489455765445
 20
245.5382374706027
 30
0.0
 11
68.24977532225523
 21
245.5382374706027
 31
0.0
  0
LINE
  5
7D32
330
85C6
100
AcDbEntity
  8
0
  6
________________
 62
     7
100
AcDbLine
 10
68.24977532225287
 20
245.5382374706396
 30
0.0
 11
69.99999999999999
 21
245.8033106222224
 31
0.0
  0
LINE
  5
7D33
330
85C6
100
AcDbEntity
  8
0
  6
________________
 62
     7
100
AcDbLine
 10
69.99999999999999
 20
245.8033106222224
 30
0.0
 11
69.99999999999999
 21
245.5382374707468
 31
0.0
  0
LINE
  5
7D34
330
85C6
100
AcDbEntity
  8
0
  6
________________
 62
     7
100
AcDbLine
 10
69.99999999999999
 20
245.5382374706027
 30
0.0
 11
71.0
 21
245.5382374706027
 31
0.0
  0
LINE
  5
7D35
330
85C6
100
AcDbEntity
  8
0
  6
________________
 62
     7
100
AcDbLine
 10
70.99999999999999
 20
245.5382374707467
 30
0.0
 11
70.99999999999999
 21
245.8033106222224
 31
0.0
  0
LINE
  5
7D36
330
85C6
100
AcDbEntity
  8
0
  6
________________
 62
     7
100
AcDbLine
 10
70.99999999999999
 20
245.8033106222224
 30
0.0
 11
72.75022467774465
 21
245.5382374706347
 31
0.0
  0
LINE
  5
7D37
330
85C6
100
AcDbEntity
  8
0
  6
________________
 62
     7
100
AcDbLine
 10
72.75022467774465
 20
245.5382374706027
 30
0.0
 11
72.80510544234554
 21
245.5382374706027
 31
0.0
  0
LINE
  5
7D38
330
85C6
100
AcDbEntity
  8
0
  6
________________
 62
     7
100
AcDbLine
 10
80.5
 20
244.1328609150225
 30
0.0
 11
80.39136645896019
 21
244.1328609150225
 31
0.0
  0
LINE
  5
7D39
330
85C6
100
AcDbEntity
  8
0
  6
________________
 62
     7
100
AcDbLine
 10
80.5
 20
241.1328609150224
 30
0.0
 11
80.39136645896019
 21
241.1328609150224
 31
0.0
  0
LINE
  5
7D3A
330
85C6
100
AcDbEntity
  8
0
  6
________________
 62
     7
100
AcDbLine
 10
80.5
 20
244.1328609150225
 30
0.0
 11
80.5
 21
241.1328609150224
 31
0.0
  0
LINE
  5
7D3B
330
85C6
100
AcDbEntity
  8
0
  6
________________
 62
     7
100
AcDbLine
 10
30.5
 20
244.1328609150225
 30
0.0
 11
30.5
 21
241.1328609150224
 31
0.0
  0
LINE
  5
7D3C
330
85C6
100
AcDbEntity
  8
0
  6
________________
 62
     7
100
AcDbLine
 10
30.6086335410398
 20
244.1328609150224
 30
0.0
 11
30.5
 21
244.1328609150225
 31
0.0
  0
LINE
  5
7D3D
330
85C6
100
AcDbEntity
  8
0
  6
________________
 62
     7
100
AcDbLine
 10
30.6086335410398
 20
241.1328609150224
 30
0.0
 11
30.5
 21
241.1328609150224
 31
0.0
  0
CIRCLE
  5
7D3E
330
85C6
100
AcDbEntity
  8
0
  6
________________
 62
     7
100
AcDbCircle
 10
55.49999999999996
 20
211.1328609150225
 30
0.0
 40
11.9999999999993
  0
CIRCLE
  5
7D3F
330
85C6
100
AcDbEntity
  8
0
  6
________________
 62
     7
100
AcDbCircle
 10
-55.49999999999996
 20
211.1328609150225
 30
0.0
 40
12.49999999999928
210
0.0
220
0.0
230
-1.0
  0
LINE
  5
7D40
330
85C6
100
AcDbEntity
  8
0
  6
________________
 62
     7
100
AcDbLine
 10
52.07735026918962
 20
244.9593364062549
 30
0.0
 11
53.02961358785561
 21
244.9593364062549
 31
0.0
  0
LINE
  5
7D41
330
85C6
100
AcDbEntity
  8
0
  6
________________
 62
     7
100
AcDbLine
 10
53.02961358785561
 20
244.9593364062549
 30
0.0
 11
58.92264973081038
 21
244.9593364062549
 31
0.0
  0
LINE
  5
7D42
330
85C6
100
AcDbEntity
  8
0
  6
________________
 62
   253
100
AcDbLine
 10
77.5
 20
187.1328609150224
 30
0.0
 11
77.5
 21
244.1328609150224
 31
0.0
  0
LINE
  5
7D43
330
85C6
100
AcDbEntity
  8
0
  6
________________
 62
   253
100
AcDbLine
 10
33.49999999999999
 20
187.1328609150224
 30
0.0
 11
77.49999999999999
 21
187.1328609150224
 31
0.0
  0
LINE
  5
7D44
330
85C6
100
AcDbEntity
  8
0
  6
________________
 62
   253
100
AcDbLine
 10
33.5
 20
244.1328609150225
 30
0.0
 11
33.5
 21
187.1328609150225
 31
0.0
  0
LINE
  5
7D45
330
85C6
100
AcDbEntity
  8
0
  6
________________
 62
     7
100
AcDbLine
 10
77.5
 20
244.1328609150225
 30
0.0
 11
33.5
 21
244.1328609150225
 31
0.0
  0
LINE
  5
7D46
330
85C6
100
AcDbEntity
  8
0
  6
________________
 62
     7
100
AcDbLine
 10
30.6086335410398
 20
241.1328609150224
 30
0.0
 11
30.6086335410398
 21
244.1328609150225
 31
0.0
  0
LINE
  5
7D47
330
85C6
100
AcDbEntity
  8
0
  6
________________
 62
     7
100
AcDbLine
 10
30.6086335410398
 20
244.1328609150225
 30
0.0
 11
33.5
 21
244.1328609150225
 31
0.0
  0
LINE
  5
7D48
330
85C6
100
AcDbEntity
  8
0
  6
________________
 62
   253
100
AcDbLine
 10
30.5
 20
187.1328609150224
 30
0.0
 11
33.49999999999999
 21
187.1328609150224
 31
0.0
  0
LINE
  5
7D49
330
85C6
100
AcDbEntity
  8
0
  6
________________
 62
     7
100
AcDbLine
 10
30.5
 20
187.1328609150224
 30
0.0
 11
30.5
 21
241.1328609150224
 31
0.0
  0
LINE
  5
7D4A
330
85C6
100
AcDbEntity
  8
0
  6
________________
 62
     7
100
AcDbLine
 10
30.5
 20
241.1328609150224
 30
0.0
 11
30.6086335410398
 21
241.1328609150224
 31
0.0
  0
LINE
  5
7D4B
330
85C6
100
AcDbEntity
  8
0
  6
________________
 62
     7
100
AcDbLine
 10
80.39136645896018
 20
244.1328609150225
 30
0.0
 11
80.39136645896018
 21
241.1328609150224
 31
0.0
  0
LINE
  5
7D4C
330
85C6
100
AcDbEntity
  8
0
  6
________________
 62
     7
100
AcDbLine
 10
80.39136645896018
 20
241.1328609150224
 30
0.0
 11
80.49999999999999
 21
241.1328609150224
 31
0.0
  0
LINE
  5
7D4D
330
85C6
100
AcDbEntity
  8
0
  6
________________
 62
     7
100
AcDbLine
 10
80.5
 20
241.1328609150224
 30
0.0
 11
80.5
 21
187.1328609150225
 31
0.0
  0
LINE
  5
7D4E
330
85C6
100
AcDbEntity
  8
0
  6
________________
 62
   253
100
AcDbLine
 10
80.5
 20
187.1328609150224
 30
0.0
 11
77.49999999999999
 21
187.1328609150224
 31
0.0
  0
LINE
  5
7D4F
330
85C6
100
AcDbEntity
  8
0
  6
________________
 62
     7
100
AcDbLine
 10
77.5
 20
244.1328609150225
 30
0.0
 11
80.39136645896019
 21
244.1328609150225
 31
0.0
  0
LINE
  5
7D50
330
85C6
100
AcDbEntity
  8
0
  6
________________
 62
     7
100
AcDbLine
 10
77.5
 20
184.1328609150224
 30
0.0
 11
33.49999999999999
 21
184.1328609150224
 31
0.0
  0
LINE
  5
7D51
330
85C6
100
AcDbEntity
  8
0
  6
________________
 62
   253
100
AcDbLine
 10
33.49999999999999
 20
184.1328609150224
 30
0.0
 11
33.49999999999999
 21
187.1328609150224
 31
0.0
  0
LINE
  5
7D52
330
85C6
100
AcDbEntity
  8
0
  6
________________
 62
   253
100
AcDbLine
 10
77.5
 20
184.1328609150224
 30
0.0
 11
77.49999999999999
 21
187.1328609150224
 31
0.0
  0
ARC
  5
7D53
330
85C6
100
AcDbEntity
  8
0
  6
________________
 62
     7
100
AcDbCircle
 10
77.5
 20
187.1328609150224
 30
0.0
 40
2.999999999999999
100
AcDbArc
 50
270.0
 51
0.0
  0
ARC
  5
7D54
330
85C6
100
AcDbEntity
  8
0
  6
________________
 62
     7
100
AcDbCircle
 10
33.49999999999999
 20
187.1328609150224
 30
0.0
 40
2.999999999999999
100
AcDbArc
 50
180.0
 51
270.0
  0
LINE
  5
7D55
330
85C6
100
AcDbEntity
  8
0
  6
________________
 62
     7
100
AcDbLine
 10
36.3
 20
244.3328609150224
 30
0.0
 11
36.49999999999999
 21
244.1328609150225
 31
0.0
  0
LINE
  5
7D56
330
85C6
100
AcDbEntity
  8
0
  6
________________
 62
     7
100
AcDbLine
 10
44.50000000000001
 20
244.1328609150225
 30
0.0
 11
44.7
 21
244.3328609150224
 31
0.0
  0
LINE
  5
7D57
330
85C6
100
AcDbEntity
  8
0
  6
________________
 62
     7
100
AcDbLine
 10
36.3
 20
244.8328609150224
 30
0.0
 11
36.3
 21
244.3328609150224
 31
0.0
  0
LINE
  5
7D58
330
85C6
100
AcDbEntity
  8
0
  6
________________
 62
     7
100
AcDbLine
 10
44.7
 20
244.3328609150224
 30
0.0
 11
44.7
 21
244.8328609150224
 31
0.0
  0
ARC
  5
7D59
330
85C6
100
AcDbEntity
  8
0
  6
________________
 62
     7
100
AcDbCircle
 10
40.45716584929563
 20
236.3329574820641
 30
0.0
 40
9.499999999999998
100
AcDbArc
 50
63.47334389987503
 51
75.69098144492062
  0
ARC
  5
7D5A
330
85C6
100
AcDbEntity
  8
0
  6
________________
 62
     7
100
AcDbCircle
 10
40.54283415070436
 20
236.3329574820641
 30
0.0
 40
9.499999999999996
100
AcDbArc
 50
104.3090185550794
 51
116.526656100125
  0
LINE
  5
7D5B
330
85C6
100
AcDbEntity
  8
0
  6
________________
 62
     7
100
AcDbLine
 10
66.3
 20
244.3328609150224
 30
0.0
 11
66.49999999999997
 21
244.1328609150225
 31
0.0
  0
LINE
  5
7D5C
330
85C6
100
AcDbEntity
  8
0
  6
________________
 62
     7
100
AcDbLine
 10
74.50000000000001
 20
244.1328609150225
 30
0.0
 11
74.69999999999999
 21
244.3328609150224
 31
0.0
  0
LINE
  5
7D5D
330
85C6
100
AcDbEntity
  8
0
  6
________________
 62
     7
100
AcDbLine
 10
66.3
 20
244.8328609150224
 30
0.0
 11
66.3
 21
244.3328609150224
 31
0.0
  0
LINE
  5
7D5E
330
85C6
100
AcDbEntity
  8
0
  6
________________
 62
     7
100
AcDbLine
 10
74.7
 20
244.3328609150224
 30
0.0
 11
74.7
 21
244.8328609150224
 31
0.0
  0
ARC
  5
7D5F
330
85C6
100
AcDbEntity
  8
0
  6
________________
 62
     7
100
AcDbCircle
 10
70.45716584929563
 20
236.3329574820641
 30
0.0
 40
9.499999999999995
100
AcDbArc
 50
63.47334389987505
 51
75.69098144492051
  0
ARC
  5
7D60
330
85C6
100
AcDbEntity
  8
0
  6
________________
 62
     7
100
AcDbCircle
 10
70.54283415070437
 20
236.3329574820641
 30
0.0
 40
9.499999999999998
100
AcDbArc
 50
104.3090185550794
 51
116.5266561001249
  0
LINE
  5
7D61
330
85C6
100
AcDbEntity
  8
0
  6
________________
 62
     7
100
AcDbLine
 10
59.39981557815205
 20
244.1328609150224
 30
0.0
 11
58.92264973081037
 21
244.9593364062549
 31
0.0
  0
LINE
  5
7D62
330
85C6
100
AcDbEntity
  8
0
  6
________________
 62
     7
100
AcDbLine
 10
52.07735026918962
 20
244.9593364062549
 30
0.0
 11
51.60018442184793
 21
244.1328609150225
 31
0.0
  0
ENDBLK
  5
7D63
330
85C6
100
AcDbEntity
  8
0
100
AcDbBlockEnd
  0
BLOCK
  5
85C7
330
85C8
100
AcDbEntity
  8
0
100
AcDbBlockBegin
  2
D_FRAME_VIEW_415
 70
     0
 10
0.0
 20
0.0
 30
0.0
  3
D_FRAME_VIEW_415
  1

  0
LWPOLYLINE
  5
7D67
330
85C8
100
AcDbEntity
  8
0
  6
________________
 62
     7
100
AcDbPolyline
 90
        7
 70
     0
 43
0.0
 10
-58.83005891750344
 20
149.528429529583
 10
-59.35908079190801
 20
149.3953595093813
 10
-59.81903467935681
 20
149.2247955689474
 10
-60.19418992853115
 20
149.0225710797293
 10
-60.471716043644
 20
148.7956022196632
 10
-60.6421214937663
 20
148.5516514364539
 10
-60.69957832789725
 20
148.2990619680089
  0
LINE
  5
7D68
330
85C8
100
AcDbEntity
  8
0
  6
________________
 62
     7
100
AcDbLine
 10
-56.89228434922752
 20
149.5445585450905
 30
0.0
 11
-57.518463766075
 21
149.2268672516205
 31
0.0
  0
LINE
  5
7D69
330
85C8
100
AcDbEntity
  8
0
  6
________________
 62
     7
100
AcDbLine
 10
-57.518463766075
 20
149.2268672516205
 30
0.0
 11
-58.77082259978818
 21
149.2889218687183
 31
0.0
  0
LWPOLYLINE
  5
7D6A
330
85C8
100
AcDbEntity
  8
0
  6
________________
 62
     7
100
AcDbPolyline
 90
        3
 70
     0
 43
0.0
 10
-58.77082259978818
 20
149.2889218687183
 10
-58.98897751648558
 20
149.1508783688057
 10
-59.12859347618804
 20
148.9968031714291
  0
LINE
  5
7D6B
330
85C8
100
AcDbEntity
  8
0
  6
________________
 62
     7
100
AcDbLine
 10
-59.12859347618991
 20
148.9968031714329
 30
0.0
 11
-57.87623464247497
 21
148.9347485543312
 31
0.0
  0
LINE
  5
7D6C
330
85C8
100
AcDbEntity
  8
0
  6
________________
 62
     7
100
AcDbLine
 10
-57.87623464247497
 20
148.9347485543312
 30
0.0
 11
-58.5024140593346
 21
148.2298931421484
 31
0.0
  0
LWPOLYLINE
  5
7D6D
330
85C8
100
AcDbEntity
  8
0
  6
________________
 62
     7
100
AcDbPolyline
 90
        3
 70
     0
 43
0.0
 10
-58.50241405933461
 20
148.2298931421484
 10
-58.16427792218341
 20
148.1408317703529
 10
-57.78687230653468
 20
148.0838337934804
  0
LINE
  5
7D6E
330
85C8
100
AcDbEntity
  8
0
  6
________________
 62
     7
100
AcDbLine
 10
-57.78687230653465
 20
148.0838337934804
 30
0.0
 11
-57.16069288967503
 21
148.7886892056632
 31
0.0
  0
LINE
  5
7D6F
330
85C8
100
AcDbEntity
  8
0
  6
________________
 62
     7
100
AcDbLine
 10
-57.16069288967503
 20
148.7886892056632
 30
0.0
 11
-55.908334055974
 21
148.3394704698526
 31
0.0
  0
LWPOLYLINE
  5
7D70
330
85C8
100
AcDbEntity
  8
0
  6
________________
 62
     7
100
AcDbPolyline
 90
        3
 70
     0
 43
0.0
 10
-55.90833405597402
 20
148.3394704698526
 10
-55.69017913927652
 20
148.4775139697653
 10
-55.55056317957405
 20
148.631589167142
  0
LINE
  5
7D71
330
85C8
100
AcDbEntity
  8
0
  6
________________
 62
     7
100
AcDbLine
 10
-55.55056317957405
 20
148.631589167142
 30
0.0
 11
-56.802922013275
 21
149.0808079029516
 31
0.0
  0
LINE
  5
7D72
330
85C8
100
AcDbEntity
  8
0
  6
________________
 62
     7
100
AcDbLine
 10
-56.802922013275
 20
149.0808079029516
 30
0.0
 11
-56.17674259642759
 21
149.3984991964225
 31
0.0
  0
LWPOLYLINE
  5
7D73
330
85C8
100
AcDbEntity
  8
0
  6
________________
 62
     7
100
AcDbPolyline
 90
        3
 70
     0
 43
0.0
 10
-56.17674259642757
 20
149.3984991964225
 10
-56.51487873357878
 20
149.487560568218
 10
-56.8922843492275
 20
149.5445585450906
  0
LWPOLYLINE
  5
7D74
330
85C8
100
AcDbEntity
  8
0
  6
________________
 62
     7
100
AcDbPolyline
 90
        3
 70
     0
 43
0.0
 10
-54.33430296613754
 20
147.6856127034977
 10
-54.06946172329063
 20
147.9839066113869
 10
-53.97957832789726
 20
148.2990619677981
  0
LWPOLYLINE
  5
7D75
330
85C8
100
AcDbEntity
  8
0
  6
________________
 62
     7
100
AcDbPolyline
 90
        3
 70
     0
 43
0.0
 10
-60.6995783279087
 20
147.9339135963294
 10
-60.60969493255982
 20
147.6187582399553
 10
-60.34485368980312
 20
147.3204643320853
  0
LWPOLYLINE
  5
7D76
330
85C8
100
AcDbEntity
  8
0
  6
________________
 62
     7
100
AcDbPolyline
 90
       15
 70
     0
 43
0.0
 10
-60.69957832789724
 20
148.2990619680089
 10
-60.63829646807307
 20
148.0382751356373
 10
-60.45668628521754
 20
147.7870011021354
 10
-60.1613724280032
 20
147.5544056651821
 10
-59.7631271478612
 20
147.3489732777328
 10
-59.27647735636094
 20
147.1781975581045
 10
-58.71917472273464
 20
147.0483079430311
 10
-58.11154814095736
 20
146.9640424546465
 10
-57.47576218663321
 20
146.9284748702409
 10
-56.83500861317663
 20
146.9429025991729
 10
-56.21266037932312
 20
147.0067993568815
 10
-55.63141906675953
 20
147.1178343623254
 10
-55.11248678777475
 20
147.271957358576
 10
-54.67479278950163
 20
147.4635463552443
 10
-54.33430296613757
 20
147.6856127034977
  0
LWPOLYLINE
  5
7D77
330
85C8
100
AcDbEntity
  8
0
  6
________________
 62
     7
100
AcDbPolyline
 90
        7
 70
     0
 43
0.0
 10
-53.97957832789726
 20
148.2990619677981
 10
-54.03698368876642
 20
148.5515392438528
 10
-54.20723823837967
 20
148.7953894073248
 10
-54.48452440300991
 20
149.0222801328364
 10
-54.85936735387926
 20
149.2244585965917
 10
-55.31895876070983
 20
149.395016389261
 10
-55.84759445054618
 20
149.5281255753453
  0
LWPOLYLINE
  5
7D78
330
85C8
100
AcDbEntity
  8
0
  6
________________
 62
     7
100
AcDbPolyline
 90
        3
 70
     0
 43
0.0
 10
-54.33430296614899
 20
147.3204643318182
 10
-54.06946172330208
 20
147.6187582397074
 10
-53.9795783279087
 20
147.9339135961186
  0
LWPOLYLINE
  5
7D79
330
85C8
100
AcDbEntity
  8
0
  6
________________
 62
     7
100
AcDbPolyline
 90
       12
 70
     0
 43
0.0
 10
-60.34485368980313
 20
147.3204643320854
 10
-59.98372782903503
 20
147.0875415923263
 10
-59.51581812942148
 20
146.8887995415295
 10
-58.96002109962679
 20
146.7322643669869
 10
-58.33878257353255
 20
146.6242577335078
 10
-57.67719123641422
 20
146.5691414833175
 10
-57.00196541970288
 20
146.5691414832875
 10
-56.34037408257245
 20
146.624257733419
 10
-55.71913555645449
 20
146.7322643668429
 10
-55.16333852662543
 20
146.8887995413361
 10
-54.69542882696824
 20
147.0875415920913
 10
-54.33430296614899
 20
147.3204643318182
  0
LINE
  5
7D7A
330
85C8
100
AcDbEntity
  8
0
  6
________________
 62
     7
100
AcDbLine
 10
-57.87623464247497
 20
148.9347485543312
 30
0.0
 11
-57.87623464250134
 21
148.0939361348452
 31
0.0
  0
LINE
  5
7D7B
330
85C8
100
AcDbEntity
  8
0
  6
________________
 62
     7
100
AcDbLine
 10
-56.802922013275
 20
149.0808079029516
 30
0.0
 11
-56.80292201328749
 21
148.6849240970728
 31
0.0
  0
LINE
  5
7D7C
330
85C8
100
AcDbEntity
  8
0
  6
________________
 62
     7
100
AcDbLine
 10
-58.77082259978818
 20
149.2889218687183
 30
0.0
 11
-58.64261113242811
 21
149.0013761980364
 31
0.0
  0
LINE
  5
7D7D
330
85C8
100
AcDbEntity
  8
0
  6
________________
 62
     7
100
AcDbLine
 10
-56.89228434922752
 20
149.5445585450905
 30
0.0
 11
-57.05330031172429
 21
148.7590764697501
 31
0.0
  0
LINE
  5
7D7E
330
85C8
100
AcDbEntity
  8
0
  6
________________
 62
     7
100
AcDbLine
 10
-57.518463766075
 20
149.2268672516205
 30
0.0
 11
-57.51846376610045
 21
148.4154684283315
 31
0.0
  0
LWPOLYLINE
  5
7D7F
330
85C8
100
AcDbEntity
  8
0
  6
________________
 62
     7
100
AcDbPolyline
 90
        7
 70
     0
 43
0.0
 10
-37.36380633350548
 20
145.1466490695417
 10
-37.89282820791004
 20
145.01357904934
 10
-38.35278209535883
 20
144.843015108906
 10
-38.72793734453317
 20
144.6407906196879
 10
-39.00546345964602
 20
144.4138217596219
 10
-39.17586890976832
 20
144.1698709764125
 10
-39.23332574389926
 20
143.9172815079675
  0
LINE
  5
7D80
330
85C8
100
AcDbEntity
  8
0
  6
________________
 62
     7
100
AcDbLine
 10
-35.42603176522955
 20
145.1627780850492
 30
0.0
 11
-36.05221118207702
 21
144.8450867915792
 31
0.0
  0
LINE
  5
7D81
330
85C8
100
AcDbEntity
  8
0
  6
________________
 62
     7
100
AcDbLine
 10
-36.05221118207702
 20
144.8450867915792
 30
0.0
 11
-37.3045700157902
 21
144.9071414086769
 31
0.0
  0
LWPOLYLINE
  5
7D82
330
85C8
100
AcDbEntity
  8
0
  6
________________
 62
     7
100
AcDbPolyline
 90
        3
 70
     0
 43
0.0
 10
-37.30457001579021
 20
144.9071414086769
 10
-37.52272493248761
 20
144.7690979087644
 10
-37.66234089219007
 20
144.6150227113878
  0
LINE
  5
7D83
330
85C8
100
AcDbEntity
  8
0
  6
________________
 62
     7
100
AcDbLine
 10
-37.66234089219193
 20
144.6150227113916
 30
0.0
 11
-36.40998205847698
 21
144.5529680942899
 31
0.0
  0
LINE
  5
7D84
330
85C8
100
AcDbEntity
  8
0
  6
________________
 62
     7
100
AcDbLine
 10
-36.40998205847698
 20
144.5529680942899
 30
0.0
 11
-37.03616147533661
 21
143.8481126821071
 31
0.0
  0
LWPOLYLINE
  5
7D85
330
85C8
100
AcDbEntity
  8
0
  6
________________
 62
     7
100
AcDbPolyline
 90
        3
 70
     0
 43
0.0
 10
-37.03616147533661
 20
143.8481126821071
 10
-36.6980253381854
 20
143.7590513103116
 10
-36.32061972253668
 20
143.7020533334391
  0
LINE
  5
7D86
330
85C8
100
AcDbEntity
  8
0
  6
________________
 62
     7
100
AcDbLine
 10
-36.32061972253668
 20
143.702053333439
 30
0.0
 11
-35.69444030567706
 21
144.4069087456218
 31
0.0
  0
LINE
  5
7D87
330
85C8
100
AcDbEntity
  8
0
  6
________________
 62
     7
100
AcDbLine
 10
-35.69444030567706
 20
144.4069087456218
 30
0.0
 11
-34.44208147197601
 21
143.9576900098113
 31
0.0
  0
LWPOLYLINE
  5
7D88
330
85C8
100
AcDbEntity
  8
0
  6
________________
 62
     7
100
AcDbPolyline
 90
        3
 70
     0
 43
0.0
 10
-34.44208147197606
 20
143.9576900098113
 10
-34.22392655527855
 20
144.095733509724
 10
-34.08431059557608
 20
144.2498087071006
  0
LINE
  5
7D89
330
85C8
100
AcDbEntity
  8
0
  6
________________
 62
     7
100
AcDbLine
 10
-34.08431059557606
 20
144.2498087071006
 30
0.0
 11
-35.33666942927702
 21
144.6990274429102
 31
0.0
  0
LINE
  5
7D8A
330
85C8
100
AcDbEntity
  8
0
  6
________________
 62
     7
100
AcDbLine
 10
-35.33666942927702
 20
144.6990274429102
 30
0.0
 11
-34.71049001242961
 21
145.0167187363812
 31
0.0
  0
LWPOLYLINE
  5
7D8B
330
85C8
100
AcDbEntity
  8
0
  6
________________
 62
     7
100
AcDbPolyline
 90
        3
 70
     0
 43
0.0
 10
-34.71049001242957
 20
145.0167187363812
 10
-35.04862614958078
 20
145.1057801081766
 10
-35.42603176522952
 20
145.1627780850492
  0
LWPOLYLINE
  5
7D8C
330
85C8
100
AcDbEntity
  8
0
  6
________________
 62
     7
100
AcDbPolyline
 90
        3
 70
     0
 43
0.0
 10
-32.86805038213956
 20
143.3038322434564
 10
-32.60320913929264
 20
143.6021261513455
 10
-32.51332574389928
 20
143.9172815077568
  0
LWPOLYLINE
  5
7D8D
330
85C8
100
AcDbEntity
  8
0
  6
________________
 62
     7
100
AcDbPolyline
 90
        3
 70
     0
 43
0.0
 10
-39.23332574391072
 20
143.5521331362881
 10
-39.14344234856183
 20
143.236977779914
 10
-38.87860110580512
 20
142.938683872044
  0
LWPOLYLINE
  5
7D8E
330
85C8
100
AcDbEntity
  8
0
  6
________________
 62
     7
100
AcDbPolyline
 90
       15
 70
     0
 43
0.0
 10
-39.23332574389926
 20
143.9172815079675
 10
-39.17204388407509
 20
143.656494675596
 10
-38.99043370121956
 20
143.4052206420941
 10
-38.6951198440052
 20
143.1726252051408
 10
-38.2968745638632
 20
142.9671928176914
 10
-37.81022477236293
 20
142.7964170980631
 10
-37.25292213873663
 20
142.6665274829898
 10
-36.64529555695935
 20
142.5822619946051
 10
-36.00950960263519
 20
142.5466944101996
 10
-35.36875602917861
 20
142.5611221391315
 10
-34.74640779532509
 20
142.6250188968402
 10
-34.16516648276151
 20
142.7360539022841
 10
-33.64623420377671
 20
142.8901768985346
 10
-33.2085402055036
 20
143.081765895203
 10
-32.86805038213956
 20
143.3038322434564
  0
LWPOLYLINE
  5
7D8F
330
85C8
100
AcDbEntity
  8
0
  6
________________
 62
     7
100
AcDbPolyline
 90
        7
 70
     0
 43
0.0
 10
-32.51332574389928
 20
143.9172815077567
 10
-32.57073110476844
 20
144.1697587838115
 10
-32.7409856543817
 20
144.4136089472834
 10
-33.01827181901194
 20
144.6404996727951
 10
-33.3931147698813
 20
144.8426781365503
 10
-33.85270617671188
 20
145.0132359292197
 10
-34.38134186654823
 20
145.146345115304
  0
LWPOLYLINE
  5
7D90
330
85C8
100
AcDbEntity
  8
0
  6
________________
 62
     7
100
AcDbPolyline
 90
        3
 70
     0
 43
0.0
 10
-32.868050382151
 20
142.9386838717769
 10
-32.60320913930408
 20
143.2369777796661
 10
-32.51332574391072
 20
143.5521331360773
  0
LWPOLYLINE
  5
7D91
330
85C8
100
AcDbEntity
  8
0
  6
________________
 62
     7
100
AcDbPolyline
 90
       12
 70
     0
 43
0.0
 10
-38.87860110580512
 20
142.938683872044
 10
-38.51747524503702
 20
142.705761132285
 10
-38.04956554542346
 20
142.5070190814882
 10
-37.49376851562877
 20
142.3504839069456
 10
-36.87252998953453
 20
142.2424772734665
 10
-36.21093865241621
 20
142.1873610232762
 10
-35.53571283570487
 20
142.1873610232462
 10
-34.87412149857445
 20
142.2424772733777
 10
-34.25288297245649
 20
142.3504839068015
 10
-33.69708594262743
 20
142.5070190812948
 10
-33.22917624297025
 20
142.70576113205
 10
-32.868050382151
 20
142.9386838717769
  0
LINE
  5
7D92
330
85C8
100
AcDbEntity
  8
0
  6
________________
 62
     7
100
AcDbLine
 10
-36.40998205847698
 20
144.5529680942899
 30
0.0
 11
-36.40998205850336
 21
143.7121556748038
 31
0.0
  0
LINE
  5
7D93
330
85C8
100
AcDbEntity
  8
0
  6
________________
 62
     7
100
AcDbLine
 10
-35.33666942927702
 20
144.6990274429102
 30
0.0
 11
-35.33666942928951
 21
144.3031436370314
 31
0.0
  0
LINE
  5
7D94
330
85C8
100
AcDbEntity
  8
0
  6
________________
 62
     7
100
AcDbLine
 10
-37.3045700157902
 20
144.9071414086769
 30
0.0
 11
-37.17635854843012
 21
144.619595737995
 31
0.0
  0
LINE
  5
7D95
330
85C8
100
AcDbEntity
  8
0
  6
________________
 62
     7
100
AcDbLine
 10
-35.42603176522955
 20
145.1627780850492
 30
0.0
 11
-35.58704772772631
 21
144.3772960097087
 31
0.0
  0
LINE
  5
7D96
330
85C8
100
AcDbEntity
  8
0
  6
________________
 62
     7
100
AcDbLine
 10
-36.05221118207702
 20
144.8450867915792
 30
0.0
 11
-36.05221118210248
 21
144.0336879682901
 31
0.0
  0
LWPOLYLINE
  5
7D97
330
85C8
100
AcDbEntity
  8
0
  6
________________
 62
     7
100
AcDbPolyline
 90
        5
 70
     0
 43
0.0
 10
-23.3513450699623
 20
142.6757770441332
 10
-23.37884293824195
 20
142.9663376766427
 10
-23.46027981542393
 20
143.2569581847096
 10
-23.59252612798846
 20
143.536470185191
 10
-23.77049972430827
 20
143.7941321886603
  0
LINE
  5
7D98
330
85C8
100
AcDbEntity
  8
0
  6
________________
 62
   253
100
AcDbLine
 10
-23.35134506996229
 20
142.6757770441332
 30
0.0
 11
-23.70911594636226
 21
142.3836583467972
 31
0.0
  0
LWPOLYLINE
  5
7D99
330
85C8
100
AcDbEntity
  8
0
  6
________________
 62
     7
100
AcDbPolyline
 90
        5
 70
     0
 43
0.0
 10
-23.70911594636226
 20
142.3836583467971
 10
-23.73661381464192
 20
142.6742189793066
 10
-23.8180506918239
 20
142.9648394873736
 10
-23.95029700438843
 20
143.2443514878549
 10
-24.12827060070823
 20
143.5020134913242
  0
LINE
  5
7D9A
330
85C8
100
AcDbEntity
  8
0
  6
________________
 62
     7
100
AcDbLine
 10
-23.70911594636225
 20
105.1385244364459
 30
0.0
 11
-23.70911594636226
 21
142.3836583467972
 31
0.0
  0
LWPOLYLINE
  5
7D9B
330
85C8
100
AcDbEntity
  8
0
  6
________________
 62
     7
100
AcDbPolyline
 90
        5
 70
     0
 43
0.0
 10
-25.14019945196213
 20
103.9700496471015
 10
-24.86100891002268
 20
103.9411250106627
 10
-24.59254750403811
 20
103.969441720364
 10
-24.3451320552855
 20
104.0539115809318
 10
-24.12827060070824
 20
104.1912884629956
  0
LINE
  5
7D9C
330
85C8
100
AcDbEntity
  8
0
  6
________________
 62
     7
100
AcDbLine
 10
-27.00060800924195
 20
104.3498039536384
 30
0.0
 11
-25.14019945196213
 21
103.9700496471015
 31
0.0
  0
LINE
  5
7D9D
330
85C8
100
AcDbEntity
  8
0
  6
________________
 62
   253
100
AcDbLine
 10
-23.35134506996229
 20
105.430643133782
 30
0.0
 11
-23.70911594636225
 21
105.1385244364459
 31
0.0
  0
LINE
  5
7D9E
330
85C8
100
AcDbEntity
  8
0
  6
________________
 62
     7
100
AcDbLine
 10
-23.35134506996229
 20
105.430643133782
 30
0.0
 11
-23.35134506996229
 21
142.6757770441332
 31
0.0
  0
LWPOLYLINE
  5
7D9F
330
85C8
100
AcDbEntity
  8
0
  6
________________
 62
     7
100
AcDbPolyline
 90
        5
 70
     0
 43
0.0
 10
-23.77049972430826
 20
104.4834071603317
 10
-23.59252612798846
 20
104.6684117473557
 10
-23.46027981542392
 20
104.8939344168124
 10
-23.37884293824194
 20
105.1513084589891
 10
-23.35134506996228
 20
105.430643133782
  0
LWPOLYLINE
  5
7DA0
330
85C8
100
AcDbEntity
  8
0
  6
________________
 62
     7
100
AcDbPolyline
 90
        5
 70
     0
 43
0.0
 10
-24.12827060070824
 20
104.1912884629956
 10
-23.95029700438844
 20
104.3762930500196
 10
-23.81805069182391
 20
104.6018157194763
 10
-23.73661381464192
 20
104.859189761653
 10
-23.70911594636226
 20
105.1385244364459
  0
LINE
  5
7DA1
330
85C8
100
AcDbEntity
  8
0
  6
________________
 62
     7
100
AcDbLine
 10
-30.50676259796163
 20
138.2939965840919
 30
0.0
 11
-30.22054589684165
 21
138.5276915419608
 31
0.0
  0
LINE
  5
7DA2
330
85C8
100
AcDbEntity
  8
0
  6
________________
 62
     7
100
AcDbLine
 10
-30.22054589684165
 20
138.5276915419608
 30
0.0
 11
-27.00060800924195
 21
141.1567598179856
 31
0.0
  0
LINE
  5
7DA3
330
85C8
100
AcDbEntity
  8
0
  6
________________
 62
     7
100
AcDbLine
 10
-27.00060800924195
 20
141.1567598179856
 30
0.0
 11
-22.63580331716236
 21
144.7206079254859
 31
0.0
  0
LINE
  5
7DA4
330
85C8
100
AcDbEntity
  8
0
  6
________________
 62
     7
100
AcDbLine
 10
-30.50676259796163
 20
140.4848868141126
 30
0.0
 11
-30.50676259796163
 21
138.2939965840919
 31
0.0
  0
LINE
  5
7DA5
330
85C8
100
AcDbEntity
  8
0
  6
________________
 62
     7
100
AcDbLine
 10
-21.56249068796246
 20
147.7878542475148
 30
0.0
 11
-30.50676259796163
 21
140.4848868141126
 31
0.0
  0
LINE
  5
7DA6
330
85C8
100
AcDbEntity
  8
0
  6
________________
 62
     7
100
AcDbLine
 10
-21.56249068796246
 20
106.1609398771222
 30
0.0
 11
-21.56249068796246
 21
147.7878542475148
 31
0.0
  0
LINE
  5
7DA7
330
85C8
100
AcDbEntity
  8
0
  6
________________
 62
   253
100
AcDbLine
 10
-22.63580331716236
 20
105.2845837851139
 30
0.0
 11
-21.56249068796246
 21
106.1609398771222
 31
0.0
  0
LINE
  5
7DA8
330
85C8
100
AcDbEntity
  8
0
  6
________________
 62
     7
100
AcDbLine
 10
-22.63580331716236
 20
144.7206079254859
 30
0.0
 11
-22.63580331716236
 21
105.2845837851139
 31
0.0
  0
LINE
  5
7DA9
330
85C8
100
AcDbEntity
  8
0
  6
________________
 62
     7
100
AcDbLine
 10
-30.50676259796163
 20
138.2939965840919
 30
0.0
 11
-30.58449443233011
 21
138.3098635283397
 31
0.0
  0
LINE
  5
7DAA
330
85C8
100
AcDbEntity
  8
0
  6
________________
 62
     7
100
AcDbLine
 10
-30.50676259796163
 20
140.4848868141126
 30
0.0
 11
-30.58449443233011
 21
140.5007537583604
 31
0.0
  0
LINE
  5
7DAB
330
85C8
100
AcDbEntity
  8
0
  6
________________
 62
     7
100
AcDbLine
 10
-30.58449443233011
 20
140.5007537583604
 30
0.0
 11
-40.52434713716069
 21
142.5297176954653
 31
0.0
  0
LINE
  5
7DAC
330
85C8
100
AcDbEntity
  8
0
  6
________________
 62
     7
100
AcDbLine
 10
-40.52434713716069
 20
146.1812014121663
 30
0.0
 11
-49.11084817075987
 21
147.9339135961829
 31
0.0
  0
LINE
  5
7DAD
330
85C8
100
AcDbEntity
  8
0
  6
________________
 62
     7
100
AcDbLine
 10
-49.11084817075987
 20
147.9339135961829
 30
0.0
 11
-50.89970255275971
 21
146.4733201095024
 31
0.0
  0
LWPOLYLINE
  5
7DAE
330
85C8
100
AcDbEntity
  8
0
  6
________________
 62
     7
100
AcDbPolyline
 90
        9
 70
     0
 43
0.0
 10
-56.2662656987592
 20
145.7430233661622
 10
-55.533917008561
 20
145.6286144336281
 10
-54.76096739712209
 20
145.5747319607928
 10
-53.97712088453493
 20
145.5834466208699
 10
-53.21250025269204
 20
145.6544235143597
 10
-52.49648944367096
 20
145.7849350390498
 10
-51.85660435131888
 20
145.969965710238
 10
-51.3174354008832
 20
146.202404902997
 10
-50.89970255275973
 20
146.4733201095024
  0
LINE
  5
7DAF
330
85C8
100
AcDbEntity
  8
0
  6
________________
 62
     7
100
AcDbLine
 10
-56.26626569875921
 20
145.7430233661622
 30
0.0
 11
-66.20611840358978
 21
147.7719873032671
 31
0.0
  0
LINE
  5
7DB0
330
85C8
100
AcDbEntity
  8
0
  6
________________
 62
     7
100
AcDbLine
 10
-66.20611840358978
 20
147.7719873032671
 30
0.0
 11
-66.28385023795826
 21
147.7878542475148
 31
0.0
  0
LINE
  5
7DB1
330
85C8
100
AcDbEntity
  8
0
  6
________________
 62
     7
100
AcDbLine
 10
-57.3395783279591
 20
155.090821680917
 30
0.0
 11
-66.28385023795826
 21
147.7878542475148
 31
0.0
  0
LINE
  5
7DB2
330
85C8
100
AcDbEntity
  8
0
  6
________________
 62
     7
100
AcDbLine
 10
-21.56249068796246
 20
147.7878542475148
 30
0.0
 11
-57.3395783279591
 21
155.090821680917
 31
0.0
  0
LWPOLYLINE
  5
7DB3
330
85C8
100
AcDbEntity
  8
0
  6
________________
 62
     7
100
AcDbPolyline
 90
        3
 70
     0
 43
0.0
 10
-42.31320151916049
 20
144.7206079254859
 10
-42.62848871303176
 20
144.3654961303158
 10
-42.73549275516085
 20
143.9903111821457
  0
LINE
  5
7DB4
330
85C8
100
AcDbEntity
  8
0
  6
________________
 62
     7
100
AcDbLine
 10
-42.31320151916052
 20
144.7206079254859
 30
0.0
 11
-40.52434713716069
 21
146.1812014121663
 31
0.0
  0
LWPOLYLINE
  5
7DB5
330
85C8
100
AcDbEntity
  8
0
  6
________________
 62
     7
100
AcDbPolyline
 90
       12
 70
     0
 43
0.0
 10
-33.01115873276138
 20
142.8218363928013
 10
-33.35508812400172
 20
142.60000521208
 10
-33.80071640936587
 20
142.4107270684731
 10
-34.33004691393618
 20
142.2616459498769
 10
-34.92170265306508
 20
142.1587824894418
 10
-35.55178964077822
 20
142.1062908226194
 10
-36.19486184714403
 20
142.1062908226194
 10
-36.82494883485716
 20
142.1587824894418
 10
-37.41660457398606
 20
142.2616459498769
 10
-37.94593507855637
 20
142.4107270684731
 10
-38.39156336392053
 20
142.60000521208
 10
-38.73549275516086
 20
142.8218363928013
  0
LWPOLYLINE
  5
7DB6
330
85C8
100
AcDbEntity
  8
0
  6
________________
 62
     7
100
AcDbPolyline
 90
        7
 70
     0
 43
0.0
 10
-42.73549275516085
 20
143.9903111821457
 10
-42.66758696937138
 20
143.6906905635371
 10
-42.46617520987478
 20
143.4012429317013
 10
-42.13809598856901
 20
143.1317958710805
 10
-41.69448854411605
 20
142.8914978888647
 10
-41.1504146325647
 20
142.6885077967071
 10
-40.5243471371607
 20
142.5297176954652
  0
LINE
  5
7DB7
330
85C8
100
AcDbEntity
  8
0
  6
________________
 62
   253
100
AcDbLine
 10
-50.89970255275971
 20
146.4733201095024
 30
0.0
 11
-50.89970255275971
 21
146.0332550463594
 31
0.0
  0
LINE
  5
7DB8
330
85C8
100
AcDbEntity
  8
0
  6
________________
 62
     7
100
AcDbLine
 10
-66.28385023795826
 20
147.7878542475148
 30
0.0
 11
-66.28385023795826
 21
145.5969640174942
 31
0.0
  0
LINE
  5
7DB9
330
85C8
100
AcDbEntity
  8
0
  6
________________
 62
     7
100
AcDbLine
 10
-66.25100827843849
 20
145.5902601805794
 30
0.0
 11
-66.28385023795826
 21
145.5969640174942
 31
0.0
  0
LWPOLYLINE
  5
7DBA
330
85C8
100
AcDbEntity
  8
0
  6
________________
 62
     7
100
AcDbPolyline
 90
       12
 70
     0
 43
0.0
 10
-54.47741131675935
 20
147.2036168528427
 10
-54.82134070799969
 20
146.9817856721214
 10
-55.26696899336384
 20
146.7925075285145
 10
-55.79629949793416
 20
146.6434264099182
 10
-56.38795523706306
 20
146.5405629494832
 10
-57.0180422247762
 20
146.4880712826607
 10
-57.66111443114201
 20
146.4880712826607
 10
-58.29120141885515
 20
146.5405629494832
 10
-58.88285715798405
 20
146.6434264099182
 10
-59.41218766255436
 20
146.7925075285145
 10
-59.85781594791852
 20
146.9817856721214
 10
-60.20174533915885
 20
147.2036168528427
  0
LINE
  5
7DBB
330
85C8
100
AcDbEntity
  8
0
  6
________________
 62
     7
100
AcDbLine
 10
-49.11084817075987
 20
147.9339135961829
 30
0.0
 11
-49.11084817075987
 21
147.7026529607918
 31
0.0
  0
LWPOLYLINE
  5
7DBC
330
85C8
100
AcDbEntity
  8
0
  6
________________
 62
     7
100
AcDbPolyline
 90
        5
 70
     0
 43
0.0
 10
-24.78242857556215
 20
103.5318716010974
 10
-24.36364276265298
 20
103.4884846464392
 10
-23.96095065367612
 20
103.5309597109911
 10
-23.58982748054721
 20
103.6576645018428
 10
-23.26453529868132
 20
103.8637298249385
  0
LINE
  5
7DBD
330
85C8
100
AcDbEntity
  8
0
  6
________________
 62
     7
100
AcDbLine
 10
-24.78242857556215
 20
103.5318716010974
 30
0.0
 11
-27.00060800924195
 21
103.9846555819683
 31
0.0
  0
LWPOLYLINE
  5
7DBE
330
85C8
100
AcDbEntity
  8
0
  6
________________
 62
     7
100
AcDbPolyline
 90
        5
 70
     0
 43
0.0
 10
-23.26453529868132
 20
103.8637298249385
 10
-22.99757490420161
 20
104.1412367054746
 10
-22.79920543535481
 20
104.4795207096596
 10
-22.67705011958184
 20
104.8655817729246
 10
-22.63580331716235
 20
105.284583785114
  0
LWPOLYLINE
  5
7DBF
330
85C8
100
AcDbEntity
  8
0
  6
________________
 62
     7
100
AcDbPolyline
 90
        5
 70
     0
 43
0.0
 10
-21.56249068796245
 20
106.1609398771222
 10
-21.60373749038194
 20
105.7419378649329
 10
-21.72589280615492
 20
105.3558768016679
 10
-21.92426227500171
 20
105.0175927974828
 10
-22.19122266948142
 20
104.7400859169468
  0
LWPOLYLINE
  5
7DC0
330
85C8
100
AcDbEntity
  8
0
  6
________________
 62
     7
100
AcDbPolyline
 90
       32
 70
     1
 43
0.0
 10
-48.47739238451594
 20
107.5760083816876
 10
-47.40955080659721
 20
108.6860359038318
 10
-46.61607293121014
 20
110.0391719205718
 10
-46.12745166811832
 20
111.5834161736319
 10
-45.96246445844042
 20
113.259424222389
 10
-46.12745166811846
 20
115.0027880174455
 10
-46.61607293121043
 20
116.7465110658472
 10
-47.40955080659764
 20
118.423583068735
 10
-48.47739238451648
 20
119.9695550895509
 10
-49.77856111198
 20
121.3250162905259
 10
-51.2630538044956
 20
122.437877057858
 10
-52.87382224040299
 20
123.2653707763582
 10
-54.54896549203961
 20
123.7756973264882
 10
-56.22410874367622
 20
123.949245145121
 10
-57.83487717958358
 20
123.7793448869134
 10
-59.31936987209911
 20
123.272525723507
 10
-60.62053859956254
 20
122.4482644311241
 10
-61.68838017748126
 20
121.3382369089799
 10
-62.48185805286835
 20
119.9851008922398
 10
-62.97047931596016
 20
118.4408566391798
 10
-63.13546652563805
 20
116.7648485904227
 10
-62.97047931596001
 20
115.0214847953661
 10
-62.48185805286805
 20
113.2777617469644
 10
-61.68838017748084
 20
111.6006897440766
 10
-60.62053859956198
 20
110.0547177232608
 10
-59.31936987209846
 20
108.6992565222857
 10
-57.83487717958286
 20
107.5863957549536
 10
-56.22410874367546
 20
106.7589020364535
 10
-54.54896549203883
 20
106.2485754863235
 10
-52.87382224040223
 20
106.0750276676906
 10
-51.26305380449487
 20
106.2449279258983
 10
-49.77856111197935
 20
106.7517470893047
  0
LWPOLYLINE
  5
7DC1
330
85C8
100
AcDbEntity
  8
0
  6
________________
 62
     7
100
AcDbPolyline
 90
        5
 70
     0
 43
0.0
 10
-45.42580814384024
 20
113.3324538967233
 10
-45.59766982058807
 20
111.586612179268
 10
-46.10665030297542
 20
109.9780244156637
 10
-46.93318975650368
 20
108.5685077315594
 10
-48.04552473350241
 20
107.4122290626591
  0
LWPOLYLINE
  5
7DC2
330
85C8
100
AcDbEntity
  8
0
  6
________________
 62
     7
100
AcDbPolyline
 90
       17
 70
     0
 43
0.0
 10
-46.25667035150272
 20
108.8728225493394
 10
-45.14433537450397
 20
110.0291012182397
 10
-44.31779592097568
 20
111.438617902344
 10
-43.80881543858831
 20
113.0472056659483
 10
-43.63695376184045
 20
114.7930473834036
 10
-43.80881543858837
 20
116.6090513365876
 10
-44.31779592097578
 20
118.425429512006
 10
-45.14433537450411
 20
120.1723795150142
 10
-46.2566703515029
 20
121.7827670366974
 10
-47.61205444261074
 20
123.194705787713
 10
-49.15840099731451
 20
124.3539357536839
 10
-50.83628478471808
 20
125.2159083771215
 10
-52.58122567183962
 20
125.7474985335069
 10
-54.32616655896113
 20
125.9282775112494
 10
-56.0040503463647
 20
125.7512980756164
 10
-57.55039690106844
 20
125.223361447068
 10
-58.90578099217625
 20
124.3647559341691
  0
LWPOLYLINE
  5
7DC3
330
85C8
100
AcDbEntity
  8
0
  6
________________
 62
     7
100
AcDbPolyline
 90
       13
 70
     0
 43
0.0
 10
-60.69463537417603
 20
122.9041624474887
 10
-59.33925128306822
 20
123.7627679603876
 10
-57.79290472836448
 20
124.290704588936
 10
-56.11502094096091
 20
124.467684024569
 10
-54.37008005383939
 20
124.2869050468265
 10
-52.62513916671787
 20
123.7553148904411
 10
-50.94725537931431
 20
122.8933422670035
 10
-49.40090882461053
 20
121.7341123010326
 10
-48.04552473350269
 20
120.3221735500169
 10
-46.93318975650389
 20
118.7117860283337
 10
-46.10665030297557
 20
116.9648360253256
 10
-45.59766982058815
 20
115.1484578499071
 10
-45.42580814384023
 20
113.3324538967232
  0
LWPOLYLINE
  5
7DC4
330
85C8
100
AcDbEntity
  8
0
  6
________________
 62
     7
100
AcDbPolyline
 90
       17
 70
     0
 43
0.0
 10
-48.04552473350249
 20
107.412229062659
 10
-49.4009088246103
 20
106.5536235497601
 10
-50.94725537931405
 20
106.0256869212117
 10
-52.62513916671761
 20
105.8487074855787
 10
-54.37008005383912
 20
106.0294864633212
 10
-56.11502094096065
 20
106.5610766197066
 10
-57.79290472836423
 20
107.4230492431442
 10
-59.339251283068
 20
108.5822792091151
 10
-60.69463537417585
 20
109.9942179601308
 10
-61.80697035117463
 20
111.604605481814
 10
-62.63350980470295
 20
113.3515554848222
 10
-63.14249028709038
 20
115.1679336602406
 10
-63.31435196383829
 20
116.9839376134245
 10
-63.14249028709043
 20
118.7297793308799
 10
-62.63350980470305
 20
120.3383670944842
 10
-61.80697035117478
 20
121.7478837785884
 10
-60.69463537417603
 20
122.9041624474887
  0
LWPOLYLINE
  5
7DC5
330
85C8
100
AcDbEntity
  8
0
  6
________________
 62
     7
100
AcDbPolyline
 90
       13
 70
     0
 43
0.0
 10
-43.66237577887186
 20
115.4860142920356
 10
-43.35942126786735
 20
116.6232697772746
 10
-43.28220980568813
 20
117.8433190824402
 10
-43.43348210690646
 20
119.1028550765034
 10
-43.80786857757055
 20
120.3571690004825
 10
-44.39207991545969
 20
121.561737459112
 10
-45.16537882999764
 20
122.6738028328021
 10
-46.10031613755335
 20
123.6538910112465
 10
-47.16370510353282
 20
124.4672125748832
 10
-48.31779944580676
 20
125.0848976875703
 10
-49.52163318481274
 20
125.4850208664635
 10
-50.73247478072573
 20
125.6533792536432
 10
-51.90734394133339
 20
125.5839967637968
  0
LINE
  5
7DC6
330
85C8
100
AcDbEntity
  8
0
  6
________________
 62
     7
100
AcDbLine
 10
-44.12316881998632
 20
145.3109474654648
 30
0.0
 11
-44.01466252584005
 21
144.9736378483802
 31
0.0
  0
LWPOLYLINE
  5
7DC7
330
85C8
100
AcDbEntity
  8
0
  6
________________
 62
     7
100
AcDbPolyline
 90
        4
 70
     0
 43
0.0
 10
-49.85993755087563
 20
145.992557759249
 10
-49.94532037331615
 20
145.7864044600559
 10
-49.93517394125758
 20
145.5773660373941
 10
-49.82985321718315
 20
145.3727554853457
  0
LWPOLYLINE
  5
7DC8
330
85C8
100
AcDbEntity
  8
0
  6
________________
 62
     7
100
AcDbPolyline
 90
       14
 70
     0
 43
0.0
 10
-44.56938750080448
 20
145.992557759249
 10
-44.76438153220296
 20
146.2028372220507
 10
-45.05850956330895
 20
146.3929319740631
 10
-45.43987169846748
 20
146.5551511205931
 10
-45.89303870572783
 20
146.6829315642382
 10
-46.39967625605514
 20
146.7711035361043
 10
-46.93928669758974
 20
146.8160997554362
 10
-47.49003835409035
 20
146.8160997554362
 10
-48.02964879562496
 20
146.7711035361043
 10
-48.53628634595227
 20
146.6829315642382
 10
-48.98945335321262
 20
146.5551511205931
 10
-49.37081548837115
 20
146.3929319740631
 10
-49.66494351947714
 20
146.2028372220507
 10
-49.85993755087563
 20
145.992557759249
  0
LWPOLYLINE
  5
7DC9
330
85C8
100
AcDbEntity
  8
0
  6
________________
 62
     7
100
AcDbPolyline
 90
        3
 70
     0
 43
0.0
 10
-50.27099711690428
 20
144.5865937364531
 10
-50.37854231902164
 20
144.7779064617397
 10
-50.41466252584006
 20
144.9736378483802
  0
LWPOLYLINE
  5
7DCA
330
85C8
100
AcDbEntity
  8
0
  6
________________
 62
     7
100
AcDbPolyline
 90
       17
 70
     0
 43
0.0
 10
-49.82985321718315
 20
145.3727554853457
 10
-49.62456862740198
 20
145.1732663751077
 10
-49.32898698901408
 20
144.9936609332494
 10
-48.95418348438921
 20
144.8406688167076
 10
-48.51420166910539
 20
144.720022504675
 10
-48.0255272723514
 20
144.636242507679
 10
-47.50647049124568
 20
144.5924679880529
 10
-46.97647992395677
 20
144.5903391383021
 10
-46.45541384794393
 20
144.6299357245426
 10
-45.96279614787741
 20
144.7097740977349
 10
-45.51708477296054
 20
144.8268627847009
 10
-45.13498013391033
 20
144.9768145759756
 10
-44.8307993533494
 20
145.1540109106631
 10
-44.61593981589361
 20
145.3518123989399
 10
-44.49845211823828
 20
145.5628075941153
 10
-44.48273842042564
 20
145.7790906929787
 10
-44.56938750080448
 20
145.992557759249
  0
LWPOLYLINE
  5
7DCB
330
85C8
100
AcDbEntity
  8
0
  6
________________
 62
     7
100
AcDbPolyline
 90
        4
 70
     0
 43
0.0
 10
-44.01466252584005
 20
144.9736378483802
 10
-44.05908614881209
 20
144.7567132344613
 10
-44.19112360630447
 20
144.5458114813312
 10
-44.40710890942356
 20
144.3467882264682
  0
LINE
  5
7DCC
330
85C8
100
AcDbEntity
  8
0
  6
________________
 62
     7
100
AcDbLine
 10
-50.0222161413075
 20
144.3467882257598
 30
0.0
 11
-50.27099711690428
 21
144.5865937364531
 31
0.0
  0
LINE
  5
7DCD
330
85C8
100
AcDbEntity
  8
0
  6
________________
 62
     7
100
AcDbLine
 10
-50.41466252584006
 20
144.9736378483802
 30
0.0
 11
-50.30615623169379
 21
145.3109474654648
 31
0.0
  0
LINE
  5
7DCE
330
85C8
100
AcDbEntity
  8
0
  6
________________
 62
     7
100
AcDbLine
 10
-30.58449443233011
 20
140.5007537583604
 30
0.0
 11
-30.58449443233011
 21
138.3098635283397
 31
0.0
  0
LINE
  5
7DCF
330
85C8
100
AcDbEntity
  8
0
  6
________________
 62
     7
100
AcDbLine
 10
-30.58449443233014
 20
138.3098635283397
 30
0.0
 11
-30.22054589684165
 21
138.5276915419608
 31
0.0
  0
LINE
  5
7DD0
330
85C8
100
AcDbEntity
  8
0
  6
________________
 62
   253
100
AcDbLine
 10
-30.22054589684165
 20
138.5276915419608
 30
0.0
 11
-30.22054589684165
 21
99.09166740158884
 31
0.0
  0
LWPOLYLINE
  5
7DD1
330
85C8
100
AcDbEntity
  8
0
  6
________________
 62
   253
100
AcDbPolyline
 90
        9
 70
     0
 43
0.0
 10
-30.22054589684164
 20
99.09166740158884
 10
-30.47118560571572
 20
98.92911827768557
 10
-30.79468697597713
 20
98.78965476203017
 10
-31.17861803138838
 20
98.67863635931724
 10
-31.60822451680104
 20
98.60032944450317
 10
-32.06699689590678
 20
98.55774330840929
 10
-32.53730480345909
 20
98.55251451236306
 10
-33.00107457032244
 20
98.58484399606421
 10
-33.44048378444136
 20
98.6534893555847
  0
LINE
  5
7DD2
330
85C8
100
AcDbEntity
  8
0
  6
________________
 62
   253
100
AcDbLine
 10
-33.44048378444135
 20
98.65348935558471
 30
0.0
 11
-33.44048378444135
 21
140.2804037259773
 31
0.0
  0
LWPOLYLINE
  5
7DD3
330
85C8
100
AcDbEntity
  8
0
  6
________________
 62
     7
100
AcDbPolyline
 90
        8
 70
     0
 43
0.0
 10
-33.44048378444133
 20
140.2804037259773
 10
-33.02537172958665
 20
140.2145308999468
 10
-32.58759364740202
 20
140.1811050015546
 10
-32.14222501846587
 20
140.1812770968376
 10
-31.70460271410409
 20
140.2150412594618
 10
-31.28979685047502
 20
140.281234774804
 10
-30.91209182872947
 20
140.3775781796028
 10
-30.58449443233014
 20
140.5007537583604
  0
LINE
  5
7DD4
330
85C8
100
AcDbEntity
  8
0
  6
________________
 62
     7
100
AcDbLine
 10
-49.94107356697501
 20
147.0734632129388
 30
0.0
 11
-49.18240234603987
 21
147.6929156708806
 31
0.0
  0
LINE
  5
7DD5
330
85C8
100
AcDbEntity
  8
0
  6
________________
 62
     7
100
AcDbLine
 10
-48.64574603143991
 20
147.7659453452146
 30
0.0
 11
-49.18240234603987
 21
147.6929156708806
 31
0.0
  0
LINE
  5
7DD6
330
85C8
100
AcDbEntity
  8
0
  6
________________
 62
     7
100
AcDbLine
 10
-41.13255762704063
 20
146.2323221842001
 30
0.0
 11
-48.64574603143991
 21
147.7659453452146
 31
0.0
  0
LINE
  5
7DD7
330
85C8
100
AcDbEntity
  8
0
  6
________________
 62
     7
100
AcDbLine
 10
-40.95367218884065
 20
146.0132331611981
 30
0.0
 11
-41.13255762704063
 21
146.2323221842001
 31
0.0
  0
LINE
  5
7DD8
330
85C8
100
AcDbEntity
  8
0
  6
________________
 62
     7
100
AcDbLine
 10
-40.95367218884065
 20
146.0132331611981
 30
0.0
 11
-41.71234340977579
 21
145.3937807032563
 31
0.0
  0
LWPOLYLINE
  5
7DD9
330
85C8
100
AcDbEntity
  8
0
  6
________________
 62
     7
100
AcDbPolyline
 90
        6
 70
     0
 43
0.0
 10
-41.71234340977577
 20
145.3937807032563
 10
-42.24820199505392
 20
145.1909643794837
 10
-42.68474389266994
 20
144.9517356318475
 10
-43.00740084850159
 20
144.6840779900108
 10
-43.20540517094231
 20
144.3969237112561
 10
-43.2721490697608
 20
144.0998556936467
  0
LINE
  5
7DDA
330
85C8
100
AcDbEntity
  8
0
  6
________________
 62
     7
100
AcDbLine
 10
-41.06100345176063
 20
142.6392622069663
 30
0.0
 11
-40.52434713716069
 21
142.5297176954653
 31
0.0
  0
LINE
  5
7DDB
330
85C8
100
AcDbEntity
  8
0
  6
________________
 62
     7
100
AcDbLine
 10
-40.52434713716069
 20
142.5297176954653
 30
0.0
 11
-30.58449443233011
 21
140.5007537583604
 31
0.0
  0
LINE
  5
7DDC
330
85C8
100
AcDbEntity
  8
0
  6
________________
 62
     7
100
AcDbLine
 10
-33.44048378444135
 20
140.2804037259773
 30
0.0
 11
-64.92432090763839
 21
146.7070150673713
 31
0.0
  0
LINE
  5
7DDD
330
85C8
100
AcDbEntity
  8
0
  6
________________
 62
     7
100
AcDbLine
 10
-66.20611840358978
 20
147.7719873032671
 30
0.0
 11
-66.25100827843849
 21
147.5833711593796
 31
0.0
  0
LINE
  5
7DDE
330
85C8
100
AcDbEntity
  8
0
  6
________________
 62
     7
100
AcDbLine
 10
-66.20611840358978
 20
147.7719873032671
 30
0.0
 11
-56.26626569875921
 21
145.7430233661622
 31
0.0
  0
LINE
  5
7DDF
330
85C8
100
AcDbEntity
  8
0
  6
________________
 62
     7
100
AcDbLine
 10
-56.26626569875921
 20
145.7430233661622
 30
0.0
 11
-55.72960938415926
 21
145.6334788546611
 31
0.0
  0
LWPOLYLINE
  5
7DE0
330
85C8
100
AcDbEntity
  8
0
  6
________________
 62
     7
100
AcDbPolyline
 90
       11
 70
     0
 43
0.0
 10
-55.72960938415925
 20
145.6334788546612
 10
-54.97474028991099
 20
145.5165809560131
 10
-54.17774805278211
 20
145.4639478934361
 10
-53.37110104372239
 20
145.4777238657318
 10
-52.58766095585197
 20
145.5573476586779
 10
-51.85934406414177
 20
145.6995755081254
 10
-51.21582100013296
 20
145.8986132465026
 10
-50.68330801109067
 20
146.1463523492573
 10
-50.28349894603669
 20
146.4327002650294
 10
-50.03268147808561
 20
146.7459915723542
 10
-49.94107356697501
 20
147.0734632129388
  0
LWPOLYLINE
  5
7DE1
330
85C8
100
AcDbEntity
  8
0
  6
________________
 62
     7
100
AcDbPolyline
 90
       12
 70
     0
 43
0.0
 10
-44.20938716408035
 20
144.486912967617
 10
-44.57051302488269
 20
144.2539902278597
 10
-45.03842272451505
 20
144.0552481770725
 10
-45.59421975431387
 20
143.8987130025463
 10
-46.21545828039921
 20
143.7907063690895
 10
-46.87704961749799
 20
143.735590118926
 10
-47.55227543418208
 20
143.735590118926
 10
-48.21386677128086
 20
143.7907063690895
 10
-48.8351052973662
 20
143.8987130025463
 10
-49.39090232716502
 20
144.0552481770724
 10
-49.85881202679738
 20
144.2539902278596
 10
-50.21993788759974
 20
144.486912967617
  0
LINE
  5
7DE2
330
85C8
100
AcDbEntity
  8
0
  6
________________
 62
   253
100
AcDbLine
 10
-64.92432090763839
 20
105.0801006969787
 30
0.0
 11
-33.44048378444135
 21
98.65348935558471
 31
0.0
  0
LINE
  5
7DE3
330
85C8
100
AcDbEntity
  8
0
  6
________________
 62
   253
100
AcDbLine
 10
-64.92432090763839
 20
146.7070150673713
 30
0.0
 11
-64.92432090763839
 21
105.0801006969787
 31
0.0
  0
LINE
  5
7DE4
330
85C8
100
AcDbEntity
  8
0
  6
________________
 62
     7
100
AcDbLine
 10
-30.22054589684165
 20
138.5276915419608
 30
0.0
 11
-27.00060800924195
 21
141.1567598179856
 31
0.0
  0
LINE
  5
7DE5
330
85C8
100
AcDbEntity
  8
0
  6
________________
 62
     7
100
AcDbLine
 10
-27.00060800924195
 20
101.7207356776136
 30
0.0
 11
-27.00060800924195
 21
141.1567598179856
 31
0.0
  0
LINE
  5
7DE6
330
85C8
100
AcDbEntity
  8
0
  6
________________
 62
   253
100
AcDbLine
 10
-30.22054589684165
 20
99.09166740158884
 30
0.0
 11
-27.00060800924195
 21
101.7207356776136
 31
0.0
  0
LWPOLYLINE
  5
7DE7
330
85C8
100
AcDbEntity
  8
0
  6
________________
 62
     7
100
AcDbPolyline
 90
        7
 70
     0
 43
0.0
 10
-43.2721490697608
 20
144.0998556936467
 10
-43.20424328397133
 20
143.8002350750382
 10
-43.00283152447474
 20
143.5107874432023
 10
-42.67475230316897
 20
143.2413403825815
 10
-42.231144858716
 20
143.0010424003658
 10
-41.68707094716465
 20
142.7980523082081
 10
-41.06100345176065
 20
142.6392622069663
  0
LINE
  5
7DE8
330
85C8
100
AcDbEntity
  8
0
  6
________________
 62
     7
100
AcDbLine
 10
-41.71234340977579
 20
145.3937807032563
 30
0.0
 11
-41.71234340977579
 21
145.2112065174212
 31
0.0
  0
LWPOLYLINE
  5
7DE9
330
85C8
100
AcDbEntity
  8
0
  6
________________
 62
     7
100
AcDbPolyline
 90
        7
 70
     0
 43
0.0
 10
-50.21993788759974
 20
144.486912967617
 10
-50.44431729491555
 20
144.7220039202363
 10
-50.55943019039757
 20
144.969895588693
 10
-50.56138204492248
 20
145.2222012382241
 10
-50.45010682284537
 20
145.470384799122
 10
-50.22936921613466
 20
145.7060496612431
 10
-49.90663727634394
 20
145.921222750285
  0
LWPOLYLINE
  5
7DEA
330
85C8
100
AcDbEntity
  8
0
  6
________________
 62
     7
100
AcDbPolyline
 90
        7
 70
     0
 43
0.0
 10
-44.52268777533617
 20
145.921222750285
 10
-44.19995583554546
 20
145.7060496612431
 10
-43.97921822883475
 20
145.470384799122
 10
-43.86794300675763
 20
145.2222012382241
 10
-43.86989486128254
 20
144.969895588693
 10
-43.98500775676455
 20
144.7220039202363
 10
-44.20938716408034
 20
144.486912967617
  0
LWPOLYLINE
  5
7DEB
330
85C8
100
AcDbEntity
  8
0
  6
________________
 62
     7
100
AcDbPolyline
 90
        3
 70
     0
 43
0.0
 10
-50.14401740378008
 20
144.4284892282942
 10
-50.34627038837714
 20
144.6856543535815
 10
-50.41466252584006
 20
144.9543028833548
  0
LWPOLYLINE
  5
7DEC
330
85C8
100
AcDbEntity
  8
0
  6
________________
 62
     7
100
AcDbPolyline
 90
        3
 70
     0
 43
0.0
 10
-44.01466252584005
 20
144.9543028833548
 10
-44.08305466333923
 20
144.6856543535111
 10
-44.28530764804193
 20
144.4284892281624
  0
LINE
  5
7DED
330
85C8
100
AcDbEntity
  8
0
  6
________________
 62
     7
100
AcDbLine
 10
-40.95367218884065
 20
145.830658975363
 30
0.0
 11
-40.95367218884065
 21
146.0132331611981
 31
0.0
  0
LWPOLYLINE
  5
7DEE
330
85C8
100
AcDbEntity
  8
0
  6
________________
 62
     7
100
AcDbPolyline
 90
        7
 70
     0
 43
0.0
 10
-66.25100827843849
 20
147.5833711593796
 10
-66.2102648069648
 20
147.4035987882145
 10
-66.08941775126685
 20
147.229930209113
 10
-65.89257021848339
 20
147.0682619727404
 10
-65.6264057518116
 20
146.924083183411
 10
-65.29996140488079
 20
146.8022891281164
 10
-64.92432090763839
 20
146.7070150673713
  0
LWPOLYLINE
  5
7DEF
330
85C8
100
AcDbEntity
  8
0
  6
________________
 62
   253
100
AcDbPolyline
 90
        7
 70
     0
 43
0.0
 10
-66.25100827843849
 20
105.9564567889869
 10
-66.2102648069648
 20
105.7766844178218
 10
-66.08941775126685
 20
105.6030158387203
 10
-65.89257021848339
 20
105.4413476023478
 10
-65.6264057518116
 20
105.2971688130184
 10
-65.2999614048808
 20
105.1753747577238
 10
-64.9243209076384
 20
105.0801006969787
  0
LWPOLYLINE
  5
7DF0
330
85C8
100
AcDbEntity
  8
0
  6
________________
 62
   253
100
AcDbPolyline
 90
        7
 70
     0
 43
0.0
 10
-32.84717115524144
 20
97.17833529452112
 10
-33.01516269262861
 20
97.25421005493821
 10
-33.16115304275017
 20
97.4073492201096
 10
-33.28018541088479
 20
97.6325532723622
 10
-33.36821830378617
 20
97.92217588263044
 10
-33.42226275007044
 20
98.26638352544799
 10
-33.44048378444134
 20
98.65348935558471
  0
LWPOLYLINE
  5
7DF1
330
85C8
100
AcDbEntity
  8
0
  6
________________
 62
   253
100
AcDbPolyline
 90
        5
 70
     0
 43
0.0
 10
-30.84927787836062
 20
97.6708134414134
 10
-30.58231748388091
 20
97.94832032194947
 10
-30.38394801503412
 20
98.28660432613451
 10
-30.26179269926114
 20
98.67266538939954
 10
-30.22054589684165
 20
99.09166740158884
  0
LWPOLYLINE
  5
7DF2
330
85C8
100
AcDbEntity
  8
0
  6
________________
 62
   253
100
AcDbPolyline
 90
        7
 70
     0
 43
0.0
 10
-64.33100827843849
 20
103.6049466359151
 10
-64.49899981582566
 20
103.6808213963322
 10
-64.64499016594722
 20
103.8339605615036
 10
-64.76402253408183
 20
104.0591646137562
 10
-64.85205542698323
 20
104.3487872240244
 10
-64.9060998732675
 20
104.6929948668419
 10
-64.92432090763839
 20
105.0801006969787
  0
LWPOLYLINE
  5
7DF3
330
85C8
100
AcDbEntity
  8
0
  6
________________
 62
     7
100
AcDbPolyline
 90
        5
 70
     0
 43
0.0
 10
-27.00060800924194
 20
101.7207356776136
 10
-27.04185481166143
 20
101.3017336654243
 10
-27.16401012743441
 20
100.9156726021593
 10
-27.3623795962812
 20
100.5773885979743
 10
-27.62933999076091
 20
100.2998817174382
  0
ARC
  5
7DF4
330
85C8
100
AcDbEntity
  8
0
  6
________________
 62
     7
100
AcDbCircle
 10
-57.3395773503938
 20
142.1577536286254
 30
0.0
 40
7.519866709557129
100
AcDbArc
 50
78.55812248740436
 51
101.4094095441367
  0
LINE
  5
7DF5
330
85C8
100
AcDbEntity
  8
0
  6
________________
 62
     7
100
AcDbLine
 10
-60.69957832789725
 20
148.2990619680089
 30
0.0
 11
-60.6995783279087
 21
147.9339135963294
 31
0.0
  0
LINE
  5
7DF6
330
85C8
100
AcDbEntity
  8
0
  6
________________
 62
     7
100
AcDbLine
 10
-53.9795783279087
 20
147.9339135961186
 30
0.0
 11
-53.97957832789725
 21
148.2990619677981
 31
0.0
  0
LINE
  5
7DF7
330
85C8
100
AcDbEntity
  8
0
  6
________________
 62
     7
100
AcDbLine
 10
-60.34485368980312
 20
147.3204643320854
 30
0.0
 11
-60.20174533879362
 21
147.2036168527689
 31
0.0
  0
LINE
  5
7DF8
330
85C8
100
AcDbEntity
  8
0
  6
________________
 62
     7
100
AcDbLine
 10
-54.47741131675937
 20
147.2036168528426
 30
0.0
 11
-54.33430296605277
 21
147.3204643318968
 31
0.0
  0
ARC
  5
7DF9
330
85C8
100
AcDbEntity
  8
0
  6
________________
 62
     7
100
AcDbCircle
 10
-35.87332476639588
 20
137.7759731685849
 30
0.0
 40
7.519866709556353
100
AcDbArc
 50
78.5581224874027
 51
101.4094095441373
  0
LINE
  5
7DFA
330
85C8
100
AcDbEntity
  8
0
  6
________________
 62
     7
100
AcDbLine
 10
-39.23332574389926
 20
143.9172815079675
 30
0.0
 11
-39.23332574391073
 21
143.5521331362881
 31
0.0
  0
LINE
  5
7DFB
330
85C8
100
AcDbEntity
  8
0
  6
________________
 62
     7
100
AcDbLine
 10
-32.51332574391072
 20
143.5521331360773
 30
0.0
 11
-32.51332574389927
 21
143.9172815077567
 31
0.0
  0
LINE
  5
7DFC
330
85C8
100
AcDbEntity
  8
0
  6
________________
 62
     7
100
AcDbLine
 10
-38.87860110580514
 20
142.938683872044
 30
0.0
 11
-38.73549275478467
 21
142.8218363927186
 31
0.0
  0
LINE
  5
7DFD
330
85C8
100
AcDbEntity
  8
0
  6
________________
 62
     7
100
AcDbLine
 10
-33.01115873276138
 20
142.8218363928013
 30
0.0
 11
-32.86805038205478
 21
142.9386838718554
 31
0.0
  0
LINE
  5
7DFE
330
85C8
100
AcDbEntity
  8
0
  6
________________
 62
     7
100
AcDbLine
 10
-24.12827060070824
 20
104.1912884629956
 30
0.0
 11
-23.77049972430828
 21
104.4834071603317
 31
0.0
  0
LINE
  5
7DFF
330
85C8
100
AcDbEntity
  8
0
  6
________________
 62
     7
100
AcDbLine
 10
-42.73549275516085
 20
143.9903111821457
 30
0.0
 11
-42.73549275516085
 21
143.2828234098293
 31
0.0
  0
LINE
  5
7E00
330
85C8
100
AcDbEntity
  8
0
  6
________________
 62
     7
100
AcDbLine
 10
-23.26453529868133
 20
103.8637298249385
 30
0.0
 11
-22.19122266948143
 21
104.7400859169468
 31
0.0
  0
LINE
  5
7E01
330
85C8
100
AcDbEntity
  8
0
  6
________________
 62
     7
100
AcDbLine
 10
-48.0455247335026
 20
107.4122290626591
 30
0.0
 11
-46.25667035150281
 21
108.8728225493395
 31
0.0
  0
LINE
  5
7E02
330
85C8
100
AcDbEntity
  8
0
  6
________________
 62
     7
100
AcDbLine
 10
-58.90578099217615
 20
124.364755934169
 30
0.0
 11
-60.69463537417593
 21
122.9041624474886
 31
0.0
  0
LINE
  5
7E03
330
85C8
100
AcDbEntity
  8
0
  6
________________
 62
     7
100
AcDbLine
 10
-44.12316881998631
 20
145.3109474654648
 30
0.0
 11
-44.56938750080448
 21
145.992557759249
 31
0.0
  0
LINE
  5
7E04
330
85C8
100
AcDbEntity
  8
0
  6
________________
 62
     7
100
AcDbLine
 10
-49.85993755087563
 20
145.992557759249
 30
0.0
 11
-50.30615623169381
 21
145.3109474654648
 31
0.0
  0
LINE
  5
7E05
330
85C8
100
AcDbEntity
  8
0
  6
________________
 62
     7
100
AcDbLine
 10
-44.01466252584005
 20
144.9543028833548
 30
0.0
 11
-44.01466252584005
 21
144.9736378483802
 31
0.0
  0
LINE
  5
7E06
330
85C8
100
AcDbEntity
  8
0
  6
________________
 62
     7
100
AcDbLine
 10
-50.41466252584006
 20
144.9736378483802
 30
0.0
 11
-50.41466252584006
 21
144.9543028833548
 31
0.0
  0
LINE
  5
7E07
330
85C8
100
AcDbEntity
  8
0
  6
________________
 62
     7
100
AcDbLine
 10
-66.25100827843849
 20
147.5833711593796
 30
0.0
 11
-66.25100827843849
 21
105.9564567889869
 31
0.0
  0
ARC
  5
7E08
330
85C8
100
AcDbEntity
  8
0
  6
________________
 62
     7
100
AcDbCircle
 10
-32.36717115524144
 20
99.52984544759296
 30
0.0
 40
2.399999999999996
100
AcDbArc
 50
258.4630409671846
 51
309.2315204835922
  0
LINE
  5
7E09
330
85C8
100
AcDbEntity
  8
0
  6
________________
 62
     7
100
AcDbLine
 10
-64.33100827843849
 20
103.6049466359151
 30
0.0
 11
-32.84717115524145
 21
97.17833529452112
 31
0.0
  0
LINE
  5
7E0A
330
85C8
100
AcDbEntity
  8
0
  6
________________
 62
     7
100
AcDbLine
 10
-30.84927787836062
 20
97.67081344141342
 30
0.0
 11
-27.62933999076093
 21
100.2998817174382
 31
0.0
  0
ARC
  5
7E0B
330
85C8
100
AcDbEntity
  8
0
  6
________________
 62
     7
100
AcDbCircle
 10
-63.85100827843849
 20
105.9564567889869
 30
0.0
 40
2.399999999999999
100
AcDbArc
 50
180.0
 51
258.4630409671845
  0
ENDBLK
  5
7E0C
330
85C8
100
AcDbEntity
  8
0
100
AcDbBlockEnd
  0
ENDSEC
  0
SECTION
  2
ENTITIES
  0
CIRCLE
  5
88C0
330
85AB
100
AcDbEntity
  8
0
  6
Continuous
 62
     7
370
    15
100
AcDbCircle
 10
471.5308540092632
 20
14.44404651909397
 30
0.0
 40
11.28551452301971
  0
LINE
  5
88C1
330
85AB
100
AcDbEntity
  8
0
  6
Continuous
 62
     7
370
    15
100
AcDbLine
 10
470.7808539006103
 20
-11.70595119114932
 30
0.0
 11
470.7808539006103
 21
-12.05595711585102
 31
0.0
  0
LINE
  5
88C2
330
85AB
100
AcDbEntity
  8
0
  6
Continuous
 62
     7
370
    15
100
AcDbLine
 10
473.5808540336031
 20
-12.05595711585102
 30
0.0
 11
473.5808540336031
 21
-11.70595119114932
 31
0.0
  0
LINE
  5
88C3
330
85AB
100
AcDbEntity
  8
0
  6
Continuous
 62
     7
370
    15
100
AcDbLine
 10
473.5808540336031
 20
40.59404657814684
 30
0.0
 11
473.5808540336031
 21
40.94404691491309
 31
0.0
  0
LINE
  5
88C4
330
85AB
100
AcDbEntity
  8
0
  6
Continuous
 62
     7
370
    15
100
AcDbLine
 10
470.7808539006103
 20
40.94404691491309
 30
0.0
 11
470.7808539006103
 21
40.59404657814684
 31
0.0
  0
LINE
  5
88C5
330
85AB
100
AcDbEntity
  8
0
  6
Continuous
 62
     7
370
    15
100
AcDbLine
 10
507.2808540626604
 20
8.94404818896237
 30
0.0
 11
508.780853377207
 21
10.44404750350895
 31
0.0
  0
LINE
  5
88C6
330
85AB
100
AcDbEntity
  8
0
  6
Continuous
 62
     7
370
    15
100
AcDbLine
 10
508.780853377207
 20
18.44404508952084
 30
0.0
 11
507.2808540626604
 21
19.94404812935772
 31
0.0
  0
LINE
  5
88C7
330
85AB
100
AcDbEntity
  8
0
  6
Continuous
 62
     7
370
    15
100
AcDbLine
 10
507.2808540626604
 20
19.94404812935772
 30
0.0
 11
504.1808537407953
 21
19.94404812935772
 31
0.0
  0
LINE
  5
88C8
330
85AB
100
AcDbEntity
  8
0
  6
Continuous
 62
     7
370
    15
100
AcDbLine
 10
504.1808537407953
 20
8.94404818896237
 30
0.0
 11
507.2808540626604
 21
8.94404818896237
 31
0.0
  0
ARC
  5
88D7
330
85AB
100
AcDbEntity
  8
0
  6
Continuous
 62
     7
370
    15
100
AcDbCircle
 10
444.0308540092632
 20
-8.705953480906032
 30
0.0
 40
3.0
100
AcDbArc
 50
180.0
 51
270.0
  0
ARC
  5
88D8
330
85AB
100
AcDbEntity
  8
0
  6
Continuous
 62
     7
370
    15
100
AcDbCircle
 10
500.3308540092631
 20
37.59404651909395
 30
0.0
 40
3.0
100
AcDbArc
 50
0.0
 51
90.0
  0
LINE
  5
88D9
330
85AB
100
AcDbEntity
  8
0
  6
Continuous
 62
     7
370
    15
100
AcDbLine
 10
503.3308542533953
 20
37.59404608640853
 30
0.0
 11
503.3308542533953
 21
-8.705952562056154
 31
0.0
  0
ARC
  5
88DA
330
85AB
100
AcDbEntity
  8
0
  6
Continuous
 62
     7
370
    15
100
AcDbCircle
 10
500.3308540092631
 20
-8.705953480906032
 30
0.0
 40
3.0
100
AcDbArc
 50
270.0000000000011
 51
0.0
  0
ARC
  5
88DB
330
85AB
100
AcDbEntity
  8
0
  6
Continuous
 62
     7
370
    15
100
AcDbCircle
 10
444.0308540092632
 20
37.59404651909395
 30
0.0
 40
3.0
100
AcDbArc
 50
90.0
 51
180.0
  0
LINE
  5
88DC
330
85AB
100
AcDbEntity
  8
0
  6
Continuous
 62
     7
370
    15
100
AcDbLine
 10
441.0308539136488
 20
-8.705952562056154
 30
0.0
 11
441.0308539136488
 21
37.59404608640853
 31
0.0
  0
LINE
  5
88DD
330
85AB
100
AcDbEntity
  8
0
  6
Continuous
 62
     7
370
    15
100
AcDbLine
 10
444.0308544053871
 20
40.59404657814684
 30
0.0
 11
500.3308556243021
 21
40.59404657814684
 31
0.0
  0
LINE
  5
88DE
330
85AB
100
AcDbEntity
  8
0
  6
Continuous
 62
     7
370
    15
100
AcDbLine
 10
500.3308556243021
 20
-11.70595119114932
 30
0.0
 11
444.0308544053871
 21
-11.70595119114932
 31
0.0
  0
LINE
  5
88DF
330
85AB
100
AcDbEntity
  8
0
  6
Continuous
 62
     7
370
    15
100
AcDbLine
 10
473.7480525127787
 20
15.24811854247037
 30
0.0
 11
476.0599457859237
 21
18.20068305019322
 31
0.0
  0
LINE
  5
88E0
330
85AB
100
AcDbEntity
  8
0
  6
Continuous
 62
     7
370
    15
100
AcDbLine
 10
476.0599457859237
 20
18.20068305019322
 30
0.0
 11
474.0915680504579
 21
19.74194740537587
 31
0.0
  0
LINE
  5
88E1
330
85AB
100
AcDbEntity
  8
0
  6
Continuous
 62
     7
370
    15
100
AcDbLine
 10
474.0915680504579
 20
19.74194740537587
 30
0.0
 11
468.8512767516252
 21
13.04946338418904
 31
0.0
  0
LINE
  5
88E2
330
85AB
100
AcDbEntity
  8
0
  6
Continuous
 62
     7
370
    15
100
AcDbLine
 10
468.8512767516252
 20
13.04946338418904
 30
0.0
 11
470.8196544288833
 21
11.50819902900639
 31
0.0
  0
LINE
  5
88E3
330
85AB
100
AcDbEntity
  8
0
  6
Continuous
 62
     7
370
    15
100
AcDbLine
 10
470.8196544288833
 20
11.50819902900639
 30
0.0
 11
470.9737808644015
 21
11.70503591779652
 31
0.0
  0
ARC
  5
88E4
330
85AB
100
AcDbEntity
  8
0
  6
Continuous
 62
     7
370
    15
100
AcDbCircle
 10
469.7569976514121
 20
15.51547583297156
 30
0.0
 40
4.000000000000025
100
AcDbArc
 50
287.7097864270689
 51
356.1675190826945
  0
CIRCLE
  5
88E5
330
85AB
100
AcDbEntity
  8
0
  6
Continuous
 62
     7
370
    15
100
AcDbCircle
 10
471.530854009263
 20
14.4440465190944
 30
0.0
 40
7.750000000000015
  0
ARC
  5
88E6
330
85AB
100
AcDbEntity
  8
0
  6
Continuous
 62
     7
370
    15
100
AcDbCircle
 10
471.5308540092632
 20
14.44404651909397
 30
0.0
 40
7.75
100
AcDbArc
 50
321.9386527548832
 51
0.0
  0
ARC
  5
88E7
330
85AB
100
AcDbEntity
  8
0
  6
Continuous
 62
     7
370
    15
100
AcDbCircle
 10
471.5308540092632
 20
14.44404651909397
 30
0.0
 40
7.750000000000457
100
AcDbArc
 50
0.0
 51
141.9386527548797
  0
CIRCLE
  5
88E8
330
85AB
100
AcDbEntity
  8
0
  6
Continuous
 62
     7
370
    15
100
AcDbCircle
 10
471.5308540092632
 20
14.44404651909397
 30
0.0
 40
11.50000000000001
  0
LINE
  5
88E9
330
85AB
100
AcDbEntity
  8
0
  6
Continuous
 62
     7
370
    15
100
AcDbLine
 10
473.5808540336031
 20
-12.05595711585102
 30
0.0
 11
470.7808539006103
 21
-12.05595711585102
 31
0.0
  0
LINE
  5
88EA
330
85AB
100
AcDbEntity
  8
0
  6
Continuous
 62
     7
370
    15
100
AcDbLine
 10
470.7808539006103
 20
40.94404691491309
 30
0.0
 11
473.5808540336031
 21
40.94404691491309
 31
0.0
  0
LINE
  5
88EB
330
85AB
100
AcDbEntity
  8
0
  6
Continuous
 62
     7
370
    15
100
AcDbLine
 10
508.780853377207
 20
18.44404508952084
 30
0.0
 11
508.780853377207
 21
10.44404750350895
 31
0.0
  0
LINE
  5
88EC
330
85AB
100
AcDbEntity
  8
0
  6
Continuous
 62
     7
370
    15
100
AcDbLine
 10
507.2808540626604
 20
19.94404812935772
 30
0.0
 11
507.2808540626604
 21
8.94404818896237
 31
0.0
  0
LINE
  5
88ED
330
85AB
100
AcDbEntity
  8
0
  6
Continuous
 62
     7
370
    15
100
AcDbLine
 10
504.1808537407953
 20
-3.555954791269869
 30
0.0
 11
504.1808537407953
 21
32.44404738429967
 31
0.0
  0
LINE
  5
88EE
330
85AB
100
AcDbEntity
  8
0
  6
Continuous
 62
     7
370
    15
100
AcDbLine
 10
503.3308542533953
 20
-3.555954791269869
 30
0.0
 11
504.1808537407953
 21
-3.555954791269869
 31
0.0
  0
LINE
  5
88EF
330
85AB
100
AcDbEntity
  8
0
  6
Continuous
 62
     7
370
    15
100
AcDbLine
 10
504.1808537407953
 20
32.44404738429967
 30
0.0
 11
503.3308542533953
 21
32.44404738429967
 31
0.0
  0
ARC
  5
88F0
330
85AB
100
AcDbEntity
  8
0
  6
Continuous
 62
     8
370
     0
100
AcDbCircle
 10
444.0308540092632
 20
-8.705953480906032
 30
0.0
 40
2.5
100
AcDbArc
 50
180.0
 51
270.0
  0
LINE
  5
88F1
330
85AB
100
AcDbEntity
  8
0
  6
Continuous
 62
     8
370
     0
100
AcDbLine
 10
444.0308544053871
 20
-11.20595017787036
 30
0.0
 11
444.0308544053871
 21
-11.70595119114932
 31
0.0
  0
LINE
  5
88F2
330
85AB
100
AcDbEntity
  8
0
  6
Continuous
 62
     8
370
     0
100
AcDbLine
 10
441.5308549269278
 20
-8.705952562056154
 30
0.0
 11
441.0308539136488
 21
-8.705952562056154
 31
0.0
  0
LINE
  5
88F3
330
85AB
100
AcDbEntity
  8
0
  6
Continuous
 62
     8
370
     0
100
AcDbLine
 10
441.5308549269278
 20
37.59404608640853
 30
0.0
 11
441.5308549269278
 21
-8.705952562056154
 31
0.0
  0
ARC
  5
88F4
330
85AB
100
AcDbEntity
  8
0
  6
Continuous
 62
     8
370
     0
100
AcDbCircle
 10
444.0308540092632
 20
37.59404651909395
 30
0.0
 40
2.5
100
AcDbArc
 50
90.0
 51
180.0
  0
LINE
  5
88F5
330
85AB
100
AcDbEntity
  8
0
  6
Continuous
 62
     8
370
     0
100
AcDbLine
 10
500.3308556243021
 20
40.09404649619046
 30
0.0
 11
444.0308544053871
 21
40.09404649619046
 31
0.0
  0
ARC
  5
88F6
330
85AB
100
AcDbEntity
  8
0
  6
Continuous
 62
     8
370
     0
100
AcDbCircle
 10
500.3308540092631
 20
37.59404651909395
 30
0.0
 40
2.5
100
AcDbArc
 50
0.0
 51
90.0
  0
LINE
  5
88F7
330
85AB
100
AcDbEntity
  8
0
  6
Continuous
 62
     8
370
     0
100
AcDbLine
 10
502.8308532401163
 20
-8.705952562056154
 30
0.0
 11
502.8308532401163
 21
37.59404608640853
 31
0.0
  0
ARC
  5
88F8
330
85AB
100
AcDbEntity
  8
0
  6
Continuous
 62
     8
370
     0
100
AcDbCircle
 10
500.3308540092631
 20
-8.705953480906032
 30
0.0
 40
2.5
100
AcDbArc
 50
270.0000000000013
 51
0.0
  0
LINE
  5
88F9
330
85AB
100
AcDbEntity
  8
0
  6
Continuous
 62
     8
370
     0
100
AcDbLine
 10
444.0308544053871
 20
-11.20595017787036
 30
0.0
 11
500.3308556243021
 21
-11.20595017787036
 31
0.0
  0
LINE
  5
88FA
330
85AB
100
AcDbEntity
  8
0
  6
Continuous
 62
     8
370
     0
100
AcDbLine
 10
503.3308542533953
 20
37.59404608640853
 30
0.0
 11
502.8308532401163
 21
37.59404608640853
 31
0.0
  0
LINE
  5
88FB
330
85AB
100
AcDbEntity
  8
0
  6
Continuous
 62
     8
370
     0
100
AcDbLine
 10
500.3308556243021
 20
40.59404657814684
 30
0.0
 11
500.3308556243021
 21
40.09404649619046
 31
0.0
  0
LINE
  5
88FC
330
85AB
100
AcDbEntity
  8
0
  6
Continuous
 62
     8
370
     0
100
AcDbLine
 10
503.3308542533953
 20
-8.705952562056154
 30
0.0
 11
502.8308532401163
 21
-8.705952562056154
 31
0.0
  0
LINE
  5
88FD
330
85AB
100
AcDbEntity
  8
0
  6
Continuous
 62
     8
370
     0
100
AcDbLine
 10
500.3308556243021
 20
-11.20595017787036
 30
0.0
 11
500.3308556243021
 21
-11.70595119114932
 31
0.0
  0
LINE
  5
88FE
330
85AB
100
AcDbEntity
  8
0
  6
Continuous
 62
     8
370
     0
100
AcDbLine
 10
441.5308549269278
 20
37.59404608640853
 30
0.0
 11
441.0308539136488
 21
37.59404608640853
 31
0.0
  0
LINE
  5
88FF
330
85AB
100
AcDbEntity
  8
0
  6
Continuous
 62
     8
370
     0
100
AcDbLine
 10
444.0308544053871
 20
40.59404657814684
 30
0.0
 11
444.0308544053871
 21
40.09404649619046
 31
0.0
  0
CIRCLE
  5
8900
330
85AB
100
AcDbEntity
  8
0
  6
Continuous
 62
     8
370
     0
100
AcDbCircle
 10
471.530854009263
 20
14.4440465190944
 30
0.0
 40
7.550000000000016
  0
CIRCLE
  5
8901
330
85AB
100
AcDbEntity
  8
0
  6
Continuous
 62
     8
370
     0
100
AcDbCircle
 10
471.5308540092632
 20
14.44404651909397
 30
0.0
 40
9.400097856353057
  0
CIRCLE
  5
8902
330
85AB
100
AcDbEntity
  8
0
  6
Continuous
 62
     8
370
     0
100
AcDbCircle
 10
471.5308540092632
 20
14.44404651909397
 30
0.0
 40
9.869851534721988
  0
CIRCLE
  5
8903
330
85AB
100
AcDbEntity
  8
0
  6
Continuous
 62
     8
370
     0
100
AcDbCircle
 10
471.5308540092632
 20
14.44404651909397
 30
0.0
 40
11.25526820138867
  0
LINE
  5
8917
330
85AB
100
AcDbEntity
  8
0
  6
Continuous
 62
     7
370
    15
100
AcDbLine
 10
353.0144172012522
 20
22.1940471011776
 30
0.0
 11
352.9144171965024
 21
22.1940471011776
 31
0.0
  0
LINE
  5
8918
330
85AB
100
AcDbEntity
  8
0
  6
Continuous
 62
     7
370
    15
100
AcDbLine
 10
352.9144171965024
 20
6.694047354497343
 30
0.0
 11
353.0144172012522
 21
6.694047354497343
 31
0.0
  0
ARC
  5
8919
330
85AB
100
AcDbEntity
  8
0
  6
Continuous
 62
     7
370
    15
100
AcDbCircle
 10
352.914417187263
 20
21.99404651909438
 30
0.0
 40
0.2000000000000171
100
AcDbArc
 50
90.0
 51
180.0
  0
ARC
  5
891A
330
85AB
100
AcDbEntity
  8
0
  6
Continuous
 62
     7
370
    15
100
AcDbCircle
 10
352.914417187263
 20
6.894046519094388
 30
0.0
 40
0.2000000000000028
100
AcDbArc
 50
180.0
 51
270.0
  0
ARC
  5
891B
330
85AB
100
AcDbEntity
  8
0
  6
Continuous
 62
     7
370
    15
100
AcDbCircle
 10
357.314417187263
 20
25.22956104211369
 30
0.0
 40
0.5000000000000129
100
AcDbArc
 50
0.0
 51
110.0310126808971
  0
ARC
  5
891C
330
85AB
100
AcDbEntity
  8
0
  6
Continuous
 62
     7
370
    15
100
AcDbCircle
 10
357.314417187263
 20
3.658531996074231
 30
0.0
 40
0.5000000000000071
100
AcDbArc
 50
249.9689873191029
 51
0.0
  0
LINE
  5
891D
330
85AB
100
AcDbEntity
  8
0
  6
Continuous
 62
     7
370
    15
100
AcDbLine
 10
357.1431527719549
 20
25.69931430403176
 30
0.0
 11
353.3431528242952
 21
24.31389746848527
 31
0.0
  0
LINE
  5
891E
330
85AB
100
AcDbEntity
  8
0
  6
Continuous
 62
     7
370
    15
100
AcDbLine
 10
353.3431528242952
 20
4.574193261899381
 30
0.0
 11
357.1431527719549
 21
3.188780151643186
 31
0.0
  0
ARC
  5
891F
330
85AB
100
AcDbEntity
  8
0
  6
Continuous
 62
     7
370
    15
100
AcDbCircle
 10
353.514417187263
 20
23.84414437544703
 30
0.0
 40
0.5000000000000129
100
AcDbArc
 50
110.0310126808971
 51
180.0
  0
ARC
  5
8920
330
85AB
100
AcDbEntity
  8
0
  6
Continuous
 62
     7
370
    15
100
AcDbCircle
 10
353.514417187263
 20
5.043948662740917
 30
0.0
 40
0.5000000000000129
100
AcDbArc
 50
180.0
 51
249.9689873191029
  0
LINE
  5
8921
330
85AB
100
AcDbEntity
  8
0
  6
Continuous
 62
     7
370
    15
100
AcDbLine
 10
358.3144171037427
 20
2.944047205485731
 30
0.0
 11
362.3144168280712
 21
2.944047205485731
 31
0.0
  0
LINE
  5
8922
330
85AB
100
AcDbEntity
  8
0
  6
Continuous
 62
     7
370
    15
100
AcDbLine
 10
362.3144168280712
 20
25.94404725018921
 30
0.0
 11
358.3144171037427
 21
25.94404725018921
 31
0.0
  0
LINE
  5
8923
330
85AB
100
AcDbEntity
  8
0
  6
Continuous
 62
     7
370
    15
100
AcDbLine
 10
358.3144171037427
 20
25.94404725018921
 30
0.0
 11
357.8144170217863
 21
25.44404623691025
 31
0.0
  0
LINE
  5
8924
330
85AB
100
AcDbEntity
  8
0
  6
Continuous
 62
     7
370
    15
100
AcDbLine
 10
357.8144170217863
 20
3.444048218764692
 30
0.0
 11
358.3144171037427
 21
2.944047205485731
 31
0.0
  0
LINE
  5
8925
330
85AB
100
AcDbEntity
  8
0
  6
Continuous
 62
     7
370
    15
100
AcDbLine
 10
384.0644180648676
 20
-11.70595119114932
 30
0.0
 11
384.0644180648676
 21
-12.05595711585102
 31
0.0
  0
LINE
  5
8926
330
85AB
100
AcDbEntity
  8
0
  6
Continuous
 62
     7
370
    15
100
AcDbLine
 10
386.8644188963524
 20
-12.05595711585102
 30
0.0
 11
386.8644188963524
 21
-11.70595119114932
 31
0.0
  0
LINE
  5
8927
330
85AB
100
AcDbEntity
  8
0
  6
Continuous
 62
     7
370
    15
100
AcDbLine
 10
386.8644188963524
 20
40.59404657814684
 30
0.0
 11
386.8644188963524
 21
40.94404691491309
 31
0.0
  0
LINE
  5
8928
330
85AB
100
AcDbEntity
  8
0
  6
Continuous
 62
     7
370
    15
100
AcDbLine
 10
384.0644180648676
 20
40.94404691491309
 30
0.0
 11
384.0644180648676
 21
40.59404657814684
 31
0.0
  0
LINE
  5
8929
330
85AB
100
AcDbEntity
  8
0
  6
Continuous
 62
     7
370
    15
100
AcDbLine
 10
370.0644176327339
 20
33.21798203174058
 30
0.0
 11
370.0644176327339
 21
32.44404738429967
 31
0.0
  0
LINE
  5
892A
330
85AB
100
AcDbEntity
  8
0
  6
Continuous
 62
     7
370
    15
100
AcDbLine
 10
374.0644164257399
 20
32.44404738429967
 30
0.0
 11
374.0644164257399
 21
33.21798203174058
 31
0.0
  0
LINE
  5
892B
330
85AB
100
AcDbEntity
  8
0
  6
Continuous
 62
     7
370
    15
100
AcDbLine
 10
374.0644164257399
 20
33.21798203174058
 30
0.0
 11
373.3644176148525
 21
33.59298092905465
 31
0.0
  0
LINE
  5
892C
330
85AB
100
AcDbEntity
  8
0
  6
Continuous
 62
     7
370
    15
100
AcDbLine
 10
370.7644164436213
 20
33.59298092905465
 30
0.0
 11
370.0644176327339
 21
33.21798203174058
 31
0.0
  0
LINE
  5
892D
330
85AB
100
AcDbEntity
  8
0
  6
Continuous
 62
     7
370
    15
100
AcDbLine
 10
374.0644164257399
 20
-4.339897431097597
 30
0.0
 11
374.0644164257399
 21
-3.555954791269869
 31
0.0
  0
LINE
  5
892E
330
85AB
100
AcDbEntity
  8
0
  6
Continuous
 62
     7
370
    15
100
AcDbLine
 10
370.0644176327339
 20
-3.555954791269869
 30
0.0
 11
370.0644176327339
 21
-4.339897431097597
 31
0.0
  0
LINE
  5
892F
330
85AB
100
AcDbEntity
  8
0
  6
Continuous
 62
     7
370
    15
100
AcDbLine
 10
370.0644176327339
 20
-4.339897431097597
 30
0.0
 11
370.7644164436213
 21
-4.714896328411669
 31
0.0
  0
LINE
  5
8930
330
85AB
100
AcDbEntity
  8
0
  6
Continuous
 62
     7
370
    15
100
AcDbLine
 10
373.3644176148525
 20
-4.714896328411669
 30
0.0
 11
374.0644164257399
 21
-4.339897431097597
 31
0.0
  0
LINE
  5
8938
330
85AB
100
AcDbEntity
  8
0
  6
Continuous
 62
     7
370
    15
100
AcDbLine
 10
389.264418544685
 20
-8.705952562056154
 30
0.0
 11
389.264418544685
 21
-11.20595017787036
 31
0.0
  0
ARC
  5
8939
330
85AB
100
AcDbEntity
  8
0
  6
Continuous
 62
     7
370
    15
100
AcDbCircle
 10
388.764417187263
 20
-11.20595348090609
 30
0.0
 40
0.5
100
AcDbArc
 50
270.0
 51
0.0
  0
LINE
  5
893A
330
85AB
100
AcDbEntity
  8
0
  6
Continuous
 62
     7
370
    15
100
AcDbLine
 10
382.2644173972956
 20
-8.705952562056154
 30
0.0
 11
382.2644173972956
 21
-11.70595119114932
 31
0.0
  0
LINE
  5
893B
330
85AB
100
AcDbEntity
  8
0
  6
Continuous
 62
     7
370
    15
100
AcDbLine
 10
382.2644173972956
 20
-11.70595119114932
 30
0.0
 11
388.764417531406
 21
-11.70595119114932
 31
0.0
  0
LINE
  5
893C
330
85AB
100
AcDbEntity
  8
0
  6
Continuous
 62
     7
370
    15
100
AcDbLine
 10
389.264418544685
 20
37.59404608640853
 30
0.0
 11
389.264418544685
 21
-8.705952562056154
 31
0.0
  0
LINE
  5
893D
330
85AB
100
AcDbEntity
  8
0
  6
Continuous
 62
     7
370
    15
100
AcDbLine
 10
382.2644173972956
 20
37.59404608640853
 30
0.0
 11
382.2644173972956
 21
-8.705952562056154
 31
0.0
  0
LINE
  5
893E
330
85AB
100
AcDbEntity
  8
0
  6
Continuous
 62
     7
370
    15
100
AcDbLine
 10
389.264418544685
 20
40.09404649619046
 30
0.0
 11
389.264418544685
 21
37.59404608640853
 31
0.0
  0
ARC
  5
893F
330
85AB
100
AcDbEntity
  8
0
  6
Continuous
 62
     7
370
    15
100
AcDbCircle
 10
388.764417187263
 20
40.09404651909404
 30
0.0
 40
0.5
100
AcDbArc
 50
0.0
 51
90.0
  0
LINE
  5
8940
330
85AB
100
AcDbEntity
  8
0
  6
Continuous
 62
     7
370
    15
100
AcDbLine
 10
382.2644173972956
 20
40.59404657814684
 30
0.0
 11
388.764417531406
 21
40.59404657814684
 31
0.0
  0
LINE
  5
8941
330
85AB
100
AcDbEntity
  8
0
  6
Continuous
 62
     7
370
    15
100
AcDbLine
 10
382.2644173972956
 20
40.59404657814684
 30
0.0
 11
382.2644173972956
 21
37.59404608640853
 31
0.0
  0
LINE
  5
8942
330
85AB
100
AcDbEntity
  8
0
  6
Continuous
 62
     7
370
    15
100
AcDbLine
 10
369.3144179754606
 20
-11.70595119114932
 30
0.0
 11
369.3144179754606
 21
-8.705952562056154
 31
0.0
  0
LINE
  5
8943
330
85AB
100
AcDbEntity
  8
0
  6
Continuous
 62
     7
370
    15
100
AcDbLine
 10
369.3144179754606
 20
-11.70595119114932
 30
0.0
 11
362.8144169100276
 21
-11.70595119114932
 31
0.0
  0
LINE
  5
8944
330
85AB
100
AcDbEntity
  8
0
  6
Continuous
 62
     7
370
    15
100
AcDbLine
 10
369.3144179754606
 20
-8.705952562056154
 30
0.0
 11
369.3144179754606
 21
-3.555954791269869
 31
0.0
  0
LINE
  5
8945
330
85AB
100
AcDbEntity
  8
0
  6
Continuous
 62
     7
370
    15
100
AcDbLine
 10
369.3144179754606
 20
32.44404738429967
 30
0.0
 11
369.3144179754606
 21
37.59404608640853
 31
0.0
  0
LINE
  5
8946
330
85AB
100
AcDbEntity
  8
0
  6
Continuous
 62
     7
370
    15
100
AcDbLine
 10
362.3144168280712
 20
-11.20595017787036
 30
0.0
 11
362.3144168280712
 21
-8.705952562056154
 31
0.0
  0
ARC
  5
8947
330
85AB
100
AcDbEntity
  8
0
  6
Continuous
 62
     7
370
    15
100
AcDbCircle
 10
362.814417187263
 20
-11.20595348090603
 30
0.0
 40
0.5
100
AcDbArc
 50
180.0
 51
270.0
  0
LINE
  5
8948
330
85AB
100
AcDbEntity
  8
0
  6
Continuous
 62
     7
370
    15
100
AcDbLine
 10
362.3144168280712
 20
-8.705952562056154
 30
0.0
 11
362.3144168280712
 21
37.59404608640853
 31
0.0
  0
LINE
  5
8949
330
85AB
100
AcDbEntity
  8
0
  6
Continuous
 62
     7
370
    15
100
AcDbLine
 10
369.3144179754606
 20
40.59404657814684
 30
0.0
 11
362.8144169100276
 21
40.59404657814684
 31
0.0
  0
LINE
  5
894A
330
85AB
100
AcDbEntity
  8
0
  6
Continuous
 62
     7
370
    15
100
AcDbLine
 10
369.3144179754606
 20
37.59404608640853
 30
0.0
 11
369.3144179754606
 21
40.59404657814684
 31
0.0
  0
LINE
  5
894B
330
85AB
100
AcDbEntity
  8
0
  6
Continuous
 62
     7
370
    15
100
AcDbLine
 10
362.3144168280712
 20
37.59404608640853
 30
0.0
 11
362.3144168280712
 21
40.09404649619046
 31
0.0
  0
ARC
  5
894C
330
85AB
100
AcDbEntity
  8
0
  6
Continuous
 62
     7
370
    15
100
AcDbCircle
 10
362.814417187263
 20
40.09404651909395
 30
0.0
 40
0.5
100
AcDbArc
 50
90.0
 51
180.0
  0
LINE
  5
894D
330
85AB
100
AcDbEntity
  8
0
  6
Continuous
 62
     7
370
    15
100
AcDbLine
 10
352.7144171870029
 20
9.789435766972929
 30
0.0
 11
352.7144171870029
 21
6.894047014750868
 31
0.0
  0
LINE
  5
894E
330
85AB
100
AcDbEntity
  8
0
  6
Continuous
 62
     7
370
    15
100
AcDbLine
 10
352.7144171870029
 20
21.99404744092408
 30
0.0
 11
352.7144171870029
 21
9.789435766972929
 31
0.0
  0
LINE
  5
894F
330
85AB
100
AcDbEntity
  8
0
  6
Continuous
 62
     7
370
    15
100
AcDbLine
 10
353.0144172012522
 20
14.44404815916005
 30
0.0
 11
353.0144172012522
 21
5.04394864324513
 31
0.0
  0
LINE
  5
8950
330
85AB
100
AcDbEntity
  8
0
  6
Continuous
 62
     7
370
    15
100
AcDbLine
 10
353.0144172012522
 20
23.84414394978467
 30
0.0
 11
353.0144172012522
 21
14.44404815916005
 31
0.0
  0
LINE
  5
8951
330
85AB
100
AcDbEntity
  8
0
  6
Continuous
 62
     7
370
    15
100
AcDbLine
 10
358.3144171037427
 20
2.944047205485731
 30
0.0
 11
358.3144171037427
 21
25.94404725018921
 31
0.0
  0
LINE
  5
8952
330
85AB
100
AcDbEntity
  8
0
  6
Continuous
 62
     7
370
    15
100
AcDbLine
 10
357.8144170217863
 20
3.444048218764692
 30
0.0
 11
357.8144170217863
 21
25.44404623691025
 31
0.0
  0
LINE
  5
8953
330
85AB
100
AcDbEntity
  8
0
  6
Continuous
 62
     7
370
    15
100
AcDbLine
 10
385.4644175492874
 20
-12.05595711585102
 30
0.0
 11
384.0644180648676
 21
-12.05595711585102
 31
0.0
  0
LINE
  5
8954
330
85AB
100
AcDbEntity
  8
0
  6
Continuous
 62
     7
370
    15
100
AcDbLine
 10
386.8644188963524
 20
-12.05595711585102
 30
0.0
 11
385.4644175492874
 21
-12.05595711585102
 31
0.0
  0
LINE
  5
8955
330
85AB
100
AcDbEntity
  8
0
  6
Continuous
 62
     7
370
    15
100
AcDbLine
 10
385.4644175492874
 20
40.94404691491309
 30
0.0
 11
386.8644188963524
 21
40.94404691491309
 31
0.0
  0
LINE
  5
8956
330
85AB
100
AcDbEntity
  8
0
  6
Continuous
 62
     7
370
    15
100
AcDbLine
 10
384.0644180648676
 20
40.94404691491309
 30
0.0
 11
385.4644175492874
 21
40.94404691491309
 31
0.0
  0
LINE
  5
8957
330
85AB
100
AcDbEntity
  8
0
  6
Continuous
 62
     7
370
    15
100
AcDbLine
 10
374.0644164257399
 20
33.21798203174058
 30
0.0
 11
370.0644176327339
 21
33.21798203174058
 31
0.0
  0
LINE
  5
8958
330
85AB
100
AcDbEntity
  8
0
  6
Continuous
 62
     7
370
    15
100
AcDbLine
 10
373.3644176148525
 20
33.59298092905465
 30
0.0
 11
370.7644164436213
 21
33.59298092905465
 31
0.0
  0
LINE
  5
8959
330
85AB
100
AcDbEntity
  8
0
  6
Continuous
 62
     7
370
    15
100
AcDbLine
 10
370.0644176327339
 20
-4.339897431097597
 30
0.0
 11
374.0644164257399
 21
-4.339897431097597
 31
0.0
  0
LINE
  5
895A
330
85AB
100
AcDbEntity
  8
0
  6
Continuous
 62
     7
370
    15
100
AcDbLine
 10
370.7644164436213
 20
-4.714896328411669
 30
0.0
 11
373.3644176148525
 21
-4.714896328411669
 31
0.0
  0
CIRCLE
  5
895B
330
85AB
100
AcDbEntity
  8
0
  6
Continuous
 62
     7
370
    15
100
AcDbCircle
 10
374.664417187263
 20
14.44404651909397
 30
0.0
 40
4.000000000000004
  0
CIRCLE
  5
895C
330
85AB
100
AcDbEntity
  8
0
  6
Continuous
 62
     7
370
    15
100
AcDbCircle
 10
374.664417187263
 20
14.44404651909397
 30
0.0
 40
5.49999999999998
  0
LINE
  5
895D
330
85AB
100
AcDbEntity
  8
0
  6
Continuous
 62
     7
370
    15
100
AcDbLine
 10
369.3144179754606
 20
-10.05595306273517
 30
0.0
 11
369.9644178026072
 21
-10.05595306273517
 31
0.0
  0
LINE
  5
895E
330
85AB
100
AcDbEntity
  8
0
  6
Continuous
 62
     7
370
    15
100
AcDbLine
 10
369.9644178026072
 20
-5.555955119095415
 30
0.0
 11
369.9644178026072
 21
-10.05595306273517
 31
0.0
  0
LINE
  5
895F
330
85AB
100
AcDbEntity
  8
0
  6
Continuous
 62
     7
370
    15
100
AcDbLine
 10
369.3144179754606
 20
-4.055952079258532
 30
0.0
 11
369.9644178026072
 21
-4.055952079258532
 31
0.0
  0
LINE
  5
8960
330
85AB
100
AcDbEntity
  8
0
  6
Continuous
 62
     7
370
    15
100
AcDbLine
 10
369.9644178026072
 20
-4.055952079258532
 30
0.0
 11
369.9644178026072
 21
-5.555955119095415
 31
0.0
  0
LINE
  5
8961
330
85AB
100
AcDbEntity
  8
0
  6
Continuous
 62
     7
370
    15
100
AcDbLine
 10
369.9644178026072
 20
32.94404653493348
 30
0.0
 11
369.3144179754606
 21
32.94404653493348
 31
0.0
  0
LINE
  5
8962
330
85AB
100
AcDbEntity
  8
0
  6
Continuous
 62
     7
370
    15
100
AcDbLine
 10
369.9644178026072
 20
34.44404584948006
 30
0.0
 11
369.9644178026072
 21
32.94404653493348
 31
0.0
  0
LINE
  5
8963
330
85AB
100
AcDbEntity
  8
0
  6
Continuous
 62
     7
370
    15
100
AcDbLine
 10
369.3144179754606
 20
38.94404658708754
 30
0.0
 11
369.9644178026072
 21
38.94404658708754
 31
0.0
  0
LINE
  5
8964
330
85AB
100
AcDbEntity
  8
0
  6
Continuous
 62
     7
370
    15
100
AcDbLine
 10
369.9644178026072
 20
38.94404658708754
 30
0.0
 11
369.9644178026072
 21
34.44404584948006
 31
0.0
  0
LINE
  5
8965
330
85AB
100
AcDbEntity
  8
0
  6
Continuous
 62
     7
370
    15
100
AcDbLine
 10
369.9644178026072
 20
32.94404653493348
 30
0.0
 11
369.9644178026072
 21
32.44404738429967
 31
0.0
  0
LINE
  5
8966
330
85AB
100
AcDbEntity
  8
0
  6
Continuous
 62
     7
370
    15
100
AcDbLine
 10
369.9644178026072
 20
-3.555954791269869
 30
0.0
 11
369.9644178026072
 21
-4.055952079258532
 31
0.0
  0
LINE
  5
8967
330
85AB
100
AcDbEntity
  8
0
  6
Continuous
 62
     7
370
    15
100
AcDbLine
 10
379.9644175790897
 20
-10.05595306273517
 30
0.0
 11
382.2644173972956
 21
-10.05595306273517
 31
0.0
  0
LINE
  5
8968
330
85AB
100
AcDbEntity
  8
0
  6
Continuous
 62
     7
370
    15
100
AcDbLine
 10
379.9644175790897
 20
-5.555955119095415
 30
0.0
 11
379.9644175790897
 21
-10.05595306273517
 31
0.0
  0
LINE
  5
8969
330
85AB
100
AcDbEntity
  8
0
  6
Continuous
 62
     7
370
    15
100
AcDbLine
 10
381.4644168936363
 20
-5.555955119095415
 30
0.0
 11
381.4644168936363
 21
-10.05595306273517
 31
0.0
  0
LINE
  5
896A
330
85AB
100
AcDbEntity
  8
0
  6
Continuous
 62
     7
370
    15
100
AcDbLine
 10
379.9644175790897
 20
-4.055952079258532
 30
0.0
 11
382.2644173972956
 21
-4.055952079258532
 31
0.0
  0
LINE
  5
896B
330
85AB
100
AcDbEntity
  8
0
  6
Continuous
 62
     7
370
    15
100
AcDbLine
 10
379.9644175790897
 20
-5.555955119095415
 30
0.0
 11
379.9644175790897
 21
-4.055952079258532
 31
0.0
  0
LINE
  5
896C
330
85AB
100
AcDbEntity
  8
0
  6
Continuous
 62
     7
370
    15
100
AcDbLine
 10
381.4644168936363
 20
-4.055952079258532
 30
0.0
 11
381.4644168936363
 21
-5.555955119095415
 31
0.0
  0
LINE
  5
896D
330
85AB
100
AcDbEntity
  8
0
  6
Continuous
 62
     7
370
    15
100
AcDbLine
 10
382.2644173972956
 20
32.94404653493348
 30
0.0
 11
379.9644175790897
 21
32.94404653493348
 31
0.0
  0
LINE
  5
896E
330
85AB
100
AcDbEntity
  8
0
  6
Continuous
 62
     7
370
    15
100
AcDbLine
 10
379.9644175790897
 20
32.94404653493348
 30
0.0
 11
379.9644175790897
 21
34.44404584948006
 31
0.0
  0
LINE
  5
896F
330
85AB
100
AcDbEntity
  8
0
  6
Continuous
 62
     7
370
    15
100
AcDbLine
 10
381.4644168936363
 20
34.44404584948006
 30
0.0
 11
381.4644168936363
 21
32.94404653493348
 31
0.0
  0
LINE
  5
8970
330
85AB
100
AcDbEntity
  8
0
  6
Continuous
 62
     7
370
    15
100
AcDbLine
 10
379.9644175790897
 20
38.94404658708754
 30
0.0
 11
382.2644173972956
 21
38.94404658708754
 31
0.0
  0
LINE
  5
8971
330
85AB
100
AcDbEntity
  8
0
  6
Continuous
 62
     7
370
    15
100
AcDbLine
 10
379.9644175790897
 20
38.94404658708754
 30
0.0
 11
379.9644175790897
 21
34.44404584948006
 31
0.0
  0
LINE
  5
8972
330
85AB
100
AcDbEntity
  8
0
  6
Continuous
 62
     7
370
    15
100
AcDbLine
 10
381.4644168936363
 20
38.94404658708754
 30
0.0
 11
381.4644168936363
 21
34.44404584948006
 31
0.0
  0
LINE
  5
8973
330
85AB
100
AcDbEntity
  8
0
  6
Continuous
 62
     7
370
    15
100
AcDbLine
 10
379.9644175790897
 20
32.94404653493348
 30
0.0
 11
379.9644175790897
 21
32.44404738429967
 31
0.0
  0
LINE
  5
8974
330
85AB
100
AcDbEntity
  8
0
  6
Continuous
 62
     7
370
    15
100
AcDbLine
 10
379.9644175790897
 20
-3.555954791269869
 30
0.0
 11
379.9644175790897
 21
-4.055952079258532
 31
0.0
  0
LINE
  5
8975
330
85AB
100
AcDbEntity
  8
0
  6
Continuous
 62
     7
370
    15
100
AcDbLine
 10
381.4644168936363
 20
32.94404653493348
 30
0.0
 11
381.4644168936363
 21
32.19404687766018
 31
0.0
  0
LINE
  5
8976
330
85AB
100
AcDbEntity
  8
0
  6
Continuous
 62
     7
370
    15
100
AcDbLine
 10
381.4644168936363
 20
25.44404623691025
 30
0.0
 11
381.4644168936363
 21
25.19404573027077
 31
0.0
  0
LINE
  5
8977
330
85AB
100
AcDbEntity
  8
0
  6
Continuous
 62
     7
370
    15
100
AcDbLine
 10
381.4644168936363
 20
3.694045000113874
 30
0.0
 11
381.4644168936363
 21
3.444048218764692
 31
0.0
  0
LINE
  5
8978
330
85AB
100
AcDbEntity
  8
0
  6
Continuous
 62
     7
370
    15
100
AcDbLine
 10
381.4644168936363
 20
-3.305954284630388
 30
0.0
 11
381.4644168936363
 21
-4.055952079258532
 31
0.0
  0
LINE
  5
8979
330
85AB
100
AcDbEntity
  8
0
  6
Continuous
 62
     7
370
    15
100
AcDbLine
 10
381.164417403256
 20
-3.305954284630388
 30
0.0
 11
382.2644173972956
 21
-3.305954284630388
 31
0.0
  0
LINE
  5
897A
330
85AB
100
AcDbEntity
  8
0
  6
Continuous
 62
     7
370
    15
100
AcDbLine
 10
381.164417403256
 20
3.444048218764692
 30
0.0
 11
382.2644173972956
 21
3.444048218764692
 31
0.0
  0
LINE
  5
897B
330
85AB
100
AcDbEntity
  8
0
  6
Continuous
 62
     7
370
    15
100
AcDbLine
 10
381.164417403256
 20
32.19404687766018
 30
0.0
 11
382.2644173972956
 21
32.19404687766018
 31
0.0
  0
LINE
  5
897C
330
85AB
100
AcDbEntity
  8
0
  6
Continuous
 62
     7
370
    15
100
AcDbLine
 10
381.164417403256
 20
25.44404623691025
 30
0.0
 11
382.2644173972956
 21
25.44404623691025
 31
0.0
  0
LINE
  5
897D
330
85AB
100
AcDbEntity
  8
0
  6
Continuous
 62
     7
370
    15
100
AcDbLine
 10
368.6644172169915
 20
-3.555954791269869
 30
0.0
 11
368.6644172169915
 21
32.44404738429967
 31
0.0
  0
LINE
  5
897E
330
85AB
100
AcDbEntity
  8
0
  6
Continuous
 62
     7
370
    15
100
AcDbLine
 10
380.764418082749
 20
32.44404738429967
 30
0.0
 11
368.6644172169915
 21
32.44404738429967
 31
0.0
  0
LINE
  5
897F
330
85AB
100
AcDbEntity
  8
0
  6
Continuous
 62
     7
370
    15
100
AcDbLine
 10
380.764418082749
 20
32.44404738429967
 30
0.0
 11
380.764418082749
 21
-3.555954791269869
 31
0.0
  0
LINE
  5
8980
330
85AB
100
AcDbEntity
  8
0
  6
Continuous
 62
     7
370
    15
100
AcDbLine
 10
380.764418082749
 20
-3.555954791269869
 30
0.0
 11
368.6644172169915
 21
-3.555954791269869
 31
0.0
  0
LINE
  5
8981
330
85AB
100
AcDbEntity
  8
0
  6
Continuous
 62
     7
370
    15
100
AcDbLine
 10
382.2644173972956
 20
3.694045000113874
 30
0.0
 11
381.164417403256
 21
3.694045000113874
 31
0.0
  0
LINE
  5
8982
330
85AB
100
AcDbEntity
  8
0
  6
Continuous
 62
     7
370
    15
100
AcDbLine
 10
381.164417403256
 20
-3.555954791269869
 30
0.0
 11
381.164417403256
 21
3.694045000113874
 31
0.0
  0
LINE
  5
8983
330
85AB
100
AcDbEntity
  8
0
  6
Continuous
 62
     7
370
    15
100
AcDbLine
 10
381.164417403256
 20
25.19404573027077
 30
0.0
 11
381.164417403256
 21
32.44404738429967
 31
0.0
  0
LINE
  5
8984
330
85AB
100
AcDbEntity
  8
0
  6
Continuous
 62
     7
370
    15
100
AcDbLine
 10
382.2644173972956
 20
25.19404573027077
 30
0.0
 11
381.164417403256
 21
25.19404573027077
 31
0.0
  0
LINE
  5
8985
330
85AB
100
AcDbEntity
  8
0
  6
Continuous
 62
     7
370
    15
100
AcDbLine
 10
380.764418082749
 20
32.44404738429967
 30
0.0
 11
381.164417403256
 21
32.44404738429967
 31
0.0
  0
LINE
  5
8986
330
85AB
100
AcDbEntity
  8
0
  6
Continuous
 62
     7
370
    15
100
AcDbLine
 10
380.764418082749
 20
-3.555954791269869
 30
0.0
 11
381.164417403256
 21
-3.555954791269869
 31
0.0
  0
LINE
  5
8987
330
85AB
100
AcDbEntity
  8
0
  6
Continuous
 62
     8
370
     0
100
AcDbLine
 10
388.764417531406
 20
-11.70595119114932
 30
0.0
 11
388.764417531406
 21
-8.705952562056154
 31
0.0
  0
LINE
  5
8988
330
85AB
100
AcDbEntity
  8
0
  6
Continuous
 62
     8
370
     0
100
AcDbLine
 10
388.764417531406
 20
-8.705952562056154
 30
0.0
 11
389.264418544685
 21
-8.705952562056154
 31
0.0
  0
LINE
  5
8989
330
85AB
100
AcDbEntity
  8
0
  6
Continuous
 62
     8
370
     0
100
AcDbLine
 10
382.2644173972956
 20
-8.705952562056154
 30
0.0
 11
388.764417531406
 21
-8.705952562056154
 31
0.0
  0
LINE
  5
898A
330
85AB
100
AcDbEntity
  8
0
  6
Continuous
 62
     8
370
     0
100
AcDbLine
 10
388.764417531406
 20
-8.705952562056154
 30
0.0
 11
388.764417531406
 21
37.59404608640853
 31
0.0
  0
LINE
  5
898B
330
85AB
100
AcDbEntity
  8
0
  6
Continuous
 62
     8
370
     0
100
AcDbLine
 10
388.764417531406
 20
37.59404608640853
 30
0.0
 11
389.264418544685
 21
37.59404608640853
 31
0.0
  0
LINE
  5
898C
330
85AB
100
AcDbEntity
  8
0
  6
Continuous
 62
     8
370
     0
100
AcDbLine
 10
382.2644173972956
 20
37.59404608640853
 30
0.0
 11
388.764417531406
 21
37.59404608640853
 31
0.0
  0
LINE
  5
898D
330
85AB
100
AcDbEntity
  8
0
  6
Continuous
 62
     8
370
     0
100
AcDbLine
 10
388.764417531406
 20
37.59404608640853
 30
0.0
 11
388.764417531406
 21
40.59404657814684
 31
0.0
  0
LINE
  5
898E
330
85AB
100
AcDbEntity
  8
0
  6
Continuous
 62
     8
370
     0
100
AcDbLine
 10
362.8144169100276
 20
-8.705952562056154
 30
0.0
 11
362.8144169100276
 21
-11.70595119114932
 31
0.0
  0
LINE
  5
898F
330
85AB
100
AcDbEntity
  8
0
  6
Continuous
 62
     8
370
     0
100
AcDbLine
 10
369.3144179754606
 20
-8.705952562056154
 30
0.0
 11
362.8144169100276
 21
-8.705952562056154
 31
0.0
  0
LINE
  5
8990
330
85AB
100
AcDbEntity
  8
0
  6
Continuous
 62
     8
370
     0
100
AcDbLine
 10
362.8144169100276
 20
37.59404608640853
 30
0.0
 11
362.8144169100276
 21
-8.705952562056154
 31
0.0
  0
LINE
  5
8991
330
85AB
100
AcDbEntity
  8
0
  6
Continuous
 62
     8
370
     0
100
AcDbLine
 10
369.3144179754606
 20
37.59404608640853
 30
0.0
 11
362.8144169100276
 21
37.59404608640853
 31
0.0
  0
LINE
  5
8992
330
85AB
100
AcDbEntity
  8
0
  6
Continuous
 62
     8
370
     0
100
AcDbLine
 10
362.8144169100276
 20
-8.705952562056154
 30
0.0
 11
362.3144168280712
 21
-8.705952562056154
 31
0.0
  0
LINE
  5
8993
330
85AB
100
AcDbEntity
  8
0
  6
Continuous
 62
     8
370
     0
100
AcDbLine
 10
362.8144169100276
 20
37.59404608640853
 30
0.0
 11
362.3144168280712
 21
37.59404608640853
 31
0.0
  0
LINE
  5
8994
330
85AB
100
AcDbEntity
  8
0
  6
Continuous
 62
     8
370
     0
100
AcDbLine
 10
362.8144169100276
 20
40.59404657814684
 30
0.0
 11
362.8144169100276
 21
37.59404608640853
 31
0.0
  0
LINE
  5
8995
330
85AB
100
AcDbEntity
  8
0
  6
Continuous
 62
     8
370
     0
100
AcDbLine
 10
352.9144171965024
 20
9.666132383384138
 30
0.0
 11
352.9144171965024
 21
6.694047354497343
 31
0.0
  0
LINE
  5
8996
330
85AB
100
AcDbEntity
  8
0
  6
Continuous
 62
     8
370
     0
100
AcDbLine
 10
352.9144171965024
 20
22.1940471011776
 30
0.0
 11
352.9144171965024
 21
9.666132383384138
 31
0.0
  0
LINE
  5
8997
330
85AB
100
AcDbEntity
  8
0
  6
Continuous
 62
     8
370
     0
100
AcDbLine
 10
357.1431527719549
 20
14.44404815916005
 30
0.0
 11
357.1431527719549
 21
3.188780151643186
 31
0.0
  0
LINE
  5
8998
330
85AB
100
AcDbEntity
  8
0
  6
Continuous
 62
     8
370
     0
100
AcDbLine
 10
357.1431527719549
 20
25.69931430403176
 30
0.0
 11
357.1431527719549
 21
14.44404815916005
 31
0.0
  0
LINE
  5
8999
330
85AB
100
AcDbEntity
  8
0
  6
Continuous
 62
     8
370
     0
100
AcDbLine
 10
353.3431528242952
 20
14.44404815916005
 30
0.0
 11
353.3431528242952
 21
4.574193261899381
 31
0.0
  0
LINE
  5
899A
330
85AB
100
AcDbEntity
  8
0
  6
Continuous
 62
     8
370
     0
100
AcDbLine
 10
353.3431528242952
 20
24.31389746848527
 30
0.0
 11
353.3431528242952
 21
14.44404815916005
 31
0.0
  0
LINE
  5
899B
330
85AB
100
AcDbEntity
  8
0
  6
Continuous
 62
     8
370
     0
100
AcDbLine
 10
369.3144179754606
 20
-5.555955119095415
 30
0.0
 11
369.9644178026072
 21
-5.555955119095415
 31
0.0
  0
LINE
  5
899C
330
85AB
100
AcDbEntity
  8
0
  6
Continuous
 62
     8
370
     0
100
AcDbLine
 10
369.3144179754606
 20
34.44404584948006
 30
0.0
 11
369.9644178026072
 21
34.44404584948006
 31
0.0
  0
LINE
  5
899D
330
85AB
100
AcDbEntity
  8
0
  6
Continuous
 62
     8
370
     0
100
AcDbLine
 10
379.9644175790897
 20
-5.555955119095415
 30
0.0
 11
382.2644173972956
 21
-5.555955119095415
 31
0.0
  0
LINE
  5
899E
330
85AB
100
AcDbEntity
  8
0
  6
Continuous
 62
     8
370
     0
100
AcDbLine
 10
379.9644175790897
 20
34.44404584948006
 30
0.0
 11
382.2644173972956
 21
34.44404584948006
 31
0.0
  0
LINE
  5
899F
330
85AB
100
AcDbEntity
  8
0
  6
Continuous
 62
     7
370
    15
100
AcDbLine
 10
600.9527058929763
 20
-67.0971173334033
 30
0.0
 11
600.5990964681479
 21
-66.8929196497522
 31
0.0
  0
LINE
  5
89A0
330
85AB
100
AcDbEntity
  8
0
  6
Continuous
 62
     7
370
    15
100
AcDbLine
 10
585.7474400392615
 20
-66.89292117043081
 30
0.0
 11
585.3938306144332
 21
-67.0971158127247
 31
0.0
  0
LINE
  5
89A1
330
85AB
100
AcDbEntity
  8
0
  6
Continuous
 62
     7
370
    15
100
AcDbLine
 10
604.1732677598831
 20
-73.21971693167083
 30
0.0
 11
604.1732677598831
 21
-71.58663199836485
 31
0.0
  0
LINE
  5
89A2
330
85AB
100
AcDbEntity
  8
0
  6
Continuous
 62
     7
370
    15
100
AcDbLine
 10
582.1732687475263
 20
-71.58663047768627
 30
0.0
 11
582.1732687475263
 21
-73.21971541099225
 31
0.0
  0
LINE
  5
89A3
330
85AB
100
AcDbEntity
  8
0
  6
Continuous
 62
     7
370
    15
100
AcDbLine
 10
600.1732684183961
 20
-80.97685211376503
 30
0.0
 11
600.1732684183961
 21
-78.28227049099448
 31
0.0
  0
LINE
  5
89A4
330
85AB
100
AcDbEntity
  8
0
  6
Continuous
 62
     7
370
    15
100
AcDbLine
 10
586.1732680890133
 20
-78.2822689703159
 30
0.0
 11
586.1732680890134
 21
-80.97685059308643
 31
0.0
  0
LINE
  5
89A5
330
85AB
100
AcDbEntity
  8
0
  6
Continuous
 62
     7
370
    15
100
AcDbLine
 10
588.2227139155942
 20
-83.83381488551976
 30
0.0
 11
588.9299380336071
 21
-84.24221937887106
 31
0.0
  0
LINE
  5
89A6
330
85AB
100
AcDbEntity
  8
0
  6
Continuous
 62
     7
370
    15
100
AcDbLine
 10
597.4165958396244
 20
-84.24221937887106
 30
0.0
 11
598.1238199576371
 21
-83.83381488551976
 31
0.0
  0
SPLINE
  5
89A7
330
85AB
100
AcDbEntity
  8
0
  6
Continuous
 62
     7
370
    15
100
AcDbSpline
210
0.0
220
0.0
230
1.0
 70
     8
 71
     3
 72
    14
 73
    10
 74
     0
 42
0.000000001
 43
0.00000001
 40
0.0
 40
0.0
 40
0.0
 40
0.0
 40
0.0842960048448198
 40
0.2402985168145365
 40
0.3957571208860021
 40
0.5507974182236821
 40
0.7061130037140221
 40
0.8624057069246782
 40
1.0
 40
1.0
 40
1.0
 40
1.0
 10
412.5142959923883
 20
-75.50879432118782
 30
0.0
 10
412.5106775975732
 20
-75.40042601127743
 30
0.0
 10
412.5003628156464
 20
-75.09150574644278
 30
0.0
 10
412.389983072839
 20
-74.55485529520666
 30
0.0
 10
412.1565457611289
 20
-73.9211019617984
 30
0.0
 10
411.8258115519385
 20
-73.31433702350387
 30
0.0
 10
411.415903513978
 20
-72.76820602131494
 30
0.0
 10
410.9662249643479
 20
-72.31893423294414
 30
0.0
 10
410.6462968004539
 20
-72.1111780385315
 30
0.0
 10
410.4965103515731
 20
-72.01390913223938
 30
0.0
  0
LINE
  5
89A8
330
85AB
100
AcDbEntity
  8
0
  6
Continuous
 62
     7
370
    15
100
AcDbLine
 10
412.5142959923884
 20
-113.3146328079145
 30
0.0
 11
412.5142959923883
 21
-75.50879432118782
 31
0.0
  0
LINE
  5
89A9
330
85AB
100
AcDbEntity
  8
0
  6
Continuous
 62
     7
370
    15
100
AcDbLine
 10
410.4965103515731
 20
-72.01390913223938
 30
0.0
 11
370.6863977088675
 21
-49.03202028686431
 31
0.0
  0
LINE
  5
89AA
330
85AB
100
AcDbEntity
  8
0
  6
Continuous
 62
     7
370
    15
100
AcDbLine
 10
407.1502152159353
 20
-117.5455965700926
 30
0.0
 11
411.7464093884782
 21
-114.8922701519244
 31
0.0
  0
SPLINE
  5
89AB
330
85AB
100
AcDbEntity
  8
0
  6
Continuous
 62
     7
370
    15
100
AcDbSpline
210
0.0
220
0.0
230
1.0
 70
     8
 71
     3
 72
    11
 73
     7
 74
     0
 42
0.000000001
 43
0.00000001
 40
0.0
 40
0.0
 40
0.0
 40
0.0
 40
0.2312404879205796
 40
0.4890411950138295
 40
0.7542137284048314
 40
1.0
 40
1.0
 40
1.0
 40
1.0
 10
411.743996481401
 20
-114.8838931675714
 30
0.0
 10
411.8568698720333
 20
-114.808555998201
 30
0.0
 10
412.0955812600622
 20
-114.6492284527992
 30
0.0
 10
412.3377065771309
 20
-114.2633798230698
 30
0.0
 10
412.488991150136
 20
-113.8149413570385
 30
0.0
 10
412.5060771310796
 20
-113.4771300302181
 30
0.0
 10
412.5142959923884
 20
-113.3146328079145
 30
0.0
  0
LINE
  5
89AC
330
85AB
100
AcDbEntity
  8
0
  6
Continuous
 62
     7
370
    15
100
AcDbLine
 10
368.9365409011252
 20
-48.90824903837549
 30
0.0
 11
364.3403467285822
 21
-51.56157545654364
 31
0.0
  0
SPLINE
  5
89AD
330
85AB
100
AcDbEntity
  8
0
  6
Continuous
 62
     7
370
    15
100
AcDbSpline
210
0.0
220
0.0
230
1.0
 70
     8
 71
     3
 72
    12
 73
     8
 74
     0
 42
0.000000001
 43
0.00000001
 40
0.0
 40
0.0
 40
0.0
 40
0.0
 40
0.1604127575441681
 40
0.4625292085359697
 40
0.719912289760941
 40
0.9679725123755335
 40
1.0
 40
1.0
 40
1.0
 40
1.0
 10
370.6863977088675
 20
-49.03202028686431
 30
0.0
 10
370.5921367777082
 20
-48.98192123884107
 30
0.0
 10
370.3203477096042
 20
-48.83746718552661
 30
0.0
 10
369.8812423868537
 20
-48.71476707525616
 30
0.0
 10
369.4026249087154
 20
-48.72842219325449
 30
0.0
 10
369.0818551365369
 20
-48.80278099712095
 30
0.0
 10
368.9536163483658
 20
-48.90494457580505
 30
0.0
 10
368.9389524911135
 20
-48.91662678331491
 30
0.0
  0
SPLINE
  5
89AE
330
85AB
100
AcDbEntity
  8
0
  6
Continuous
 62
     7
370
    15
100
AcDbSpline
210
0.0
220
0.0
230
1.0
 70
     8
 71
     3
 72
    12
 73
     8
 74
     0
 42
0.000000001
 43
0.00000001
 40
0.0
 40
0.0
 40
0.0
 40
0.0
 40
0.160645177383232
 40
0.4631984337675566
 40
0.7209544045732966
 40
0.9693736426301366
 40
1.0
 40
1.0
 40
1.0
 40
1.0
 10
391.6471311695641
 20
-125.3613936472743
 30
0.0
 10
391.7413923985608
 20
-125.4114926677557
 30
0.0
 10
392.0131817815197
 20
-125.5559463525677
 30
0.0
 10
392.4523018291829
 20
-125.6786720537561
 30
0.0
 10
392.9308576899932
 20
-125.6649170584475
 30
0.0
 10
393.2509208255087
 20
-125.5910208554427
 30
0.0
 10
393.3785596224943
 20
-125.4894783337652
 30
0.0
 10
393.3925684851133
 20
-125.4783336405391
 30
0.0
  0
LINE
  5
89AF
330
85AB
100
AcDbEntity
  8
0
  6
Continuous
 62
     7
370
    15
100
AcDbLine
 10
393.3969879773064
 20
-125.4851656564732
 30
0.0
 11
397.9931828083938
 21
-122.8318388581353
 31
0.0
  0
LINE
  5
89B0
330
85AB
100
AcDbEntity
  8
0
  6
Continuous
 62
     7
370
    15
100
AcDbLine
 10
351.8370185268584
 20
-102.3795048018992
 30
0.0
 11
391.6471311695641
 21
-125.3613936472742
 31
0.0
  0
SPLINE
  5
89B1
330
85AB
100
AcDbEntity
  8
0
  6
Continuous
 62
     7
370
    15
100
AcDbSpline
210
0.0
220
0.0
230
1.0
 70
     8
 71
     3
 72
    11
 73
     7
 74
     0
 42
0.000000001
 43
0.00000001
 40
0.0
 40
0.0
 40
0.0
 40
0.0
 40
0.2323532604753261
 40
0.4897810152830848
 40
0.7545703017064892
 40
1.0
 40
1.0
 40
1.0
 40
1.0
 10
350.5915409577799
 20
-59.50797769949085
 30
0.0
 10
350.4779408059838
 20
-59.58376612746864
 30
0.0
 10
350.2384812969192
 20
-59.74352172171226
 30
0.0
 10
349.9958049695383
 20
-60.13001234079471
 30
0.0
 10
349.8445405553878
 20
-60.57848060952765
 30
0.0
 10
349.8274513158316
 20
-60.91628708174196
 30
0.0
 10
349.8192309104097
 20
-61.0787815067645
 30
0.0
  0
LINE
  5
89B2
330
85AB
100
AcDbEntity
  8
0
  6
Continuous
 62
     7
370
    15
100
AcDbLine
 10
355.1833143210408
 20
-56.84781774458637
 30
0.0
 11
350.5871194899534
 21
-59.50114454292421
 31
0.0
  0
LINE
  5
89B3
330
85AB
100
AcDbEntity
  8
0
  6
Continuous
 62
     7
370
    15
100
AcDbLine
 10
349.8192309104097
 20
-61.0787815067645
 30
0.0
 11
349.8192309104097
 21
-98.88461999349116
 31
0.0
  0
SPLINE
  5
89B4
330
85AB
100
AcDbEntity
  8
0
  6
Continuous
 62
     7
370
    15
100
AcDbSpline
210
0.0
220
0.0
230
1.0
 70
     8
 71
     3
 72
    14
 73
    10
 74
     0
 42
0.000000001
 43
0.00000001
 40
0.0
 40
0.0
 40
0.0
 40
0.0
 40
0.0842964478761796
 40
0.2402984854614553
 40
0.3957566686042318
 40
0.5507967660623411
 40
0.70611299785198
 40
0.8624051663476229
 40
1.0
 40
1.0
 40
1.0
 40
1.0
 10
349.8192309104097
 20
-98.88461999349116
 30
0.0
 10
349.8228495750709
 20
-98.99298921053884
 30
0.0
 10
349.8331650706741
 20
-99.3019103974132
 30
0.0
 10
349.9435428503006
 20
-99.83856072092382
 30
0.0
 10
350.1769876645467
 20
-100.4723102224217
 30
0.0
 10
350.5077154925033
 20
-101.0790782212463
 30
0.0
 10
350.9176240691248
 20
-101.625210660929
 30
0.0
 10
351.3673049300428
 20
-102.0744833107044
 30
0.0
 10
351.6872320031727
 20
-102.2822367876768
 30
0.0
 10
351.8370185268584
 20
-102.3795048018992
 30
0.0
  0
LINE
  5
89B5
330
85AB
100
AcDbEntity
  8
0
  6
Continuous
 62
     7
370
    15
100
AcDbLine
 10
360.7281029620478
 20
-89.51634424793363
 30
0.0
 11
360.6573922805708
 21
-89.55716465546365
 31
0.0
  0
LINE
  5
89B6
330
85AB
100
AcDbEntity
  8
0
  6
Continuous
 62
     7
370
    15
100
AcDbLine
 10
368.406762423969
 20
-102.9809210559104
 30
0.0
 11
368.4774731054463
 21
-102.9401006483804
 31
0.0
  0
LINE
  5
89B7
330
85AB
100
AcDbEntity
  8
0
  6
Continuous
 62
     7
370
    15
100
AcDbLine
 10
360.6342706182593
 20
-85.96244697806651
 30
0.0
 11
358.7951090013797
 21
-88.56979059778399
 31
0.0
  0
LINE
  5
89B8
330
85AB
100
AcDbEntity
  8
0
  6
Continuous
 62
     7
370
    15
100
AcDbLine
 10
368.3305144121554
 20
-105.0873861804942
 30
0.0
 11
371.5081469973579
 21
-104.7985943690123
 31
0.0
  0
SPLINE
  5
89B9
330
85AB
100
AcDbEntity
  8
0
  6
Continuous
 62
     7
370
    15
100
AcDbSpline
210
0.0
220
0.0
230
1.0
 70
     8
 71
     3
 72
    24
 73
    20
 74
     0
 42
0.000000001
 43
0.00000001
 40
0.0
 40
0.0
 40
0.0
 40
0.0
 40
0.0454088636507271
 40
0.1080346756830716
 40
0.1712322627632016
 40
0.2347013174942335
 40
0.2982169255249974
 40
0.3616740365794835
 40
0.4250537681022878
 40
0.4883655255944316
 40
0.5516318568502333
 40
0.6148809384990159
 40
0.6781423094567839
 40
0.741437123906537
 40
0.8047971536919388
 40
0.8682532300456056
 40
0.9318318456158099
 40
0.9955463071503312
 40
1.0
 40
1.0
 40
1.0
 40
1.0
 10
358.3518254885813
 20
-89.38665612811533
 30
0.0
 10
358.2695595019386
 20
-89.57756655043781
 30
0.0
 10
358.0738360578321
 20
-90.0317718289219
 30
0.0
 10
357.8943702966315
 20
-90.85768883998071
 30
0.0
 10
357.7960211375575
 20
-91.83456313142645
 30
0.0
 10
357.8161052366515
 20
-92.88250875703216
 30
0.0
 10
357.9489640841225
 20
-93.97910832602153
 30
0.0
 10
358.1929118871985
 20
-95.10725155861269
 30
0.0
 10
358.5428914989621
 20
-96.24874720890773
 30
0.0
 10
358.9929262862001
 20
-97.38609010677806
 30
0.0
 10
359.5356399404877
 20
-98.50184676492003
 30
0.0
 10
360.1624887509388
 20
-99.57897985683104
 30
0.0
 10
360.8638056481701
 20
-100.6008087799232
 30
0.0
 10
361.6289904273478
 20
-101.5518816356412
 30
0.0
 10
362.4466436022149
 20
-102.4160419190993
 30
0.0
 10
363.3049810798748
 20
-103.184719048039
 30
0.0
 10
364.1914125822567
 20
-103.8266400396374
 30
0.0
 10
364.814101148665
 20
-104.2228153827902
 30
0.0
 10
365.1358844530624
 20
-104.3625988221538
 30
0.0
 10
365.156907818223
 20
-104.371731422413
 30
0.0
  0
SPLINE
  5
89BA
330
85AB
100
AcDbEntity
  8
0
  6
Continuous
 62
     7
370
    15
100
AcDbSpline
210
0.0
220
0.0
230
1.0
 70
     8
 71
     3
 72
    15
 73
    11
 74
     0
 42
0.000000001
 43
0.00000001
 40
0.0
 40
0.0
 40
0.0
 40
0.0
 40
0.0567232631802882
 40
0.1971202688625423
 40
0.3375110201283299
 40
0.478960377342552
 40
0.6221054449737947
 40
0.7668842976269452
 40
0.9128010694105319
 40
1.0
 40
1.0
 40
1.0
 40
1.0
 10
373.1306900295499
 20
-104.3103321930218
 30
0.0
 10
373.2284515632286
 20
-104.2644304634665
 30
0.0
 10
373.5681848353063
 20
-104.1049163459091
 30
0.0
 10
374.0677209346004
 20
-103.6890172034773
 30
0.0
 10
374.6166759917727
 20
-103.0775796468361
 30
0.0
 10
375.0627142038018
 20
-102.3419929853215
 30
0.0
 10
375.4076844764193
 20
-101.5006937510973
 30
0.0
 10
375.6429528304876
 20
-100.5588184371511
 30
0.0
 10
375.7550378310743
 20
-99.67246657317517
 30
0.0
 10
375.7658234134849
 20
-99.09255511821351
 30
0.0
 10
375.7698578532177
 20
-98.87563425790907
 30
0.0
  0
SPLINE
  5
89BB
330
85AB
100
AcDbEntity
  8
0
  6
Continuous
 62
     7
370
    15
100
AcDbSpline
210
0.0
220
0.0
230
1.0
 70
     8
 71
     3
 72
    28
 73
    24
 74
     0
 42
0.000000001
 43
0.00000001
 40
0.0
 40
0.0
 40
0.0
 40
0.0
 40
0.0265366389259086
 40
0.0767545424538331
 40
0.1269396926955893
 40
0.1770733450923248
 40
0.2271584057577204
 40
0.2772068609101175
 40
0.3272346806643405
 40
0.3772596045610906
 40
0.4272972005522946
 40
0.4773631935158935
 40
0.5274765777685578
 40
0.5776555761929981
 40
0.6279150993272027
 40
0.6782614889377753
 40
0.728681638634114
 40
0.7791048093189359
 40
0.8293819234536635
 40
0.8792991290976069
 40
0.928633926040971
 40
0.9773019147538756
 40
1.0
 40
1.0
 40
1.0
 40
1.0
 10
375.7698578532177
 20
-98.87563425790907
 30
0.0
 10
375.7666458264135
 20
-98.67937181110648
 30
0.0
 10
375.7573553639554
 20
-98.11170254646217
 30
0.0
 10
375.6547458254622
 20
-97.13189845645164
 30
0.0
 10
375.4275092009458
 20
-95.93695201219492
 30
0.0
 10
375.0913177528117
 20
-94.72191670088702
 30
0.0
 10
374.6533302857076
 20
-93.50440876412216
 30
0.0
 10
374.1193867494273
 20
-92.30053927658969
 30
0.0
 10
373.4970969907808
 20
-91.12659130323223
 30
0.0
 10
372.7949431177026
 20
-89.99839316085684
 30
0.0
 10
372.0223912630271
 20
-88.93126080796404
 30
0.0
 10
371.1896995124464
 20
-87.93973182501523
 30
0.0
 10
370.3077410320677
 20
-87.03740567596384
 30
0.0
 10
369.3878458229285
 20
-86.23678826865375
 30
0.0
 10
368.4416590161486
 20
-85.549275179749
 30
0.0
 10
367.481051647126
 20
-84.98508567486559
 30
0.0
 10
366.5183283135132
 20
-84.55343471275611
 30
0.0
 10
365.5663855288831
 20
-84.26211614095439
 30
0.0
 10
364.6397662910717
 20
-84.11814980917868
 30
0.0
 10
363.7521167747341
 20
-84.1224796034486
 30
0.0
 10
362.9251623673779
 20
-84.28451119264341
 30
0.0
 10
362.286539539246
 20
-84.5150063513696
 30
0.0
 10
361.9592860445709
 20
-84.73926791376022
 30
0.0
 10
361.8552025871638
 20
-84.8105946349624
 30
0.0
  0
LINE
  5
89BC
330
85AB
100
AcDbEntity
  8
0
  6
Continuous
 62
     7
370
    15
100
AcDbLine
 10
374.0999868735983
 20
-104.0243030903858
 30
0.0
 11
376.9284138034152
 21
-102.3914869792706
 31
0.0
  0
LINE
  5
89BD
330
85AB
100
AcDbEntity
  8
0
  6
Continuous
 62
     7
370
    15
100
AcDbLine
 10
365.4293481956634
 20
-82.47236297184511
 30
0.0
 11
362.6009212658463
 21
-84.10517908296029
 31
0.0
  0
LINE
  5
89BE
330
85AB
100
AcDbEntity
  8
0
  6
Continuous
 62
     7
370
    15
100
AcDbLine
 10
389.4080212319616
 20
-62.500943694862
 30
0.0
 11
389.4080212319616
 21
-61.60900209300908
 31
0.0
  0
LINE
  5
89BF
330
85AB
100
AcDbEntity
  8
0
  6
Continuous
 62
     7
370
    15
100
AcDbLine
 10
386.6080228453735
 20
-61.60900123762727
 30
0.0
 11
386.6080228453735
 21
-62.5009428394803
 31
0.0
  0
LINE
  5
89C0
330
85AB
100
AcDbEntity
  8
0
  6
Continuous
 62
     7
370
    15
100
AcDbLine
 10
405.1913495522492
 20
-106.4745075820046
 30
0.0
 11
406.2518367006793
 21
-105.8621023323877
 31
0.0
  0
LINE
  5
89C1
330
85AB
100
AcDbEntity
  8
0
  6
Continuous
 62
     7
370
    15
100
AcDbLine
 10
409.0798046249743
 20
-100.9633874166113
 30
0.0
 11
409.0798046249743
 21
-99.73877580848699
 31
0.0
  0
LINE
  5
89C2
330
85AB
100
AcDbEntity
  8
0
  6
Continuous
 62
     7
370
    15
100
AcDbLine
 10
407.9404936502058
 20
-97.22063178266396
 30
0.0
 11
405.7484624009345
 21
-95.95519907795213
 31
0.0
  0
LINE
  5
89C3
330
85AB
100
AcDbEntity
  8
0
  6
Continuous
 62
     7
370
    15
100
AcDbLine
 10
400.2489097995663
 20
-105.4817347621438
 30
0.0
 11
402.4409410488374
 21
-106.7471674668556
 31
0.0
  0
LINE
  5
89C4
330
85AB
100
AcDbEntity
  8
0
  6
Continuous
 62
     7
370
    15
100
AcDbLine
 10
404.3143105132299
 20
-81.68632450725565
 30
0.0
 11
405.3749702003211
 21
-81.07401870319347
 31
0.0
  0
LINE
  5
89C5
330
85AB
100
AcDbEntity
  8
0
  6
Continuous
 62
     7
370
    15
100
AcDbLine
 10
403.6928684028271
 20
-115.7214896341453
 30
0.0
 11
404.7535280899183
 21
-115.1091838300832
 31
0.0
  0
LINE
  5
89C6
330
85AB
100
AcDbEntity
  8
0
  6
Continuous
 62
     7
370
    15
100
AcDbLine
 10
365.6056622924191
 20
-54.65111433673988
 30
0.0
 11
364.545002605328
 21
-55.26342014080208
 31
0.0
  0
LINE
  5
89C7
330
85AB
100
AcDbEntity
  8
0
  6
Continuous
 62
     7
370
    15
100
AcDbLine
 10
405.3749702003211
 20
-81.07401870319347
 30
0.0
 11
406.4356312045011
 21
-80.46171213879202
 31
0.0
  0
LINE
  5
89C8
330
85AB
100
AcDbEntity
  8
0
  6
Continuous
 62
     7
370
    15
100
AcDbLine
 10
404.7535280899183
 20
-115.1091838300832
 30
0.0
 11
405.8141890940983
 21
-114.4968772656817
 31
0.0
  0
LINE
  5
89C9
330
85AB
100
AcDbEntity
  8
0
  6
Continuous
 62
     7
370
    15
100
AcDbLine
 10
366.6663232965991
 20
-54.0388077723384
 30
0.0
 11
365.6056622924191
 21
-54.65111433673988
 31
0.0
  0
LINE
  5
89CA
330
85AB
100
AcDbEntity
  8
0
  6
Continuous
 62
     7
370
    15
100
AcDbLine
 10
406.0641699551504
 20
-114.9299024444466
 30
0.0
 11
407.0645504292479
 21
-114.3523950893399
 31
0.0
  0
LINE
  5
89CB
330
85AB
100
AcDbEntity
  8
0
  6
Continuous
 62
     7
370
    15
100
AcDbLine
 10
367.0629501657779
 20
-53.23250541705019
 30
0.0
 11
366.416343752636
 21
-53.60578335391281
 31
0.0
  0
LWPOLYLINE
  5
89CC
330
85AB
100
AcDbEntity
  8
0
  6
Continuous
 62
     7
370
    15
100
AcDbPolyline
 90
       49
 70
   128
 43
0.0
 10
582.6904290180013
 20
-70.83196842697652
 10
582.8584316245217
 20
-70.04503853617499
 10
583.2029267933596
 20
-69.27749881832037
 10
583.7180113315453
 20
-68.54248337456104
 10
584.3948818160962
 20
-67.8525682169957
 10
585.2219557662058
 20
-67.2195614150254
 10
586.1850744749526
 20
-66.65428867966963
 10
587.2677664271026
 20
-66.16642304756203
 10
588.4515001802016
 20
-65.76431456494609
 10
589.7160268077179
 20
-65.45484126117168
 10
591.0397065371193
 20
-65.24329965983483
 10
592.3998933398651
 20
-65.13331049670424
 10
593.7733142530434
 20
-65.12675180986244
 10
595.1364645060751
 20
-65.22373765020507
 10
596.4660237208437
 20
-65.42260895736939
 10
597.7392457700433
 20
-65.71996397330648
 10
598.934340732994
 20
-66.11071146603248
 10
600.0308621198118
 20
-66.58816957373813
 10
601.0100519487313
 20
-67.14417073161314
 10
601.8551489449354
 20
-67.76919397088471
 10
602.5516941052068
 20
-68.45254740025104
 10
603.087775676485
 20
-69.18254308392113
 10
603.4542161825069
 20
-69.94668712644119
 10
603.6447489137346
 20
-70.73190625380732
 10
603.6561074894081
 20
-71.52476374982786
 10
603.4881048828878
 20
-72.31169364062939
 10
603.1436097140498
 20
-73.07923335848398
 10
602.628522541686
 20
-73.81425032292194
 10
601.9516546913131
 20
-74.5041639598087
 10
601.1245807412037
 20
-75.13717076177895
 10
600.1614593982789
 20
-75.70244501781335
 10
599.0787700803068
 20
-76.19030912924234
 10
597.8950363272078
 20
-76.59241761185825
 10
596.6305096996915
 20
-76.90189091563269
 10
595.3068299702902
 20
-77.11343251696957
 10
593.9466405333663
 20
-77.22342320077874
 10
592.5732222543661
 20
-77.22998036694196
 10
591.2100720013342
 20
-77.13299452659933
 10
589.8805114694767
 20
-76.93412397977428
 10
588.607289420277
 20
-76.6367689638372
 10
587.4121957744153
 20
-76.24602071077192
 10
586.3156743875976
 20
-75.76856260306619
 10
585.3364871928561
 20
-75.21256600722703
 10
584.491386245385
 20
-74.58753896625896
 10
583.7948410851136
 20
-73.90418553689264
 10
583.2587595138353
 20
-73.17418985322254
 10
582.8923203249025
 20
-72.41004505036312
 10
582.7017875936749
 20
-71.62482592299705
 10
582.6904290180013
 20
-70.83196842697652
  0
ARC
  5
89CD
330
85AB
100
AcDbEntity
  8
0
  6
Continuous
 62
     7
370
    15
100
AcDbCircle
 10
587.8968604309189
 20
-72.3457028864666
 30
0.0
 40
5.814879580255018
100
AcDbArc
 50
115.4962843271071
 51
168.8751919069833
  0
LWPOLYLINE
  5
89CE
330
85AB
100
AcDbEntity
  8
0
  6
Continuous
 62
     7
370
    15
100
AcDbPolyline
 90
       34
 70
   128
 43
0.0
 10
600.9527058929763
 20
-67.0971173334033
 10
601.6091377901773
 20
-67.51128631806944
 10
602.4274056831262
 20
-68.15378671659744
 10
603.0997295763939
 20
-68.85042327361577
 10
603.6155016350459
 20
-69.59020908617245
 10
603.96660068821
 20
-70.36148207001284
 10
604.1474817911286
 20
-71.15207831694136
 10
604.1552947631711
 20
-71.94952522100468
 10
603.9899105296145
 20
-72.74125133213988
 10
603.6539395608879
 20
-73.51476427557174
 10
603.1526844573698
 20
-74.25787277088969
 10
602.4940503873339
 20
-74.95885390669474
 10
601.6884212805824
 20
-75.60665234949747
 10
600.7484991435848
 20
-76.19105218040076
 10
599.6891170328392
 20
-76.70283960771096
 10
598.526970368712
 20
-77.13393982801279
 10
597.2803982986613
 20
-77.47755540792275
 10
595.9690491566274
 20
-77.72826816955603
 10
594.6136091426952
 20
-77.88212282784986
 10
593.2354598799496
 20
-77.9366969417797
 10
591.856324117531
 20
-77.8911229641989
 10
590.4979601659833
 20
-77.7461247381255
 10
589.1817838927059
 20
-77.50398632283068
 10
587.9285592060356
 20
-77.16852994399875
 10
586.7580477095679
 20
-76.74504452183288
 10
585.6887057716837
 20
-76.24020507508848
 10
584.7373987172322
 20
-75.66197615798171
 10
583.9191347755503
 20
-75.0194795611502
 10
583.2468108822826
 20
-74.32284300413187
 10
582.7310335552744
 20
-73.58305415021798
 10
582.3799345021105
 20
-72.81178116637759
 10
582.1990533991919
 20
-72.02118491944907
 10
582.1912470125943
 20
-71.22374029640366
 10
582.1912470125943
 20
-71.22374029640366
  0
LWPOLYLINE
  5
89CF
330
85AB
100
AcDbEntity
  8
0
  6
Continuous
 62
     7
370
    15
100
AcDbPolyline
 90
       27
 70
   128
 43
0.0
 10
604.1732677598831
 20
-73.21971693167083
 10
604.1552947631711
 20
-73.58261015431066
 10
603.9899105296145
 20
-74.37433626544586
 10
603.6539395608879
 20
-75.14784920887774
 10
603.1526844573698
 20
-75.89095770419567
 10
602.4940503873339
 20
-76.59193884000075
 10
601.6884212805824
 20
-77.23973728280347
 10
600.7484991435848
 20
-77.82413711370677
 10
599.6891170328392
 20
-78.33592454101694
 10
598.526970368712
 20
-78.76702476131877
 10
597.2803982986613
 20
-79.11064034122876
 10
595.9690491566274
 20
-79.36135310286204
 10
594.6136091426952
 20
-79.51520776115589
 10
593.2354598799496
 20
-79.56978187508571
 10
591.856324117531
 20
-79.52420789750491
 10
590.4979601659833
 20
-79.37920967143151
 10
589.1817838927059
 20
-79.13707125613666
 10
587.9285592060356
 20
-78.80161487730476
 10
586.7580477095679
 20
-78.37812945513889
 10
585.6887057716837
 20
-77.87329000839452
 10
584.7373987172322
 20
-77.29506109128769
 10
583.9191347755503
 20
-76.65256449445619
 10
583.2468108822826
 20
-75.95592793743785
 10
582.7310335552744
 20
-75.21613908352398
 10
582.3799345021105
 20
-74.4448660996836
 10
582.1990533991919
 20
-73.65426985275508
 10
582.1732687475263
 20
-73.21971541099225
  0
LWPOLYLINE
  5
89D0
330
85AB
100
AcDbEntity
  8
0
  6
Continuous
 62
     7
370
    15
100
AcDbPolyline
 90
       39
 70
   128
 43
0.0
 10
586.5840576163808
 20
-70.96063152342904
 10
586.7360022736187
 20
-70.33750304970465
 10
587.0635412384651
 20
-69.73731249212261
 10
587.5577393790355
 20
-69.17642843523325
 10
588.2051176063409
 20
-68.6701565092389
 10
588.988008488321
 20
-68.23229687251882
 10
589.8850646462048
 20
-67.87480205894198
 10
590.8718145660761
 20
-67.60741961839378
 10
591.9213395826262
 20
-67.43744120480571
 10
593.0050167173603
 20
-67.36950488793616
 10
594.093285224404
 20
-67.40546893704564
 10
595.1564526489814
 20
-67.54434186968084
 10
596.1655272276731
 20
-67.78234327881916
 10
597.0929791658675
 20
-68.11298138747753
 10
597.9135124519238
 20
-68.52723400946715
 10
598.6047471092828
 20
-69.01380554407825
 10
599.1478224232359
 20
-69.55941742569465
 10
599.5279264107094
 20
-70.14918981412453
 10
599.7346962153257
 20
-70.76703697103889
 10
599.7624841593846
 20
-71.39610369473255
 10
599.6105342337906
 20
-72.01922912709972
 10
599.2829926347664
 20
-72.61942120536034
 10
598.7887971283739
 20
-73.18030374157112
 10
598.1414241694246
 20
-73.6865787089227
 10
597.3585280190885
 20
-74.12443530428553
 10
596.4614718612046
 20
-74.48193011786242
 10
595.4747193071554
 20
-74.7493140790892
 10
594.4251942906052
 20
-74.91929249267724
 10
593.3415197900492
 20
-74.98722728886818
 10
592.2532539171835
 20
-74.95126780179456
 10
591.190083858428
 20
-74.81239030712354
 10
590.1810092797363
 20
-74.57438889798519
 10
589.2535573415419
 20
-74.24375078932681
 10
588.4330240554856
 20
-73.82949816733719
 10
587.7417867639485
 20
-73.3429281534047
 10
587.1987114499956
 20
-72.7973162717883
 10
586.818607462522
 20
-72.20754388335845
 10
586.6118455604397
 20
-71.5896982471227
 10
586.5840576163808
 20
-70.96063152342904
  0
LWPOLYLINE
  5
89D1
330
85AB
100
AcDbEntity
  8
0
  6
Continuous
 62
     7
370
    15
100
AcDbPolyline
 90
       23
 70
   128
 43
0.0
 10
587.5824189930167
 20
-71.81015598745003
 10
587.7294087613766
 20
-71.23682821750091
 10
588.0513659029732
 20
-70.6878647602297
 10
588.5379512690315
 20
-70.18091309089698
 10
589.1735125736856
 20
-69.73225967740825
 10
589.9376375713662
 20
-69.35633423908692
 10
590.8057520152132
 20
-69.06521248476926
 10
591.7499625940467
 20
-68.86825114993815
 10
592.7399183085828
 20
-68.77178538167993
 10
593.7438035565516
 20
-68.77891432300024
 10
594.7293470228841
 20
-68.88940531007188
 10
595.6648806192804
 20
-69.09970907902076
 10
596.52032993515
 20
-69.40306925478589
 10
597.2682073227296
 20
-69.78973372544596
 10
597.8844653707657
 20
-70.24727094337013
 10
598.3493029629923
 20
-70.76098050844243
 10
598.6477764074344
 20
-71.31434937164474
 10
598.7702972960556
 20
-71.88959167596295
 10
598.7129222643421
 20
-72.46821749018679
 10
598.4775031394503
 20
-73.03163347696062
 10
598.0715947439761
 20
-73.5617253126907
 10
597.5082546984235
 20
-74.0414598762745
 10
597.458226389241
 20
-74.0762712509981
  0
ARC
  5
89D2
330
85AB
100
AcDbEntity
  8
0
  6
Continuous
 62
     7
370
    15
100
AcDbCircle
 10
590.1863467996022
 20
-71.8189252745401
 30
0.0
 40
2.603942572774058
100
AcDbArc
 50
179.8070448655086
 51
240.0998510574492
  0
LWPOLYLINE
  5
89D3
330
85AB
100
AcDbEntity
  8
0
  6
Continuous
 62
     7
370
    15
100
AcDbPolyline
 90
       16
 70
   128
 43
0.0
 10
599.4545382107398
 20
-78.43277125036892
 10
599.4458006422079
 20
-78.4429917313019
 10
598.8661286928572
 20
-79.00062153596744
 10
598.1390112623473
 20
-79.49734816233129
 10
597.2832879919623
 20
-79.92031275207347
 10
596.3211123189511
 20
-80.25855121242103
 10
595.2774114700296
 20
-80.50331203797762
 10
594.1792147459836
 20
-80.64825551962107
 10
593.0549633670237
 20
-80.6896210191507
 10
591.9337781712928
 20
-80.62634558221859
 10
590.8446957032373
 20
-80.4600608969725
 10
589.8159174728668
 20
-80.19507656659113
 10
588.8740960935082
 20
-79.83825693431677
 10
588.0436187853813
 20
-79.39883860202221
 10
587.345998880473
 20
-78.88820993181227
 10
586.8919956624916
 20
-78.43277125036894
  0
LWPOLYLINE
  5
89D4
330
85AB
100
AcDbEntity
  8
0
  6
Continuous
 62
     7
370
    15
100
AcDbPolyline
 90
       20
 70
   128
 43
0.0
 10
599.4139060145973
 20
-78.47969867415864
 10
599.3602873207573
 20
-78.79320025556902
 10
599.1217150847614
 20
-79.38947050369637
 10
598.7120240096332
 20
-79.95388709699509
 10
598.1429862369974
 20
-80.47021374995396
 10
597.4309810858566
 20
-80.92359951527482
 10
596.5964892904092
 20
-81.30099849116851
 10
595.6635161150599
 20
-81.5915515116863
 10
594.6589038339542
 20
-81.78690396854876
 10
593.6115546484585
 20
-81.88143543361602
 10
592.5515956527239
 20
-81.87242541285602
 10
591.5095227258262
 20
-81.76013394231103
 10
590.5153075454126
 20
-81.54778790198986
 10
589.5975651874438
 20
-81.24150194058049
 10
588.7826822132662
 20
-80.85008230790919
 10
588.0941080757194
 20
-80.38479114975632
 10
587.551654427782
 20
-79.85901499991937
 10
587.1709287742927
 20
-79.28788004852481
 10
586.9628734907968
 20
-78.68781266591017
 10
586.9326331269903
 20
-78.47969867415864
  0
LWPOLYLINE
  5
89D5
330
85AB
100
AcDbEntity
  8
0
  6
Continuous
 62
     7
370
    15
100
AcDbPolyline
 90
       22
 70
   128
 43
0.0
 10
600.1676786926122
 20
-78.12082612576174
 10
600.1713586393229
 20
-78.18781962189351
 10
600.1069793282226
 20
-78.83708856091144
 10
599.8630228323293
 20
-79.4719901284289
 10
599.4458006422079
 20
-80.07607666460791
 10
598.8661286928572
 20
-80.63370646927342
 10
598.1390112623473
 20
-81.1304330956373
 10
597.2832879919623
 20
-81.55339768537951
 10
596.3211123189511
 20
-81.89163614572706
 10
595.2774114700296
 20
-82.1363969712836
 10
594.1792147459836
 20
-82.28134045292708
 10
593.0549633670237
 20
-82.32270595245669
 10
591.9337781712928
 20
-82.2594305155246
 10
590.8446957032373
 20
-82.09314583027847
 10
589.8159174728668
 20
-81.82816149989713
 10
588.8740960935082
 20
-81.47134186762278
 10
588.0436187853813
 20
-81.03192353532819
 10
587.345998880473
 20
-80.52129486511828
 10
586.7993042059041
 20
-79.9526751161435
 10
586.4176855660622
 20
-79.3407905400561
 10
586.2110369336352
 20
-78.70149269067923
 10
586.1788578147972
 20
-78.12082460508313
  0
LWPOLYLINE
  5
89D6
330
85AB
100
AcDbEntity
  8
0
  6
Continuous
 62
     7
370
    15
100
AcDbPolyline
 90
       21
 70
   128
 43
0.0
 10
600.1732684183961
 20
-80.97685211376503
 10
600.1069793282226
 20
-81.531670183682
 10
599.8630228323293
 20
-82.16657175119946
 10
599.4458006422079
 20
-82.77065828737844
 10
598.8661286928572
 20
-83.32828809204398
 10
598.1390112623473
 20
-83.82501471840786
 10
597.2832879919623
 20
-84.24797930815004
 10
596.3211123189511
 20
-84.58621776849762
 10
595.2774114700296
 20
-84.83097859405416
 10
594.1792147459836
 20
-84.97592207569761
 10
593.0549633670237
 20
-85.01728757522724
 10
591.9337781712929
 20
-84.95401213829513
 10
590.8446957032373
 20
-84.78772745304906
 10
589.8159174728668
 20
-84.52274312266766
 10
588.8740960935082
 20
-84.16592349039334
 10
588.0436187853813
 20
-83.72650515809875
 10
587.345998880473
 20
-83.21587648788883
 10
586.7993042059041
 20
-82.64725673891405
 10
586.4176855660622
 20
-82.03537216282666
 10
586.2110369336352
 20
-81.39607431344982
 10
586.1732680890134
 20
-80.97685059308643
  0
ARC
  5
89D7
330
85AB
100
AcDbEntity
  8
0
  6
Continuous
 62
     7
370
    15
100
AcDbCircle
 10
593.1732669366157
 20
-76.19356244331135
 30
0.0
 40
9.09872071477315
100
AcDbArc
 50
242.2013730769868
 51
297.7986269230141
  0
LINE
  5
89D8
330
85AB
100
AcDbEntity
  8
0
  6
Continuous
 62
     7
370
    15
100
AcDbLine
 10
363.7189046181793
 20
-56.444157624241
 30
0.0
 11
363.7189046181793
 21
-52.93511035897333
 31
0.0
  0
ARC
  5
89D9
330
85AB
100
AcDbEntity
  8
0
  6
Continuous
 62
     7
370
    15
100
AcDbCircle
 10
365.0121281065069
 20
-52.72532903532189
 30
0.0
 40
1.310127930591392
100
AcDbArc
 50
50.79672899587256
 51
189.2140227588804
  0
LINE
  5
89DA
330
85AB
100
AcDbEntity
  8
0
  6
Continuous
 62
     7
370
    15
100
AcDbLine
 10
365.8402253094504
 20
-51.71009989025524
 30
0.0
 11
405.650337952156
 21
-74.6919887356303
 31
0.0
  0
ARC
  5
89DB
330
85AB
100
AcDbEntity
  8
0
  6
Continuous
 62
     7
370
    15
100
AcDbCircle
 10
403.1660103833968
 20
-78.57580446351099
 30
0.0
 40
4.610413005038729
100
AcDbArc
 50
2.605463435818571
 51
57.39451617009306
  0
LINE
  5
89DC
330
85AB
100
AcDbEntity
  8
0
  6
Continuous
 62
     7
370
    15
100
AcDbLine
 10
407.7716573263381
 20
-78.36622318093629
 30
0.0
 11
407.7716573263382
 21
-97.12316282700976
 31
0.0
  0
LINE
  5
89DD
330
85AB
100
AcDbEntity
  8
0
  6
Continuous
 62
     7
370
    15
100
AcDbLine
 10
407.7716573263382
 20
-104.4728024479264
 30
0.0
 11
407.7716573263383
 21
-116.172061667663
 31
0.0
  0
ARC
  5
89DE
330
85AB
100
AcDbEntity
  8
0
  6
Continuous
 62
     7
370
    15
100
AcDbCircle
 10
406.4784358253955
 20
-116.3818449121418
 30
0.0
 40
1.310126276419406
100
AcDbArc
 50
230.7966321592139
 51
9.214119595541138
  0
LINE
  5
89DF
330
85AB
100
AcDbEntity
  8
0
  6
Continuous
 62
     7
370
    15
100
AcDbLine
 10
405.6503379521562
 20
-117.3970713757945
 30
0.0
 11
403.0899603690568
 21
-115.918996858772
 31
0.0
  0
ARC
  5
89E0
330
85AB
100
AcDbEntity
  8
0
  6
Continuous
 62
     7
370
    15
100
AcDbCircle
 10
406.2024001208765
 20
-115.9037130024169
 30
0.0
 40
0.8734189400617856
100
AcDbArc
 50
230.7969690157566
 51
9.214152413730528
  0
LINE
  5
89E1
330
85AB
100
AcDbEntity
  8
0
  6
Continuous
 62
     7
370
    15
100
AcDbLine
 10
407.0645491121587
 20
-77.95801829777577
 30
0.0
 11
407.0645491121587
 21
-83.38781535698254
 31
0.0
  0
LINE
  5
89E2
330
85AB
100
AcDbEntity
  8
0
  6
Continuous
 62
     7
370
    15
100
AcDbLine
 10
407.0645491121588
 20
-113.0690287717552
 30
0.0
 11
407.0645491121588
 21
-115.7638567845025
 31
0.0
  0
ARC
  5
89E3
330
85AB
100
AcDbEntity
  8
0
  6
Continuous
 62
     7
370
    15
100
AcDbCircle
 10
403.9941285346144
 20
-78.09773284915266
 30
0.0
 40
3.073597676807065
100
AcDbArc
 50
2.605355131011225
 51
57.39458339542645
  0
LINE
  5
89E4
330
85AB
100
AcDbEntity
  8
0
  6
Continuous
 62
     7
370
    15
100
AcDbLine
 10
365.8402253094504
 20
-52.52664083598253
 30
0.0
 11
405.650337952156
 21
-75.50852968135752
 31
0.0
  0
ARC
  5
89E5
330
85AB
100
AcDbEntity
  8
0
  6
Continuous
 62
     7
370
    15
100
AcDbCircle
 10
365.288160410563
 20
-53.20346009818419
 30
0.0
 40
0.8734185515952513
100
AcDbArc
 50
50.79671710944763
 51
189.2140346453038
  0
LINE
  5
89E6
330
85AB
100
AcDbEntity
  8
0
  6
Continuous
 62
     7
370
    15
100
AcDbLine
 10
364.4260115152697
 20
-55.33979497275422
 30
0.0
 11
364.4260115152696
 21
-53.34331448179458
 31
0.0
  0
LINE
  5
89E7
330
85AB
100
AcDbEntity
  8
0
  6
Continuous
 62
     7
370
    15
100
AcDbLine
 10
405.6503379521562
 20
-116.5805349928446
 30
0.0
 11
403.9275710312942
 21
-115.5860028186436
 31
0.0
  0
LWPOLYLINE
  5
89E8
330
85AB
100
AcDbEntity
  8
0
  6
Continuous
 62
     7
370
    15
100
AcDbPolyline
 90
       11
 70
   128
 43
0.0
 10
386.7705860388942
 20
-62.60914791666542
 10
387.2394288988183
 20
-62.80239347331471
 10
387.7915598583006
 20
-62.89728647972132
 10
388.3671494902462
 20
-62.8835429666203
 10
388.9038207881315
 20
-62.76265338913359
 10
389.3434206499064
 20
-62.54771630254706
 10
389.638306343869
 20
-62.26202641222173
 10
389.7565272661253
 20
-61.93653979243712
 10
389.6852697869112
 20
-61.60652953395956
 10
389.4322576454888
 20
-61.30775610504961
 10
389.1080540439393
 20
-61.10907972987448
  0
LWPOLYLINE
  5
89E9
330
85AB
100
AcDbEntity
  8
0
  6
Continuous
 62
     7
370
    15
100
AcDbPolyline
 90
        7
 70
   128
 43
0.0
 10
386.9079892102152
 20
-61.10908011004418
 10
386.877000081303
 20
-61.12388201545727
 10
386.5046776203719
 20
-61.37765751885203
 10
386.2952682047314
 20
-61.68747135959254
 10
386.2714611622232
 20
-62.01975218131858
 10
386.4358386458634
 20
-62.33849069473214
 10
386.7705860388942
 20
-62.60914791666542
  0
LWPOLYLINE
  5
89EA
330
85AB
100
AcDbEntity
  8
0
  6
Continuous
 62
     7
370
    15
100
AcDbPolyline
 90
        3
 70
   128
 43
0.0
 10
386.6080236685541
 20
-62.105179079301
 10
386.4358371641383
 20
-62.26763269991827
 10
386.407292717076
 20
-62.30306118502997
  0
LINE
  5
89EB
330
85AB
100
AcDbEntity
  8
0
  6
Continuous
 62
     7
370
    15
100
AcDbLine
 10
389.608752512712
 20
-62.30306175528446
 30
0.0
 11
389.4080235368673
 21
-62.10517926938579
 31
0.0
  0
ARC
  5
89EC
330
85AB
100
AcDbEntity
  8
0
  6
Continuous
 62
     7
370
    15
100
AcDbCircle
 10
394.0089779758562
 20
-83.86204675155321
 30
0.0
 40
4.610413005037957
100
AcDbArc
 50
2.605463435813023
 51
57.39451617009706
  0
LINE
  5
89ED
330
85AB
100
AcDbEntity
  8
0
  6
Continuous
 62
     7
370
    15
100
AcDbLine
 10
398.6146249187968
 20
-121.4583039557056
 30
0.0
 11
398.6146249187968
 21
-117.7837837676264
 31
0.0
  0
LINE
  5
89EE
330
85AB
100
AcDbEntity
  8
0
  6
Continuous
 62
     7
370
    15
100
AcDbLine
 10
398.6146249187967
 20
-87.85764959040952
 30
0.0
 11
398.6146249187967
 21
-83.65246546897896
 31
0.0
  0
LINE
  5
89EF
330
85AB
100
AcDbEntity
  8
0
  6
Continuous
 62
     7
370
    15
100
AcDbLine
 10
396.4933055446146
 20
-79.97823102367298
 30
0.0
 11
356.683192901909
 21
-56.99634217829797
 31
0.0
  0
ARC
  5
89F0
330
85AB
100
AcDbEntity
  8
0
  6
Continuous
 62
     7
370
    15
100
AcDbCircle
 10
397.1445730398852
 20
-121.6205437866415
 30
0.0
 40
1.478977447236349
100
AcDbArc
 50
305.0143383501014
 51
6.297866471347277
  0
ARC
  5
89F1
330
85AB
100
AcDbEntity
  8
0
  6
Continuous
 62
     7
370
    15
100
AcDbCircle
 10
355.8044323647489
 20
-58.22298530002374
 30
0.0
 40
1.508931221012827
100
AcDbArc
 50
54.38239188133909
 51
114.3071319471873
  0
LINE
  5
89F2
330
85AB
100
AcDbEntity
  8
0
  6
Continuous
 62
     7
370
    15
100
AcDbLine
 10
368.8468222790827
 20
-102.6612537884676
 30
0.0
 11
368.406762423969
 21
-102.9809210559104
 31
0.0
  0
LWPOLYLINE
  5
89F3
330
85AB
100
AcDbEntity
  8
0
  6
Continuous
 62
     7
370
    15
100
AcDbPolyline
 90
       21
 70
   128
 43
0.0
 10
360.6573922805708
 20
-89.55716465546365
 10
361.1006315885691
 20
-89.35409278108804
 10
361.7930795318659
 20
-89.20678484274413
 10
362.5497273328847
 20
-89.22500977329497
 10
363.352839729481
 20
-89.40834223698204
 10
364.1835923915303
 20
-89.75248405779038
 10
365.0225133927024
 20
-90.24936698310117
 10
365.8499386763069
 20
-90.88734717686708
 10
366.6464746004924
 20
-91.6514691994204
 10
367.3934510991851
 20
-92.52382343003936
 10
368.0733591202791
 20
-93.48396285462405
 10
368.6702625452256
 20
-94.50938116808777
 10
369.1701702666803
 20
-95.57604392277304
 10
369.5613654607573
 20
-96.65895124009478
 10
369.8346778951827
 20
-97.73272086991034
 10
369.9837019075277
 20
-98.77217942996407
 10
370.0049452362662
 20
-99.7529684808461
 10
369.8979080461168
 20
-100.6520981355621
 10
369.6651013672882
 20
-101.4484930701588
 10
369.3119799239403
 20
-102.1234830285922
 10
368.8468222790827
 20
-102.6612537884676
  0
LWPOLYLINE
  5
89F4
330
85AB
100
AcDbEntity
  8
0
  6
Continuous
 62
     7
370
    15
100
AcDbPolyline
 90
       16
 70
   128
 43
0.0
 10
365.9692765723669
 20
-103.1512045131887
 10
365.9351870159112
 20
-103.1435646796299
 10
365.136994523016
 20
-102.8858793487338
 10
364.3213086184467
 20
-102.47501267233
 10
363.5072480017233
 20
-101.920599347151
 10
362.7138937941691
 20
-101.2356288317351
 10
361.9598414508231
 20
-100.4361623358671
 10
361.2627653287525
 20
-99.54093240048843
 10
360.6390043185007
 20
-98.57092726043388
 10
360.103178921036
 20
-97.54888081175994
 10
359.6678482386703
 20
-96.4987521605515
 10
359.3432160892821
 20
-95.44515140001633
 10
359.1368917900254
 20
-94.41277565463969
 10
359.0537113624944
 20
-93.42582220972506
 10
359.0956240984326
 20
-92.50742416351468
 10
359.2253636226781
 20
-91.81053349205357
  0
LWPOLYLINE
  5
89F5
330
85AB
100
AcDbEntity
  8
0
  6
Continuous
 62
     7
370
    15
100
AcDbPolyline
 90
       17
 70
   128
 43
0.0
 10
362.5078427908832
 20
-89.49499524019626
 10
363.2418502844669
 20
-89.6670337809417
 10
364.051164277013
 20
-90.0022928878046
 10
364.868435462849
 20
-90.48635368356133
 10
365.6745080993268
 20
-91.10787033839225
 10
366.4504882152401
 20
-91.8522732056035
 10
367.178187799095
 20
-92.70211345975261
 10
367.8405495603183
 20
-93.63747408698478
 10
368.4220489706786
 20
-94.63643315932424
 10
368.9090564637664
 20
-95.67556950851088
 10
369.290156170536
 20
-96.73053152233479
 10
369.556415593281
 20
-97.77658826481223
 10
369.7015937056995
 20
-98.78922413864018
 10
369.7222884668627
 20
-99.74470161389371
 10
369.6180138709242
 20
-100.6206289063448
 10
369.3912144350975
 20
-101.3964702467027
 10
369.3208812231005
 20
-101.5617463452752
  0
LINE
  5
89F6
330
85AB
100
AcDbEntity
  8
0
  6
Continuous
 62
     7
370
    15
100
AcDbLine
 10
365.9584520762892
 20
-96.5991952822855
 30
0.0
 11
367.5932074871096
 21
-95.13203007293637
 31
0.0
  0
LINE
  5
89F7
330
85AB
100
AcDbEntity
  8
0
  6
Continuous
 62
     7
370
    15
100
AcDbLine
 10
367.5932074871096
 20
-95.13203007293637
 30
0.0
 11
366.2013542424251
 21
-93.07002504984223
 31
0.0
  0
LINE
  5
89F8
330
85AB
100
AcDbEntity
  8
0
  6
Continuous
 62
     7
370
    15
100
AcDbLine
 10
366.2013542424251
 20
-93.07002504984223
 30
0.0
 11
362.4959087296276
 21
-96.39560322369408
 31
0.0
  0
LINE
  5
89F9
330
85AB
100
AcDbEntity
  8
0
  6
Continuous
 62
     7
370
    15
100
AcDbLine
 10
362.4959087296276
 20
-96.39560322369408
 30
0.0
 11
363.887761933153
 21
-98.45760822302762
 31
0.0
  0
LINE
  5
89FA
330
85AB
100
AcDbEntity
  8
0
  6
Continuous
 62
     7
370
    15
100
AcDbLine
 10
363.887761933153
 20
-98.45760822302762
 30
0.0
 11
363.9967457808681
 21
-98.35979790614758
 31
0.0
  0
ARC
  5
89FB
330
85AB
100
AcDbEntity
  8
0
  6
Continuous
 62
     7
370
    15
100
AcDbCircle
 10
364.3346946128389
 20
-96.76315695774969
 30
0.0
 40
1.632014623442895
100
AcDbArc
 50
258.0490267804556
 51
5.765994665197651
  0
LINE
  5
89FC
330
85AB
100
AcDbEntity
  8
0
  6
Continuous
 62
     7
370
    15
100
AcDbLine
 10
366.7776552259165
 20
-93.92380358512122
 30
0.0
 11
362.4959087296276
 21
-96.39560322369408
 31
0.0
  0
LINE
  5
89FD
330
85AB
100
AcDbEntity
  8
0
  6
Continuous
 62
     7
370
    15
100
AcDbLine
 10
365.8305969771534
 20
-97.30113814473873
 30
0.0
 11
363.9967457808681
 21
-98.35979790614758
 31
0.0
  0
ARC
  5
89FE
330
85AB
100
AcDbEntity
  8
0
  6
Continuous
 62
     7
370
    15
100
AcDbCircle
 10
371.1679793456856
 20
-100.7859663635457
 30
0.0
 40
4.027020926379609
100
AcDbArc
 50
274.8456226632534
 51
297.3298209212791
  0
ARC
  5
89FF
330
85AB
100
AcDbEntity
  8
0
  6
Continuous
 62
     7
370
    15
100
AcDbCircle
 10
363.8965321307942
 20
-88.21936482535946
 30
0.0
 40
3.966866313048168
100
AcDbArc
 50
122.7078680735052
 51
145.3235014490375
  0
ARC
  5
8A00
330
85AB
100
AcDbEntity
  8
0
  6
Continuous
 62
     7
370
    15
100
AcDbCircle
 10
367.7648561633808
 20
-100.1985694580503
 30
0.0
 40
4.87532148068256
100
AcDbArc
 50
239.4224431714271
 51
294.204458633788
  0
LWPOLYLINE
  5
8A01
330
85AB
100
AcDbEntity
  8
0
  6
Continuous
 62
     7
370
    15
100
AcDbPolyline
 90
        3
 70
   128
 43
0.0
 10
358.3701689988969
 20
-89.32634522921651
 10
358.6063154861977
 20
-88.86339755965452
 10
358.7951090013797
 20
-88.56979059778399
  0
ARC
  5
8A02
330
85AB
100
AcDbEntity
  8
0
  6
Continuous
 62
     7
370
    15
100
AcDbCircle
 10
366.2870990243703
 20
-99.81176635089798
 30
0.0
 40
3.818928395748502
100
AcDbArc
 50
304.9986582455075
 51
6.313531732778406
  0
LWPOLYLINE
  5
8A03
330
85AB
100
AcDbEntity
  8
0
  6
Continuous
 62
     7
370
    15
100
AcDbPolyline
 90
       17
 70
   128
 43
0.0
 10
360.7281029620478
 20
-89.51634424793363
 10
360.9567515908531
 20
-89.39907880710075
 10
361.6239956775814
 20
-89.19693775178979
 10
362.3610601656404
 20
-89.15960309891628
 10
363.150668829277
 20
-89.28795178017347
 10
363.9743139850879
 20
-89.57897412885131
 10
364.8126900406795
 20
-90.02584925568618
 10
365.6461459456159
 20
-90.61810129935338
 10
366.4551468002485
 20
-91.34185221924102
 10
367.2207298154697
 20
-92.18013368503796
 10
367.9249503119815
 20
-93.11329968106077
 10
368.5513025302362
 20
-94.11947780149367
 10
369.0851042204276
 20
-95.17508176628999
 10
369.5138450125382
 20
-96.25537146940283
 10
369.827474200287
 20
-97.33502520010703
 10
370.0186411098758
 20
-98.38873468265703
 10
370.0828656630168
 20
-99.39180240388353
  0
ARC
  5
8A04
330
85AB
100
AcDbEntity
  8
0
  6
Continuous
 62
     7
370
    15
100
AcDbCircle
 10
358.9710190935772
 20
-99.45217621621276
 30
0.0
 40
16.81510558696642
100
AcDbArc
 50
2.103307911666514
 51
55.65762712994623
  0
LWPOLYLINE
  5
8A05
330
85AB
100
AcDbEntity
  8
0
  6
Continuous
 62
     7
370
    15
100
AcDbPolyline
 90
       31
 70
   128
 43
0.0
 10
372.7066963555251
 20
-104.5086692196291
 10
373.3519606549598
 20
-104.3560453676997
 10
374.1019750194678
 20
-104.0231542246347
 10
374.764802042386
 20
-103.5393034090047
 10
375.330394310156
 20
-102.9118243456297
 10
375.7901775732838
 20
-102.1502342716786
 10
376.1371824552416
 20
-101.2660780480299
 10
376.3661478439551
 20
-100.2727566651872
 10
376.4736045269561
 20
-99.18532609299777
 10
376.4579212894985
 20
-98.02027446069908
 10
376.3193378417832
 20
-96.79526121505802
 10
376.0599542822461
 20
-95.52885248027303
 10
375.6837027801441
 20
-94.24025223699945
 10
375.1962863309168
 20
-92.94899319993101
 10
374.6050938039434
 20
-91.67464442778925
 10
373.9190873314333
 20
-90.43652882192634
 10
373.1486666482565
 20
-89.25341210973193
 10
372.3055097241729
 20
-88.14323137433485
 10
371.4023975909937
 20
-87.12281446023351
 10
370.4530217183118
 20
-86.20762884850035
 10
369.4717729499881
 20
-85.41155030575206
 10
368.4735259954605
 20
-84.74664569715819
 10
367.4734135489778
 20
-84.22299239769944
 10
366.4865960048176
 20
-83.84853014233468
 10
365.5280327365458
 20
-83.62893659295744
 10
364.6122544875722
 20
-83.56753852818167
 10
363.7531434996022
 20
-83.66526704419144
 10
362.9637229841893
 20
-83.92064096313405
 10
362.2559598474968
 20
-84.32978983186916
 10
361.6405832612845
 20
-84.88651040336234
 10
361.4847110446011
 20
-85.06951521484831
  0
LWPOLYLINE
  5
8A06
330
85AB
100
AcDbEntity
  8
0
  6
Continuous
 62
     7
370
    15
100
AcDbPolyline
 90
       28
 70
   128
 43
0.0
 10
376.9284138034152
 20
-102.3914869792706
 10
376.9304019492848
 20
-102.3903381135195
 10
377.593228972203
 20
-101.9064872978895
 10
378.1588212399729
 20
-101.2790082345145
 10
378.6186045031009
 20
-100.5174181605635
 10
378.9656093850585
 20
-99.63326193691466
 10
379.194574773772
 20
-98.63994055407204
 10
379.3020314567732
 20
-97.55250998188257
 10
379.2863482193155
 20
-96.38745834958391
 10
379.1477647716001
 20
-95.16244510394282
 10
378.888381212063
 20
-93.89603636915783
 10
378.5121297099612
 20
-92.60743612588428
 10
378.0247132607337
 20
-91.31617708881583
 10
377.4335207337606
 20
-90.04182831667407
 10
376.7475142612504
 20
-88.80371271081114
 10
375.9770935780734
 20
-87.6205959986167
 10
375.13393665399
 20
-86.51041526321967
 10
374.2308245208108
 20
-85.48999834911831
 10
373.2814486481288
 20
-84.57481273738514
 10
372.3001998798052
 20
-83.77873419463688
 10
371.3019529252774
 20
-83.11382958604298
 10
370.3018404787949
 20
-82.59017628658427
 10
369.3150229346345
 20
-82.2157140312195
 10
368.3564596663628
 20
-81.99612048184227
 10
367.4406814173892
 20
-81.9347224170665
 10
366.5815704294191
 20
-82.03245093307626
 10
365.7921499140064
 20
-82.28782485201884
 10
365.4293481956634
 20
-82.47236297184511
  0
LWPOLYLINE
  5
8A07
330
85AB
100
AcDbEntity
  8
0
  6
Continuous
 62
     7
370
    15
100
AcDbPolyline
 90
       18
 70
   128
 43
0.0
 10
388.9979722378932
 20
-62.18048699056854
 10
389.2887337968746
 20
-61.93545149243815
 10
389.4065279822896
 20
-61.64632733955861
 10
389.3354476515483
 20
-61.35216137675005
 10
389.0850891152207
 20
-61.09268437403696
 10
388.6892681398836
 20
-60.90293780382521
 10
388.2014401003388
 20
-60.8085496627169
 10
387.6874912221571
 20
-60.82226637385739
 10
387.2168320964798
 20
-60.94223575070069
 10
386.8530257684898
 20
-61.15225667342824
 10
386.6452101951947
 20
-61.42396240326261
 10
386.6214482629855
 20
-61.72065953561636
 10
386.7849510348829
 20
-62.0022766684564
 10
387.1136373488982
 20
-62.2307792537043
 10
387.5631147197485
 20
-62.37530740000258
 10
388.0726790085961
 20
-62.41634196184984
 10
388.5735123143568
 20
-62.34834006571523
 10
388.9979722378932
 20
-62.18048699056854
  0
LINE
  5
8A08
330
85AB
100
AcDbEntity
  8
0
  6
Continuous
 62
     7
370
    15
100
AcDbLine
 10
387.7808909433629
 20
-61.11965161328183
 30
0.0
 11
387.160352356025
 21
-61.47788091462704
 31
0.0
  0
LINE
  5
8A09
330
85AB
100
AcDbEntity
  8
0
  6
Continuous
 62
     7
370
    15
100
AcDbLine
 10
387.160352356025
 20
-61.47788091462704
 30
0.0
 11
387.3874855092811
 21
-61.96722987367556
 31
0.0
  0
LINE
  5
8A0A
330
85AB
100
AcDbEntity
  8
0
  6
Continuous
 62
     7
370
    15
100
AcDbLine
 10
387.3874855092811
 20
-61.96722987367556
 30
0.0
 11
388.235154451061
 21
-62.09835095701513
 31
0.0
  0
LINE
  5
8A0B
330
85AB
100
AcDbEntity
  8
0
  6
Continuous
 62
     7
370
    15
100
AcDbLine
 10
388.235154451061
 20
-62.09835095701513
 30
0.0
 11
388.8556930383991
 21
-61.74012165567004
 31
0.0
  0
LINE
  5
8A0C
330
85AB
100
AcDbEntity
  8
0
  6
Continuous
 62
     7
370
    15
100
AcDbLine
 10
388.8556930383991
 20
-61.74012165567004
 30
0.0
 11
388.6285587326901
 21
-61.25077355200321
 31
0.0
  0
LINE
  5
8A0D
330
85AB
100
AcDbEntity
  8
0
  6
Continuous
 62
     7
370
    15
100
AcDbLine
 10
388.6285587326901
 20
-61.25077355200321
 30
0.0
 11
387.7808909433629
 21
-61.11965161328183
 31
0.0
  0
LWPOLYLINE
  5
8A0E
330
85AB
100
AcDbEntity
  8
0
  6
Continuous
 62
     7
370
    15
100
AcDbPolyline
 90
        3
 70
   128
 43
0.0
 10
389.5285401452784
 20
-62.39491221003246
 10
389.4684133853384
 20
-62.33145486192169
 10
389.4080225490505
 20
-62.2770968744392
  0
LINE
  5
8A0F
330
85AB
100
AcDbEntity
  8
0
  6
Continuous
 62
     7
370
    15
100
AcDbLine
 10
386.6080226807373
 20
-62.27709668435435
 30
0.0
 11
386.4875039320566
 21
-62.39491287532931
 31
0.0
  0
LINE
  5
8A10
330
85AB
100
AcDbEntity
  8
0
  6
Continuous
 62
     7
370
    15
100
AcDbLine
 10
388.6285587326901
 20
-61.87124435049131
 30
0.0
 11
388.6285587326901
 21
-61.25077355200321
 31
0.0
  0
LINE
  5
8A11
330
85AB
100
AcDbEntity
  8
0
  6
Continuous
 62
     7
370
    15
100
AcDbLine
 10
387.7808909433629
 20
-62.02808309246777
 30
0.0
 11
387.7808909433629
 21
-61.11965161328183
 31
0.0
  0
LWPOLYLINE
  5
8A12
330
85AB
100
AcDbEntity
  8
0
  6
Continuous
 62
     7
370
    15
100
AcDbPolyline
 90
       31
 70
   128
 43
0.0
 10
406.3980704599439
 20
-105.773287904561
 10
406.9821375353408
 20
-105.3296179356164
 10
407.5342652021006
 20
-104.7664838541184
 10
408.0303257065397
 20
-104.1084972984843
 10
408.4486371292774
 20
-103.3844154198516
 10
408.770916957683
 20
-102.62588772871
 10
408.9830815589088
 20
-101.8660607205132
 10
409.0758573091935
 20
-101.1381452209355
 10
409.0451902085456
 20
-100.4739540541683
 10
408.8924197364947
 20
-99.90251497491928
 10
408.6242235343518
 20
-99.44880373204515
 10
408.2523210601806
 20
-99.13264973464442
 10
407.7929691437055
 20
-98.96786831656485
 10
407.2662415386186
 20
-98.96166370543176
 10
406.69515964383
 20
-99.1143065048154
 10
406.1046822961924
 20
-99.41912371342215
 10
405.5206165378845
 20
-99.86279292202741
 10
404.9684888711248
 20
-100.4259270035255
 10
404.4724283666857
 20
-101.0839135591596
 10
404.054116943948
 20
-101.8079954377923
 10
403.7318371155424
 20
-102.5665231289339
 10
403.5196725143167
 20
-103.3263501371307
 10
403.426896764032
 20
-104.0542656367083
 10
403.4575638646797
 20
-104.7184568034755
 10
403.6103343367306
 20
-105.2898958827246
 10
403.8785305388736
 20
-105.7436071255987
 10
404.2504330130447
 20
-106.0597611229994
 10
404.7097849295199
 20
-106.224542541079
 10
405.2365125346067
 20
-106.2307471522121
 10
405.8075944293953
 20
-106.0781043528285
 10
406.3980704599439
 20
-105.773287904561
  0
LWPOLYLINE
  5
8A13
330
85AB
100
AcDbEntity
  8
0
  6
Continuous
 62
     7
370
    15
100
AcDbPolyline
 90
       28
 70
   128
 43
0.0
 10
409.0798046249743
 20
-99.73877580848699
 10
409.0616103573077
 20
-99.31537726102962
 10
408.9323104115213
 20
-98.59885319000611
 10
408.6827536531323
 20
-97.99112258399612
 10
408.3209585200697
 20
-97.51172704984705
 10
407.8585562254335
 20
-97.17606629203587
 10
407.3104061675019
 20
-96.99493571514392
 10
406.6941283631306
 20
-96.97415451362994
 10
406.0295291969414
 20
-97.11439223240725
 10
405.3379705356845
 20
-97.41113752866698
 10
404.6416795735934
 20
-97.8548562834003
 10
403.9630336530489
 20
-98.43128583342968
 10
403.3238477194229
 20
-99.12189802644951
 10
402.7446630930081
 20
-99.90449839904736
 10
402.2440981441343
 20
-100.7539325858018
 10
401.8382384809537
 20
-101.6429007178185
 10
401.5401311872581
 20
-102.5428243029688
 10
401.3593567685498
 20
-103.4247868783203
 10
401.3017249044782
 20
-104.2604366510406
 10
401.3690887392887
 20
-105.0229180480133
 10
401.5592829786392
 20
-105.6877226680041
 10
401.8661950124065
 20
-106.2334816906679
 10
402.2799598438611
 20
-106.6426563951445
 10
402.7872775081197
 20
-106.9020971300678
 10
403.3718450773426
 20
-107.0034600877667
 10
404.0148716425392
 20
-106.9434910052461
 10
404.695692077049
 20
-106.7241179982507
 10
405.1913495522492
 20
-106.4745075820046
  0
ARC
  5
8A14
330
85AB
100
AcDbEntity
  8
0
  6
Continuous
 62
     7
370
    15
100
AcDbCircle
 10
397.716557002439
 20
-81.31393307125526
 30
0.0
 40
6.915625121997043
100
AcDbArc
 50
2.605488945035826
 51
57.39451804716018
  0
ARC
  5
8A15
330
85AB
100
AcDbEntity
  8
0
  6
Continuous
 62
     7
370
    15
100
AcDbCircle
 10
398.7772166895304
 20
-80.70162726719303
 30
0.0
 40
6.915625121996709
100
AcDbArc
 50
2.605488945035484
 51
57.39451804716285
  0
ARC
  5
8A16
330
85AB
100
AcDbEntity
  8
0
  6
Continuous
 62
     7
370
    15
100
AcDbCircle
 10
375.0364450776081
 20
-77.6571273005593
 30
0.0
 40
10.85192637141701
100
AcDbArc
 50
57.06213191907453
 51
96.5561539807179
  0
ARC
  5
8A17
330
85AB
100
AcDbEntity
  8
0
  6
Continuous
 62
     7
370
    15
100
AcDbCircle
 10
402.8028986827935
 20
-114.1798526615057
 30
0.0
 40
1.753743423696264
100
AcDbArc
 50
251.7840961847871
 51
348.2106122959224
  0
LINE
  5
8A18
330
85AB
100
AcDbEntity
  8
0
  6
Continuous
 62
     7
370
    15
100
AcDbLine
 10
363.6128394397235
 20
-60.99674304970429
 30
0.0
 11
363.6128394397235
 21
-57.32372249444657
 31
0.0
  0
ARC
  5
8A19
330
85AB
100
AcDbEntity
  8
0
  6
Continuous
 62
     7
370
    15
100
AcDbCircle
 10
365.5526732919682
 20
-57.00904824893516
 30
0.0
 40
1.965190895333827
100
AcDbArc
 50
50.79667804793519
 51
189.2140942443044
  0
LINE
  5
8A1A
330
85AB
100
AcDbEntity
  8
0
  6
Continuous
 62
     7
370
    15
100
AcDbLine
 10
366.7948198180857
 20
-55.48620641119984
 30
0.0
 11
401.4430511900694
 21
-75.4882046277425
 31
0.0
  0
ARC
  5
8A1B
330
85AB
100
AcDbEntity
  8
0
  6
Continuous
 62
     7
370
    15
100
AcDbCircle
 10
403.9784209770875
 20
-81.10444743340571
 30
0.0
 40
0.6550639601497876
100
AcDbArc
 50
230.7968215018055
 51
9.213930252948577
  0
LINE
  5
8A1C
330
85AB
100
AcDbEntity
  8
0
  6
Continuous
 62
     7
370
    15
100
AcDbLine
 10
403.5643731984294
 20
-81.61206267044591
 30
0.0
 11
380.9369549199201
 21
-68.54953214204284
 31
0.0
  0
ARC
  5
8A1D
330
85AB
100
AcDbEntity
  8
0
  6
Continuous
 62
     7
370
    15
100
AcDbCircle
 10
404.9656937520315
 20
-80.47516934930326
 30
0.0
 40
0.7253466480099737
100
AcDbArc
 50
304.3501881028037
 51
6.961786649505409
  0
LINE
  5
8A1E
330
85AB
100
AcDbEntity
  8
0
  6
Continuous
 62
     7
370
    15
100
AcDbLine
 10
367.8554795051768
 20
-54.8739006071377
 30
0.0
 11
402.5037108771603
 21
-74.87589882368036
 31
0.0
  0
ARC
  5
8A1F
330
85AB
100
AcDbEntity
  8
0
  6
Continuous
 62
     7
370
    15
100
AcDbCircle
 10
403.8088614246939
 20
-113.5686581781675
 30
0.0
 40
1.807101101929966
100
AcDbArc
 50
301.5170672476019
 51
348.5994333783235
  0
ARC
  5
8A20
330
85AB
100
AcDbEntity
  8
0
  6
Continuous
 62
     7
370
    15
100
AcDbCircle
 10
366.5373394200411
 20
-56.71386428660028
 30
0.0
 40
2.263395596395686
100
AcDbArc
 50
54.38239192188527
 51
114.307147792824
  0
ARC
  5
8A21
330
85AB
100
AcDbEntity
  8
0
  6
Continuous
 62
     7
370
    15
100
AcDbCircle
 10
399.7298260268435
 20
-80.12734040692715
 30
0.0
 40
7.025371240462428
100
AcDbArc
 50
2.875181913212
 51
52.18829957744902
  0
ARC
  5
8A22
330
85AB
100
AcDbEntity
  8
0
  6
Continuous
 62
     7
370
    15
100
AcDbCircle
 10
404.9442251325543
 20
-80.46545603550626
 30
0.0
 40
0.7455801995144729
100
AcDbArc
 50
305.291136755139
 51
6.020837997163222
  0
ARC
  5
8A23
330
85AB
100
AcDbEntity
  8
0
  6
Continuous
 62
     7
370
    15
100
AcDbCircle
 10
406.0263547563591
 20
-79.86286278496857
 30
0.0
 40
0.7253466478715913
100
AcDbArc
 50
304.3501880961558
 51
6.961786656155225
  0
ARC
  5
8A24
330
85AB
100
AcDbEntity
  8
0
  6
Continuous
 62
     7
370
    15
100
AcDbCircle
 10
404.8695224288743
 20
-112.9563516137663
 30
0.0
 40
1.807101101929401
100
AcDbArc
 50
301.5170672475957
 51
348.5994333783322
  0
ARC
  5
8A25
330
85AB
100
AcDbEntity
  8
0
  6
Continuous
 62
     7
370
    15
100
AcDbCircle
 10
367.5648082477792
 20
-55.92294932632271
 30
0.0
 40
2.087406190214948
100
AcDbArc
 50
65.10083965021688
 51
115.4949343642488
  0
ARC
  5
8A26
330
85AB
100
AcDbEntity
  8
0
  6
Continuous
 62
     7
370
    15
100
AcDbCircle
 10
399.1865514297507
 20
-80.46536933518126
 30
0.0
 40
7.952047548208679
100
AcDbArc
 50
7.825104363607961
 51
41.12897046481032
  0
ARC
  5
8A27
330
85AB
100
AcDbEntity
  8
0
  6
Continuous
 62
     7
370
    15
100
AcDbCircle
 10
405.039469388548
 20
-113.1242926021938
 30
0.0
 40
2.026358814058836
100
AcDbArc
 50
261.0373458495084
 51
357.9662141274493
  0
ARC
  5
8A28
330
85AB
100
AcDbEntity
  8
0
  6
Continuous
 62
     7
370
    15
100
AcDbCircle
 10
367.3506647916593
 20
-55.23329423097599
 30
0.0
 40
1.862079397999283
100
AcDbArc
 50
91.42884515633925
 51
162.3436121256362
  0
LINE
  5
8A29
330
85AB
100
AcDbEntity
  8
0
  6
Continuous
 62
     7
370
    15
100
AcDbLine
 10
405.6856938897006
 20
-82.26525523552931
 30
0.0
 11
405.6856938897006
 21
-80.99985563104624
 31
0.0
  0
LINE
  5
8A2A
330
85AB
100
AcDbEntity
  8
0
  6
Continuous
 62
     7
370
    15
100
AcDbLine
 10
405.6856938897006
 20
-80.99985563104624
 30
0.0
 11
405.5945645006859
 21
-80.94724775455825
 31
0.0
  0
LINE
  5
8A2B
330
85AB
100
AcDbEntity
  8
0
  6
Continuous
 62
     7
370
    15
100
AcDbLine
 10
394.7255363262552
 20
-78.75473257535995
 30
0.0
 11
394.7255363262552
 21
-78.95771989305749
 31
0.0
  0
LINE
  5
8A2C
330
85AB
100
AcDbEntity
  8
0
  6
Continuous
 62
     7
370
    15
100
AcDbLine
 10
402.1501594042487
 20
-83.0408762451523
 30
0.0
 11
394.7255363262552
 21
-78.75473257535995
 31
0.0
  0
LINE
  5
8A2D
330
85AB
100
AcDbEntity
  8
0
  6
Continuous
 62
     7
370
    15
100
AcDbLine
 10
402.1501594042487
 20
-83.24494494108112
 30
0.0
 11
402.1501594042487
 21
-83.0408762451523
 31
0.0
  0
ARC
  5
8A2E
330
85AB
100
AcDbEntity
  8
0
  6
Continuous
 62
     7
370
    15
100
AcDbCircle
 10
394.8938042068768
 20
-84.14513839341936
 30
0.0
 40
4.183386252297667
100
AcDbArc
 50
26.49929755880808
 51
50.60939905418245
  0
LINE
  5
8A2F
330
85AB
100
AcDbEntity
  8
0
  6
Continuous
 62
     7
370
    15
100
AcDbLine
 10
402.1501594042487
 20
-83.0408762451523
 30
0.0
 11
405.6856938897006
 21
-80.99985563104624
 31
0.0
  0
LINE
  5
8A30
330
85AB
100
AcDbEntity
  8
0
  6
Continuous
 62
     7
370
    15
100
AcDbLine
 10
394.7255363262552
 20
-78.75473257535995
 30
0.0
 11
396.6701655747675
 21
-77.63212200563166
 31
0.0
  0
LINE
  5
8A31
330
85AB
100
AcDbEntity
  8
0
  6
Continuous
 62
     7
370
    15
100
AcDbLine
 10
389.4980261562288
 20
-62.42463558421426
 30
0.0
 11
389.4080222197783
 21
-62.32971824694991
 31
0.0
  0
LWPOLYLINE
  5
8A32
330
85AB
100
AcDbEntity
  8
0
  6
Continuous
 62
     7
370
    15
100
AcDbPolyline
 90
        3
 70
   128
 43
0.0
 10
386.6080223514651
 20
-62.32971805686512
 10
386.5905839282576
 20
-62.34622949016219
 10
386.518017591834
 20
-62.42463567925662
  0
LINE
  5
8A33
330
85AB
100
AcDbEntity
  8
0
  6
Continuous
 62
     7
370
    15
100
AcDbLine
 10
401.2309181989798
 20
-83.77560912253674
 30
0.0
 11
404.7664526844318
 21
-81.73458850843068
 31
0.0
  0
LINE
  5
8A34
330
85AB
100
AcDbEntity
  8
0
  6
Continuous
 62
     7
370
    15
100
AcDbLine
 10
404.7664526844318
 20
-81.73458850843068
 30
0.0
 11
405.8271123715228
 21
-82.34689431249282
 31
0.0
  0
LINE
  5
8A35
330
85AB
100
AcDbEntity
  8
0
  6
Continuous
 62
     7
370
    15
100
AcDbLine
 10
405.5442701395223
 20
-82.5101756574856
 30
0.0
 11
405.8271123715228
 21
-82.34689431249282
 31
0.0
  0
LINE
  5
8A36
330
85AB
100
AcDbEntity
  8
0
  6
Continuous
 62
     7
370
    15
100
AcDbLine
 10
405.5442701395223
 20
-82.5101756574856
 30
0.0
 11
407.3120380407927
 21
-83.53068634470827
 31
0.0
  0
LINE
  5
8A37
330
85AB
100
AcDbEntity
  8
0
  6
Continuous
 62
     7
370
    15
100
AcDbLine
 10
407.3120380407927
 20
-83.53068634470827
 30
0.0
 11
398.7560453762526
 21
-88.46995577464133
 31
0.0
  0
LINE
  5
8A38
330
85AB
100
AcDbEntity
  8
0
  6
Continuous
 62
     7
370
    15
100
AcDbLine
 10
398.7560453762526
 20
-88.46995577464133
 30
0.0
 11
398.1550049747068
 21
-88.12298253636206
 31
0.0
  0
LINE
  5
8A39
330
85AB
100
AcDbEntity
  8
0
  6
Continuous
 62
     7
370
    15
100
AcDbLine
 10
398.2417003835493
 20
-82.04997040894148
 30
0.0
 11
401.2309181989798
 21
-83.77560912253674
 31
0.0
  0
LINE
  5
8A3A
330
85AB
100
AcDbEntity
  8
0
  6
Continuous
 62
     7
370
    15
100
AcDbLine
 10
398.7560453762526
 20
-117.8654267789698
 30
0.0
 11
398.7560453762526
 21
-88.46995577464133
 31
0.0
  0
LINE
  5
8A3B
330
85AB
100
AcDbEntity
  8
0
  6
Continuous
 62
     7
370
    15
100
AcDbLine
 10
398.1550049747069
 20
-117.5184535406905
 30
0.0
 11
398.7560453762526
 21
-117.8654267789698
 31
0.0
  0
LINE
  5
8A3C
330
85AB
100
AcDbEntity
  8
0
  6
Continuous
 62
     7
370
    15
100
AcDbLine
 10
407.3120380407928
 20
-112.9261573490367
 30
0.0
 11
398.7560453762526
 21
-117.8654267789698
 31
0.0
  0
LINE
  5
8A3D
330
85AB
100
AcDbEntity
  8
0
  6
Continuous
 62
     7
370
    15
100
AcDbLine
 10
407.3120380407927
 20
-83.53068634470827
 30
0.0
 11
407.3120380407927
 21
-96.85782893157494
 31
0.0
  0
LINE
  5
8A3E
330
85AB
100
AcDbEntity
  8
0
  6
Continuous
 62
     7
370
    15
100
AcDbLine
 10
407.3120380407928
 20
-105.0117128132681
 30
0.0
 11
407.3120380407928
 21
-112.9261573490367
 31
0.0
  0
LWPOLYLINE
  5
8A3F
330
85AB
100
AcDbEntity
  8
0
  6
Continuous
 62
     7
370
    15
100
AcDbPolyline
 90
       19
 70
   128
 43
0.0
 10
405.7484624009345
 20
-95.95519907795213
 10
405.4234917596692
 20
-95.80746996128931
 10
404.8416031495047
 20
-95.69984256166771
 10
404.2004797779362
 20
-95.75351442956884
 10
403.5207314538854
 20
-95.96676581088951
 10
402.8242034157713
 20
-96.33274090108367
 10
402.1332822255981
 20
-96.83967820028806
 10
401.4701779554421
 20
-97.47127927047
 10
400.8561997884926
 20
-98.20725163795899
 10
400.3110829865648
 20
-99.0239345912533
 10
399.8523487848381
 20
-99.89507935588358
 10
399.4947393606683
 20
-100.7926923947404
 10
399.2497502669867
 20
-101.6879167406918
 10
399.1252550619306
 20
-102.5519817795125
 10
399.1252550619306
 20
-103.3571173027974
 10
399.2497502669867
 20
-104.0774462792847
 10
399.4947393606683
 20
-104.6898122384813
 10
399.8523487848382
 20
-105.1745382247396
 10
400.2489097995663
 20
-105.4817347621438
  0
LINE
  5
8A40
330
85AB
100
AcDbEntity
  8
0
  6
Continuous
 62
     7
370
    15
100
AcDbLine
 10
405.8271123715228
 20
-82.6734583709368
 30
0.0
 11
405.8271123715228
 21
-82.34689431249282
 31
0.0
  0
LINE
  5
8A41
330
85AB
100
AcDbEntity
  8
0
  6
Continuous
 62
     8
370
     0
100
AcDbLine
 10
405.650337952156
 20
-74.6919887356303
 30
0.0
 11
410.2465321246989
 21
-72.03866231746207
 31
0.0
  0
ARC
  5
8A42
330
85AB
100
AcDbEntity
  8
0
  6
Continuous
 62
     8
370
     0
100
AcDbCircle
 10
407.7622045559399
 20
-75.92247804534276
 30
0.0
 40
4.610413005038637
100
AcDbArc
 50
2.605463435818283
 51
57.39451617009406
  0
LINE
  5
8A43
330
85AB
100
AcDbEntity
  8
0
  6
Continuous
 62
     8
370
     0
100
AcDbLine
 10
407.7716573263381
 20
-78.36622318093629
 30
0.0
 11
412.3678514988811
 21
-75.71289676276808
 31
0.0
  0
LINE
  5
8A44
330
85AB
100
AcDbEntity
  8
0
  6
Continuous
 62
     8
370
     0
100
AcDbLine
 10
412.3678514988812
 20
-113.5187352494948
 30
0.0
 11
412.3678514988811
 21
-75.71289676276808
 31
0.0
  0
LINE
  5
8A45
330
85AB
100
AcDbEntity
  8
0
  6
Continuous
 62
     8
370
     0
100
AcDbLine
 10
407.7716573263383
 20
-116.172061667663
 30
0.0
 11
412.3678514988812
 21
-113.5187352494948
 31
0.0
  0
LINE
  5
8A46
330
85AB
100
AcDbEntity
  8
0
  6
Continuous
 62
     8
370
     0
100
AcDbLine
 10
365.8402253094504
 20
-51.71009989025524
 30
0.0
 11
370.4364194819934
 21
-49.05677347208709
 31
0.0
  0
LINE
  5
8A47
330
85AB
100
AcDbEntity
  8
0
  6
Continuous
 62
     8
370
     0
100
AcDbLine
 10
410.2465321246989
 20
-72.03866231746207
 30
0.0
 11
370.4364194819934
 21
-49.05677347208709
 31
0.0
  0
ARC
  5
8A48
330
85AB
100
AcDbEntity
  8
0
  6
Continuous
 62
     8
370
     0
100
AcDbCircle
 10
412.275192201668
 20
-75.4918297749671
 30
0.0
 40
0.2397005599814901
100
AcDbArc
 50
292.7407893091396
 51
355.9561366372988
  0
ARC
  5
8A49
330
85AB
100
AcDbEntity
  8
0
  6
Continuous
 62
     8
370
     0
100
AcDbCircle
 10
410.392998876439
 20
-72.24312457066301
 30
0.0
 40
0.251510083991301
100
AcDbArc
 50
65.70701056867563
 51
125.6159586132478
  0
ARC
  5
8A4A
330
85AB
100
AcDbEntity
  8
0
  6
Continuous
 62
     8
370
     0
100
AcDbCircle
 10
412.2640700877914
 20
-113.2896830441936
 30
0.0
 40
0.2514666857480768
100
AcDbArc
 50
294.3748354358834
 51
354.3059178236859
  0
ARC
  5
8A4B
330
85AB
100
AcDbEntity
  8
0
  6
Continuous
 62
     8
370
     0
100
AcDbCircle
 10
370.5828778897849
 20
-49.26121164842957
 30
0.0
 40
0.2514856519944015
100
AcDbArc
 50
65.6925349122125
 51
125.6176076472051
  0
ARC
  5
8A4C
330
85AB
100
AcDbEntity
  8
0
  6
Continuous
 62
     8
370
     0
100
AcDbCircle
 10
410.8977996200879
 20
-113.680975080484
 30
0.0
 40
1.478977447124693
100
AcDbArc
 50
305.0143383475393
 51
6.297866473908331
  0
LINE
  5
8A4D
330
85AB
100
AcDbEntity
  8
0
  6
Continuous
 62
     8
370
     0
100
AcDbLine
 10
405.6503379521562
 20
-116.5805349928446
 30
0.0
 11
407.0645517463369
 21
-115.7641267472022
 31
0.0
  0
ARC
  5
8A4E
330
85AB
100
AcDbEntity
  8
0
  6
Continuous
 62
     8
370
     0
100
AcDbCircle
 10
369.5576589448332
 20
-50.28341659381269
 30
0.0
 40
1.508931221012705
100
AcDbArc
 50
54.38239188133056
 51
114.3071319471847
  0
LINE
  5
8A4F
330
85AB
100
AcDbEntity
  8
0
  6
Continuous
 62
     8
370
     0
100
AcDbLine
 10
364.4260115152696
 20
-53.34331448179458
 30
0.0
 11
365.8404544829391
 21
-52.52677393711312
 31
0.0
  0
ARC
  5
8A50
330
85AB
100
AcDbEntity
  8
0
  6
Continuous
 62
     8
370
     0
100
AcDbCircle
 10
389.4127831447686
 20
-86.51537354989108
 30
0.0
 40
4.610413005038013
100
AcDbArc
 50
2.605463435813023
 51
57.39451617009588
  0
ARC
  5
8A51
330
85AB
100
AcDbEntity
  8
0
  6
Continuous
 62
     8
370
     0
100
AcDbCircle
 10
393.6648766767571
 20
-85.62343039830796
 30
0.0
 40
0.7685165806104616
100
AcDbArc
 50
242.6098262699984
 51
297.3901121209399
  0
ARC
  5
8A52
330
85AB
100
AcDbEntity
  8
0
  6
Continuous
 62
     8
370
     0
100
AcDbCircle
 10
389.4732884156982
 20
-86.48044000973528
 30
0.0
 40
3.8420057060331
100
AcDbArc
 50
2.605422935686994
 51
57.39454023844106
  0
ARC
  5
8A53
330
85AB
100
AcDbEntity
  8
0
  6
Continuous
 62
     8
370
     0
100
AcDbCircle
 10
392.3111663715105
 20
-83.27886132509047
 30
0.0
 40
0.7684034832086765
100
AcDbArc
 50
122.6055151837164
 51
177.3944846706578
  0
LINE
  5
8A54
330
85AB
100
AcDbEntity
  8
0
  6
Continuous
 62
     8
370
     0
100
AcDbLine
 10
398.6146249187967
 20
-83.65246546897896
 30
0.0
 11
394.0184300877092
 21
-86.30579226731683
 31
0.0
  0
LINE
  5
8A55
330
85AB
100
AcDbEntity
  8
0
  6
Continuous
 62
     8
370
     0
100
AcDbLine
 10
396.4933055446146
 20
-79.97823102367298
 30
0.0
 11
391.8971107135271
 21
-82.63155782201082
 31
0.0
  0
ARC
  5
8A56
330
85AB
100
AcDbEntity
  8
0
  6
Continuous
 62
     8
370
     0
100
AcDbCircle
 10
353.8036960921017
 20
-98.91408108774493
 30
0.0
 40
3.841989352285844
100
AcDbArc
 50
182.6053328891695
 51
237.3946919041321
  0
LINE
  5
8A57
330
85AB
100
AcDbEntity
  8
0
  6
Continuous
 62
     8
370
     0
100
AcDbLine
 10
349.9656780380949
 20
-61.28288394834473
 30
0.0
 11
349.965678038095
 21
-99.08872243507142
 31
0.0
  0
ARC
  5
8A58
330
85AB
100
AcDbEntity
  8
0
  6
Continuous
 62
     8
370
     0
100
AcDbCircle
 10
351.0433634745095
 20
-61.10806491671852
 30
0.0
 40
1.091772684068952
100
AcDbArc
 50
50.7966938380164
 51
189.2140948842179
  0
LINE
  5
8A59
330
85AB
100
AcDbEntity
  8
0
  6
Continuous
 62
     8
370
     0
100
AcDbLine
 10
391.5435572649819
 20
-83.24393035628506
 30
0.0
 11
351.7334446222762
 21
-60.26204151091
 31
0.0
  0
LINE
  5
8A5A
330
85AB
100
AcDbEntity
  8
0
  6
Continuous
 62
     8
370
     0
100
AcDbLine
 10
393.3113225320744
 20
-124.1116303738739
 30
0.0
 11
393.3113225320744
 21
-86.30579188714717
 31
0.0
  0
ARC
  5
8A5B
330
85AB
100
AcDbEntity
  8
0
  6
Continuous
 62
     8
370
     0
100
AcDbCircle
 10
392.2336408184361
 20
-124.2864537012281
 30
0.0
 40
1.091769697187825
100
AcDbArc
 50
230.7964030572652
 51
9.214348697489774
  0
LINE
  5
8A5C
330
85AB
100
AcDbEntity
  8
0
  6
Continuous
 62
     8
370
     0
100
AcDbLine
 10
351.7334446222765
 20
-102.1505824448842
 30
0.0
 11
391.5435572649822
 21
-125.1324712902592
 31
0.0
  0
LINE
  5
8A5D
330
85AB
100
AcDbEntity
  8
0
  6
Continuous
 62
     8
370
     0
100
AcDbLine
 10
394.0184300877092
 20
-86.30579226731683
 30
0.0
 11
394.0184300877094
 21
-124.1116307540435
 31
0.0
  0
ARC
  5
8A5E
330
85AB
100
AcDbEntity
  8
0
  6
Continuous
 62
     8
370
     0
100
AcDbCircle
 10
393.6648766767571
 20
-123.4292688850342
 30
0.0
 40
0.7685165806108804
100
AcDbArc
 50
242.6098262700144
 51
297.3901121209333
  0
LINE
  5
8A5F
330
85AB
100
AcDbEntity
  8
0
  6
Continuous
 62
     8
370
     0
100
AcDbLine
 10
352.0869980708214
 20
-59.64966897663581
 30
0.0
 11
391.8971107135271
 21
-82.63155782201082
 31
0.0
  0
ARC
  5
8A60
330
85AB
100
AcDbEntity
  8
0
  6
Continuous
 62
     8
370
     0
100
AcDbCircle
 10
352.501053728805
 20
-60.29697247971555
 30
0.0
 40
0.7684034832088249
100
AcDbArc
 50
122.605515183729
 51
177.3944846706476
  0
LINE
  5
8A61
330
85AB
100
AcDbEntity
  8
0
  6
Continuous
 62
     8
370
     0
100
AcDbLine
 10
398.6146249187968
 20
-121.4583039557056
 30
0.0
 11
394.0184300877094
 21
-124.1116307540435
 31
0.0
  0
LINE
  5
8A62
330
85AB
100
AcDbEntity
  8
0
  6
Continuous
 62
     8
370
     0
100
AcDbLine
 10
356.683192901909
 20
-56.99634217829797
 30
0.0
 11
352.0869980708214
 21
-59.64966897663581
 31
0.0
  0
ARC
  5
8A63
330
85AB
100
AcDbEntity
  8
0
  6
Continuous
 62
     8
370
     0
100
AcDbCircle
 10
392.5163358722504
 20
-124.2594194287717
 30
0.0
 40
1.509347052368446
100
AcDbArc
 50
305.712768038141
 51
5.619156049096298
  0
ARC
  5
8A64
330
85AB
100
AcDbEntity
  8
0
  6
Continuous
 62
     8
370
     0
100
AcDbCircle
 10
391.7804935447895
 20
-125.1631632234142
 30
0.0
 40
0.2389158752568022
100
AcDbArc
 50
172.6191959241449
 51
236.0828121003051
  0
LWPOLYLINE
  5
8A65
330
85AB
100
AcDbEntity
  8
0
  6
Continuous
 62
     8
370
     0
100
AcDbPolyline
 90
        6
 70
   128
 43
0.0
 10
351.7334446222765
 20
-102.1505824448842
 10
351.7402381674208
 20
-102.2263145398271
 10
351.7603573606841
 20
-102.291287715478
 10
351.7930290708142
 20
-102.3430098623971
 10
351.8369981119787
 20
-102.3794983360491
 10
351.8370185268584
 20
-102.3795048018992
  0
ARC
  5
8A66
330
85AB
100
AcDbEntity
  8
0
  6
Continuous
 62
     8
370
     0
100
AcDbCircle
 10
350.0583356973661
 20
-61.06181467262113
 30
0.0
 40
0.2397020368928753
100
AcDbArc
 50
184.04547983327
 51
247.2597831750364
  0
ARC
  5
8A67
330
85AB
100
AcDbEntity
  8
0
  6
Continuous
 62
     8
370
     0
100
AcDbCircle
 10
351.2115753483557
 20
-60.84299792587674
 30
0.0
 40
1.479999636522226
100
AcDbArc
 50
53.73633380610644
 51
114.9730719445368
  0
ARC
  5
8A68
330
85AB
100
AcDbEntity
  8
0
  6
Continuous
 62
     8
370
     0
100
AcDbCircle
 10
350.069460270329
 20
-98.85966641111304
 30
0.0
 40
0.2514705029205238
100
AcDbArc
 50
185.6948698267994
 51
245.6253532238012
  0
ARC
  5
8A69
330
85AB
100
AcDbEntity
  8
0
  6
Continuous
 62
     8
370
     0
100
AcDbCircle
 10
366.7368441758185
 20
-100.3700596267342
 30
0.0
 40
2.885121644804704
100
AcDbArc
 50
254.5710383381963
 51
310.0697267888078
  0
ARC
  5
8A6A
330
85AB
100
AcDbEntity
  8
0
  6
Continuous
 62
     8
370
     0
100
AcDbCircle
 10
362.0479570642792
 20
-92.32743738195938
 30
0.0
 40
2.869533649910689
100
AcDbArc
 50
80.77772359716587
 51
169.6223676792115
  0
LWPOLYLINE
  5
8A6B
330
85AB
100
AcDbEntity
  8
0
  6
Continuous
 62
     8
370
     0
100
AcDbPolyline
 90
        3
 70
   128
 43
0.0
 10
369.3208812231005
 20
-101.5617463452752
 10
369.0472065891955
 20
-102.0540413276872
 10
368.5940528936296
 20
-102.5779325134302
  0
ARC
  5
8A6C
330
85AB
100
AcDbEntity
  8
0
  6
Continuous
 62
     8
370
     0
100
AcDbCircle
 10
370.1551079536525
 20
-99.82022537348587
 30
0.0
 40
5.369420436940092
100
AcDbArc
 50
302.206156960995
 51
7.307117516955874
  0
LWPOLYLINE
  5
8A6D
330
85AB
100
AcDbEntity
  8
0
  6
Continuous
 62
     8
370
     0
100
AcDbPolyline
 90
       20
 70
   128
 43
0.0
 10
361.7530126138654
 20
-84.88149837714113
 10
362.4491935990238
 20
-84.53293078015022
 10
363.2577728205351
 20
-84.32132901854573
 10
364.1336053236976
 20
-84.27092543848858
 10
365.0628786622342
 20
-84.38251746345605
 10
366.0309376586924
 20
-84.65434299673234
 10
367.0225155329879
 20
-85.08211803075145
 10
368.0219743740462
 20
-85.6590933384297
 10
369.0135520837055
 20
-86.37616965418138
 10
369.981611193351
 20
-87.22204131270516
 10
370.9108846656544
 20
-88.18336552397133
 10
371.7867172511351
 20
-89.24498383539148
 10
372.595295978738
 20
-90.39015100952099
 10
373.3238701096996
 20
-91.60081105144982
 10
373.9609493594446
 20
-92.8578667742974
 10
374.4964863144147
 20
-94.14149803581606
 10
374.9220351412951
 20
-95.43145716333203
 10
375.2308852715495
 20
-96.7074016437162
 10
375.4181647929076
 20
-97.94921388832856
 10
375.4809214503404
 20
-99.13730046756496
  0
ARC
  5
8A6E
330
85AB
100
AcDbEntity
  8
0
  6
Continuous
 62
     8
370
     0
100
AcDbCircle
 10
366.8691690710175
 20
-100.6067516776016
 30
0.0
 40
4.968719539218145
100
AcDbArc
 50
305.6302688499323
 51
5.587793992698325
  0
LWPOLYLINE
  5
8A6F
330
85AB
100
AcDbEntity
  8
0
  6
Continuous
 62
     8
370
     0
100
AcDbPolyline
 90
       21
 70
   128
 43
0.0
 10
358.7951090013797
 20
-88.56979059778399
 10
359.0814293361991
 20
-88.21138247599046
 10
359.6592201531628
 20
-87.7000323659876
 10
360.3293772703631
 20
-87.33847498757461
 10
361.0799415195353
 20
-87.13316018823491
 10
361.8975190932035
 20
-87.08775218438231
 10
362.7675203905432
 20
-87.2030605982356
 10
363.6744201836192
 20
-87.4770294304586
 10
364.6020347823069
 20
-87.90476930629706
 10
365.5338108883768
 20
-88.47864513935161
 10
366.4531209115469
 20
-89.1884192372423
 10
367.3435600142145
 20
-90.02142430280787
 10
368.1892381759469
 20
-90.96279439730404
 10
368.9750635322544
 20
-91.99573193134924
 10
369.6870140242011
 20
-93.10180288915268
 10
370.3123850111385
 20
-94.26127140895204
 10
370.8400154807459
 20
-95.4534448218244
 10
371.2604908807368
 20
-96.65704930132222
 10
371.5663070964429
 20
-97.85060589698648
 10
371.7520074280709
 20
-99.01281987849387
 10
371.8142780796568
 20
-100.1229430872646
  0
LWPOLYLINE
  5
8A70
330
85AB
100
AcDbEntity
  8
0
  6
Continuous
 62
     8
370
     0
100
AcDbPolyline
 90
       47
 70
   128
 43
0.0
 10
371.249660992826
 20
-100.0653790103011
 10
371.187751882175
 20
-101.0747955043145
 10
371.0031770031112
 20
-101.9939307075148
 10
370.699375275055
 20
-102.8056609542961
 10
370.2820049124193
 20
-103.494864669602
 10
369.7588426672986
 20
-104.0487048903435
 10
369.1396323642332
 20
-104.456864262645
 10
368.4359090688249
 20
-104.7117416380009
 10
367.6607817680494
 20
-104.8085851746725
 10
366.8286903673336
 20
-104.7455923613609
 10
365.9551343702169
 20
-104.5239358984034
 10
365.0563867407643
 20
-104.147750606638
 10
364.1491893267298
 20
-103.6240366870801
 10
363.2504417795951
 20
-102.9625501008686
 10
362.3768857927685
 20
-102.1756202838583
 10
361.5447941348086
 20
-101.2779006667355
 10
360.7696671633054
 20
-100.2861143880693
 10
360.0659440325331
 20
-99.21873548546068
 10
359.4467337294677
 20
-98.09565111484628
 10
358.9235708258026
 20
-96.9377802428647
 10
358.5062011217113
 20
-95.76669134425185
 10
358.2023990643829
 20
-94.60419889835137
 10
358.0178245145912
 20
-93.47195826594944
 10
357.9559150746682
 20
-92.39106284416133
 10
358.0178245145912
 20
-91.38164654023277
 10
358.2023990643829
 20
-90.46251418879925
 10
358.5062011217112
 20
-89.65078413210273
 10
358.9235708258026
 20
-88.96158003662717
 10
359.4467337294677
 20
-88.40774019605536
 10
360.065944032533
 20
-87.9995808237538
 10
360.7696671633054
 20
-87.74470487428135
 10
361.5447941348085
 20
-87.64786114752488
 10
362.3768857927685
 20
-87.71085258841444
 10
363.2504417795951
 20
-87.93250752450606
 10
364.1491893267298
 20
-88.30869581060182
 10
365.0563867407643
 20
-88.83240973015975
 10
365.9551343702169
 20
-89.49389332204083
 10
366.8286903673335
 20
-90.28082466591707
 10
367.6607817680494
 20
-91.17854565546193
 10
368.4359090688249
 20
-92.17033212421296
 10
369.1396323642332
 20
-93.23770960093819
 10
369.7588426672986
 20
-94.36079397155257
 10
370.2820049124193
 20
-95.5186644633645
 10
370.699375275055
 20
-96.68975374214699
 10
371.0031770031112
 20
-97.85224599796265
 10
371.187751882175
 20
-98.98448377859785
 10
371.249660992826
 20
-100.0653790103011
  0
LINE
  5
8A71
330
85AB
100
AcDbEntity
  8
0
  6
Continuous
 62
     8
370
     0
100
AcDbLine
 10
404.6250328855205
 20
-80.99955781638013
 30
0.0
 11
405.6856925726115
 21
-80.38725201231796
 31
0.0
  0
LINE
  5
8A72
330
85AB
100
AcDbEntity
  8
0
  6
Continuous
 62
     8
370
     0
100
AcDbLine
 10
401.4430511900694
 20
-75.4882046277425
 30
0.0
 11
403.5290910178697
 21
-74.2839594682323
 31
0.0
  0
LINE
  5
8A73
330
85AB
100
AcDbEntity
  8
0
  6
Continuous
 62
     8
370
     0
100
AcDbLine
 10
366.7948198180857
 20
-55.48620641119984
 30
0.0
 11
368.8808596458862
 21
-54.28196125168958
 31
0.0
  0
LINE
  5
8A74
330
85AB
100
AcDbEntity
  8
0
  6
Continuous
 62
     8
370
     0
100
AcDbLine
 10
405.6856925726115
 20
-80.38725201231796
 30
0.0
 11
406.7463535767915
 21
-79.77494544791648
 31
0.0
  0
LINE
  5
8A75
330
85AB
100
AcDbEntity
  8
0
  6
Continuous
 62
     7
370
    15
100
AcDbLine
 10
463.7808539173741
 20
-87.23608959594982
 30
0.0
 11
463.7808539173741
 21
-87.33608960069957
 31
0.0
  0
LINE
  5
8A76
330
85AB
100
AcDbEntity
  8
0
  6
Continuous
 62
     7
370
    15
100
AcDbLine
 10
479.2808541297156
 20
-87.33608960069957
 30
0.0
 11
479.2808541297156
 21
-87.23608959594982
 31
0.0
  0
ARC
  5
8A77
330
85AB
100
AcDbEntity
  8
0
  6
Continuous
 62
     7
370
    15
100
AcDbCircle
 10
463.9808540092629
 20
-87.33608960993901
 30
0.0
 40
0.2000000000000099
100
AcDbArc
 50
180.0
 51
270.0
  0
ARC
  5
8A78
330
85AB
100
AcDbEntity
  8
0
  6
Continuous
 62
     7
370
    15
100
AcDbCircle
 10
479.0808540092629
 20
-87.33608960993901
 30
0.0
 40
0.1999999999999957
100
AcDbArc
 50
270.0
 51
0.0
  0
ARC
  5
8A79
330
85AB
100
AcDbEntity
  8
0
  6
Continuous
 62
     7
370
    15
100
AcDbCircle
 10
460.7453394862434
 20
-82.936089609939
 30
0.0
 40
0.5000000000000177
100
AcDbArc
 50
90.0
 51
200.0310126808959
  0
ARC
  5
8A7A
330
85AB
100
AcDbEntity
  8
0
  6
Continuous
 62
     7
370
    15
100
AcDbCircle
 10
482.3163685322829
 20
-82.936089609939
 30
0.0
 40
0.5
100
AcDbArc
 50
339.9689873190972
 51
90.0
  0
LINE
  5
8A7B
330
85AB
100
AcDbEntity
  8
0
  6
Continuous
 62
     7
370
    15
100
AcDbLine
 10
460.2755862488586
 20
-83.10735402524712
 30
0.0
 11
461.6610026187439
 21
-86.90735397290679
 31
0.0
  0
LINE
  5
8A7C
330
85AB
100
AcDbEntity
  8
0
  6
Continuous
 62
     7
370
    15
100
AcDbLine
 10
481.4007054283459
 20
-86.90735397290679
 30
0.0
 11
482.7861222638924
 21
-83.10735402524712
 31
0.0
  0
ARC
  5
8A7D
330
85AB
100
AcDbEntity
  8
0
  6
Continuous
 62
     7
370
    15
100
AcDbCircle
 10
462.1307561529101
 20
-86.73608960993901
 30
0.0
 40
0.5000000000000153
100
AcDbArc
 50
200.0310126808982
 51
270.0
  0
ARC
  5
8A7E
330
85AB
100
AcDbEntity
  8
0
  6
Continuous
 62
     7
370
    15
100
AcDbCircle
 10
480.9309518656162
 20
-86.73608960993901
 30
0.0
 40
0.5000000000000153
100
AcDbArc
 50
270.0
 51
339.968987319104
  0
ARC
  5
8A7F
330
85AB
100
AcDbEntity
  8
0
  6
Continuous
 62
     7
370
    15
100
AcDbCircle
 10
463.5308540092632
 20
-62.23608960993901
 30
0.0
 40
0.5
100
AcDbArc
 50
90.0
 51
179.9999999999984
  0
ARC
  5
8A80
330
85AB
100
AcDbEntity
  8
0
  6
Continuous
 62
     7
370
    15
100
AcDbCircle
 10
479.5308540092632
 20
-62.23608960993901
 30
0.0
 40
0.5
100
AcDbArc
 50
0.0000000000016284
 51
90.0
  0
LINE
  5
8A81
330
85AB
100
AcDbEntity
  8
0
  6
Continuous
 62
     7
370
    15
100
AcDbLine
 10
480.0308537869889
 20
-63.13608903333785
 30
0.0
 11
480.0308537869889
 21
-62.23608869955184
 31
0.0
  0
LINE
  5
8A82
330
85AB
100
AcDbEntity
  8
0
  6
Continuous
 62
     7
370
    15
100
AcDbLine
 10
463.0308537944395
 20
-62.23608869955184
 30
0.0
 11
463.0308537944395
 21
-63.13608903333785
 31
0.0
  0
LINE
  5
8A83
330
85AB
100
AcDbEntity
  8
0
  6
Continuous
 62
     7
370
    15
100
AcDbLine
 10
483.0308542787272
 20
-81.9360896934593
 30
0.0
 11
483.0308542787272
 21
-77.93608996913078
 31
0.0
  0
LINE
  5
8A84
330
85AB
100
AcDbEntity
  8
0
  6
Continuous
 62
     7
370
    15
100
AcDbLine
 10
460.0308542340238
 20
-77.93608996913078
 30
0.0
 11
460.0308542340238
 21
-81.9360896934593
 31
0.0
  0
LINE
  5
8A85
330
85AB
100
AcDbEntity
  8
0
  6
Continuous
 62
     7
370
    15
100
AcDbLine
 10
460.0308542340238
 20
-81.9360896934593
 30
0.0
 11
460.5308538503189
 21
-82.43608977541568
 31
0.0
  0
LINE
  5
8A86
330
85AB
100
AcDbEntity
  8
0
  6
Continuous
 62
     7
370
    15
100
AcDbLine
 10
482.5308541967709
 20
-82.43608977541568
 30
0.0
 11
483.0308542787272
 21
-81.9360896934593
 31
0.0
  0
LINE
  5
8A87
330
85AB
100
AcDbEntity
  8
0
  6
Continuous
 62
     7
370
    15
100
AcDbLine
 10
450.6808533533651
 20
-62.2860895459378
 30
0.0
 11
450.6808533533651
 21
-64.08609021350982
 31
0.0
  0
LINE
  5
8A88
330
85AB
100
AcDbEntity
  8
0
  6
Continuous
 62
     7
370
    15
100
AcDbLine
 10
455.680854172929
 20
-64.08609021350982
 30
0.0
 11
455.680854172929
 21
-62.2860895459378
 31
0.0
  0
LINE
  5
8A89
330
85AB
100
AcDbEntity
  8
0
  6
Continuous
 62
     7
370
    15
100
AcDbLine
 10
490.1808533086617
 20
-62.2860895459378
 30
0.0
 11
490.1808533086617
 21
-64.08609021350982
 31
0.0
  0
LINE
  5
8A8A
330
85AB
100
AcDbEntity
  8
0
  6
Continuous
 62
     7
370
    15
100
AcDbLine
 10
495.1808541282255
 20
-64.08609021350982
 30
0.0
 11
495.1808541282255
 21
-62.2860895459378
 31
0.0
  0
LINE
  5
8A8B
330
85AB
100
AcDbEntity
  8
0
  6
Continuous
 62
     7
370
    15
100
AcDbLine
 10
507.2808540626604
 20
-71.08608949825408
 30
0.0
 11
508.780853377207
 21
-69.5860901837075
 31
0.0
  0
LINE
  5
8A8C
330
85AB
100
AcDbEntity
  8
0
  6
Continuous
 62
     7
370
    15
100
AcDbLine
 10
508.780853377207
 20
-61.58608887240531
 30
0.0
 11
507.2808540626604
 21
-60.08608955785873
 31
0.0
  0
LINE
  5
8A8D
330
85AB
100
AcDbEntity
  8
0
  6
Continuous
 62
     7
370
    15
100
AcDbLine
 10
507.2808540626604
 20
-60.08608955785873
 30
0.0
 11
504.1808537407953
 21
-60.08608955785873
 31
0.0
  0
LINE
  5
8A8E
330
85AB
100
AcDbEntity
  8
0
  6
Continuous
 62
     7
370
    15
100
AcDbLine
 10
504.1808537407953
 20
-71.08608949825408
 30
0.0
 11
507.2808540626604
 21
-71.08608949825408
 31
0.0
  0
LINE
  5
8A8F
330
85AB
100
AcDbEntity
  8
0
  6
Continuous
 62
     7
370
    15
100
AcDbLine
 10
486.0808546855289
 20
-60.28608921811225
 30
0.0
 11
484.7808531685907
 21
-61.58608887240531
 31
0.0
  0
LINE
  5
8A90
330
85AB
100
AcDbEntity
  8
0
  6
Continuous
 62
     7
370
    15
100
AcDbLine
 10
449.6808531894524
 20
-60.28608921811225
 30
0.0
 11
449.6808531894524
 21
-62.2860895459378
 31
0.0
  0
LINE
  5
8A91
330
85AB
100
AcDbEntity
  8
0
  6
Continuous
 62
     7
370
    15
100
AcDbLine
 10
449.6808531894524
 20
-64.08609021350982
 30
0.0
 11
449.6808531894524
 21
-70.28608899459483
 31
0.0
  0
CIRCLE
  5
8A92
330
85AB
100
AcDbEntity
  8
0
  6
Continuous
 62
     7
370
    15
100
AcDbCircle
 10
554.5072799820905
 20
-75.11159893400159
 30
0.0
 40
10.50000000000001
  0
CIRCLE
  5
8A93
330
85AB
100
AcDbEntity
  8
0
  6
Continuous
 62
     7
370
    15
100
AcDbCircle
 10
554.5072799820905
 20
-75.11159893400159
 30
0.0
 40
11.00000000000001
  0
CIRCLE
  5
8A94
330
85AB
100
AcDbEntity
  8
0
  6
Continuous
 62
     7
370
    15
100
AcDbCircle
 10
554.5072799820905
 20
-75.11159893400159
 30
0.0
 40
6.600000000000011
  0
CIRCLE
  5
8A95
330
85AB
100
AcDbEntity
  8
0
  6
Continuous
 62
     7
370
    15
100
AcDbCircle
 10
554.5072799820905
 20
-75.11159893400159
 30
0.0
 40
5.600000000000008
  0
LINE
  5
8A96
330
85AB
100
AcDbEntity
  8
0
  6
Continuous
 62
     7
370
    15
100
AcDbLine
 10
500.3308556243021
 20
-50.98608825251702
 30
0.0
 11
502.8308532401163
 21
-50.98608825251702
 31
0.0
  0
ARC
  5
8A97
330
85AB
100
AcDbEntity
  8
0
  6
Continuous
 62
     7
370
    15
100
AcDbCircle
 10
502.8308540092632
 20
-51.486089609939
 30
0.0
 40
0.5
100
AcDbArc
 50
0.0
 51
90.0
  0
LINE
  5
8A98
330
85AB
100
AcDbEntity
  8
0
  6
Continuous
 62
     7
370
    15
100
AcDbLine
 10
500.3308556243021
 20
-57.98608939990643
 30
0.0
 11
503.3308542533953
 21
-57.98608939990643
 31
0.0
  0
LINE
  5
8A99
330
85AB
100
AcDbEntity
  8
0
  6
Continuous
 62
     7
370
    15
100
AcDbLine
 10
503.3308542533953
 20
-57.98608939990643
 30
0.0
 11
503.3308542533953
 21
-51.48608926579598
 31
0.0
  0
LINE
  5
8A9A
330
85AB
100
AcDbEntity
  8
0
  6
Continuous
 62
     7
370
    15
100
AcDbLine
 10
444.0308544053871
 20
-50.98608825251702
 30
0.0
 11
500.3308556243021
 21
-50.98608825251702
 31
0.0
  0
LINE
  5
8A9B
330
85AB
100
AcDbEntity
  8
0
  6
Continuous
 62
     7
370
    15
100
AcDbLine
 10
444.0308544053871
 20
-57.98608939990643
 30
0.0
 11
500.3308556243021
 21
-57.98608939990643
 31
0.0
  0
CIRCLE
  5
8A9C
330
85AB
100
AcDbEntity
  8
0
  6
Continuous
 62
     7
370
    15
100
AcDbCircle
 10
472.1808540092632
 20
-54.786089609939
 30
0.0
 40
1.749999999999986
  0
LINE
  5
8A9D
330
85AB
100
AcDbEntity
  8
0
  6
Continuous
 62
     7
370
    15
100
AcDbLine
 10
441.5308549269278
 20
-50.98608825251702
 30
0.0
 11
444.0308544053871
 21
-50.98608825251702
 31
0.0
  0
ARC
  5
8A9E
330
85AB
100
AcDbEntity
  8
0
  6
Continuous
 62
     7
370
    15
100
AcDbCircle
 10
441.5308540092631
 20
-51.486089609939
 30
0.0
 40
0.5
100
AcDbArc
 50
90.0
 51
180.0
  0
LINE
  5
8A9F
330
85AB
100
AcDbEntity
  8
0
  6
Continuous
 62
     7
370
    15
100
AcDbLine
 10
441.0308539136488
 20
-57.98608939990643
 30
0.0
 11
441.0308539136488
 21
-51.48608926579598
 31
0.0
  0
LINE
  5
8AA0
330
85AB
100
AcDbEntity
  8
0
  6
Continuous
 62
     7
370
    15
100
AcDbLine
 10
441.0308539136488
 20
-57.98608939990643
 30
0.0
 11
444.0308544053871
 21
-57.98608939990643
 31
0.0
  0
LINE
  5
8AA1
330
85AB
100
AcDbEntity
  8
0
  6
Continuous
 62
     7
370
    15
100
AcDbLine
 10
503.3308542533953
 20
-70.93608882174136
 30
0.0
 11
503.3308542533953
 21
-77.43608988717439
 31
0.0
  0
LINE
  5
8AA2
330
85AB
100
AcDbEntity
  8
0
  6
Continuous
 62
     7
370
    15
100
AcDbLine
 10
503.3308542533953
 20
-70.93608882174136
 30
0.0
 11
500.3308556243021
 21
-70.93608882174136
 31
0.0
  0
LINE
  5
8AA3
330
85AB
100
AcDbEntity
  8
0
  6
Continuous
 62
     7
370
    15
100
AcDbLine
 10
500.3308556243021
 20
-70.93608882174136
 30
0.0
 11
444.0308544053871
 21
-70.93608882174136
 31
0.0
  0
ARC
  5
8AA4
330
85AB
100
AcDbEntity
  8
0
  6
Continuous
 62
     7
370
    15
100
AcDbCircle
 10
502.8308540092631
 20
-77.436089609939
 30
0.0
 40
0.5
100
AcDbArc
 50
270.0
 51
0.0
  0
LINE
  5
8AA5
330
85AB
100
AcDbEntity
  8
0
  6
Continuous
 62
     7
370
    15
100
AcDbLine
 10
502.8308532401163
 20
-77.93608996913078
 30
0.0
 11
500.3308556243021
 21
-77.93608996913078
 31
0.0
  0
LINE
  5
8AA6
330
85AB
100
AcDbEntity
  8
0
  6
Continuous
 62
     7
370
    15
100
AcDbLine
 10
500.3308556243021
 20
-77.93608996913078
 30
0.0
 11
444.0308544053871
 21
-77.93608996913078
 31
0.0
  0
LINE
  5
8AA7
330
85AB
100
AcDbEntity
  8
0
  6
Continuous
 62
     7
370
    15
100
AcDbLine
 10
441.0308539136488
 20
-70.93608882174136
 30
0.0
 11
441.0308539136488
 21
-77.43608988717439
 31
0.0
  0
LINE
  5
8AA8
330
85AB
100
AcDbEntity
  8
0
  6
Continuous
 62
     7
370
    15
100
AcDbLine
 10
444.0308544053871
 20
-70.93608882174136
 30
0.0
 11
441.0308539136488
 21
-70.93608882174136
 31
0.0
  0
LINE
  5
8AA9
330
85AB
100
AcDbEntity
  8
0
  6
Continuous
 62
     7
370
    15
100
AcDbLine
 10
444.0308544053871
 20
-77.93608996913078
 30
0.0
 11
441.5308549269278
 21
-77.93608996913078
 31
0.0
  0
ARC
  5
8AAA
330
85AB
100
AcDbEntity
  8
0
  6
Continuous
 62
     7
370
    15
100
AcDbCircle
 10
441.5308540092632
 20
-77.436089609939
 30
0.0
 40
0.5
100
AcDbArc
 50
180.0
 51
270.0
  0
LINE
  5
8AAB
330
85AB
100
AcDbEntity
  8
0
  6
Continuous
 62
     7
370
    15
100
AcDbLine
 10
463.9808540432889
 20
-87.53608961019906
 30
0.0
 11
479.0808544694621
 21
-87.53608961019906
 31
0.0
  0
LINE
  5
8AAC
330
85AB
100
AcDbEntity
  8
0
  6
Continuous
 62
     7
370
    15
100
AcDbLine
 10
462.1307561374445
 20
-87.23608959594982
 30
0.0
 11
480.9309519096453
 21
-87.23608959594982
 31
0.0
  0
SPLINE
  5
8AAD
330
85AB
100
AcDbEntity
  8
0
  6
Continuous
 62
     7
370
    15
100
AcDbSpline
210
0.0
220
0.0
230
1.0
 70
     8
 71
     3
 72
    21
 73
    17
 74
     0
 42
0.000000001
 43
0.00000001
 40
0.0
 40
0.0
 40
0.0
 40
0.0
 40
0.0113565533009237
 40
0.0251281046230841
 40
0.0492404711093775
 40
0.121519739899834
 40
0.2667006529926667
 40
0.4125369487378387
 40
0.6996658714122439
 40
0.8432842910256767
 40
0.9151731138559183
 40
0.9451813145462205
 40
0.9754335307137205
 40
0.9868121732006447
 40
0.9982938204094444
 40
0.9999999999999999
 40
0.9999999999999999
 40
0.9999999999999999
 40
0.9999999999999999
 10
473.5771920732398
 20
-62.23608869955184
 30
0.0
 10
473.5750861883604
 20
-62.21957333556178
 30
0.0
 10
473.5704265971825
 20
-62.18303057621969
 30
0.0
 10
473.5282503621378
 20
-62.12273118721262
 30
0.0
 10
473.4013949784861
 20
-62.02392924194386
 30
0.0
 10
473.0638676918946
 20
-61.9099001650049
 30
0.0
 10
472.5440109014706
 20
-61.82893001892423
 30
0.0
 10
471.7060955191299
 20
-61.79745229677799
 30
0.0
 10
470.8700736693294
 20
-61.80246362086991
 30
0.0
 10
470.1453616897517
 20
-61.88303410489861
 30
0.0
 10
469.798987966602
 20
-61.97328891553215
 30
0.0
 10
469.6251359678049
 20
-62.05321091265554
 30
0.0
 10
469.5387631676361
 20
-62.11513751911944
 30
0.0
 10
469.4950412396894
 20
-62.17928050125761
 30
0.0
 10
469.4849331785863
 20
-62.2145192753165
 30
0.0
 10
469.4845636635664
 20
-62.23361781895419
 30
0.0
 10
469.4845158574346
 20
-62.23608869955184
 30
0.0
  0
LINE
  5
8AAE
330
85AB
100
AcDbEntity
  8
0
  6
Continuous
 62
     7
370
    15
100
AcDbLine
 10
479.5308537050325
 20
-61.73608954891803
 30
0.0
 11
463.5308538763959
 21
-61.73608954891803
 31
0.0
  0
LINE
  5
8AAF
330
85AB
100
AcDbEntity
  8
0
  6
Continuous
 62
     7
370
    15
100
AcDbLine
 10
473.5771920732398
 20
-65.68608935818317
 30
0.0
 11
473.5771920732398
 21
-62.23608869955184
 31
0.0
  0
LINE
  5
8AB0
330
85AB
100
AcDbEntity
  8
0
  6
Continuous
 62
     7
370
    15
100
AcDbLine
 10
479.1089478149254
 20
-65.33608902141692
 30
0.0
 11
479.1089478149254
 21
-63.13608903333785
 31
0.0
  0
LINE
  5
8AB1
330
85AB
100
AcDbEntity
  8
0
  6
Continuous
 62
     7
370
    15
100
AcDbLine
 10
477.7445481359202
 20
-65.33608902141692
 30
0.0
 11
478.0951510383923
 21
-65.33608902141692
 31
0.0
  0
LINE
  5
8AB2
330
85AB
100
AcDbEntity
  8
0
  6
Continuous
 62
     7
370
    15
100
AcDbLine
 10
477.7445481359202
 20
-65.68608935818317
 30
0.0
 11
477.7445481359202
 21
-65.33608902141692
 31
0.0
  0
LINE
  5
8AB3
330
85AB
100
AcDbEntity
  8
0
  6
Continuous
 62
     7
370
    15
100
AcDbLine
 10
480.0308537869889
 20
-63.13608903333785
 30
0.0
 11
479.1089478149254
 21
-63.13608903333785
 31
0.0
  0
LINE
  5
8AB4
330
85AB
100
AcDbEntity
  8
0
  6
Continuous
 62
     7
370
    15
100
AcDbLine
 10
469.4845158574346
 20
-62.23608869955184
 30
0.0
 11
469.4845158574346
 21
-65.68608935818317
 31
0.0
  0
LINE
  5
8AB5
330
85AB
100
AcDbEntity
  8
0
  6
Continuous
 62
     7
370
    15
100
AcDbLine
 10
465.3171594455082
 20
-65.68608935818317
 30
0.0
 11
465.3171594455082
 21
-65.33608902141692
 31
0.0
  0
LINE
  5
8AB6
330
85AB
100
AcDbEntity
  8
0
  6
Continuous
 62
     7
370
    15
100
AcDbLine
 10
464.9665565430362
 20
-65.33608902141692
 30
0.0
 11
465.3171594455082
 21
-65.33608902141692
 31
0.0
  0
LINE
  5
8AB7
330
85AB
100
AcDbEntity
  8
0
  6
Continuous
 62
     7
370
    15
100
AcDbLine
 10
463.9527606978256
 20
-65.33608902141692
 30
0.0
 11
463.9527606978256
 21
-63.13608903333785
 31
0.0
  0
LINE
  5
8AB8
330
85AB
100
AcDbEntity
  8
0
  6
Continuous
 62
     7
370
    15
100
AcDbLine
 10
463.9527606978256
 20
-63.13608903333785
 30
0.0
 11
463.0308537944395
 21
-63.13608903333785
 31
0.0
  0
LINE
  5
8AB9
330
85AB
100
AcDbEntity
  8
0
  6
Continuous
 62
     7
370
    15
100
AcDbLine
 10
483.0308542787272
 20
-81.9360896934593
 30
0.0
 11
460.0308542340238
 21
-81.9360896934593
 31
0.0
  0
LINE
  5
8ABA
330
85AB
100
AcDbEntity
  8
0
  6
Continuous
 62
     7
370
    15
100
AcDbLine
 10
482.5308541967709
 20
-82.43608977541568
 30
0.0
 11
460.5308538503189
 21
-82.43608977541568
 31
0.0
  0
CIRCLE
  5
8ABB
330
85AB
100
AcDbEntity
  8
0
  6
Continuous
 62
     7
370
    15
100
AcDbCircle
 10
472.1808540092632
 20
-54.786089609939
 30
0.0
 40
1.399999999999977
  0
LINE
  5
8ABC
330
85AB
100
AcDbEntity
  8
0
  6
Continuous
 62
     7
370
    15
100
AcDbLine
 10
471.4208541172732
 20
-54.34730220481995
 30
0.0
 11
471.4208541172732
 21
-55.22487629100922
 31
0.0
  0
LINE
  5
8ABD
330
85AB
100
AcDbEntity
  8
0
  6
Continuous
 62
     7
370
    15
100
AcDbLine
 10
471.4208541172732
 20
-55.22487629100922
 30
0.0
 11
472.180854083522
 21
-55.66366147145871
 31
0.0
  0
LINE
  5
8ABE
330
85AB
100
AcDbEntity
  8
0
  6
Continuous
 62
     7
370
    15
100
AcDbLine
 10
472.180854083522
 20
-55.66366147145871
 30
0.0
 11
472.9408538169403
 21
-55.22487629100922
 31
0.0
  0
LINE
  5
8ABF
330
85AB
100
AcDbEntity
  8
0
  6
Continuous
 62
     7
370
    15
100
AcDbLine
 10
472.9408538169403
 20
-55.22487629100922
 30
0.0
 11
472.9408538169403
 21
-54.34730220481995
 31
0.0
  0
LINE
  5
8AC0
330
85AB
100
AcDbEntity
  8
0
  6
Continuous
 62
     7
370
    15
100
AcDbLine
 10
472.9408538169403
 20
-54.34730220481995
 30
0.0
 11
472.180854083522
 21
-53.90851888701562
 31
0.0
  0
LINE
  5
8AC1
330
85AB
100
AcDbEntity
  8
0
  6
Continuous
 62
     7
370
    15
100
AcDbLine
 10
472.180854083522
 20
-53.90851888701562
 30
0.0
 11
471.4208541172732
 21
-54.34730220481995
 31
0.0
  0
CIRCLE
  5
8AC2
330
85AB
100
AcDbEntity
  8
0
  6
Continuous
 62
     7
370
    15
100
AcDbCircle
 10
472.1808540092632
 20
-54.78608960993901
 30
0.0
 40
1.700000000000017
  0
CIRCLE
  5
8AC3
330
85AB
100
AcDbEntity
  8
0
  6
Continuous
 62
     7
370
    15
100
AcDbCircle
 10
471.4808540092631
 20
-68.18608960993899
 30
0.0
 40
1.299999999983528
  0
CIRCLE
  5
8AC4
330
85AB
100
AcDbEntity
  8
0
  6
Continuous
 62
     7
370
    15
100
AcDbCircle
 10
471.4808540092631
 20
-68.186089609939
 30
0.0
 40
1.99999999999999
  0
LINE
  5
8AC5
330
85AB
100
AcDbEntity
  8
0
  6
Continuous
 62
     7
370
    15
100
AcDbLine
 10
471.4963177885104
 20
-69.34068668529632
 30
0.0
 11
472.4884960069496
 21
-68.74999534234645
 31
0.0
  0
LINE
  5
8AC6
330
85AB
100
AcDbEntity
  8
0
  6
Continuous
 62
     7
370
    15
100
AcDbLine
 10
472.4884960069496
 20
-68.74999534234645
 30
0.0
 11
472.4730323269207
 21
-67.59539935633781
 31
0.0
  0
LINE
  5
8AC7
330
85AB
100
AcDbEntity
  8
0
  6
Continuous
 62
     7
370
    15
100
AcDbLine
 10
472.4730323269207
 20
-67.59539935633781
 30
0.0
 11
471.4653901956219
 21
-67.03149285063388
 31
0.0
  0
LINE
  5
8AC8
330
85AB
100
AcDbEntity
  8
0
  6
Continuous
 62
     7
370
    15
100
AcDbLine
 10
471.4653901956219
 20
-67.03149285063388
 30
0.0
 11
470.4732117443521
 21
-67.6221823309386
 31
0.0
  0
LINE
  5
8AC9
330
85AB
100
AcDbEntity
  8
0
  6
Continuous
 62
     7
370
    15
100
AcDbLine
 10
470.4886756572116
 20
-68.7767801795924
 30
0.0
 11
470.4732117443521
 21
-67.6221823309386
 31
0.0
  0
LINE
  5
8ACA
330
85AB
100
AcDbEntity
  8
0
  6
Continuous
 62
     7
370
    15
100
AcDbLine
 10
470.4886756572116
 20
-68.7767801795924
 30
0.0
 11
471.4963177885104
 21
-69.34068668529632
 31
0.0
  0
LINE
  5
8ACB
330
85AB
100
AcDbEntity
  8
0
  6
Continuous
 62
     7
370
    15
100
AcDbLine
 10
457.7808543308813
 20
-65.33608902141692
 30
0.0
 11
457.7808543308813
 21
-65.68608935818317
 31
0.0
  0
LINE
  5
8ACC
330
85AB
100
AcDbEntity
  8
0
  6
Continuous
 62
     7
370
    15
100
AcDbLine
 10
457.7808543308813
 20
-65.33608902141692
 30
0.0
 11
464.9665565430362
 21
-65.33608902141692
 31
0.0
  0
LINE
  5
8ACD
330
85AB
100
AcDbEntity
  8
0
  6
Continuous
 62
     7
370
    15
100
AcDbLine
 10
478.0951510383923
 20
-65.33608902141692
 30
0.0
 11
484.7808531685907
 21
-65.33608902141692
 31
0.0
  0
LINE
  5
8ACE
330
85AB
100
AcDbEntity
  8
0
  6
Continuous
 62
     7
370
    15
100
AcDbLine
 10
484.7808531685907
 20
-65.33608902141692
 30
0.0
 11
484.7808531685907
 21
-65.68608935818317
 31
0.0
  0
LINE
  5
8ACF
330
85AB
100
AcDbEntity
  8
0
  6
Continuous
 62
     7
370
    15
100
AcDbLine
 10
457.7808543308813
 20
-63.33608869359138
 30
0.0
 11
463.9527606978256
 21
-63.33608869359138
 31
0.0
  0
LINE
  5
8AD0
330
85AB
100
AcDbEntity
  8
0
  6
Continuous
 62
     7
370
    15
100
AcDbLine
 10
479.1089478149254
 20
-63.33608869359138
 30
0.0
 11
484.7808531685907
 21
-63.33608869359138
 31
0.0
  0
LINE
  5
8AD1
330
85AB
100
AcDbEntity
  8
0
  6
Continuous
 62
     7
370
    15
100
AcDbLine
 10
457.7808543308813
 20
-63.33608869359138
 30
0.0
 11
457.7808543308813
 21
-65.33608902141692
 31
0.0
  0
LINE
  5
8AD2
330
85AB
100
AcDbEntity
  8
0
  6
Continuous
 62
     7
370
    15
100
AcDbLine
 10
484.7808531685907
 20
-63.33608869359138
 30
0.0
 11
484.7808531685907
 21
-63.94978370413425
 31
0.0
  0
LINE
  5
8AD3
330
85AB
100
AcDbEntity
  8
0
  6
Continuous
 62
     7
370
    15
100
AcDbLine
 10
508.780853377207
 20
-61.58608887240531
 30
0.0
 11
508.780853377207
 21
-69.5860901837075
 31
0.0
  0
LINE
  5
8AD4
330
85AB
100
AcDbEntity
  8
0
  6
Continuous
 62
     7
370
    15
100
AcDbLine
 10
507.2808540626604
 20
-60.08608955785873
 30
0.0
 11
507.2808540626604
 21
-71.08608949825408
 31
0.0
  0
LINE
  5
8AD5
330
85AB
100
AcDbEntity
  8
0
  6
Continuous
 62
     7
370
    15
100
AcDbLine
 10
486.2808543457825
 20
-60.28608921811225
 30
0.0
 11
486.2808543457825
 21
-65.68608935818317
 31
0.0
  0
LINE
  5
8AD6
330
85AB
100
AcDbEntity
  8
0
  6
Continuous
 62
     7
370
    15
100
AcDbLine
 10
484.7808531685907
 20
-61.58608887240531
 30
0.0
 11
484.7808531685907
 21
-63.33608869359138
 31
0.0
  0
LINE
  5
8AD7
330
85AB
100
AcDbEntity
  8
0
  6
Continuous
 62
     7
370
    15
100
AcDbLine
 10
484.7808531685907
 20
-63.94978370413425
 30
0.0
 11
484.7808531685907
 21
-65.33608902141692
 31
0.0
  0
LINE
  5
8AD8
330
85AB
100
AcDbEntity
  8
0
  6
Continuous
 62
     7
370
    15
100
AcDbLine
 10
501.1808551117022
 20
-70.93608882174136
 30
0.0
 11
501.1808551117022
 21
-70.28608899459483
 31
0.0
  0
LINE
  5
8AD9
330
85AB
100
AcDbEntity
  8
0
  6
Continuous
 62
     7
370
    15
100
AcDbLine
 10
496.6808534427721
 20
-70.28608899459483
 30
0.0
 11
501.1808551117022
 21
-70.28608899459483
 31
0.0
  0
LINE
  5
8ADA
330
85AB
100
AcDbEntity
  8
0
  6
Continuous
 62
     7
370
    15
100
AcDbLine
 10
447.680854724272
 20
-70.28608899459483
 30
0.0
 11
496.6808534427721
 21
-70.28608899459483
 31
0.0
  0
LINE
  5
8ADB
330
85AB
100
AcDbEntity
  8
0
  6
Continuous
 62
     7
370
    15
100
AcDbLine
 10
443.1808549179871
 20
-70.93608882174136
 30
0.0
 11
443.1808549179871
 21
-70.28608899459483
 31
0.0
  0
LINE
  5
8ADC
330
85AB
100
AcDbEntity
  8
0
  6
Continuous
 62
     7
370
    15
100
AcDbLine
 10
443.1808549179871
 20
-70.28608899459483
 30
0.0
 11
447.680854724272
 21
-70.28608899459483
 31
0.0
  0
LINE
  5
8ADD
330
85AB
100
AcDbEntity
  8
0
  6
Continuous
 62
     7
370
    15
100
AcDbLine
 10
501.1808551117022
 20
-60.28608921811225
 30
0.0
 11
501.1808551117022
 21
-57.98608939990643
 31
0.0
  0
LINE
  5
8ADE
330
85AB
100
AcDbEntity
  8
0
  6
Continuous
 62
     7
370
    15
100
AcDbLine
 10
496.6808534427721
 20
-60.28608921811225
 30
0.0
 11
501.1808551117022
 21
-60.28608921811225
 31
0.0
  0
LINE
  5
8ADF
330
85AB
100
AcDbEntity
  8
0
  6
Continuous
 62
     7
370
    15
100
AcDbLine
 10
496.6808534427721
 20
-58.78608990356568
 30
0.0
 11
501.1808551117022
 21
-58.78608990356568
 31
0.0
  0
LINE
  5
8AE0
330
85AB
100
AcDbEntity
  8
0
  6
Continuous
 62
     7
370
    15
100
AcDbLine
 10
447.680854724272
 20
-60.28608921811225
 30
0.0
 11
496.6808534427721
 21
-60.28608921811225
 31
0.0
  0
LINE
  5
8AE1
330
85AB
100
AcDbEntity
  8
0
  6
Continuous
 62
     7
370
    15
100
AcDbLine
 10
447.680854724272
 20
-58.78608990356568
 30
0.0
 11
496.6808534427721
 21
-58.78608990356568
 31
0.0
  0
LINE
  5
8AE2
330
85AB
100
AcDbEntity
  8
0
  6
Continuous
 62
     7
370
    15
100
AcDbLine
 10
443.1808549179871
 20
-60.28608921811225
 30
0.0
 11
443.1808549179871
 21
-57.98608939990643
 31
0.0
  0
LINE
  5
8AE3
330
85AB
100
AcDbEntity
  8
0
  6
Continuous
 62
     7
370
    15
100
AcDbLine
 10
443.1808549179871
 20
-60.28608921811225
 30
0.0
 11
447.680854724272
 21
-60.28608921811225
 31
0.0
  0
LINE
  5
8AE4
330
85AB
100
AcDbEntity
  8
0
  6
Continuous
 62
     7
370
    15
100
AcDbLine
 10
443.1808549179871
 20
-58.78608990356568
 30
0.0
 11
447.680854724272
 21
-58.78608990356568
 31
0.0
  0
CIRCLE
  5
8AE5
330
85AB
100
AcDbEntity
  8
0
  6
Continuous
 62
     7
370
    15
100
AcDbCircle
 10
472.1808540092632
 20
-54.786089609939
 30
0.0
 40
1.649999999999991
  0
LINE
  5
8AE6
330
85AB
100
AcDbEntity
  8
0
  6
Continuous
 62
     7
370
    15
100
AcDbLine
 10
499.6808557971556
 20
-62.2860895459378
 30
0.0
 11
499.6808557971556
 21
-60.28608921811225
 31
0.0
  0
LINE
  5
8AE7
330
85AB
100
AcDbEntity
  8
0
  6
Continuous
 62
     7
370
    15
100
AcDbLine
 10
499.6808557971556
 20
-62.2860895459378
 30
0.0
 11
489.1808531447489
 21
-62.2860895459378
 31
0.0
  0
LINE
  5
8AE8
330
85AB
100
AcDbEntity
  8
0
  6
Continuous
 62
     7
370
    15
100
AcDbLine
 10
489.1808531447489
 20
-62.2860895459378
 30
0.0
 11
489.1808531447489
 21
-60.28608921811225
 31
0.0
  0
LINE
  5
8AE9
330
85AB
100
AcDbEntity
  8
0
  6
Continuous
 62
     7
370
    15
100
AcDbLine
 10
450.1334014549095
 20
-62.2860895459378
 30
0.0
 11
450.1334014549095
 21
-60.28608921811225
 31
0.0
  0
LINE
  5
8AEA
330
85AB
100
AcDbEntity
  8
0
  6
Continuous
 62
     7
370
    15
100
AcDbLine
 10
450.1334014549095
 20
-62.2860895459378
 30
0.0
 11
449.6808531894524
 21
-62.2860895459378
 31
0.0
  0
LINE
  5
8AEB
330
85AB
100
AcDbEntity
  8
0
  6
Continuous
 62
     7
370
    15
100
AcDbLine
 10
450.1808542027313
 20
-62.2860895459378
 30
0.0
 11
450.1808542027313
 21
-60.28608921811225
 31
0.0
  0
LINE
  5
8AEC
330
85AB
100
AcDbEntity
  8
0
  6
Continuous
 62
     7
370
    15
100
AcDbLine
 10
450.1808542027313
 20
-62.2860895459378
 30
0.0
 11
450.1334014549095
 21
-62.2860895459378
 31
0.0
  0
LINE
  5
8AED
330
85AB
100
AcDbEntity
  8
0
  6
Continuous
 62
     7
370
    15
100
AcDbLine
 10
456.1808542548854
 20
-62.2860895459378
 30
0.0
 11
456.1808542548854
 21
-60.28608921811225
 31
0.0
  0
LINE
  5
8AEE
330
85AB
100
AcDbEntity
  8
0
  6
Continuous
 62
     7
370
    15
100
AcDbLine
 10
456.1808542548854
 20
-62.2860895459378
 30
0.0
 11
450.1808542027313
 21
-62.2860895459378
 31
0.0
  0
LINE
  5
8AEF
330
85AB
100
AcDbEntity
  8
0
  6
Continuous
 62
     7
370
    15
100
AcDbLine
 10
500.1808530851442
 20
-64.08609021350982
 30
0.0
 11
500.1808530851442
 21
-60.28608921811225
 31
0.0
  0
LINE
  5
8AF0
330
85AB
100
AcDbEntity
  8
0
  6
Continuous
 62
     7
370
    15
100
AcDbLine
 10
501.1808551117022
 20
-59.08608939394597
 30
0.0
 11
501.6808523996908
 21
-59.08608939394597
 31
0.0
  0
LINE
  5
8AF1
330
85AB
100
AcDbEntity
  8
0
  6
Continuous
 62
     7
370
    15
100
AcDbLine
 10
501.6808523996908
 20
-59.486088714453
 30
0.0
 11
501.6808523996908
 21
-59.08608939394597
 31
0.0
  0
LINE
  5
8AF2
330
85AB
100
AcDbEntity
  8
0
  6
Continuous
 62
     7
370
    15
100
AcDbLine
 10
501.6808523996908
 20
-59.486088714453
 30
0.0
 11
504.1808537407953
 21
-59.486088714453
 31
0.0
  0
LINE
  5
8AF3
330
85AB
100
AcDbEntity
  8
0
  6
Continuous
 62
     7
370
    15
100
AcDbLine
 10
504.1808537407953
 20
-59.486088714453
 30
0.0
 11
504.1808537407953
 21
-71.58608958021047
 31
0.0
  0
LINE
  5
8AF4
330
85AB
100
AcDbEntity
  8
0
  6
Continuous
 62
     7
370
    15
100
AcDbLine
 10
504.1808537407953
 20
-71.58608958021047
 30
0.0
 11
503.3308542533953
 21
-71.58608958021047
 31
0.0
  0
LINE
  5
8AF5
330
85AB
100
AcDbEntity
  8
0
  6
Continuous
 62
     7
370
    15
100
AcDbLine
 10
467.6808539861988
 20
-65.68608935818317
 30
0.0
 11
488.6808539941151
 21
-65.68608935818317
 31
0.0
  0
LINE
  5
8AF6
330
85AB
100
AcDbEntity
  8
0
  6
Continuous
 62
     7
370
    15
100
AcDbLine
 10
488.6808539941151
 20
-65.68608935818317
 30
0.0
 11
488.6808539941151
 21
-64.08609021350982
 31
0.0
  0
LINE
  5
8AF7
330
85AB
100
AcDbEntity
  8
0
  6
Continuous
 62
     7
370
    15
100
AcDbLine
 10
488.6808539941151
 20
-64.08609021350982
 30
0.0
 11
500.1808530851442
 21
-64.08609021350982
 31
0.0
  0
LINE
  5
8AF8
330
85AB
100
AcDbEntity
  8
0
  6
Continuous
 62
     7
370
    15
100
AcDbLine
 10
450.1309259995062
 20
-65.68608935818317
 30
0.0
 11
450.1309259995062
 21
-64.08609021350982
 31
0.0
  0
LINE
  5
8AF9
330
85AB
100
AcDbEntity
  8
0
  6
Continuous
 62
     7
370
    15
100
AcDbLine
 10
449.6808531894524
 20
-64.08609021350982
 30
0.0
 11
450.1309259995062
 21
-64.08609021350982
 31
0.0
  0
LINE
  5
8AFA
330
85AB
100
AcDbEntity
  8
0
  6
Continuous
 62
     7
370
    15
100
AcDbLine
 10
450.1309259995062
 20
-65.68608935818317
 30
0.0
 11
467.6808539861988
 21
-65.68608935818317
 31
0.0
  0
LINE
  5
8AFB
330
85AB
100
AcDbEntity
  8
0
  6
Continuous
 62
     7
370
    15
100
AcDbLine
 10
501.6808523996908
 20
-57.98608939990643
 30
0.0
 11
501.6808523996908
 21
-59.08608939394597
 31
0.0
  0
LINE
  5
8AFC
330
85AB
100
AcDbEntity
  8
0
  6
Continuous
 62
     7
370
    15
100
AcDbLine
 10
456.716984996124
 20
-65.68608935818317
 30
0.0
 11
456.716984996124
 21
-64.08609021350982
 31
0.0
  0
LINE
  5
8AFD
330
85AB
100
AcDbEntity
  8
0
  6
Continuous
 62
     7
370
    15
100
AcDbLine
 10
456.716984996124
 20
-64.08609021350982
 30
0.0
 11
450.1309259995062
 21
-64.08609021350982
 31
0.0
  0
LINE
  5
8AFE
330
85AB
100
AcDbEntity
  8
0
  6
Continuous
 62
     8
370
     0
100
AcDbLine
 10
503.3308542533953
 20
-51.48608926579598
 30
0.0
 11
500.3308556243021
 21
-51.48608926579598
 31
0.0
  0
LINE
  5
8AFF
330
85AB
100
AcDbEntity
  8
0
  6
Continuous
 62
     8
370
     0
100
AcDbLine
 10
500.3308556243021
 20
-50.98608825251702
 30
0.0
 11
500.3308556243021
 21
-51.48608926579598
 31
0.0
  0
LINE
  5
8B00
330
85AB
100
AcDbEntity
  8
0
  6
Continuous
 62
     8
370
     0
100
AcDbLine
 10
500.3308556243021
 20
-57.98608939990643
 30
0.0
 11
500.3308556243021
 21
-51.48608926579598
 31
0.0
  0
LINE
  5
8B01
330
85AB
100
AcDbEntity
  8
0
  6
Continuous
 62
     8
370
     0
100
AcDbLine
 10
500.3308556243021
 20
-51.48608926579598
 30
0.0
 11
444.0308544053871
 21
-51.48608926579598
 31
0.0
  0
LINE
  5
8B02
330
85AB
100
AcDbEntity
  8
0
  6
Continuous
 62
     8
370
     0
100
AcDbLine
 10
444.0308544053871
 20
-50.98608825251702
 30
0.0
 11
444.0308544053871
 21
-51.48608926579598
 31
0.0
  0
LINE
  5
8B03
330
85AB
100
AcDbEntity
  8
0
  6
Continuous
 62
     8
370
     0
100
AcDbLine
 10
444.0308544053871
 20
-57.98608939990643
 30
0.0
 11
444.0308544053871
 21
-51.48608926579598
 31
0.0
  0
LINE
  5
8B04
330
85AB
100
AcDbEntity
  8
0
  6
Continuous
 62
     8
370
     0
100
AcDbLine
 10
444.0308544053871
 20
-51.48608926579598
 30
0.0
 11
441.0308539136488
 21
-51.48608926579598
 31
0.0
  0
LINE
  5
8B05
330
85AB
100
AcDbEntity
  8
0
  6
Continuous
 62
     8
370
     0
100
AcDbLine
 10
500.3308556243021
 20
-77.43608988717439
 30
0.0
 11
503.3308542533953
 21
-77.43608988717439
 31
0.0
  0
LINE
  5
8B06
330
85AB
100
AcDbEntity
  8
0
  6
Continuous
 62
     8
370
     0
100
AcDbLine
 10
500.3308556243021
 20
-70.93608882174136
 30
0.0
 11
500.3308556243021
 21
-77.43608988717439
 31
0.0
  0
LINE
  5
8B07
330
85AB
100
AcDbEntity
  8
0
  6
Continuous
 62
     8
370
     0
100
AcDbLine
 10
444.0308544053871
 20
-77.43608988717439
 30
0.0
 11
500.3308556243021
 21
-77.43608988717439
 31
0.0
  0
LINE
  5
8B08
330
85AB
100
AcDbEntity
  8
0
  6
Continuous
 62
     8
370
     0
100
AcDbLine
 10
444.0308544053871
 20
-70.93608882174136
 30
0.0
 11
444.0308544053871
 21
-77.43608988717439
 31
0.0
  0
LINE
  5
8B09
330
85AB
100
AcDbEntity
  8
0
  6
Continuous
 62
     8
370
     0
100
AcDbLine
 10
500.3308556243021
 20
-77.43608988717439
 30
0.0
 11
500.3308556243021
 21
-77.93608996913078
 31
0.0
  0
LINE
  5
8B0A
330
85AB
100
AcDbEntity
  8
0
  6
Continuous
 62
     8
370
     0
100
AcDbLine
 10
444.0308544053871
 20
-77.43608988717439
 30
0.0
 11
444.0308544053871
 21
-77.93608996913078
 31
0.0
  0
LINE
  5
8B0B
330
85AB
100
AcDbEntity
  8
0
  6
Continuous
 62
     8
370
     0
100
AcDbLine
 10
441.0308539136488
 20
-77.43608988717439
 30
0.0
 11
444.0308544053871
 21
-77.43608988717439
 31
0.0
  0
LINE
  5
8B0C
330
85AB
100
AcDbEntity
  8
0
  6
Continuous
 62
     8
370
     0
100
AcDbLine
 10
463.7808539173741
 20
-87.33608960069957
 30
0.0
 11
479.2808541297156
 21
-87.33608960069957
 31
0.0
  0
LINE
  5
8B0D
330
85AB
100
AcDbEntity
  8
0
  6
Continuous
 62
     8
370
     0
100
AcDbLine
 10
460.2755862488586
 20
-83.10735402524712
 30
0.0
 11
482.7861222638924
 21
-83.10735402524712
 31
0.0
  0
LINE
  5
8B0E
330
85AB
100
AcDbEntity
  8
0
  6
Continuous
 62
     8
370
     0
100
AcDbLine
 10
461.6610026187439
 20
-86.90735397290679
 30
0.0
 11
481.4007054283459
 21
-86.90735397290679
 31
0.0
  0
LINE
  5
8B0F
330
85AB
100
AcDbEntity
  8
0
  6
Continuous
 62
     8
370
     0
100
AcDbLine
 10
463.0308537944395
 20
-62.23608869955184
 30
0.0
 11
469.4845158574346
 21
-62.23608869955184
 31
0.0
  0
LINE
  5
8B10
330
85AB
100
AcDbEntity
  8
0
  6
Continuous
 62
     8
370
     0
100
AcDbLine
 10
473.5771920732398
 20
-62.23608869955184
 30
0.0
 11
480.0308537869889
 21
-62.23608869955184
 31
0.0
  0
LINE
  5
8B11
330
85AB
100
AcDbEntity
  8
0
  6
Continuous
 62
     8
370
     0
100
AcDbLine
 10
496.6808534427721
 20
-70.93608882174136
 30
0.0
 11
496.6808534427721
 21
-70.28608899459483
 31
0.0
  0
LINE
  5
8B12
330
85AB
100
AcDbEntity
  8
0
  6
Continuous
 62
     8
370
     0
100
AcDbLine
 10
447.680854724272
 20
-70.93608882174136
 30
0.0
 11
447.680854724272
 21
-70.28608899459483
 31
0.0
  0
LINE
  5
8B13
330
85AB
100
AcDbEntity
  8
0
  6
Continuous
 62
     8
370
     0
100
AcDbLine
 10
496.6808534427721
 20
-60.28608921811225
 30
0.0
 11
496.6808534427721
 21
-57.98608939990643
 31
0.0
  0
LINE
  5
8B14
330
85AB
100
AcDbEntity
  8
0
  6
Continuous
 62
     8
370
     0
100
AcDbLine
 10
447.680854724272
 20
-60.28608921811225
 30
0.0
 11
447.680854724272
 21
-57.98608939990643
 31
0.0
  0
LINE
  5
8B15
330
85AB
100
AcDbEntity
  8
0
  6
Continuous
 62
     8
370
     0
100
AcDbLine
 10
467.6808539861988
 20
-65.68608935818317
 30
0.0
 11
467.6808539861988
 21
-70.28608899459483
 31
0.0
  0
LINE
  5
8B16
330
85AB
100
AcDbEntity
  8
0
  6
Continuous
 62
     7
370
    15
100
AcDbLine
 10
607.0113300243579
 20
-36.48166487332193
 30
0.0
 11
606.5113308737241
 21
-35.98167131062357
 31
0.0
  0
LINE
  5
8B17
330
85AB
100
AcDbEntity
  8
0
  6
Continuous
 62
     7
370
    15
100
AcDbLine
 10
585.511329294201
 20
-35.98167131062331
 30
0.0
 11
585.0113320062123
 21
-36.48166487332168
 31
0.0
  0
LINE
  5
8B18
330
85AB
100
AcDbEntity
  8
0
  6
Continuous
 62
     7
370
    15
100
AcDbLine
 10
607.0113300243579
 20
-38.48166892643778
 30
0.0
 11
607.0113300243579
 21
-36.48166487332193
 31
0.0
  0
LINE
  5
8B19
330
85AB
100
AcDbEntity
  8
0
  6
Continuous
 62
     7
370
    15
100
AcDbLine
 10
585.0113320062123
 20
-36.48166487332168
 30
0.0
 11
585.0113320062123
 21
-38.48166892643754
 31
0.0
  0
LINE
  5
8B1A
330
85AB
100
AcDbEntity
  8
0
  6
Continuous
 62
     7
370
    15
100
AcDbLine
 10
603.011331231352
 20
-42.68166551705208
 30
0.0
 11
603.011331231352
 21
-38.48166892643776
 31
0.0
  0
LINE
  5
8B1B
330
85AB
100
AcDbEntity
  8
0
  6
Continuous
 62
     7
370
    15
100
AcDbLine
 10
589.0113289365731
 20
-38.48166892643756
 30
0.0
 11
589.0113289365731
 21
-42.6816655170519
 31
0.0
  0
LINE
  5
8B1C
330
85AB
100
AcDbEntity
  8
0
  6
Continuous
 62
     7
370
    15
100
AcDbLine
 10
603.011331231352
 20
-47.98166582699623
 30
0.0
 11
603.011331231352
 21
-44.68166957016793
 31
0.0
  0
LINE
  5
8B1D
330
85AB
100
AcDbEntity
  8
0
  6
Continuous
 62
     7
370
    15
100
AcDbLine
 10
589.0113289365731
 20
-44.68166957016774
 30
0.0
 11
589.0113289365731
 21
-47.98166582699605
 31
0.0
  0
LINE
  5
8B1E
330
85AB
100
AcDbEntity
  8
0
  6
Continuous
 62
     7
370
    15
100
AcDbLine
 10
589.0113289365731
 20
-47.98166582699605
 30
0.0
 11
590.0113309631311
 21
-48.98166785355399
 31
0.0
  0
LINE
  5
8B1F
330
85AB
100
AcDbEntity
  8
0
  6
Continuous
 62
     7
370
    15
100
AcDbLine
 10
602.011329204794
 20
-48.98166785355414
 30
0.0
 11
603.011331231352
 21
-47.98166582699623
 31
0.0
  0
LINE
  5
8B20
330
85AB
100
AcDbEntity
  8
0
  6
Continuous
 62
     7
370
    15
100
AcDbLine
 10
590.4113302836381
 20
-36.98166588660072
 30
0.0
 11
601.611329884287
 21
-36.98166588660084
 31
0.0
  0
LINE
  5
8B21
330
85AB
100
AcDbEntity
  8
0
  6
Continuous
 62
     7
370
    15
100
AcDbLine
 10
590.4113302836381
 20
-36.98166588660072
 30
0.0
 11
589.4113319823705
 21
-35.98167131062337
 31
0.0
  0
LINE
  5
8B22
330
85AB
100
AcDbEntity
  8
0
  6
Continuous
 62
     7
370
    15
100
AcDbLine
 10
602.6113319108449
 20
-35.98167131062354
 30
0.0
 11
601.611329884287
 21
-36.98166588660084
 31
0.0
  0
LINE
  5
8B23
330
85AB
100
AcDbEntity
  8
0
  6
Continuous
 62
     7
370
    15
100
AcDbLine
 10
589.4113319823705
 20
-35.98167131062337
 30
0.0
 11
602.6113319108449
 21
-35.98167131062354
 31
0.0
  0
LINE
  5
8B24
330
85AB
100
AcDbEntity
  8
0
  6
Continuous
 62
     7
370
    15
100
AcDbLine
 10
602.2613297114335
 20
-44.68166957016791
 30
0.0
 11
602.2613297114335
 21
-42.68166551705207
 31
0.0
  0
LINE
  5
8B25
330
85AB
100
AcDbEntity
  8
0
  6
Continuous
 62
     7
370
    15
100
AcDbLine
 10
589.7613304564916
 20
-42.68166551705191
 30
0.0
 11
589.7613304564916
 21
-44.68166957016776
 31
0.0
  0
LINE
  5
8B26
330
85AB
100
AcDbEntity
  8
0
  6
Continuous
 62
     7
370
    15
100
AcDbLine
 10
601.611329884287
 20
-36.98166588660084
 30
0.0
 11
601.611329884287
 21
-48.98166785355414
 31
0.0
  0
LINE
  5
8B27
330
85AB
100
AcDbEntity
  8
0
  6
Continuous
 62
     7
370
    15
100
AcDbLine
 10
590.4113302836381
 20
-48.981667853554
 30
0.0
 11
590.4113302836381
 21
-36.98166588660072
 31
0.0
  0
LINE
  5
8B28
330
85AB
100
AcDbEntity
  8
0
  6
Continuous
 62
     7
370
    15
100
AcDbLine
 10
590.4113302836381
 20
-48.981667853554
 30
0.0
 11
601.611329884287
 21
-48.98166785355414
 31
0.0
  0
LINE
  5
8B29
330
85AB
100
AcDbEntity
  8
0
  6
Continuous
 62
     7
370
    15
100
AcDbLine
 10
590.0113309631311
 20
-48.98166785355399
 30
0.0
 11
590.4113302836381
 21
-48.981667853554
 31
0.0
  0
LINE
  5
8B2A
330
85AB
100
AcDbEntity
  8
0
  6
Continuous
 62
     7
370
    15
100
AcDbLine
 10
589.7613304564916
 20
-44.68166957016776
 30
0.0
 11
589.0113289365731
 21
-44.68166957016774
 31
0.0
  0
LINE
  5
8B2B
330
85AB
100
AcDbEntity
  8
0
  6
Continuous
 62
     7
370
    15
100
AcDbLine
 10
589.0113289365731
 20
-42.6816655170519
 30
0.0
 11
589.7613304564916
 21
-42.68166551705191
 31
0.0
  0
LINE
  5
8B2C
330
85AB
100
AcDbEntity
  8
0
  6
Continuous
 62
     7
370
    15
100
AcDbLine
 10
589.4113319823705
 20
-35.98167131062337
 30
0.0
 11
585.511329294201
 21
-35.98167131062331
 31
0.0
  0
LINE
  5
8B2D
330
85AB
100
AcDbEntity
  8
0
  6
Continuous
 62
     7
370
    15
100
AcDbLine
 10
585.0113320062123
 20
-38.48166892643754
 30
0.0
 11
589.0113289365731
 21
-38.48166892643756
 31
0.0
  0
LINE
  5
8B2E
330
85AB
100
AcDbEntity
  8
0
  6
Continuous
 62
     7
370
    15
100
AcDbLine
 10
601.611329884287
 20
-48.98166785355414
 30
0.0
 11
602.011329204794
 21
-48.98166785355414
 31
0.0
  0
LINE
  5
8B2F
330
85AB
100
AcDbEntity
  8
0
  6
Continuous
 62
     7
370
    15
100
AcDbLine
 10
603.011331231352
 20
-44.68166957016793
 30
0.0
 11
602.2613297114335
 21
-44.68166957016791
 31
0.0
  0
LINE
  5
8B30
330
85AB
100
AcDbEntity
  8
0
  6
Continuous
 62
     7
370
    15
100
AcDbLine
 10
602.2613297114335
 20
-42.68166551705207
 30
0.0
 11
603.011331231352
 21
-42.68166551705208
 31
0.0
  0
LINE
  5
8B31
330
85AB
100
AcDbEntity
  8
0
  6
Continuous
 62
     7
370
    15
100
AcDbLine
 10
606.5113308737241
 20
-35.98167131062357
 30
0.0
 11
602.6113319108449
 21
-35.98167131062354
 31
0.0
  0
LINE
  5
8B32
330
85AB
100
AcDbEntity
  8
0
  6
Continuous
 62
     7
370
    15
100
AcDbLine
 10
603.011331231352
 20
-38.48166892643776
 30
0.0
 11
607.0113300243579
 21
-38.48166892643778
 31
0.0
  0
HATCH
  5
8B33
330
85AB
100
AcDbEntity
  8
0
  6
Continuous
 62
     1
370
     0
100
AcDbHatch
 10
0.0
 20
0.0
 30
0.0
210
0.0
220
0.0
230
1.0
  2
LINE
 70
     0
 71
     0
 91
        1
 92
        1
 93
       13
 72
     1
 10
607.0113306609486
 20
-38.48166776572354
 11
607.0113306609486
 21
-36.48166776572353
 72
     1
 10
607.0113306609486
 20
-36.48166776572353
 11
606.5113306609486
 21
-35.98166776572353
 72
     1
 10
606.5113306609486
 20
-35.98166776572353
 11
602.6113306609486
 21
-35.98166776572347
 72
     1
 10
602.6113306609486
 20
-35.98166776572347
 11
601.6113306609486
 21
-36.98166776572347
 72
     1
 10
601.6113306609486
 20
-36.98166776572347
 11
601.6113306609484
 21
-48.98166776572347
 72
     1
 10
601.6113306609484
 20
-48.98166776572347
 11
602.0113306609485
 21
-48.98166776572347
 72
     1
 10
602.0113306609485
 20
-48.98166776572347
 11
603.0113306609485
 21
-47.98166776572349
 72
     1
 10
603.0113306609485
 20
-47.98166776572349
 11
603.0113306609485
 21
-44.68166776572349
 72
     1
 10
603.0113306609485
 20
-44.68166776572349
 11
602.2613306609485
 21
-44.68166776572347
 72
     1
 10
602.2613306609485
 20
-44.68166776572347
 11
602.2613306609485
 21
-42.68166776572347
 72
     1
 10
602.2613306609485
 20
-42.68166776572347
 11
603.0113306609485
 21
-42.68166776572349
 72
     1
 10
603.0113306609485
 20
-42.68166776572349
 11
603.0113306609485
 21
-38.48166776572349
 72
     1
 10
603.0113306609485
 20
-38.48166776572349
 11
607.0113306609485
 21
-38.48166776572354
 97
        0
 75
     0
 76
     1
 52
45.0000000000001
 41
10.0
 77
     0
 78
     1
 53
45.0000000000001
 43
0.0
 44
0.0
 45
-0.883883476483186
 46
0.8838834764831829
 79
     0
 98
        0
1001
ACAD
1010
0.0
1020
0.0
1030
0.0
  0
HATCH
  5
8B34
330
85AB
100
AcDbEntity
  8
0
  6
Continuous
 62
     1
370
     0
100
AcDbHatch
 10
0.0
 20
0.0
 30
0.0
210
0.0
220
0.0
230
1.0
  2
LINE
 70
     0
 71
     0
 91
        1
 92
        1
 93
       13
 72
     1
 10
589.4113306609486
 20
-35.9816677657233
 11
585.5113306609486
 21
-35.98166776572324
 72
     1
 10
585.5113306609486
 20
-35.98166776572324
 11
585.0113306609487
 21
-36.48166776572324
 72
     1
 10
585.0113306609487
 20
-36.48166776572324
 11
585.0113306609487
 21
-38.48166776572326
 72
     1
 10
585.0113306609486
 20
-38.48166776572326
 11
589.0113306609486
 21
-38.48166776572332
 72
     1
 10
589.0113306609486
 20
-38.48166776572332
 11
589.0113306609485
 21
-42.6816677657233
 72
     1
 10
589.0113306609485
 20
-42.6816677657233
 11
589.7613306609485
 21
-42.68166776572332
 72
     1
 10
589.7613306609485
 20
-42.68166776572332
 11
589.7613306609485
 21
-44.68166776572333
 72
     1
 10
589.7613306609485
 20
-44.68166776572333
 11
589.0113306609485
 21
-44.68166776572332
 72
     1
 10
589.0113306609485
 20
-44.68166776572332
 11
589.0113306609485
 21
-47.98166776572332
 72
     1
 10
589.0113306609485
 20
-47.98166776572332
 11
590.0113306609485
 21
-48.98166776572333
 72
     1
 10
590.0113306609485
 20
-48.98166776572333
 11
590.4113306609484
 21
-48.98166776572334
 72
     1
 10
590.4113306609484
 20
-48.98166776572334
 11
590.4113306609486
 21
-36.98166776572333
 72
     1
 10
590.4113306609486
 20
-36.98166776572333
 11
589.4113306609486
 21
-35.9816677657233
 97
        0
 75
     0
 76
     1
 52
45.0000000000001
 41
10.0
 77
     0
 78
     1
 53
45.0000000000001
 43
0.0
 44
0.0
 45
-0.883883476483186
 46
0.8838834764831829
 79
     0
 98
        0
1001
ACAD
1010
0.0
1020
0.0
1030
0.0
  0
TEXT
  5
8B36
330
85AB
100
AcDbEntity
  8
0
  6
Continuous
 62
     7
100
AcDbText
 10
407.408506907789
 20
64.25376138576445
 30
0.0
 40
10.0
  1
A86
100
AcDbText
  0
LINE
  5
8B37
330
85AB
100
AcDbEntity
  8
0
  6
CENTER
 62
     1
100
AcDbLine
 10
519.2720935059494
 20
14.44404815916005
 30
0.0
 11
488.3418134859084
 21
14.44404815916005
 31
0.0
  0
LINE
  5
8B38
330
85AB
100
AcDbEntity
  8
0
  6
CENTER
 62
     1
100
AcDbLine
 10
374.664417187263
 20
3.543909406771348
 30
0.0
 11
374.664417187263
 21
23.88704207615901
 31
0.0
  0
LINE
  5
8B39
330
85AB
100
AcDbEntity
  8
0
  6
CENTER
 62
     1
100
AcDbLine
 10
365.1011636548758
 20
14.44404651909397
 30
0.0
 11
385.640848330731
 21
14.44404651909397
 31
0.0
  0
LINE
  5
8B41
330
85AB
100
AcDbEntity
  8
0
  6
CENTER
 62
     1
100
AcDbLine
 10
517.173759745853
 20
-65.58608813107254
 30
0.0
 11
494.2918136229991
 21
-65.58608813107254
 31
0.0
  0
LINE
  5
8B42
330
85AB
100
AcDbEntity
  8
0
  6
CENTER
 62
     1
100
AcDbLine
 10
471.5308542563755
 20
-95.04029932975997
 30
0.0
 11
471.5308542563755
 21
-74.69716666037232
 31
0.0
  0
LINE
  5
8B43
330
85AB
100
AcDbEntity
  8
0
  6
CENTER
 62
     1
100
AcDbLine
 10
554.5072802149211
 20
-90.9149588109641
 30
0.0
 11
554.5028949916301
 21
-59.06901854951627
 31
0.0
  0
LINE
  5
8B44
330
85AB
100
AcDbEntity
  8
0
  6
CENTER
 62
     1
100
AcDbLine
 10
569.4722792339406
 20
-74.99198868024018
 30
0.0
 11
539.8278506031104
 21
-74.99198868024018
 31
0.0
  0
LINE
  5
8B45
330
85AB
100
AcDbEntity
  8
0
  6
CENTER
 62
     1
100
AcDbLine
 10
596.0113303167932
 20
-58.18502773051657
 30
0.0
 11
596.0069450935022
 21
-26.33908746906874
 31
0.0
  0
TEXT
  5
8B46
330
85AB
100
AcDbEntity
  8
0
  6
Continuous
 62
     7
100
AcDbText
 10
583.0756767347826
 20
-23.1409952810323
 30
0.0
 40
10.0
  1
0180
100
AcDbText
  0
ENDSEC
  0
SECTION
  2
OBJECTS
  0
DICTIONARY
  5
859B
330
0
100
AcDbDictionary
281
     1
  3
ACAD_DETAILVIEWSTYLE
350
8B3F
  3
ACAD_GROUP
350
859C
  3
ACAD_IMAGE_VARS
350
860A
  3
ACAD_LAYOUT
350
85A8
  3
ACAD_MATERIAL
350
85B4
  3
ACAD_MLEADERSTYLE
350
8606
  3
ACAD_MLINESTYLE
350
85A5
  3
ACAD_PLOTSETTINGS
350
85A7
  3
ACAD_PLOTSTYLENAME
350
859D
  3
ACAD_SCALELIST
350
85C9
  3
ACAD_SECTIONVIEWSTYLE
350
8B40
  3
ACAD_TABLESTYLE
350
8604
  3
ACAD_VISUALSTYLE
350
85EB
  3
ACDB_RECOMPOSE_DATA
350
8B4C
  3
AcDbVariableDictionary
350
8B3A
  3
APPDATA
350
8608
  0
SUN
  5
8609
330
85AE
100
AcDbSun
 90
        1
290
     0
 63
     7
421
 16777215
 40
1.0
291
     1
 91
  2455826
 92
 54000000
292
     0
 70
     2
 71
   256
280
     1
  0
DICTIONARY
  5
8B3F
102
{ACAD_REACTORS
330
859B
102
}
330
859B
100
AcDbDictionary
281
     1
  0
DICTIONARY
  5
859C
102
{ACAD_REACTORS
330
859B
102
}
330
859B
100
AcDbDictionary
281
     1
  0
RASTERVARIABLES
  5
860A
102
{ACAD_REACTORS
330
859B
102
}
330
859B
100
AcDbRasterVariables
 90
        0
 70
     1
 71
     1
 72
     0
  0
DICTIONARY
  5
85A8
102
{ACAD_REACTORS
330
859B
102
}
330
859B
100
AcDbDictionary
281
     1
  3
Foglio 1
350
85AA
  3
Model
350
85AC
  0
DICTIONARY
  5
85B4
102
{ACAD_REACTORS
330
859B
102
}
330
859B
100
AcDbDictionary
281
     1
  3
ByBlock
350
85B6
  3
ByLayer
350
85B5
  3
Global
350
85B7
  0
DICTIONARY
  5
8606
102
{ACAD_REACTORS
330
859B
102
}
330
859B
100
AcDbDictionary
281
     1
  3
Standard
350
8607
  0
DICTIONARY
  5
85A5
102
{ACAD_REACTORS
330
859B
102
}
330
859B
100
AcDbDictionary
281
     1
  3
Standard
350
85A6
  0
DICTIONARY
  5
85A7
102
{ACAD_REACTORS
330
859B
102
}
330
859B
100
AcDbDictionary
281
     1
  0
ACDBDICTIONARYWDFLT
  5
859D
102
{ACAD_REACTORS
330
859B
102
}
330
859B
100
AcDbDictionary
281
     1
  3
Normal
350
859E
100
AcDbDictionaryWithDefault
340
859E
  0
DICTIONARY
  5
85C9
102
{ACAD_REACTORS
330
859B
102
}
330
859B
100
AcDbDictionary
281
     1
  3
A0
350
85CA
  3
A1
350
85CB
  3
A2
350
85CC
  3
A3
350
85CD
  3
A4
350
85CE
  3
A5
350
85CF
  3
A6
350
85D0
  3
A7
350
85D1
  3
A8
350
85D2
  3
A9
350
85D3
  3
B0
350
85D4
  3
B1
350
85D5
  3
B2
350
85D6
  3
B3
350
85D7
  3
B4
350
85D8
  3
B5
350
85D9
  3
B6
350
85DA
  3
B7
350
85DB
  3
B8
350
85DC
  3
B9
350
85DD
  3
C0
350
85DE
  3
C1
350
85DF
  3
C2
350
85E0
  3
C3
350
85E1
  3
C4
350
85E2
  3
C5
350
85E3
  3
C6
350
85E4
  3
C7
350
85E5
  3
C8
350
85E6
  3
C9
350
85E7
  3
D0
350
85E8
  3
D1
350
85E9
  3
D2
350
85EA
  0
DICTIONARY
  5
8B40
102
{ACAD_REACTORS
330
859B
102
}
330
859B
100
AcDbDictionary
281
     1
  0
DICTIONARY
  5
8604
102
{ACAD_REACTORS
330
859B
102
}
330
859B
100
AcDbDictionary
281
     1
  3
Standard
350
8605
  0
DICTIONARY
  5
85EB
102
{ACAD_REACTORS
330
859B
102
}
330
859B
100
AcDbDictionary
281
     1
  3
2dWireframe
350
85F0
  3
Basic
350
85F3
  3
Brighten
350
85F7
  3
ColorChange
350
85FB
  3
Conceptual
350
85F5
  3
Dim
350
85F6
  3
EdgeColorOff
350
85FE
  3
Facepattern
350
85FA
  3
Flat
350
85EC
  3
FlatWithEdges
350
85ED
  3
Gouraud
350
85EE
  3
GouraudWithEdges
350
85EF
  3
Hidden
350
85F2
  3
JitterOff
350
85FC
  3
Linepattern
350
85F9
  3
OverhangOff
350
85FD
  3
Realistic
350
85F4
  3
Shaded
350
8603
  3
Shaded with edges
350
8602
  3
Shades of Gray
350
85FF
  3
Sketchy
350
8600
  3
Thicken
350
85F8
  3
Wireframe
350
85F1
  3
X-Ray
350
8601
  0
XRECORD
  5
8B4C
102
{ACAD_REACTORS
330
859B
102
}
330
859B
100
AcDbXrecord
280
     1
 90
        1
330
8605
  0
DICTIONARY
  5
8B3A
102
{ACAD_REACTORS
330
859B
102
}
330
859B
100
AcDbDictionary
281
     1
  3
CANNOSCALE
350
8B3B
  3
CMLEADERSTYLE
350
8B3D
  3
CTABLESTYLE
350
8B3C
  3
MSLTSCALE
350
8B3E
  0
DICTIONARY
  5
8608
102
{ACAD_REACTORS
330
859B
102
}
330
859B
100
AcDbDictionary
281
     1
  0
LAYOUT
  5
85AA
102
{ACAD_REACTORS
330
85A8
102
}
330
85A8
100
AcDbPlotSettings
  1

  2
none_device
  4

  6

 40
0.0
 41
0.0
 42
0.0
 43
0.0
 44
0.0
 45
0.0
 46
0.0
 47
0.0
 48
0.0
 49
0.0
140
0.0
141
0.0
142
1.0
143
1.0
 70
   688
 72
     0
 73
     0
 74
     5
  7

 75
    16
 76
     0
 77
     2
 78
   300
147
1.0
148
0.0
149
0.0
100
AcDbLayout
  1
Foglio 1
 70
     0
 71
     1
 10
0.0
 20
0.0
 11
0.0
 21
0.0
 12
0.0
 22
0.0
 32
0.0
 14
1.000000000000000E+20
 24
1.000000000000000E+20
 34
1.000000000000000E+20
 15
-1.000000000000000E+20
 25
-1.000000000000000E+20
 35
-1.000000000000000E+20
146
0.0
 13
0.0
 23
0.0
 33
0.0
 16
1.0
 26
0.0
 36
0.0
 17
0.0
 27
1.0
 37
0.0
 76
     0
330
85A9
  0
LAYOUT
  5
85AC
102
{ACAD_REACTORS
330
85A8
102
}
330
85A8
100
AcDbPlotSettings
  1

  2
none_device
  4
Letter_(8.50_x_11.00_Inches)
  6

 40
6.35
 41
6.35
 42
6.35
 43
6.35
 44
215.9
 45
279.4
 46
0.0
 47
0.0
 48
0.0
 49
0.0
140
0.0
141
0.0
142
1.0
143
1.0
 70
  1712
 72
     0
 73
     0
 74
     0
  7

 75
     0
 76
     0
 77
     2
 78
   300
147
1.0
148
0.0
149
0.0
100
AcDbLayout
  1
Model
 70
     1
 71
     0
 10
0.0
 20
0.0
 11
12.0
 21
9.0
 12
0.0
 22
0.0
 32
0.0
 14
349.8192309104097
 24
-125.4851656564732
 34
0.0
 15
609.0916927507988
 25
74.25376138576445
 35
0.0
146
0.0
 13
0.0
 23
0.0
 33
0.0
 16
1.0
 26
0.0
 36
0.0
 17
0.0
 27
1.0
 37
0.0
 76
     0
330
85AB
331
85AE
  0
MATERIAL
  5
85B6
102
{ACAD_REACTORS
330
85B4
102
}
330
85B4
100
AcDbMaterial
  1
ByBlock
 72
     1
 94
      127
  0
MATERIAL
  5
85B5
102
{ACAD_REACTORS
330
85B4
102
}
330
85B4
100
AcDbMaterial
  1
ByLayer
 72
     1
 94
      127
  0
MATERIAL
  5
85B7
102
{ACAD_REACTORS
330
85B4
102
}
330
85B4
100
AcDbMaterial
  1
Global
 72
     1
 94
      127
  0
MLEADERSTYLE
  5
8607
102
{ACAD_REACTORS
330
8606
102
}
330
8606
100
AcDbMLeaderStyle
179
     2
170
     2
171
     1
172
     0
 90
        2
 40
0.0
 41
0.0
173
     1
 91
-1056964608
340
85A2
 92
       -2
290
     1
 42
0.09
291
     1
 43
0.36
  3
Standard
341
0
 44
0.18
300

342
85A0
174
     1
178
     1
175
     1
176
     0
 93
-1056964608
 45
0.18
292
     0
297
     0
 46
0.18
343
0
 94
-1056964608
 47
1.0
 49
1.0
140
1.0
293
     1
141
0.0
294
     1
177
     0
142
1.0
295
     0
296
     0
143
0.125
271
     0
272
     9
273
     9
298
     0
  0
MLINESTYLE
  5
85A6
102
{ACAD_REACTORS
330
85A5
102
}
330
85A5
100
AcDbMlineStyle
  2
Standard
 70
     0
  3

 62
   256
 51
90.0
 52
90.0
 71
     2
 49
0.5
 62
   256
  6
BYLAYER
 49
-0.5
 62
   256
  6
BYLAYER
  0
ACDBPLACEHOLDER
  5
859E
102
{ACAD_REACTORS
330
859D
102
}
330
859D
  0
SCALE
  5
85CA
102
{ACAD_REACTORS
330
85C9
102
}
330
85C9
100
AcDbScale
 70
     0
300
1:1
140
1.0
141
1.0
290
     1
  0
SCALE
  5
85CB
102
{ACAD_REACTORS
330
85C9
102
}
330
85C9
100
AcDbScale
 70
     0
300
1:2
140
1.0
141
2.0
290
     0
  0
SCALE
  5
85CC
102
{ACAD_REACTORS
330
85C9
102
}
330
85C9
100
AcDbScale
 70
     0
300
1:4
140
1.0
141
4.0
290
     0
  0
SCALE
  5
85CD
102
{ACAD_REACTORS
330
85C9
102
}
330
85C9
100
AcDbScale
 70
     0
300
1:5
140
1.0
141
5.0
290
     0
  0
SCALE
  5
85CE
102
{ACAD_REACTORS
330
85C9
102
}
330
85C9
100
AcDbScale
 70
     0
300
1:8
140
1.0
141
8.0
290
     0
  0
SCALE
  5
85CF
102
{ACAD_REACTORS
330
85C9
102
}
330
85C9
100
AcDbScale
 70
     0
300
1:10
140
1.0
141
10.0
290
     0
  0
SCALE
  5
85D0
102
{ACAD_REACTORS
330
85C9
102
}
330
85C9
100
AcDbScale
 70
     0
300
1:16
140
1.0
141
16.0
290
     0
  0
SCALE
  5
85D1
102
{ACAD_REACTORS
330
85C9
102
}
330
85C9
100
AcDbScale
 70
     0
300
1:20
140
1.0
141
20.0
290
     0
  0
SCALE
  5
85D2
102
{ACAD_REACTORS
330
85C9
102
}
330
85C9
100
AcDbScale
 70
     0
300
1:30
140
1.0
141
30.0
290
     0
  0
SCALE
  5
85D3
102
{ACAD_REACTORS
330
85C9
102
}
330
85C9
100
AcDbScale
 70
     0
300
1:40
140
1.0
141
40.0
290
     0
  0
SCALE
  5
85D4
102
{ACAD_REACTORS
330
85C9
102
}
330
85C9
100
AcDbScale
 70
     0
300
1:50
140
1.0
141
50.0
290
     0
  0
SCALE
  5
85D5
102
{ACAD_REACTORS
330
85C9
102
}
330
85C9
100
AcDbScale
 70
     0
300
1:100
140
1.0
141
100.0
290
     0
  0
SCALE
  5
85D6
102
{ACAD_REACTORS
330
85C9
102
}
330
85C9
100
AcDbScale
 70
     0
300
2:1
140
2.0
141
1.0
290
     0
  0
SCALE
  5
85D7
102
{ACAD_REACTORS
330
85C9
102
}
330
85C9
100
AcDbScale
 70
     0
300
4:1
140
4.0
141
1.0
290
     0
  0
SCALE
  5
85D8
102
{ACAD_REACTORS
330
85C9
102
}
330
85C9
100
AcDbScale
 70
     0
300
8:1
140
8.0
141
1.0
290
     0
  0
SCALE
  5
85D9
102
{ACAD_REACTORS
330
85C9
102
}
330
85C9
100
AcDbScale
 70
     0
300
10:1
140
10.0
141
1.0
290
     0
  0
SCALE
  5
85DA
102
{ACAD_REACTORS
330
85C9
102
}
330
85C9
100
AcDbScale
 70
     0
300
100:1
140
100.0
141
1.0
290
     0
  0
SCALE
  5
85DB
102
{ACAD_REACTORS
330
85C9
102
}
330
85C9
100
AcDbScale
 70
     0
300
1/128" = 1'-0"
140
0.0078125
141
12.0
290
     0
  0
SCALE
  5
85DC
102
{ACAD_REACTORS
330
85C9
102
}
330
85C9
100
AcDbScale
 70
     0
300
1/64" = 1'-0"
140
0.015625
141
12.0
290
     0
  0
SCALE
  5
85DD
102
{ACAD_REACTORS
330
85C9
102
}
330
85C9
100
AcDbScale
 70
     0
300
1/32" = 1'-0"
140
0.03125
141
12.0
290
     0
  0
SCALE
  5
85DE
102
{ACAD_REACTORS
330
85C9
102
}
330
85C9
100
AcDbScale
 70
     0
300
1/16" = 1'-0"
140
0.0625
141
12.0
290
     0
  0
SCALE
  5
85DF
102
{ACAD_REACTORS
330
85C9
102
}
330
85C9
100
AcDbScale
 70
     0
300
3/32" = 1'-0"
140
0.09375
141
12.0
290
     0
  0
SCALE
  5
85E0
102
{ACAD_REACTORS
330
85C9
102
}
330
85C9
100
AcDbScale
 70
     0
300
1/8" = 1'-0"
140
0.125
141
12.0
290
     0
  0
SCALE
  5
85E1
102
{ACAD_REACTORS
330
85C9
102
}
330
85C9
100
AcDbScale
 70
     0
300
3/16" = 1'-0"
140
0.1875
141
12.0
290
     0
  0
SCALE
  5
85E2
102
{ACAD_REACTORS
330
85C9
102
}
330
85C9
100
AcDbScale
 70
     0
300
1/4" = 1'-0"
140
0.25
141
12.0
290
     0
  0
SCALE
  5
85E3
102
{ACAD_REACTORS
330
85C9
102
}
330
85C9
100
AcDbScale
 70
     0
300
3/8" = 1'-0"
140
0.375
141
12.0
290
     0
  0
SCALE
  5
85E4
102
{ACAD_REACTORS
330
85C9
102
}
330
85C9
100
AcDbScale
 70
     0
300
1/2" = 1'-0"
140
0.5
141
12.0
290
     0
  0
SCALE
  5
85E5
102
{ACAD_REACTORS
330
85C9
102
}
330
85C9
100
AcDbScale
 70
     0
300
3/4" = 1'-0"
140
0.75
141
12.0
290
     0
  0
SCALE
  5
85E6
102
{ACAD_REACTORS
330
85C9
102
}
330
85C9
100
AcDbScale
 70
     0
300
1" = 1'-0"
140
1.0
141
12.0
290
     0
  0
SCALE
  5
85E7
102
{ACAD_REACTORS
330
85C9
102
}
330
85C9
100
AcDbScale
 70
     0
300
1-1/2" = 1'-0"
140
1.5
141
12.0
290
     0
  0
SCALE
  5
85E8
102
{ACAD_REACTORS
330
85C9
102
}
330
85C9
100
AcDbScale
 70
     0
300
3" = 1'-0"
140
3.0
141
12.0
290
     0
  0
SCALE
  5
85E9
102
{ACAD_REACTORS
330
85C9
102
}
330
85C9
100
AcDbScale
 70
     0
300
6" = 1'-0"
140
6.0
141
12.0
290
     0
  0
SCALE
  5
85EA
102
{ACAD_REACTORS
330
85C9
102
}
330
85C9
100
AcDbScale
 70
     0
300
1'-0" = 1'-0"
140
12.0
141
12.0
290
     0
  0
TABLESTYLE
  5
8605
102
{ACAD_REACTORS
330
8604
102
}
102
{ACAD_XDICTIONARY
360
8B4A
102
}
330
8604
100
AcDbTableStyle
  3
Standard
 70
     0
 71
     0
 40
0.06
 41
0.06
280
     0
281
     0
  7
STANDARD
140
0.18
170
     2
 62
     0
 63
   257
283
     0
 90
        4
 91
        0
  1

274
    -2
284
     1
 64
     0
275
    -2
285
     1
 65
     0
276
    -2
286
     1
 66
     0
277
    -2
287
     1
 67
     0
278
    -2
288
     1
 68
     0
279
    -2
289
     1
 69
     0
  7
STANDARD
140
0.25
170
     5
 62
     0
 63
   257
283
     0
 90
        4
 91
        0
  1

274
    -2
284
     1
 64
     0
275
    -2
285
     1
 65
     0
276
    -2
286
     1
 66
     0
277
    -2
287
     1
 67
     0
278
    -2
288
     1
 68
     0
279
    -2
289
     1
 69
     0
  7
STANDARD
140
0.18
170
     5
 62
     0
 63
   257
283
     0
 90
        4
 91
        0
  1

274
    -2
284
     1
 64
     0
275
    -2
285
     1
 65
     0
276
    -2
286
     1
 66
     0
277
    -2
287
     1
 67
     0
278
    -2
288
     1
 68
     0
279
    -2
289
     1
 69
     0
  0
VISUALSTYLE
  5
85F0
102
{ACAD_REACTORS
330
85EB
102
}
330
85EB
100
AcDbVisualStyle
  2
2dWireframe
 70
     4
177
     3
291
     0
 70
    58
 90
        0
176
     1
 90
        2
176
     1
 90
        0
176
     1
 90
        0
176
     1
 40
0.6
176
     1
 40
30.0
176
     1
 62
     7
420
 16777215
176
     1
 90
        1
176
     1
 90
        4
176
     1
 62
     7
176
     1
 62
   257
176
     1
 90
        1
176
     1
 90
        1
176
     1
 40
1.0
176
     1
 90
        0
176
     1
 62
   257
176
     1
 40
1.0
176
     1
 90
        1
176
     1
 90
        6
176
     1
 90
        2
176
     1
 62
     7
176
     1
 90
        5
176
     1
 90
        0
176
     1
 90
        0
176
     1
290
     0
176
     1
 90
        1
176
     1
 40
0.0
176
     1
 90
        0
176
     1
290
     1
176
     1
290
     1
176
     1
290
     0
176
     1
290
     0
176
     1
290
     0
176
     1
290
     0
176
     1
290
     0
176
     1
290
     0
176
     1
290
     0
176
     1
 90
       50
176
     1
 40
0.0
176
     1
 40
1.0
176
     1
 90
        0
176
     1
 62
    18
420
        0
176
     1
 90
       50
176
     1
 90
        3
176
     1
 62
     5
420
      255
176
     1
290
     0
176
     1
 90
       50
176
     1
 90
       50
176
     1
 90
       50
176
     1
290
     0
176
     1
 90
       50
176
     1
 62
   256
176
     0
 40
1.0
176
     0
 90
        2
176
     1
  1
strokes_ogs.tif
176
     1
290
     0
176
     1
 40
1.0
176
     1
 40
1.0
176
     1
  0
VISUALSTYLE
  5
85F3
102
{ACAD_REACTORS
330
85EB
102
}
330
85EB
100
AcDbVisualStyle
  2
Basic
 70
     7
177
     3
291
     1
 70
    58
 90
        1
176
     1
 90
        0
176
     1
 90
        1
176
     1
 90
        0
176
     1
 40
0.6
176
     1
 40
30.0
176
     1
 62
     7
420
 16777215
176
     1
 90
        0
176
     1
 90
        4
176
     1
 62
     7
176
     1
 62
   257
176
     1
 90
        1
176
     1
 90
        1
176
     1
 40
1.0
176
     1
 90
        8
176
     1
 62
     7
176
     1
 40
1.0
176
     1
 90
        1
176
     1
 90
        6
176
     1
 90
        2
176
     1
 62
     7
176
     1
 90
        5
176
     1
 90
        0
176
     1
 90
        0
176
     1
290
     0
176
     1
 90
        1
176
     1
 40
0.0
176
     1
 90
        0
176
     1
290
     0
176
     1
290
     1
176
     1
290
     1
176
     1
290
     0
176
     1
290
     0
176
     1
290
     0
176
     1
290
     0
176
     1
290
     0
176
     1
290
     0
176
     1
 90
       50
176
     1
 40
0.0
176
     1
 40
1.0
176
     1
 90
        0
176
     1
 62
    18
420
        0
176
     1
 90
       50
176
     1
 90
        3
176
     1
 62
     5
420
      255
176
     1
290
     0
176
     1
 90
       50
176
     1
 90
       50
176
     1
 90
       50
176
     1
290
     0
176
     1
 90
       50
176
     1
 62
   256
176
     0
 40
1.0
176
     0
 90
        2
176
     1
  1
strokes_ogs.tif
176
     1
290
     0
176
     1
 40
1.0
176
     1
 40
1.0
176
     1
  0
VISUALSTYLE
  5
85F7
102
{ACAD_REACTORS
330
85EB
102
}
330
85EB
100
AcDbVisualStyle
  2
Brighten
 70
    12
177
     3
291
     1
 70
    58
 90
        2
176
     1
 90
        2
176
     1
 90
        0
176
     1
 90
        0
176
     1
 40
0.6
176
     1
 40
30.0
176
     1
 62
     7
420
 16777215
176
     1
 90
        1
176
     1
 90
        4
176
     1
 62
     7
176
     1
 62
   257
176
     1
 90
        1
176
     1
 90
        1
176
     1
 40
1.0
176
     1
 90
        8
176
     1
 62
     7
176
     1
 40
1.0
176
     1
 90
        1
176
     1
 90
        6
176
     1
 90
        2
176
     1
 62
     7
176
     1
 90
        5
176
     1
 90
        0
176
     1
 90
        0
176
     1
290
     0
176
     1
 90
        1
176
     1
 40
50.0
176
     1
 90
        0
176
     1
290
     0
176
     1
290
     1
176
     1
290
     1
176
     1
290
     0
176
     1
290
     0
176
     1
290
     0
176
     1
290
     0
176
     1
290
     0
176
     1
290
     0
176
     1
 90
       50
176
     1
 40
0.0
176
     1
 40
1.0
176
     1
 90
        0
176
     1
 62
    18
420
        0
176
     1
 90
       50
176
     1
 90
        3
176
     1
 62
     5
420
      255
176
     1
290
     0
176
     1
 90
       50
176
     1
 90
       50
176
     1
 90
       50
176
     1
290
     0
176
     1
 90
       50
176
     1
 62
   256
176
     0
 40
1.0
176
     0
 90
        2
176
     1
  1
strokes_ogs.tif
176
     1
290
     0
176
     1
 40
1.0
176
     1
 40
1.0
176
     1
  0
VISUALSTYLE
  5
85FB
102
{ACAD_REACTORS
330
85EB
102
}
330
85EB
100
AcDbVisualStyle
  2
ColorChange
 70
    16
177
     3
291
     1
 70
    58
 90
        2
176
     1
 90
        2
176
     1
 90
        3
176
     1
 90
        0
176
     1
 40
0.6
176
     1
 40
30.0
176
     1
 62
     8
420
  8421504
176
     1
 90
        1
176
     1
 90
        4
176
     1
 62
     7
176
     1
 62
   257
176
     1
 90
        1
176
     1
 90
        1
176
     1
 40
1.0
176
     1
 90
        8
176
     1
 62
     8
420
  8421504
176
     1
 40
1.0
176
     1
 90
        1
176
     1
 90
        6
176
     1
 90
        2
176
     1
 62
     7
176
     1
 90
        5
176
     1
 90
        0
176
     1
 90
        0
176
     1
290
     0
176
     1
 90
        1
176
     1
 40
0.0
176
     1
 90
        0
176
     1
290
     0
176
     1
290
     1
176
     1
290
     1
176
     1
290
     0
176
     1
290
     0
176
     1
290
     0
176
     1
290
     0
176
     1
290
     0
176
     1
290
     0
176
     1
 90
       50
176
     1
 40
0.0
176
     1
 40
1.0
176
     1
 90
        0
176
     1
 62
    18
420
        0
176
     1
 90
       50
176
     1
 90
        3
176
     1
 62
     5
420
      255
176
     1
290
     0
176
     1
 90
       50
176
     1
 90
       50
176
     1
 90
       50
176
     1
290
     0
176
     1
 90
       50
176
     1
 62
   256
176
     0
 40
1.0
176
     0
 90
        2
176
     1
  1
strokes_ogs.tif
176
     1
290
     0
176
     1
 40
1.0
176
     1
 40
1.0
176
     1
  0
VISUALSTYLE
  5
85F5
102
{ACAD_REACTORS
330
85EB
102
}
330
85EB
100
AcDbVisualStyle
  2
Conceptual
 70
     9
177
     3
291
     0
 70
    58
 90
        3
176
     1
 90
        2
176
     1
 90
        0
176
     1
 90
        0
176
     1
 40
0.6
176
     1
 40
30.0
176
     1
 62
     7
420
 16777215
176
     1
 90
        2
176
     1
 90
        2
176
     1
 62
     7
176
     1
 62
   257
176
     1
 90
        1
176
     1
 90
        1
176
     1
 40
179.0
176
     1
 90
        8
176
     1
 62
     7
176
     1
 40
1.0
176
     1
 90
        1
176
     1
 90
        6
176
     1
 90
        2
176
     1
 62
     7
176
     1
 90
        3
176
     1
 90
        0
176
     1
 90
        0
176
     1
290
     0
176
     1
 90
        1
176
     1
 40
0.0
176
     1
 90
        0
176
     1
290
     0
176
     1
290
     1
176
     1
290
     1
176
     1
290
     0
176
     1
290
     0
176
     1
290
     0
176
     1
290
     0
176
     1
290
     0
176
     1
290
     0
176
     1
 90
       50
176
     1
 40
0.0
176
     1
 40
1.0
176
     1
 90
        0
176
     1
 62
    18
420
        0
176
     1
 90
       50
176
     1
 90
        3
176
     1
 62
     5
420
      255
176
     1
290
     0
176
     1
 90
       50
176
     1
 90
       50
176
     1
 90
       50
176
     1
290
     0
176
     1
 90
       50
176
     1
 62
   256
176
     0
 40
1.0
176
     0
 90
        2
176
     1
  1
strokes_ogs.tif
176
     1
290
     0
176
     1
 40
1.0
176
     1
 40
1.0
176
     1
  0
VISUALSTYLE
  5
85F6
102
{ACAD_REACTORS
330
85EB
102
}
330
85EB
100
AcDbVisualStyle
  2
Dim
 70
    11
177
     3
291
     1
 70
    58
 90
        2
176
     1
 90
        2
176
     1
 90
        0
176
     1
 90
        0
176
     1
 40
0.6
176
     1
 40
30.0
176
     1
 62
     7
420
 16777215
176
     1
 90
        1
176
     1
 90
        4
176
     1
 62
     7
176
     1
 62
   257
176
     1
 90
        1
176
     1
 90
        1
176
     1
 40
1.0
176
     1
 90
        8
176
     1
 62
     7
176
     1
 40
1.0
176
     1
 90
        1
176
     1
 90
        6
176
     1
 90
        2
176
     1
 62
     7
176
     1
 90
        5
176
     1
 90
        0
176
     1
 90
        0
176
     1
290
     0
176
     1
 90
        1
176
     1
 40
-50.0
176
     1
 90
        0
176
     1
290
     0
176
     1
290
     1
176
     1
290
     1
176
     1
290
     0
176
     1
290
     0
176
     1
290
     0
176
     1
290
     0
176
     1
290
     0
176
     1
290
     0
176
     1
 90
       50
176
     1
 40
0.0
176
     1
 40
1.0
176
     1
 90
        0
176
     1
 62
    18
420
        0
176
     1
 90
       50
176
     1
 90
        3
176
     1
 62
     5
420
      255
176
     1
290
     0
176
     1
 90
       50
176
     1
 90
       50
176
     1
 90
       50
176
     1
290
     0
176
     1
 90
       50
176
     1
 62
   256
176
     0
 40
1.0
176
     0
 90
        2
176
     1
  1
strokes_ogs.tif
176
     1
290
     0
176
     1
 40
1.0
176
     1
 40
1.0
176
     1
  0
VISUALSTYLE
  5
85FE
102
{ACAD_REACTORS
330
85EB
102
}
330
85EB
100
AcDbVisualStyle
  2
EdgeColorOff
 70
    22
177
     3
291
     1
 70
    58
 90
        2
176
     0
 90
        2
176
     0
 90
        0
176
     0
 90
        0
176
     0
 40
0.6
176
     0
 40
30.0
176
     0
 62
     7
420
 16777215
176
     0
 90
        1
176
     0
 90
        4
176
     0
 62
     7
176
     0
 62
   257
176
     0
 90
        1
176
     0
 90
        1
176
     0
 40
1.0
176
     0
 90
        8
176
     2
 62
     7
176
     0
 40
1.0
176
     0
 90
        1
176
     0
 90
        6
176
     0
 90
        2
176
     0
 62
     7
176
     0
 90
        5
176
     0
 90
        0
176
     0
 90
        0
176
     0
290
     0
176
     0
 90
        1
176
     0
 40
0.0
176
     0
 90
        0
176
     0
290
     0
176
     0
290
     1
176
     0
290
     1
176
     0
290
     0
176
     0
290
     0
176
     0
290
     0
176
     0
290
     0
176
     0
290
     0
176
     0
290
     0
176
     0
 90
       50
176
     0
 40
0.0
176
     0
 40
1.0
176
     0
 90
        0
176
     0
 62
    18
420
        0
176
     0
 90
       50
176
     0
 90
        3
176
     0
 62
     5
420
      255
176
     0
290
     0
176
     0
 90
       50
176
     0
 90
       50
176
     0
 90
       50
176
     0
290
     0
176
     0
 90
       50
176
     0
 62
   256
176
     0
 40
1.0
176
     0
 90
        2
176
     0
  1
strokes_ogs.tif
176
     0
290
     0
176
     0
 40
1.0
176
     0
 40
1.0
176
     0
  0
VISUALSTYLE
  5
85FA
102
{ACAD_REACTORS
330
85EB
102
}
330
85EB
100
AcDbVisualStyle
  2
Facepattern
 70
    15
177
     3
291
     1
 70
    58
 90
        2
176
     1
 90
        2
176
     1
 90
        0
176
     1
 90
        0
176
     1
 40
0.6
176
     1
 40
30.0
176
     1
 62
     7
420
 16777215
176
     1
 90
        1
176
     1
 90
        4
176
     1
 62
     7
176
     1
 62
   257
176
     1
 90
        1
176
     1
 90
        1
176
     1
 40
1.0
176
     1
 90
        8
176
     1
 62
     7
176
     1
 40
1.0
176
     1
 90
        1
176
     1
 90
        6
176
     1
 90
        2
176
     1
 62
     7
176
     1
 90
        5
176
     1
 90
        0
176
     1
 90
        0
176
     1
290
     0
176
     1
 90
        1
176
     1
 40
0.0
176
     1
 90
        0
176
     1
290
     0
176
     1
290
     1
176
     1
290
     1
176
     1
290
     0
176
     1
290
     0
176
     1
290
     0
176
     1
290
     0
176
     1
290
     0
176
     1
290
     0
176
     1
 90
       50
176
     1
 40
0.0
176
     1
 40
1.0
176
     1
 90
        0
176
     1
 62
    18
420
        0
176
     1
 90
       50
176
     1
 90
        3
176
     1
 62
     5
420
      255
176
     1
290
     0
176
     1
 90
       50
176
     1
 90
       50
176
     1
 90
       50
176
     1
290
     0
176
     1
 90
       50
176
     1
 62
   256
176
     0
 40
1.0
176
     0
 90
        2
176
     1
  1
strokes_ogs.tif
176
     1
290
     0
176
     1
 40
1.0
176
     1
 40
1.0
176
     1
  0
VISUALSTYLE
  5
85EC
102
{ACAD_REACTORS
330
85EB
102
}
330
85EB
100
AcDbVisualStyle
  2
Flat
 70
     0
177
     3
291
     1
 70
    58
 90
        2
176
     1
 90
        1
176
     1
 90
        1
176
     1
 90
        2
176
     1
 40
0.6
176
     1
 40
30.0
176
     1
 62
     7
420
 16777215
176
     1
 90
        0
176
     1
 90
        0
176
     1
 62
     7
176
     1
 62
   257
176
     1
 90
        1
176
     1
 90
        1
176
     1
 40
1.0
176
     1
 90
        8
176
     1
 62
     7
176
     1
 40
1.0
176
     1
 90
        1
176
     1
 90
        6
176
     1
 90
        2
176
     1
 62
     7
176
     1
 90
        5
176
     1
 90
        0
176
     1
 90
        0
176
     1
290
     0
176
     1
 90
       13
176
     1
 40
0.0
176
     1
 90
        0
176
     1
290
     0
176
     1
290
     1
176
     1
290
     1
176
     1
290
     0
176
     1
290
     0
176
     1
290
     0
176
     1
290
     0
176
     1
290
     0
176
     1
290
     0
176
     1
 90
       50
176
     1
 40
0.0
176
     1
 40
1.0
176
     1
 90
        0
176
     1
 62
    18
420
        0
176
     1
 90
       50
176
     1
 90
        3
176
     1
 62
     5
420
      255
176
     1
290
     0
176
     1
 90
       50
176
     1
 90
       50
176
     1
 90
       50
176
     1
290
     0
176
     1
 90
       50
176
     1
 62
   256
176
     0
 40
1.0
176
     0
 90
        2
176
     1
  1
strokes_ogs.tif
176
     1
290
     0
176
     1
 40
1.0
176
     1
 40
1.0
176
     1
  0
VISUALSTYLE
  5
85ED
102
{ACAD_REACTORS
330
85EB
102
}
330
85EB
100
AcDbVisualStyle
  2
FlatWithEdges
 70
     1
177
     3
291
     1
 70
    58
 90
        2
176
     1
 90
        1
176
     1
 90
        1
176
     1
 90
        2
176
     1
 40
0.6
176
     1
 40
30.0
176
     1
 62
     7
420
 16777215
176
     1
 90
        1
176
     1
 90
        0
176
     1
 62
     7
176
     1
 62
   257
176
     1
 90
        1
176
     1
 90
        1
176
     1
 40
1.0
176
     1
 90
        0
176
     1
 62
   257
176
     1
 40
1.0
176
     1
 90
        1
176
     1
 90
        6
176
     1
 90
        2
176
     1
 62
     7
176
     1
 90
        5
176
     1
 90
        0
176
     1
 90
        0
176
     1
290
     0
176
     1
 90
       13
176
     1
 40
0.0
176
     1
 90
        0
176
     1
290
     0
176
     1
290
     1
176
     1
290
     1
176
     1
290
     0
176
     1
290
     0
176
     1
290
     0
176
     1
290
     0
176
     1
290
     0
176
     1
290
     0
176
     1
 90
       50
176
     1
 40
0.0
176
     1
 40
1.0
176
     1
 90
        0
176
     1
 62
    18
420
        0
176
     1
 90
       50
176
     1
 90
        3
176
     1
 62
     5
420
      255
176
     1
290
     0
176
     1
 90
       50
176
     1
 90
       50
176
     1
 90
       50
176
     1
290
     0
176
     1
 90
       50
176
     1
 62
   256
176
     0
 40
1.0
176
     0
 90
        2
176
     1
  1
strokes_ogs.tif
176
     1
290
     0
176
     1
 40
1.0
176
     1
 40
1.0
176
     1
  0
VISUALSTYLE
  5
85EE
102
{ACAD_REACTORS
330
85EB
102
}
330
85EB
100
AcDbVisualStyle
  2
Gouraud
 70
     2
177
     3
291
     1
 70
    58
 90
        2
176
     1
 90
        2
176
     1
 90
        1
176
     1
 90
        2
176
     1
 40
0.6
176
     1
 40
30.0
176
     1
 62
     7
420
 16777215
176
     1
 90
        0
176
     1
 90
        0
176
     1
 62
     7
176
     1
 62
   257
176
     1
 90
        1
176
     1
 90
        1
176
     1
 40
1.0
176
     1
 90
        0
176
     1
 62
     7
176
     1
 40
1.0
176
     1
 90
        1
176
     1
 90
        6
176
     1
 90
        2
176
     1
 62
     7
176
     1
 90
        5
176
     1
 90
        0
176
     1
 90
        0
176
     1
290
     0
176
     1
 90
       13
176
     1
 40
0.0
176
     1
 90
        0
176
     1
290
     0
176
     1
290
     1
176
     1
290
     1
176
     1
290
     0
176
     1
290
     0
176
     1
290
     0
176
     1
290
     0
176
     1
290
     0
176
     1
290
     0
176
     1
 90
       50
176
     1
 40
0.0
176
     1
 40
1.0
176
     1
 90
        0
176
     1
 62
    18
420
        0
176
     1
 90
       50
176
     1
 90
        3
176
     1
 62
     5
420
      255
176
     1
290
     0
176
     1
 90
       50
176
     1
 90
       50
176
     1
 90
       50
176
     1
290
     0
176
     1
 90
       50
176
     1
 62
   256
176
     0
 40
1.0
176
     0
 90
        2
176
     1
  1
strokes_ogs.tif
176
     1
290
     0
176
     1
 40
1.0
176
     1
 40
1.0
176
     1
  0
VISUALSTYLE
  5
85EF
102
{ACAD_REACTORS
330
85EB
102
}
330
85EB
100
AcDbVisualStyle
  2
GouraudWithEdges
 70
     3
177
     3
291
     1
 70
    58
 90
        2
176
     1
 90
        2
176
     1
 90
        1
176
     1
 90
        2
176
     1
 40
0.6
176
     1
 40
30.0
176
     1
 62
     7
420
 16777215
176
     1
 90
        1
176
     1
 90
        0
176
     1
 62
     7
176
     1
 62
   257
176
     1
 90
        1
176
     1
 90
        1
176
     1
 40
1.0
176
     1
 90
        0
176
     1
 62
   257
176
     1
 40
1.0
176
     1
 90
        1
176
     1
 90
        6
176
     1
 90
        2
176
     1
 62
     7
176
     1
 90
        5
176
     1
 90
        0
176
     1
 90
        0
176
     1
290
     0
176
     1
 90
       13
176
     1
 40
0.0
176
     1
 90
        0
176
     1
290
     0
176
     1
290
     1
176
     1
290
     1
176
     1
290
     0
176
     1
290
     0
176
     1
290
     0
176
     1
290
     0
176
     1
290
     0
176
     1
290
     0
176
     1
 90
       50
176
     1
 40
0.0
176
     1
 40
1.0
176
     1
 90
        0
176
     1
 62
    18
420
        0
176
     1
 90
       50
176
     1
 90
        3
176
     1
 62
     5
420
      255
176
     1
290
     0
176
     1
 90
       50
176
     1
 90
       50
176
     1
 90
       50
176
     1
290
     0
176
     1
 90
       50
176
     1
 62
   256
176
     0
 40
1.0
176
     0
 90
        2
176
     1
  1
strokes_ogs.tif
176
     1
290
     0
176
     1
 40
1.0
176
     1
 40
1.0
176
     1
  0
VISUALSTYLE
  5
85F2
102
{ACAD_REACTORS
330
85EB
102
}
330
85EB
100
AcDbVisualStyle
  2
Hidden
 70
     6
177
     3
291
     0
 70
    58
 90
        1
176
     1
 90
        2
176
     1
 90
        2
176
     1
 90
        0
176
     1
 40
0.6
176
     1
 40
30.0
176
     1
 62
     7
420
 16777215
176
     1
 90
        2
176
     1
 90
        2
176
     1
 62
     7
176
     1
 62
   257
176
     1
 90
        2
176
     1
 90
        1
176
     1
 40
40.0
176
     1
 90
        0
176
     1
 62
   257
176
     1
 40
1.0
176
     1
 90
        1
176
     1
 90
        6
176
     1
 90
        2
176
     1
 62
     7
176
     1
 90
        3
176
     1
 90
        0
176
     1
 90
        0
176
     1
290
     0
176
     1
 90
        1
176
     1
 40
0.0
176
     1
 90
        0
176
     1
290
     0
176
     1
290
     1
176
     1
290
     1
176
     1
290
     0
176
     1
290
     0
176
     1
290
     0
176
     1
290
     0
176
     1
290
     0
176
     1
290
     0
176
     1
 90
       50
176
     1
 40
0.0
176
     1
 40
1.0
176
     1
 90
        0
176
     1
 62
    18
420
        0
176
     1
 90
       50
176
     1
 90
        3
176
     1
 62
     5
420
      255
176
     1
290
     0
176
     1
 90
       50
176
     1
 90
       50
176
     1
 90
       50
176
     1
290
     0
176
     1
 90
       50
176
     1
 62
   256
176
     0
 40
1.0
176
     0
 90
        2
176
     1
  1
strokes_ogs.tif
176
     1
290
     0
176
     1
 40
1.0
176
     1
 40
1.0
176
     1
  0
VISUALSTYLE
  5
85FC
102
{ACAD_REACTORS
330
85EB
102
}
330
85EB
100
AcDbVisualStyle
  2
JitterOff
 70
    20
177
     3
291
     1
 70
    58
 90
        2
176
     0
 90
        2
176
     0
 90
        0
176
     0
 90
        0
176
     0
 40
0.6
176
     0
 40
30.0
176
     0
 62
     7
420
 16777215
176
     0
 90
        1
176
     0
 90
        4
176
     0
 62
     7
176
     0
 62
   257
176
     0
 90
        1
176
     0
 90
        1
176
     0
 40
1.0
176
     0
 90
       10
176
     2
 62
     7
176
     0
 40
1.0
176
     0
 90
        1
176
     0
 90
        6
176
     0
 90
        2
176
     0
 62
     7
176
     0
 90
        5
176
     0
 90
        0
176
     0
 90
        0
176
     0
290
     0
176
     0
 90
        1
176
     0
 40
0.0
176
     0
 90
        0
176
     0
290
     0
176
     0
290
     1
176
     0
290
     1
176
     0
290
     0
176
     0
290
     0
176
     0
290
     0
176
     0
290
     0
176
     0
290
     0
176
     0
290
     0
176
     0
 90
       50
176
     0
 40
0.0
176
     0
 40
1.0
176
     0
 90
        0
176
     0
 62
    18
420
        0
176
     0
 90
       50
176
     0
 90
        3
176
     0
 62
     5
420
      255
176
     0
290
     0
176
     0
 90
       50
176
     0
 90
       50
176
     0
 90
       50
176
     0
290
     0
176
     0
 90
       50
176
     0
 62
   256
176
     0
 40
1.0
176
     0
 90
        2
176
     0
  1
strokes_ogs.tif
176
     0
290
     0
176
     0
 40
1.0
176
     0
 40
1.0
176
     0
  0
VISUALSTYLE
  5
85F9
102
{ACAD_REACTORS
330
85EB
102
}
330
85EB
100
AcDbVisualStyle
  2
Linepattern
 70
    14
177
     3
291
     1
 70
    58
 90
        2
176
     1
 90
        2
176
     1
 90
        0
176
     1
 90
        0
176
     1
 40
0.6
176
     1
 40
30.0
176
     1
 62
     7
420
 16777215
176
     1
 90
        1
176
     1
 90
        4
176
     1
 62
     7
176
     1
 62
   257
176
     1
 90
        7
176
     1
 90
        7
176
     1
 40
1.0
176
     1
 90
        8
176
     1
 62
     7
176
     1
 40
1.0
176
     1
 90
        1
176
     1
 90
        6
176
     1
 90
        2
176
     1
 62
     7
176
     1
 90
        5
176
     1
 90
        0
176
     1
 90
        0
176
     1
290
     0
176
     1
 90
        1
176
     1
 40
0.0
176
     1
 90
        0
176
     1
290
     0
176
     1
290
     1
176
     1
290
     1
176
     1
290
     0
176
     1
290
     0
176
     1
290
     0
176
     1
290
     0
176
     1
290
     0
176
     1
290
     0
176
     1
 90
       50
176
     1
 40
0.0
176
     1
 40
1.0
176
     1
 90
        0
176
     1
 62
    18
420
        0
176
     1
 90
       50
176
     1
 90
        3
176
     1
 62
     5
420
      255
176
     1
290
     0
176
     1
 90
       50
176
     1
 90
       50
176
     1
 90
       50
176
     1
290
     0
176
     1
 90
       50
176
     1
 62
   256
176
     0
 40
1.0
176
     0
 90
        2
176
     1
  1
strokes_ogs.tif
176
     1
290
     0
176
     1
 40
1.0
176
     1
 40
1.0
176
     1
  0
VISUALSTYLE
  5
85FD
102
{ACAD_REACTORS
330
85EB
102
}
330
85EB
100
AcDbVisualStyle
  2
OverhangOff
 70
    21
177
     3
291
     1
 70
    58
 90
        2
176
     0
 90
        2
176
     0
 90
        0
176
     0
 90
        0
176
     0
 40
0.6
176
     0
 40
30.0
176
     0
 62
     7
420
 16777215
176
     0
 90
        1
176
     0
 90
        4
176
     0
 62
     7
176
     0
 62
   257
176
     0
 90
        1
176
     0
 90
        1
176
     0
 40
1.0
176
     0
 90
        9
176
     2
 62
     7
176
     0
 40
1.0
176
     0
 90
        1
176
     0
 90
        6
176
     0
 90
        2
176
     0
 62
     7
176
     0
 90
        5
176
     0
 90
        0
176
     0
 90
        0
176
     0
290
     0
176
     0
 90
        1
176
     0
 40
0.0
176
     0
 90
        0
176
     0
290
     0
176
     0
290
     1
176
     0
290
     1
176
     0
290
     0
176
     0
290
     0
176
     0
290
     0
176
     0
290
     0
176
     0
290
     0
176
     0
290
     0
176
     0
 90
       50
176
     0
 40
0.0
176
     0
 40
1.0
176
     0
 90
        0
176
     0
 62
    18
420
        0
176
     0
 90
       50
176
     0
 90
        3
176
     0
 62
     5
420
      255
176
     0
290
     0
176
     0
 90
       50
176
     0
 90
       50
176
     0
 90
       50
176
     0
290
     0
176
     0
 90
       50
176
     0
 62
   256
176
     0
 40
1.0
176
     0
 90
        2
176
     0
  1
strokes_ogs.tif
176
     0
290
     0
176
     0
 40
1.0
176
     0
 40
1.0
176
     0
  0
VISUALSTYLE
  5
85F4
102
{ACAD_REACTORS
330
85EB
102
}
330
85EB
100
AcDbVisualStyle
  2
Realistic
 70
     8
177
     3
291
     0
 70
    58
 90
        2
176
     1
 90
        3
176
     1
 90
        0
176
     1
 90
        2
176
     1
 40
0.6
176
     1
 40
30.0
176
     1
 62
     7
420
 16777215
176
     1
 90
        0
176
     1
 90
        0
176
     1
 62
     7
176
     1
 62
   257
176
     1
 90
        1
176
     1
 90
        1
176
     1
 40
1.0
176
     1
 90
        8
176
     1
 62
   257
176
     1
 40
1.0
176
     1
 90
        1
176
     1
 90
        6
176
     1
 90
        2
176
     1
 62
     7
176
     1
 90
        3
176
     1
 90
        0
176
     1
 90
        0
176
     1
290
     0
176
     1
 90
       13
176
     1
 40
0.0
176
     1
 90
        0
176
     1
290
     0
176
     1
290
     1
176
     1
290
     1
176
     1
290
     0
176
     1
290
     0
176
     1
290
     0
176
     1
290
     0
176
     1
290
     0
176
     1
290
     0
176
     1
 90
       50
176
     1
 40
0.0
176
     1
 40
1.0
176
     1
 90
        0
176
     1
 62
    18
420
        0
176
     1
 90
       50
176
     1
 90
        3
176
     1
 62
     5
420
      255
176
     1
290
     0
176
     1
 90
       50
176
     1
 90
       50
176
     1
 90
       50
176
     1
290
     0
176
     1
 90
       50
176
     1
 62
   256
176
     0
 40
1.0
176
     0
 90
        2
176
     1
  1
strokes_ogs.tif
176
     1
290
     0
176
     1
 40
1.0
176
     1
 40
1.0
176
     1
  0
VISUALSTYLE
  5
8603
102
{ACAD_REACTORS
330
85EB
102
}
330
85EB
100
AcDbVisualStyle
  2
Shaded
 70
    27
177
     3
291
     0
 70
    58
 90
        2
176
     1
 90
        2
176
     1
 90
        1
176
     1
 90
        2
176
     1
 40
0.6
176
     1
 40
30.0
176
     1
 62
     7
420
 16777215
176
     1
 90
        0
176
     1
 90
        4
176
     1
 62
     7
176
     1
 62
   257
176
     1
 90
        1
176
     1
 90
        1
176
     1
 40
1.0
176
     1
 90
        8
176
     1
 62
   257
176
     1
 40
1.0
176
     1
 90
        1
176
     1
 90
        6
176
     1
 90
        2
176
     1
 62
     8
420
  7895160
176
     1
 90
        3
176
     1
 90
        0
176
     1
 90
        0
176
     1
290
     0
176
     1
 90
        5
176
     1
 40
0.0
176
     1
 90
        0
176
     1
290
     0
176
     1
290
     1
176
     1
290
     1
176
     1
290
     0
176
     1
290
     0
176
     1
290
     0
176
     1
290
     0
176
     1
290
     0
176
     1
290
     0
176
     1
 90
       50
176
     1
 40
0.0
176
     1
 40
1.0
176
     1
 90
        0
176
     1
 62
    18
420
        0
176
     1
 90
       50
176
     1
 90
        3
176
     1
 62
     5
420
      255
176
     1
290
     0
176
     1
 90
       50
176
     1
 90
       50
176
     1
 90
       50
176
     1
290
     0
176
     1
 90
       50
176
     1
 62
   256
176
     0
 40
1.0
176
     0
 90
        2
176
     1
  1
strokes_ogs.tif
176
     1
290
     0
176
     1
 40
1.0
176
     1
 40
1.0
176
     1
  0
VISUALSTYLE
  5
8602
102
{ACAD_REACTORS
330
85EB
102
}
330
85EB
100
AcDbVisualStyle
  2
Shaded with edges
 70
    26
177
     3
291
     0
 70
    58
 90
        2
176
     1
 90
        2
176
     1
 90
        1
176
     1
 90
        2
176
     1
 40
0.6
176
     1
 40
30.0
176
     1
 62
     7
420
 16777215
176
     1
 90
        1
176
     1
 90
       10
176
     1
 62
     7
176
     1
 62
   257
176
     1
 90
        2
176
     1
 90
        1
176
     1
 40
1.0
176
     1
 90
        8
176
     1
 62
   257
176
     1
 40
1.0
176
     1
 90
        1
176
     1
 90
        6
176
     1
 90
        2
176
     1
 62
     7
176
     1
 90
        3
176
     1
 90
        0
176
     1
 90
        0
176
     1
290
     0
176
     1
 90
        5
176
     1
 40
0.0
176
     1
 90
        0
176
     1
290
     0
176
     1
290
     1
176
     1
290
     1
176
     1
290
     0
176
     1
290
     0
176
     1
290
     0
176
     1
290
     0
176
     1
290
     0
176
     1
290
     0
176
     1
 90
       50
176
     1
 40
0.0
176
     1
 40
1.0
176
     1
 90
        0
176
     1
 62
    18
420
        0
176
     1
 90
       50
176
     1
 90
        3
176
     1
 62
     5
420
      255
176
     1
290
     0
176
     1
 90
       50
176
     1
 90
       50
176
     1
 90
       50
176
     1
290
     0
176
     1
 90
       50
176
     1
 62
   256
176
     0
 40
1.0
176
     0
 90
        2
176
     1
  1
strokes_ogs.tif
176
     1
290
     0
176
     1
 40
1.0
176
     1
 40
1.0
176
     1
  0
VISUALSTYLE
  5
85FF
102
{ACAD_REACTORS
330
85EB
102
}
330
85EB
100
AcDbVisualStyle
  2
Shades of Gray
 70
    23
177
     3
291
     0
 70
    58
 90
        2
176
     1
 90
        2
176
     1
 90
        3
176
     1
 90
        0
176
     1
 40
0.6
176
     1
 40
30.0
176
     1
 62
     7
420
 16777215
176
     1
 90
        2
176
     1
 90
        2
176
     1
 62
     7
176
     1
 62
     7
176
     1
 90
        1
176
     1
 90
        1
176
     1
 40
40.0
176
     1
 90
        8
176
     1
 62
     7
176
     1
 40
1.0
176
     1
 90
        1
176
     1
 90
        6
176
     1
 90
        2
176
     1
 62
     7
176
     1
 90
        3
176
     1
 90
        0
176
     1
 90
        0
176
     1
290
     0
176
     1
 90
        1
176
     1
 40
0.0
176
     1
 90
        0
176
     1
290
     0
176
     1
290
     1
176
     1
290
     1
176
     1
290
     0
176
     1
290
     0
176
     1
290
     0
176
     1
290
     0
176
     1
290
     0
176
     1
290
     0
176
     1
 90
       50
176
     1
 40
0.0
176
     1
 40
1.0
176
     1
 90
        0
176
     1
 62
    18
420
        0
176
     1
 90
       50
176
     1
 90
        3
176
     1
 62
     5
420
      255
176
     1
290
     0
176
     1
 90
       50
176
     1
 90
       50
176
     1
 90
       50
176
     1
290
     0
176
     1
 90
       50
176
     1
 62
   256
176
     0
 40
1.0
176
     0
 90
        2
176
     1
  1
strokes_ogs.tif
176
     1
290
     0
176
     1
 40
1.0
176
     1
 40
1.0
176
     1
  0
VISUALSTYLE
  5
8600
102
{ACAD_REACTORS
330
85EB
102
}
330
85EB
100
AcDbVisualStyle
  2
Sketchy
 70
    24
177
     3
291
     0
 70
    58
 90
        1
176
     1
 90
        2
176
     1
 90
        2
176
     1
 90
        0
176
     1
 40
0.6
176
     1
 40
30.0
176
     1
 62
     7
420
 16777215
176
     1
 90
        2
176
     1
 90
        2
176
     1
 62
     7
176
     1
 62
     7
176
     1
 90
        1
176
     1
 90
        1
176
     1
 40
40.0
176
     1
 90
       11
176
     1
 62
     7
176
     1
 40
1.0
176
     1
 90
        1
176
     1
 90
        6
176
     1
 90
        2
176
     1
 62
     7
176
     1
 90
        6
176
     1
 90
        0
176
     1
 90
        0
176
     1
290
     0
176
     1
 90
        1
176
     1
 40
0.0
176
     1
 90
        0
176
     1
290
     0
176
     1
290
     1
176
     1
290
     1
176
     1
290
     0
176
     1
290
     0
176
     1
290
     0
176
     1
290
     0
176
     1
290
     0
176
     1
290
     0
176
     1
 90
       50
176
     1
 40
0.0
176
     1
 40
1.0
176
     1
 90
        0
176
     1
 62
    18
420
        0
176
     1
 90
       50
176
     1
 90
        3
176
     1
 62
     5
420
      255
176
     1
290
     0
176
     1
 90
       50
176
     1
 90
       50
176
     1
 90
       50
176
     1
290
     0
176
     1
 90
       50
176
     1
 62
   256
176
     0
 40
1.0
176
     0
 90
        2
176
     1
  1
strokes_ogs.tif
176
     1
290
     0
176
     1
 40
1.0
176
     1
 40
1.0
176
     1
  0
VISUALSTYLE
  5
85F8
102
{ACAD_REACTORS
330
85EB
102
}
330
85EB
100
AcDbVisualStyle
  2
Thicken
 70
    13
177
     3
291
     1
 70
    58
 90
        2
176
     1
 90
        2
176
     1
 90
        0
176
     1
 90
        0
176
     1
 40
0.6
176
     1
 40
30.0
176
     1
 62
     7
420
 16777215
176
     1
 90
        1
176
     1
 90
        4
176
     1
 62
     7
176
     1
 62
   257
176
     1
 90
        1
176
     1
 90
        1
176
     1
 40
1.0
176
     1
 90
       12
176
     1
 62
     7
176
     1
 40
1.0
176
     1
 90
        1
176
     1
 90
        6
176
     1
 90
        2
176
     1
 62
     7
176
     1
 90
        5
176
     1
 90
        0
176
     1
 90
        0
176
     1
290
     0
176
     1
 90
        1
176
     1
 40
0.0
176
     1
 90
        0
176
     1
290
     0
176
     1
290
     1
176
     1
290
     1
176
     1
290
     0
176
     1
290
     0
176
     1
290
     0
176
     1
290
     0
176
     1
290
     0
176
     1
290
     0
176
     1
 90
       50
176
     1
 40
0.0
176
     1
 40
1.0
176
     1
 90
        0
176
     1
 62
    18
420
        0
176
     1
 90
       50
176
     1
 90
        3
176
     1
 62
     5
420
      255
176
     1
290
     0
176
     1
 90
       50
176
     1
 90
       50
176
     1
 90
       50
176
     1
290
     0
176
     1
 90
       50
176
     1
 62
   256
176
     0
 40
1.0
176
     0
 90
        2
176
     1
  1
strokes_ogs.tif
176
     1
290
     0
176
     1
 40
1.0
176
     1
 40
1.0
176
     1
  0
VISUALSTYLE
  5
85F1
102
{ACAD_REACTORS
330
85EB
102
}
330
85EB
100
AcDbVisualStyle
  2
Wireframe
 70
     5
177
     3
291
     0
 70
    58
 90
        0
176
     1
 90
        2
176
     1
 90
        0
176
     1
 90
        0
176
     1
 40
0.6
176
     1
 40
30.0
176
     1
 62
     7
420
 16777215
176
     1
 90
        1
176
     1
 90
        4
176
     1
 62
     7
176
     1
 62
   257
176
     1
 90
        1
176
     1
 90
        1
176
     1
 40
1.0
176
     1
 90
        0
176
     1
 62
   257
176
     1
 40
1.0
176
     1
 90
        1
176
     1
 90
        6
176
     1
 90
        2
176
     1
 62
     7
176
     1
 90
        3
176
     1
 90
        0
176
     1
 90
        0
176
     1
290
     0
176
     1
 90
        1
176
     1
 40
0.0
176
     1
 90
        0
176
     1
290
     0
176
     1
290
     1
176
     1
290
     1
176
     1
290
     0
176
     1
290
     0
176
     1
290
     0
176
     1
290
     0
176
     1
290
     0
176
     1
290
     0
176
     1
 90
       50
176
     1
 40
0.0
176
     1
 40
1.0
176
     1
 90
        0
176
     1
 62
    18
420
        0
176
     1
 90
       50
176
     1
 90
        3
176
     1
 62
     5
420
      255
176
     1
290
     0
176
     1
 90
       50
176
     1
 90
       50
176
     1
 90
       50
176
     1
290
     0
176
     1
 90
       50
176
     1
 62
   256
176
     0
 40
1.0
176
     0
 90
        2
176
     1
  1
strokes_ogs.tif
176
     1
290
     0
176
     1
 40
1.0
176
     1
 40
1.0
176
     1
  0
VISUALSTYLE
  5
8601
102
{ACAD_REACTORS
330
85EB
102
}
330
85EB
100
AcDbVisualStyle
  2
X-Ray
 70
    25
177
     3
291
     0
 70
    58
 90
        2
176
     1
 90
        2
176
     1
 90
        1
176
     1
 90
        1
176
     1
 40
0.5
176
     1
 40
30.0
176
     1
 62
     7
420
 16777215
176
     1
 90
        1
176
     1
 90
        0
176
     1
 62
     7
176
     1
 62
   257
176
     1
 90
        1
176
     1
 90
        1
176
     1
 40
1.0
176
     1
 90
        8
176
     1
 62
     7
176
     1
 40
1.0
176
     1
 90
        1
176
     1
 90
        6
176
     1
 90
        2
176
     1
 62
     7
176
     1
 90
        3
176
     1
 90
        0
176
     1
 90
        0
176
     1
290
     0
176
     1
 90
       13
176
     1
 40
0.0
176
     1
 90
        0
176
     1
290
     0
176
     1
290
     1
176
     1
290
     1
176
     1
290
     0
176
     1
290
     0
176
     1
290
     0
176
     1
290
     0
176
     1
290
     0
176
     1
290
     0
176
     1
 90
       50
176
     1
 40
0.0
176
     1
 40
1.0
176
     1
 90
        0
176
     1
 62
    18
420
        0
176
     1
 90
       50
176
     1
 90
        3
176
     1
 62
     5
420
      255
176
     1
290
     0
176
     1
 90
       50
176
     1
 90
       50
176
     1
 90
       50
176
     1
290
     0
176
     1
 90
       50
176
     1
 62
   256
176
     0
 40
1.0
176
     0
 90
        2
176
     1
  1
strokes_ogs.tif
176
     1
290
     0
176
     1
 40
1.0
176
     1
 40
1.0
176
     1
  0
DICTIONARYVAR
  5
8B3B
102
{ACAD_REACTORS
330
8B3A
102
}
330
8B3A
100
DictionaryVariables
280
     0
  1
1:1
  0
DICTIONARYVAR
  5
8B3D
102
{ACAD_REACTORS
330
8B3A
102
}
330
8B3A
100
DictionaryVariables
280
     0
  1
Standard
  0
DICTIONARYVAR
  5
8B3C
102
{ACAD_REACTORS
330
8B3A
102
}
330
8B3A
100
DictionaryVariables
280
     0
  1
Standard
  0
DICTIONARYVAR
  5
8B3E
102
{ACAD_REACTORS
330
8B3A
102
}
330
8B3A
100
DictionaryVariables
280
     0
  1
0
  0
DICTIONARY
  5
8B4A
330
8605
100
AcDbDictionary
280
     1
281
     1
  3
ACAD_ROUNDTRIP_2008_TABLESTYLE_CELLSTYLEMAP
360
8B4B
  0
CELLSTYLEMAP
  5
8B4B
102
{ACAD_REACTORS
330
8B4A
102
}
330
8B4A
100
AcDbCellStyleMap
 90
        3
300
CELLSTYLE
  1
TABLEFORMAT_BEGIN
 90
        5
170
     1
 91
        0
 92
    32768
 62
   257
 93
        1
300
CONTENTFORMAT
  1
CONTENTFORMAT_BEGIN
 90
        0
 91
        0
 92
        4
 93
        0
300

 40
0.0
140
1.0
 94
        5
 62
     0
340
85A0
144
0.25
309
CONTENTFORMAT_END
171
     1
301
MARGIN
  1
CELLMARGIN_BEGIN
 40
0.06
 40
0.06
 40
0.06
 40
0.06
 40
0.06
 40
0.06
309
CELLMARGIN_END
 94
        6
 95
        1
302
GRIDFORMAT
  1
GRIDFORMAT_BEGIN
 90
        0
 91
        1
 62
     0
 92
       -2
340
85A2
 93
        0
 40
0.045
309
GRIDFORMAT_END
 95
        2
302
GRIDFORMAT
  1
GRIDFORMAT_BEGIN
 90
        0
 91
        1
 62
     0
 92
       -2
340
85A2
 93
        0
 40
0.045
309
GRIDFORMAT_END
 95
        4
302
GRIDFORMAT
  1
GRIDFORMAT_BEGIN
 90
        0
 91
        1
 62
     0
 92
       -2
340
85A2
 93
        0
 40
0.045
309
GRIDFORMAT_END
 95
        8
302
GRIDFORMAT
  1
GRIDFORMAT_BEGIN
 90
        0
 91
        1
 62
     0
 92
       -2
340
85A2
 93
        0
 40
0.045
309
GRIDFORMAT_END
 95
       16
302
GRIDFORMAT
  1
GRIDFORMAT_BEGIN
 90
        0
 91
        1
 62
     0
 92
       -2
340
85A2
 93
        0
 40
0.045
309
GRIDFORMAT_END
 95
       32
302
GRIDFORMAT
  1
GRIDFORMAT_BEGIN
 90
        0
 91
        1
 62
     0
 92
       -2
340
85A2
 93
        0
 40
0.045
309
GRIDFORMAT_END
309
TABLEFORMAT_END
  1
CELLSTYLE_BEGIN
 90
        1
 91
        1
300
_TITLE
309
CELLSTYLE_END
300
CELLSTYLE
  1
TABLEFORMAT_BEGIN
 90
        5
170
     1
 91
        0
 92
        0
 62
   257
 93
        1
300
CONTENTFORMAT
  1
CONTENTFORMAT_BEGIN
 90
        0
 91
        0
 92
        4
 93
        0
300

 40
0.0
140
1.0
 94
        5
 62
     0
340
85A0
144
0.18
309
CONTENTFORMAT_END
171
     1
301
MARGIN
  1
CELLMARGIN_BEGIN
 40
0.06
 40
0.06
 40
0.06
 40
0.06
 40
0.06
 40
0.06
309
CELLMARGIN_END
 94
        6
 95
        1
302
GRIDFORMAT
  1
GRIDFORMAT_BEGIN
 90
        0
 91
        1
 62
     0
 92
       -2
340
85A2
 93
        0
 40
0.045
309
GRIDFORMAT_END
 95
        2
302
GRIDFORMAT
  1
GRIDFORMAT_BEGIN
 90
        0
 91
        1
 62
     0
 92
       -2
340
85A2
 93
        0
 40
0.045
309
GRIDFORMAT_END
 95
        4
302
GRIDFORMAT
  1
GRIDFORMAT_BEGIN
 90
        0
 91
        1
 62
     0
 92
       -2
340
85A2
 93
        0
 40
0.045
309
GRIDFORMAT_END
 95
        8
302
GRIDFORMAT
  1
GRIDFORMAT_BEGIN
 90
        0
 91
        1
 62
     0
 92
       -2
340
85A2
 93
        0
 40
0.045
309
GRIDFORMAT_END
 95
       16
302
GRIDFORMAT
  1
GRIDFORMAT_BEGIN
 90
        0
 91
        1
 62
     0
 92
       -2
340
85A2
 93
        0
 40
0.045
309
GRIDFORMAT_END
 95
       32
302
GRIDFORMAT
  1
GRIDFORMAT_BEGIN
 90
        0
 91
        1
 62
     0
 92
       -2
340
85A2
 93
        0
 40
0.045
309
GRIDFORMAT_END
309
TABLEFORMAT_END
  1
CELLSTYLE_BEGIN
 90
        2
 91
        1
300
_HEADER
309
CELLSTYLE_END
300
CELLSTYLE
  1
TABLEFORMAT_BEGIN
 90
        5
170
     1
 91
        0
 92
        0
 62
   257
 93
        1
300
CONTENTFORMAT
  1
CONTENTFORMAT_BEGIN
 90
        0
 91
        0
 92
        4
 93
        0
300

 40
0.0
140
1.0
 94
        2
 62
     0
340
85A0
144
0.18
309
CONTENTFORMAT_END
171
     1
301
MARGIN
  1
CELLMARGIN_BEGIN
 40
0.06
 40
0.06
 40
0.06
 40
0.06
 40
0.06
 40
0.06
309
CELLMARGIN_END
 94
        6
 95
        1
302
GRIDFORMAT
  1
GRIDFORMAT_BEGIN
 90
        0
 91
        1
 62
     0
 92
       -2
340
85A2
 93
        0
 40
0.045
309
GRIDFORMAT_END
 95
        2
302
GRIDFORMAT
  1
GRIDFORMAT_BEGIN
 90
        0
 91
        1
 62
     0
 92
       -2
340
85A2
 93
        0
 40
0.045
309
GRIDFORMAT_END
 95
        4
302
GRIDFORMAT
  1
GRIDFORMAT_BEGIN
 90
        0
 91
        1
 62
     0
 92
       -2
340
85A2
 93
        0
 40
0.045
309
GRIDFORMAT_END
 95
        8
302
GRIDFORMAT
  1
GRIDFORMAT_BEGIN
 90
        0
 91
        1
 62
     0
 92
       -2
340
85A2
 93
        0
 40
0.045
309
GRIDFORMAT_END
 95
       16
302
GRIDFORMAT
  1
GRIDFORMAT_BEGIN
 90
        0
 91
        1
 62
     0
 92
       -2
340
85A2
 93
        0
 40
0.045
309
GRIDFORMAT_END
 95
       32
302
GRIDFORMAT
  1
GRIDFORMAT_BEGIN
 90
        0
 91
        1
 62
     0
 92
       -2
340
85A2
 93
        0
 40
0.045
309
GRIDFORMAT_END
309
TABLEFORMAT_END
  1
CELLSTYLE_BEGIN
 90
        3
 91
        2
300
_DATA
309
CELLSTYLE_END
  0
ENDSEC
  0
EOF
