  0
SECTION
  2
HEADER
  9
$ACADVER
  1
AC1015
  9
$ACADMAINTVER
 70
     6
  9
$DWGCODEPAGE
  3
ANSI_1252
  9
$INSBASE
 10
0.0
 20
0.0
 30
0.0
  9
$EXTMIN
 10
0.0
 20
0.0
 30
0.0
  9
$EXTMAX
 10
470.0
 20
347.0
 30
0.0
  9
$LIMMIN
 10
0.0
 20
0.0
  9
$LIMMAX
 10
470.0
 20
347.0
  9
$ORTHOMODE
 70
     0
  9
$REGENMODE
 70
     1
  9
$FILLMODE
 70
     1
  9
$QTEXTMODE
 70
     0
  9
$MIRRTEXT
 70
     1
  9
$LTSCALE
 40
1.0
  9
$ATTMODE
 70
     1
  9
$TEXTSIZE
 40
2.8
  9
$TRACEWID
 40
1.0
  9
$TEXTSTYLE
  7
Standard
  9
$CLAYER
  8
0
  9
$CELTYPE
  6
ByLayer
  9
$CECOLOR
 62
   256
  9
$CELTSCALE
 40
1.0
  9
$DISPSILH
 70
     0
  9
$DIMSCALE
 40
1.0
  9
$DIMASZ
 40
3.2
  9
$DIMEXO
 40
0.1
  9
$DIMDLI
 40
3.75
  9
$DIMRND
 40
0.0
  9
$DIMDLE
 40
0.0
  9
$DIMEXE
 40
1.0
  9
$DIMTP
 40
0.0
  9
$DIMTM
 40
0.0
  9
$DIMTXT
 40
3.2
  9
$DIMCEN
 40
2.5
  9
$DIMTSZ
 40
0.0
  9
$DIMTOL
 70
     0
  9
$DIMLIM
 70
     0
  9
$DIMTIH
 70
     1
  9
$DIMTOH
 70
     1
  9
$DIMSE1
 70
     0
  9
$DIMSE2
 70
     0
  9
$DIMTAD
 70
     1
  9
$DIMZIN
 70
     0
  9
$DIMBLK
  1

  9
$DIMASO
 70
     1
  9
$DIMSHO
 70
     1
  9
$DIMPOST
  1

  9
$DIMAPOST
  1

  9
$DIMALT
 70
     0
  9
$DIMALTD
 70
     3
  9
$DIMALTF
 40
0.0393700787
  9
$DIMLFAC
 40
1.0
  9
$DIMTOFL
 70
     1
  9
$DIMTVP
 40
0.0
  9
$DIMTIX
 70
     0
  9
$DIMSOXD
 70
     0
  9
$DIMSAH
 70
     0
  9
$DIMBLK1
  1

  9
$DIMBLK2
  1

  9
$DIMSTYLE
  2
ISO-25
  9
$DIMCLRD
 70
     0
  9
$DIMCLRE
 70
     0
  9
$DIMCLRT
 70
     0
  9
$DIMTFAC
 40
1.0
  9
$DIMGAP
 40
2.0
  9
$DIMJUST
 70
     0
  9
$DIMSD1
 70
     0
  9
$DIMSD2
 70
     0
  9
$DIMTOLJ
 70
     0
  9
$DIMTZIN
 70
     0
  9
$DIMALTZ
 70
     0
  9
$DIMALTTZ
 70
     0
  9
$DIMUPT
 70
     0
  9
$DIMDEC
 70
     2
  9
$DIMTDEC
 70
     2
  9
$DIMALTU
 70
     2
  9
$DIMALTTD
 70
     3
  9
$DIMTXSTY
  7
Standard
  9
$DIMAUNIT
 70
     0
  9
$DIMADEC
 70
     2
  9
$DIMALTRND
 40
0.0
  9
$DIMAZIN
 70
     0
  9
$DIMDSEP
 70
    44
  9
$DIMATFIT
 70
     3
  9
$DIMFRAC
 70
     0
  9
$DIMLDRBLK
  1

  9
$DIMLUNIT
 70
     2
  9
$DIMLWD
 70
    -2
  9
$DIMLWE
 70
    -2
  9
$DIMTMOVE
 70
     0
  9
$LUNITS
 70
     2
  9
$LUPREC
 70
     2
  9
$SKETCHINC
 40
1.0
  9
$FILLETRAD
 40
10.0
  9
$AUNITS
 70
     0
  9
$AUPREC
 70
     2
  9
$MENU
  1
.
  9
$ELEVATION
 40
0.0
  9
$PELEVATION
 40
0.0
  9
$THICKNESS
 40
0.0
  9
$LIMCHECK
 70
     0
  9
$CHAMFERA
 40
0.0
  9
$CHAMFERB
 40
0.0
  9
$CHAMFERC
 40
0.0
  9
$CHAMFERD
 40
0.0
  9
$SKPOLY
 70
     0
  9
$TDCREATE
 40
2457889.490588414
  9
$TDUCREATE
 40
2457889.407255081
  9
$TDUPDATE
 40
2457889.490589387
  9
$TDUUPDATE
 40
2457889.407256053
  9
$TDINDWG
 40
0.0000000116
  9
$TDUSRTIMER
 40
0.0000000116
  9
$USRTIMER
 70
     1
  9
$ANGBASE
 50
0.0
  9
$ANGDIR
 70
     0
  9
$PDMODE
 70
     0
  9
$PDSIZE
 40
-1.0
  9
$PLINEWID
 40
0.0
  9
$SPLFRAME
 70
     0
  9
$SPLINETYPE
 70
     6
  9
$SPLINESEGS
 70
     8
  9
$HANDSEED
  5
54B
  9
$SURFTAB1
 70
     6
  9
$SURFTAB2
 70
     6
  9
$SURFTYPE
 70
     6
  9
$SURFU
 70
     6
  9
$SURFV
 70
     6
  9
$UCSBASE
  2

  9
$UCSNAME
  2

  9
$UCSORG
 10
0.0
 20
0.0
 30
0.0
  9
$UCSXDIR
 10
1.0
 20
0.0
 30
0.0
  9
$UCSYDIR
 10
0.0
 20
1.0
 30
0.0
  9
$UCSORTHOREF
  2

  9
$UCSORTHOVIEW
 70
     0
  9
$UCSORGTOP
 10
0.0
 20
0.0
 30
0.0
  9
$UCSORGBOTTOM
 10
0.0
 20
0.0
 30
0.0
  9
$UCSORGLEFT
 10
0.0
 20
0.0
 30
0.0
  9
$UCSORGRIGHT
 10
0.0
 20
0.0
 30
0.0
  9
$UCSORGFRONT
 10
0.0
 20
0.0
 30
0.0
  9
$UCSORGBACK
 10
0.0
 20
0.0
 30
0.0
  9
$PUCSBASE
  2

  9
$PUCSNAME
  2

  9
$PUCSORG
 10
0.0
 20
0.0
 30
0.0
  9
$PUCSXDIR
 10
1.0
 20
0.0
 30
0.0
  9
$PUCSYDIR
 10
0.0
 20
1.0
 30
0.0
  9
$PUCSORTHOREF
  2

  9
$PUCSORTHOVIEW
 70
     0
  9
$PUCSORGTOP
 10
0.0
 20
0.0
 30
0.0
  9
$PUCSORGBOTTOM
 10
0.0
 20
0.0
 30
0.0
  9
$PUCSORGLEFT
 10
0.0
 20
0.0
 30
0.0
  9
$PUCSORGRIGHT
 10
0.0
 20
0.0
 30
0.0
  9
$PUCSORGFRONT
 10
0.0
 20
0.0
 30
0.0
  9
$PUCSORGBACK
 10
0.0
 20
0.0
 30
0.0
  9
$USERI1
 70
     0
  9
$USERI2
 70
     0
  9
$USERI3
 70
     0
  9
$USERI4
 70
     0
  9
$USERI5
 70
     0
  9
$USERR1
 40
0.0
  9
$USERR2
 40
0.0
  9
$USERR3
 40
0.0
  9
$USERR4
 40
0.0
  9
$USERR5
 40
0.0
  9
$WORLDVIEW
 70
     1
  9
$SHADEDGE
 70
     3
  9
$SHADEDIF
 70
    70
  9
$TILEMODE
 70
     1
  9
$MAXACTVP
 70
    64
  9
$PINSBASE
 10
0.0
 20
0.0
 30
0.0
  9
$PLIMCHECK
 70
     0
  9
$PEXTMIN
 10
1.0000000000E+20
 20
1.0000000000E+20
 30
1.0000000000E+20
  9
$PEXTMAX
 10
-1.0000000000E+20
 20
-1.0000000000E+20
 30
-1.0000000000E+20
  9
$PLIMMIN
 10
0.0
 20
0.0
  9
$PLIMMAX
 10
420.0
 20
297.0
  9
$UNITMODE
 70
     0
  9
$VISRETAIN
 70
     1
  9
$PLINEGEN
 70
     0
  9
$PSLTSCALE
 70
     1
  9
$TREEDEPTH
 70
  3020
  9
$CMLSTYLE
  2
Standard
  9
$CMLJUST
 70
     0
  9
$CMLSCALE
 40
20.0
  9
$PROXYGRAPHICS
 70
     1
  9
$MEASUREMENT
 70
     1
  9
$CELWEIGHT
370
    -1
  9
$ENDCAPS
280
     0
  9
$JOINSTYLE
280
     0
  9
$LWDISPLAY
290
     1
  9
$INSUNITS
 70
     4
  9
$HYPERLINKBASE
  1

  9
$STYLESHEET
  1

  9
$XEDIT
290
     1
  9
$CEPSNTYPE
380
     0
  9
$PSTYLEMODE
290
     1
  9
$FINGERPRINTGUID
  2
{7A2DED63-0F14-4409-AFFB-6F0019DDB35A}
  9
$VERSIONGUID
  2
{FAEB1C32-E019-11D5-929B-00C0DF256EC4}
  9
$EXTNAMES
290
     1
  9
$PSVPSCALE
 40
0.0
  9
$OLESTARTUP
290
     0
  0
ENDSEC
  0
SECTION
  2
CLASSES
  0
CLASS
  1
ACDBDICTIONARYWDFLT
  2
AcDbDictionaryWithDefault
  3
ObjectDBX Classes
 90
        0
280
     0
281
     0
  0
CLASS
  1
VISUALSTYLE
  2
AcDbVisualStyle
  3
ObjectDBX Classes
 90
     4095
280
     0
281
     0
  0
CLASS
  1
MATERIAL
  2
AcDbMaterial
  3
ObjectDBX Classes
 90
     1153
280
     0
281
     0
  0
CLASS
  1
SCALE
  2
AcDbScale
  3
ObjectDBX Classes
 90
     1153
280
     0
281
     0
  0
CLASS
  1
TABLESTYLE
  2
AcDbTableStyle
  3
ObjectDBX Classes
 90
     4095
280
     0
281
     0
  0
CLASS
  1
MLEADERSTYLE
  2
AcDbMLeaderStyle
  3
ACDB_MLEADERSTYLE_CLASS
 90
     4095
280
     0
281
     0
  0
CLASS
  1
SUN
  2
AcDbSun
  3
SCENEOE
 90
     1153
280
     0
281
     0
  0
CLASS
  1
ACDBPLACEHOLDER
  2
AcDbPlaceHolder
  3
ObjectDBX Classes
 90
        0
280
     0
281
     0
  0
CLASS
  1
LAYOUT
  2
AcDbLayout
  3
ObjectDBX Classes
 90
        0
280
     0
281
     0
  0
ENDSEC
  0
SECTION
  2
TABLES
  0
TABLE
  2
VPORT
  5
8
330
0
100
AcDbSymbolTable
 70
     1
  0
VPORT
  5
29
330
8
100
AcDbSymbolTableRecord
100
AcDbViewportTableRecord
  2
*Active
 70
     0
 10
0.0
 20
0.0
 11
1.0
 21
1.0
 12
235.0
 22
173.5
 13
0.0
 23
0.0
 14
10.0
 24
10.0
 15
10.0
 25
10.0
 16
0.0
 26
0.0
 36
1.0
 17
0.0
 27
0.0
 37
0.0
 40
347.0
 41
1.3544668588
 42
50.0
 43
0.0
 44
0.0
 50
0.0
 51
0.0
 71
     0
 72
  2000
 73
     1
 74
     3
 75
     0
 76
     0
 77
     0
 78
     0
281
     0
 65
     1
110
0.0
120
0.0
130
0.0
111
1.0
121
0.0
131
0.0
112
0.0
122
1.0
132
0.0
 79
     0
146
0.0
  0
ENDTAB
  0
TABLE
  2
LTYPE
  5
5
330
0
100
AcDbSymbolTable
 70
     6
  0
LTYPE
  5
14
330
5
100
AcDbSymbolTableRecord
100
AcDbLinetypeTableRecord
  2
ByBlock
 70
     0
  3

 72
    65
 73
     0
 40
0.0
  0
LTYPE
  5
15
330
5
100
AcDbSymbolTableRecord
100
AcDbLinetypeTableRecord
  2
ByLayer
 70
     0
  3

 72
    65
 73
     0
 40
0.0
  0
LTYPE
  5
16
330
5
100
AcDbSymbolTableRecord
100
AcDbLinetypeTableRecord
  2
Continuous
 70
     0
  3
Solid line
 72
    65
 73
     0
 40
0.0
  0
LTYPE
  5
6E
330
5
100
AcDbSymbolTableRecord
100
AcDbLinetypeTableRecord
  2
HIDDEN
 70
     0
  3
Hidden __ __ __ __ __ __ __ __ __ __ __ __ __ __
 72
    65
 73
     2
 40
1.905
 49
1.27
 74
     0
 49
-0.635
 74
     0
  0
LTYPE
  5
6F
330
5
100
AcDbSymbolTableRecord
100
AcDbLinetypeTableRecord
  2
PHANTOM
 70
     0
  3
Phantom ______  __  __  ______  __  __  ______
 72
    65
 73
     6
 40
12.7
 49
6.35
 74
     0
 49
-1.27
 74
     0
 49
1.27
 74
     0
 49
-1.27
 74
     0
 49
1.27
 74
     0
 49
-1.27
 74
     0
  0
LTYPE
  5
70
330
5
100
AcDbSymbolTableRecord
100
AcDbLinetypeTableRecord
  2
CENTER
 70
     0
  3
Center ____ _ ____ _ ____ _ ____ _ ____ _ ____
 72
    65
 73
     4
 40
10.16
 49
6.35
 74
     0
 49
-1.27
 74
     0
 49
1.27
 74
     0
 49
-1.27
 74
     0
  0
LTYPE
  5
71
330
5
100
AcDbSymbolTableRecord
100
AcDbLinetypeTableRecord
  2
CENTERX2
 70
     0
  3
Center (2x) ________  __  ________  __  _____
 72
    65
 73
     4
 40
20.32
 49
12.7
 74
     0
 49
-2.54
 74
     0
 49
2.54
 74
     0
 49
-2.54
 74
     0
  0
LTYPE
  5
72
330
5
100
AcDbSymbolTableRecord
100
AcDbLinetypeTableRecord
  2
DOT2
 70
     0
  3
Dot (.5x) ........................................
 72
    65
 73
     2
 40
0.635
 49
0.0
 74
     0
 49
-0.635
 74
     0
  0
ENDTAB
  0
TABLE
  2
LAYER
  5
2
330
0
100
AcDbSymbolTable
 70
     4
  0
LAYER
  5
10
330
2
100
AcDbSymbolTableRecord
100
AcDbLayerTableRecord
  2
0
 70
     0
 62
     7
  6
Continuous
370
    -3
390
F
  0
LAYER
  5
73
330
2
100
AcDbSymbolTableRecord
100
AcDbLayerTableRecord
  2
QUOTE
 70
     0
 62
     3
  6
Continuous
370
    -3
390
F
  0
LAYER
  5
74
330
2
100
AcDbSymbolTableRecord
100
AcDbLayerTableRecord
  2
ASSI
 70
     0
 62
     1
  6
CENTERX2
370
    -3
390
F
  0
LAYER
  5
75
330
2
100
AcDbSymbolTableRecord
100
AcDbLayerTableRecord
  2
TRATTEGGIO
 70
     0
 62
     4
  6
Continuous
370
    -3
390
F
  0
ENDTAB
  0
TABLE
  2
STYLE
  5
3
330
0
100
AcDbSymbolTable
 70
     2
  0
STYLE
  5
11
330
3
100
AcDbSymbolTableRecord
100
AcDbTextStyleTableRecord
  2
Standard
 70
     0
 40
0.0
 41
1.0
 50
0.0
 71
     0
 42
2.8
  3
txt
  4

  0
STYLE
  5
76
330
3
100
AcDbSymbolTableRecord
100
AcDbTextStyleTableRecord
  2
SLDTEXTSTYLE0
 70
     0
 40
0.0
 41
0.75
 50
0.0
 71
     0
 42
2.8
  3
TXT
  4

  0
ENDTAB
  0
TABLE
  2
VIEW
  5
6
330
0
100
AcDbSymbolTable
 70
     0
  0
ENDTAB
  0
TABLE
  2
UCS
  5
7
330
0
100
AcDbSymbolTable
 70
     0
  0
ENDTAB
  0
TABLE
  2
APPID
  5
9
330
0
100
AcDbSymbolTable
 70
     1
  0
APPID
  5
12
330
9
100
AcDbSymbolTableRecord
100
AcDbRegAppTableRecord
  2
ACAD
 70
     0
  0
ENDTAB
  0
TABLE
  2
DIMSTYLE
  5
A
330
0
100
AcDbSymbolTable
 70
     1
100
AcDbDimStyleTable
  0
DIMSTYLE
105
27
330
A
100
AcDbSymbolTableRecord
100
AcDbDimStyleTableRecord
  2
ISO-25
 70
     0
 41
2.5
 42
0.625
 43
3.75
 44
1.25
 73
     0
 74
     0
 77
     1
 78
     8
140
2.5
141
2.5
143
0.0393700787
147
0.625
171
     3
172
     1
178
     0
271
     2
272
     2
274
     3
278
    44
283
     0
284
     8
340
11
  0
ENDTAB
  0
TABLE
  2
BLOCK_RECORD
  5
1
330
0
100
AcDbSymbolTable
 70
     1
  0
BLOCK_RECORD
  5
1F
330
1
100
AcDbSymbolTableRecord
100
AcDbBlockTableRecord
  2
*Model_Space
340
22
  0
BLOCK_RECORD
  5
1B
330
1
100
AcDbSymbolTableRecord
100
AcDbBlockTableRecord
  2
*Paper_Space
340
1E
  0
BLOCK_RECORD
  5
23
330
1
100
AcDbSymbolTableRecord
100
AcDbBlockTableRecord
  2
*Paper_Space0
340
26
  0
ENDTAB
  0
ENDSEC
  0
SECTION
  2
BLOCKS
  0
BLOCK
  5
20
330
1F
100
AcDbEntity
  8
0
100
AcDbBlockBegin
  2
*Model_Space
 70
     0
 10
0.0
 20
0.0
 30
0.0
  3
*Model_Space
  1

  0
ENDBLK
  5
21
330
1F
100
AcDbEntity
  8
0
100
AcDbBlockEnd
  0
BLOCK
  5
1C
330
1B
100
AcDbEntity
 67
     1
  8
0
100
AcDbBlockBegin
  2
*Paper_Space
 70
     0
 10
0.0
 20
0.0
 30
0.0
  3
*Paper_Space
  1

  0
ENDBLK
  5
1D
330
1B
100
AcDbEntity
 67
     1
  8
0
100
AcDbBlockEnd
  0
BLOCK
  5
24
330
23
100
AcDbEntity
  8
0
100
AcDbBlockBegin
  2
*Paper_Space0
 70
     0
 10
0.0
 20
0.0
 30
0.0
  3
*Paper_Space0
  1

  0
ENDBLK
  5
25
330
23
100
AcDbEntity
  8
0
100
AcDbBlockEnd
  0
ENDSEC
  0
SECTION
  2
ENTITIES
  0
MTEXT
  5
77
330
1F
100
AcDbEntity
  8
0
  6
Continuous
 62
     7
370
     0
100
AcDbMText
 10
309.3953488433
 20
300.6950581951
 30
0.0
 40
6.35
 41
0.0
 71
     1
 72
     1
  1
A69
  7
SLDTEXTSTYLE0
 73
     1
 44
1.0
  0
LINE
  5
78
330
1F
100
AcDbEntity
  8
0
100
AcDbLine
 10
189.3651823673
 20
149.3187639061
 30
0.0
 11
189.3651823673
 21
148.8187639061
 31
0.0
  0
LINE
  5
79
330
1F
100
AcDbEntity
  8
0
100
AcDbLine
 10
192.1651823673
 20
148.8187639061
 30
0.0
 11
192.1651823673
 21
149.3187639061
 31
0.0
  0
LINE
  5
7A
330
1F
100
AcDbEntity
  8
0
100
AcDbLine
 10
192.1651823673
 20
201.6187639061
 30
0.0
 11
192.1651823673
 21
202.1187639061
 31
0.0
  0
LINE
  5
7B
330
1F
100
AcDbEntity
  8
0
100
AcDbLine
 10
189.3651823673
 20
202.1187639061
 30
0.0
 11
189.3651823673
 21
201.6187639061
 31
0.0
  0
LINE
  5
7C
330
1F
100
AcDbEntity
  8
0
100
AcDbLine
 10
123.8338658404
 20
164.103150292
 30
0.0
 11
125.8338658404
 21
164.103150292
 31
0.0
  0
LINE
  5
7D
330
1F
100
AcDbEntity
  8
0
100
AcDbLine
 10
125.8338658404
 20
186.103150292
 30
0.0
 11
123.8338658404
 21
186.103150292
 31
0.0
  0
LINE
  5
7E
330
1F
100
AcDbEntity
  8
0
100
AcDbLine
 10
125.8338658404
 20
164.103150292
 30
0.0
 11
126.3338658404
 21
164.603150292
 31
0.0
  0
LINE
  5
7F
330
1F
100
AcDbEntity
  8
0
100
AcDbLine
 10
126.3338658404
 20
185.603150292
 30
0.0
 11
125.8338658404
 21
186.103150292
 31
0.0
  0
LINE
  5
80
330
1F
100
AcDbEntity
  8
0
100
AcDbLine
 10
113.8338658404
 20
181.103150292
 30
0.0
 11
113.3338658404
 21
180.603150292
 31
0.0
  0
LINE
  5
81
330
1F
100
AcDbEntity
  8
0
100
AcDbLine
 10
113.3338658404
 20
169.603150292
 30
0.0
 11
113.8338658404
 21
169.103150292
 31
0.0
  0
LINE
  5
82
330
1F
100
AcDbEntity
  8
0
100
AcDbLine
 10
113.8338658404
 20
169.103150292
 30
0.0
 11
117.6338658404
 21
169.103150292
 31
0.0
  0
LINE
  5
83
330
1F
100
AcDbEntity
  8
0
100
AcDbLine
 10
117.6338658404
 20
181.103150292
 30
0.0
 11
113.8338658404
 21
181.103150292
 31
0.0
  0
LINE
  5
84
330
1F
100
AcDbEntity
  8
0
100
AcDbLine
 10
119.6338658404
 20
169.103150292
 30
0.0
 11
123.8338658404
 21
169.103150292
 31
0.0
  0
LINE
  5
85
330
1F
100
AcDbEntity
  8
0
100
AcDbLine
 10
123.8338658404
 20
181.103150292
 30
0.0
 11
119.6338658404
 21
181.103150292
 31
0.0
  0
LINE
  5
86
330
1F
100
AcDbEntity
  8
0
100
AcDbLine
 10
117.6338658404
 20
169.603150292
 30
0.0
 11
119.6338658404
 21
169.603150292
 31
0.0
  0
LINE
  5
87
330
1F
100
AcDbEntity
  8
0
100
AcDbLine
 10
119.6338658404
 20
180.603150292
 30
0.0
 11
117.6338658404
 21
180.603150292
 31
0.0
  0
LINE
  5
88
330
1F
100
AcDbEntity
  8
0
100
AcDbLine
 10
146.0655016286
 20
171.468763906
 30
0.0
 11
158.7651823673
 21
171.468763906
 31
0.0
  0
LINE
  5
89
330
1F
100
AcDbEntity
  8
0
100
AcDbLine
 10
158.7651823673
 20
179.4687639061
 30
0.0
 11
146.0655016286
 21
179.4687639061
 31
0.0
  0
LINE
  5
8A
330
1F
100
AcDbEntity
  8
0
100
AcDbLine
 10
146.0655016286
 20
179.4687639061
 30
0.0
 11
145.0655016287
 21
178.8914136369
 31
0.0
  0
LINE
  5
8B
330
1F
100
AcDbEntity
  8
0
100
AcDbLine
 10
145.0655016287
 20
172.0461141752
 30
0.0
 11
146.0655016286
 21
171.468763906
 31
0.0
  0
ARC
  5
8C
330
1F
100
AcDbEntity
  8
0
100
AcDbCircle
 10
191.4151823673
 20
175.4687639061
 30
0.0
 40
12.49999999999148
100
AcDbArc
 50
148.9717276611
 51
149.7516765942
  0
LINE
  5
8D
330
1F
100
AcDbEntity
  8
0
100
AcDbLine
 10
180.7037692024
 20
181.9120261242
 30
0.0
 11
181.3718595936
 21
182.0362343219
 31
0.0
  0
ARC
  5
8E
330
1F
100
AcDbEntity
  8
0
100
AcDbCircle
 10
191.4151823673
 20
175.4687639061
 30
0.0
 40
11.99999999999705
100
AcDbArc
 50
146.818761116
 51
151.9046431394
  0
LINE
  5
8F
330
1F
100
AcDbEntity
  8
0
100
AcDbLine
 10
180.8292019711
 20
181.1200486318
 30
0.0
 11
180.6170542884
 21
181.765622646
 31
0.0
  0
ARC
  5
90
330
1F
100
AcDbEntity
  8
0
100
AcDbCircle
 10
191.4151823673
 20
175.4687639061
 30
0.0
 40
12.49999999999169
100
AcDbArc
 50
141.312153193
 51
142.0921021261
  0
LINE
  5
91
330
1F
100
AcDbEntity
  8
0
100
AcDbLine
 10
181.658144717
 20
183.2822276892
 30
0.0
 11
182.3368293962
 21
183.3162799037
 31
0.0
  0
ARC
  5
92
330
1F
100
AcDbEntity
  8
0
100
AcDbCircle
 10
191.4151823673
 20
175.4687639061
 30
0.0
 40
11.99999999999703
100
AcDbArc
 50
139.1591866479
 51
144.2450686713
  0
LINE
  5
93
330
1F
100
AcDbEntity
  8
0
100
AcDbLine
 10
181.6768980416
 20
182.4805980736
 30
0.0
 11
181.5526898439
 21
183.1486884647
 31
0.0
  0
ARC
  5
94
330
1F
100
AcDbEntity
  8
0
100
AcDbCircle
 10
191.4151823673
 20
175.4687639061
 30
0.0
 40
12.49999999999197
100
AcDbArc
 50
133.652578725
 51
134.432527658
  0
LINE
  5
95
330
1F
100
AcDbEntity
  8
0
100
AcDbLine
 10
182.7866347996
 20
184.5129978079
 30
0.0
 11
183.4638026227
 21
184.4562863765
 31
0.0
  0
ARC
  5
96
330
1F
100
AcDbEntity
  8
0
100
AcDbCircle
 10
191.4151823673
 20
175.4687639061
 30
0.0
 40
11.99999999999704
100
AcDbArc
 50
131.4996121798
 51
136.5854942032
  0
LINE
  5
97
330
1F
100
AcDbEntity
  8
0
100
AcDbLine
 10
182.6983740267
 20
183.7160211685
 30
0.0
 11
182.6643218122
 21
184.3947058477
 31
0.0
  0
ARC
  5
98
330
1F
100
AcDbEntity
  8
0
100
AcDbCircle
 10
191.4151823673
 20
175.4687639061
 30
0.0
 40
12.49999999999597
100
AcDbArc
 50
49.397259576
 51
50.1772085091
  0
ARC
  5
99
330
1F
100
AcDbEntity
  8
0
100
AcDbCircle
 10
191.4151823673
 20
175.4687639061
 30
0.0
 40
11.99999999999705
100
AcDbArc
 50
47.2442930308
 51
52.3301750543
  0
LINE
  5
9A
330
1F
100
AcDbEntity
  8
0
100
AcDbLine
 10
198.7485054191
 20
184.967309743
 30
0.0
 11
199.4203731384
 21
185.0691243533
 31
0.0
  0
LINE
  5
9B
330
1F
100
AcDbEntity
  8
0
100
AcDbLine
 10
199.5503140176
 20
184.95926616
 30
0.0
 11
199.5616689831
 21
184.2798226289
 31
0.0
  0
ARC
  5
9C
330
1F
100
AcDbEntity
  8
0
100
AcDbCircle
 10
191.4151823673
 20
175.4687639061
 30
0.0
 40
12.49999999999625
100
AcDbArc
 50
41.7376851079
 51
42.517634041
  0
LINE
  5
9D
330
1F
100
AcDbEntity
  8
0
100
AcDbLine
 10
200.7426883595
 20
183.7902801119
 30
0.0
 11
200.6633810506
 21
183.1153854551
 31
0.0
  0
ARC
  5
9E
330
1F
100
AcDbEntity
  8
0
100
AcDbCircle
 10
191.4151823673
 20
175.4687639061
 30
0.0
 40
11.99999999999705
100
AcDbArc
 50
39.5847185627
 51
44.6706005862
  0
LINE
  5
9F
330
1F
100
AcDbEntity
  8
0
100
AcDbLine
 10
199.9491060124
 20
183.9051225529
 30
0.0
 11
200.6285495435
 21
183.9164775184
 31
0.0
  0
ARC
  5
A0
330
1F
100
AcDbEntity
  8
0
100
AcDbCircle
 10
191.4151823673
 20
175.4687639061
 30
0.0
 40
11.99999999999707
100
AcDbArc
 50
345.9676972862
 51
351.0535793096
  0
LINE
  5
A1
330
1F
100
AcDbEntity
  8
0
100
AcDbLine
 10
203.0570925182
 20
172.5591371192
 30
0.0
 11
202.725975052
 21
172.3704176902
 31
0.0
  0
LINE
  5
A2
330
1F
100
AcDbEntity
  8
0
100
AcDbLine
 10
202.725975052
 20
172.3704176902
 30
0.0
 11
202.914694481
 21
172.039300224
 31
0.0
  0
ARC
  5
A3
330
1F
100
AcDbEntity
  8
0
100
AcDbCircle
 10
191.4151823673
 20
175.4687639061
 30
0.0
 40
11.99999999999707
100
AcDbArc
 50
338.3081228181
 51
343.3940048415
  0
LINE
  5
A4
330
1F
100
AcDbEntity
  8
0
100
AcDbLine
 10
202.5654021413
 20
171.03338354
 30
0.0
 11
202.2120852365
 21
170.8904816012
 31
0.0
  0
LINE
  5
A5
330
1F
100
AcDbEntity
  8
0
100
AcDbLine
 10
202.2120852365
 20
170.8904816012
 30
0.0
 11
202.3549871752
 21
170.5371646965
 31
0.0
  0
ARC
  5
A6
330
1F
100
AcDbEntity
  8
0
100
AcDbCircle
 10
191.4151823673
 20
175.4687639061
 30
0.0
 40
11.99999999999707
100
AcDbArc
 50
330.64854835
 51
335.7344303734
  0
LINE
  5
A7
330
1F
100
AcDbEntity
  8
0
100
AcDbLine
 10
201.8747358283
 20
169.5867794284
 30
0.0
 11
201.5055244335
 21
169.4922450684
 31
0.0
  0
LINE
  5
A8
330
1F
100
AcDbEntity
  8
0
100
AcDbLine
 10
201.5055244335
 20
169.4922450684
 30
0.0
 11
201.6000587935
 21
169.1230336736
 31
0.0
  0
ARC
  5
A9
330
1F
100
AcDbEntity
  8
0
100
AcDbCircle
 10
191.4151823673
 20
175.4687639061
 30
0.0
 40
11.99999999999707
100
AcDbArc
 50
322.9889738819
 51
328.0748559053
  0
LINE
  5
AA
330
1F
100
AcDbEntity
  8
0
100
AcDbLine
 10
200.9974185361
 20
168.2451394692
 30
0.0
 11
200.6189012373
 21
168.2006596559
 31
0.0
  0
LINE
  5
AB
330
1F
100
AcDbEntity
  8
0
100
AcDbLine
 10
200.6189012373
 20
168.2006596559
 30
0.0
 11
200.6633810506
 21
167.822142357
 31
0.0
  0
ARC
  5
AC
330
1F
100
AcDbEntity
  8
0
100
AcDbCircle
 10
191.4151823673
 20
175.4687639061
 30
0.0
 40
11.99999999999705
100
AcDbArc
 50
315.3293994138
 51
320.4152814373
  0
LINE
  5
AD
330
1F
100
AcDbEntity
  8
0
100
AcDbLine
 10
199.9491060124
 20
167.0324052592
 30
0.0
 11
199.5680374598
 21
167.0387737358
 31
0.0
  0
LINE
  5
AE
330
1F
100
AcDbEntity
  8
0
100
AcDbLine
 10
199.5680374598
 20
167.0387737358
 30
0.0
 11
199.5616689831
 21
166.6577051832
 31
0.0
  0
ARC
  5
AF
330
1F
100
AcDbEntity
  8
0
100
AcDbCircle
 10
191.4151823673
 20
175.4687639061
 30
0.0
 40
11.99999999999707
100
AcDbArc
 50
307.6698249457
 51
312.7557069692
  0
LINE
  5
B0
330
1F
100
AcDbEntity
  8
0
100
AcDbLine
 10
198.7485054191
 20
165.9702180691
 30
0.0
 11
198.37168579
 21
166.0273211901
 31
0.0
  0
LINE
  5
B1
330
1F
100
AcDbEntity
  8
0
100
AcDbLine
 10
198.37168579
 20
166.0273211901
 30
0.0
 11
198.314582669
 21
165.650501561
 31
0.0
  0
ARC
  5
B2
330
1F
100
AcDbEntity
  8
0
100
AcDbCircle
 10
191.4151823673
 20
175.4687639061
 30
0.0
 40
11.99999999999707
100
AcDbArc
 50
300.0102504777
 51
305.0961325011
  0
LINE
  5
B3
330
1F
100
AcDbEntity
  8
0
100
AcDbLine
 10
197.4170415022
 20
165.0775326545
 30
0.0
 11
197.0511951519
 21
165.1843514133
 31
0.0
  0
LINE
  5
B4
330
1F
100
AcDbEntity
  8
0
100
AcDbLine
 10
197.0511951519
 20
165.1843514133
 30
0.0
 11
196.9443763931
 21
164.818505063
 31
0.0
  0
ARC
  5
B5
330
1F
100
AcDbEntity
  8
0
100
AcDbCircle
 10
191.4151823673
 20
175.4687639061
 30
0.0
 40
11.99999999999706
100
AcDbArc
 50
292.3506760096
 51
297.436558033
  0
LINE
  5
B6
330
1F
100
AcDbEntity
  8
0
100
AcDbLine
 10
195.9784742669
 20
164.3702790077
 30
0.0
 11
195.6301297321
 21
164.5249072211
 31
0.0
  0
LINE
  5
B7
330
1F
100
AcDbEntity
  8
0
100
AcDbLine
 10
195.6301297321
 20
164.5249072211
 30
0.0
 11
195.4755015187
 21
164.1765626863
 31
0.0
  0
ARC
  5
B8
330
1F
100
AcDbEntity
  8
0
100
AcDbCircle
 10
191.4151823673
 20
175.4687639061
 30
0.0
 40
11.99999999999706
100
AcDbArc
 50
284.6911015415
 51
289.7769835649
  0
LINE
  5
B9
330
1F
100
AcDbEntity
  8
0
100
AcDbLine
 10
194.4584749795
 20
163.8610780869
 30
0.0
 11
194.1338484767
 21
164.0607564107
 31
0.0
  0
LINE
  5
BA
330
1F
100
AcDbEntity
  8
0
100
AcDbLine
 10
194.1338484767
 20
164.0607564107
 30
0.0
 11
193.934170153
 21
163.7361299079
 31
0.0
  0
ARC
  5
BB
330
1F
100
AcDbEntity
  8
0
100
AcDbCircle
 10
191.4151823673
 20
175.4687639061
 30
0.0
 40
11.99999999999707
100
AcDbArc
 50
277.0315270734
 51
282.1174090968
  0
LINE
  5
BC
330
1F
100
AcDbEntity
  8
0
100
AcDbLine
 10
192.8841680634
 20
163.5590165945
 30
0.0
 11
192.5890525602
 21
163.8001817643
 31
0.0
  0
LINE
  5
BD
330
1F
100
AcDbEntity
  8
0
100
AcDbLine
 10
192.5890525602
 20
163.8001817643
 30
0.0
 11
192.3478873905
 21
163.5050662611
 31
0.0
  0
ARC
  5
BE
330
1F
100
AcDbEntity
  8
0
100
AcDbCircle
 10
191.4151823673
 20
175.4687639061
 30
0.0
 40
11.99999999999707
100
AcDbArc
 50
269.3719526053
 51
274.4578346287
  0
LINE
  5
BF
330
1F
100
AcDbEntity
  8
0
100
AcDbLine
 10
191.2836470627
 20
163.4694848251
 30
0.0
 11
191.0233089023
 21
163.7478332426
 31
0.0
  0
LINE
  5
C0
330
1F
100
AcDbEntity
  8
0
100
AcDbLine
 10
191.0233089023
 20
163.7478332426
 30
0.0
 11
190.7449604847
 21
163.4874950823
 31
0.0
  0
ARC
  5
C1
330
1F
100
AcDbEntity
  8
0
100
AcDbCircle
 10
191.4151823673
 20
175.4687639061
 30
0.0
 40
11.99999999999707
100
AcDbArc
 50
261.7123781372
 51
266.7982601607
  0
LINE
  5
C2
330
1F
100
AcDbEntity
  8
0
100
AcDbLine
 10
189.6854733126
 20
163.5940804751
 30
0.0
 11
189.4645582357
 21
163.9046450063
 31
0.0
  0
LINE
  5
C3
330
1F
100
AcDbEntity
  8
0
100
AcDbLine
 10
189.4645582357
 20
163.9046450063
 30
0.0
 11
189.1539937044
 21
163.6837299294
 31
0.0
  0
ARC
  5
C4
330
1F
100
AcDbEntity
  8
0
100
AcDbCircle
 10
191.4151823673
 20
175.4687639061
 30
0.0
 40
11.99999999999706
100
AcDbArc
 50
254.0528036692
 51
259.1386856926
  0
LINE
  5
C5
330
1F
100
AcDbEntity
  8
0
100
AcDbLine
 10
188.1181662616
 20
163.9305801322
 30
0.0
 11
187.9406165029
 21
164.2678187458
 31
0.0
  0
LINE
  5
C6
330
1F
100
AcDbEntity
  8
0
100
AcDbLine
 10
187.9406165029
 20
164.2678187458
 30
0.0
 11
187.6033778893
 21
164.0902689871
 31
0.0
  0
ARC
  5
C7
330
1F
100
AcDbEntity
  8
0
100
AcDbCircle
 10
191.4151823673
 20
175.4687639061
 30
0.0
 40
11.99999999999706
100
AcDbArc
 50
246.3932292011
 51
251.4791112245
  0
LINE
  5
C8
330
1F
100
AcDbEntity
  8
0
100
AcDbLine
 10
186.6096945411
 20
164.4729789522
 30
0.0
 11
186.4786784802
 21
164.830873617
 31
0.0
  0
LINE
  5
C9
330
1F
100
AcDbEntity
  8
0
100
AcDbLine
 10
186.4786784802
 20
164.830873617
 30
0.0
 11
186.1207838154
 21
164.6998575561
 31
0.0
  0
ARC
  5
CA
330
1F
100
AcDbEntity
  8
0
100
AcDbCircle
 10
191.4151823673
 20
175.4687639061
 30
0.0
 40
11.99999999999706
100
AcDbArc
 50
238.733654733
 51
243.8195367564
  0
LINE
  5
CB
330
1F
100
AcDbEntity
  8
0
100
AcDbLine
 10
185.1869768647
 20
165.2115978151
 30
0.0
 11
185.1048324864
 21
165.5837618924
 31
0.0
  0
LINE
  5
CC
330
1F
100
AcDbEntity
  8
0
100
AcDbLine
 10
185.1048324864
 20
165.5837618924
 30
0.0
 11
184.7326684091
 21
165.5016175141
 31
0.0
  0
ARC
  5
CD
330
1F
100
AcDbEntity
  8
0
100
AcDbCircle
 10
191.4151823673
 20
175.4687639061
 30
0.0
 40
11.99999999999705
100
AcDbArc
 50
231.0740802649
 51
236.1599622883
  0
LINE
  5
CE
330
1F
100
AcDbEntity
  8
0
100
AcDbLine
 10
183.875401663
 20
166.1332560499
 30
0.0
 11
183.8435948357
 21
166.5130482629
 31
0.0
  0
LINE
  5
CF
330
1F
100
AcDbEntity
  8
0
100
AcDbLine
 10
183.8435948357
 20
166.5130482629
 30
0.0
 11
183.4638026227
 21
166.4812414356
 31
0.0
  0
ARC
  5
D0
330
1F
100
AcDbEntity
  8
0
100
AcDbCircle
 10
191.4151823673
 20
175.4687639061
 30
0.0
 40
11.99999999999704
100
AcDbArc
 50
223.4145057968
 51
228.5003878202
  0
LINE
  5
D1
330
1F
100
AcDbEntity
  8
0
100
AcDbLine
 10
182.6983740267
 20
167.2215066436
 30
0.0
 11
182.7174723438
 21
167.6021495912
 31
0.0
  0
LINE
  5
D2
330
1F
100
AcDbEntity
  8
0
100
AcDbLine
 10
182.7174723438
 20
167.6021495912
 30
0.0
 11
182.3368293962
 21
167.6212479084
 31
0.0
  0
ARC
  5
D3
330
1F
100
AcDbEntity
  8
0
100
AcDbCircle
 10
191.4151823673
 20
175.4687639061
 30
0.0
 40
11.99999999999706
100
AcDbArc
 50
215.7549313287
 51
220.8408133521
  0
LINE
  5
D4
330
1F
100
AcDbEntity
  8
0
100
AcDbLine
 10
181.6768980416
 20
168.4569297385
 30
0.0
 11
181.7465606934
 21
168.8316308384
 31
0.0
  0
LINE
  5
D5
330
1F
100
AcDbEntity
  8
0
100
AcDbLine
 10
181.7465606934
 20
168.8316308384
 30
0.0
 11
181.3718595936
 21
168.9012934902
 31
0.0
  0
ARC
  5
D6
330
1F
100
AcDbEntity
  8
0
100
AcDbCircle
 10
191.4151823673
 20
175.4687639061
 30
0.0
 40
11.99999999999705
100
AcDbArc
 50
208.0953568607
 51
213.181238884
  0
LINE
  5
D7
330
1F
100
AcDbEntity
  8
0
100
AcDbLine
 10
180.8292019711
 20
169.8174791803
 30
0.0
 11
180.9481858259
 21
170.1795518824
 31
0.0
  0
LINE
  5
D8
330
1F
100
AcDbEntity
  8
0
100
AcDbLine
 10
180.9481858259
 20
170.1795518824
 30
0.0
 11
180.5861131237
 21
170.2985357371
 31
0.0
  0
ARC
  5
D9
330
1F
100
AcDbEntity
  8
0
100
AcDbCircle
 10
191.4151823673
 20
175.4687639061
 30
0.0
 40
11.99999999999704
100
AcDbArc
 50
200.4357823926
 51
205.521664416
  0
LINE
  5
DA
330
1F
100
AcDbEntity
  8
0
100
AcDbLine
 10
180.1704129715
 20
171.2788759318
 30
0.0
 11
180.3365947595
 21
171.6218590402
 31
0.0
  0
LINE
  5
DB
330
1F
100
AcDbEntity
  8
0
100
AcDbLine
 10
180.3365947595
 20
171.6218590402
 30
0.0
 11
179.9936116511
 21
171.7880408282
 31
0.0
  0
ARC
  5
DC
330
1F
100
AcDbEntity
  8
0
100
AcDbCircle
 10
191.4151823673
 20
175.4687639061
 30
0.0
 40
11.99999999999706
100
AcDbArc
 50
192.7762079245
 51
197.8620899479
  0
LINE
  5
DD
330
1F
100
AcDbEntity
  8
0
100
AcDbLine
 10
179.7122871482
 20
172.8150413336
 30
0.0
 11
179.9227013515
 21
173.1328143065
 31
0.0
  0
LINE
  5
DE
330
1F
100
AcDbEntity
  8
0
100
AcDbLine
 10
179.9227013515
 20
173.1328143065
 30
0.0
 11
179.6049283785
 21
173.3432285098
 31
0.0
  0
ARC
  5
DF
330
1F
100
AcDbEntity
  8
0
100
AcDbCircle
 10
191.4151823673
 20
175.4687639061
 30
0.0
 40
11.99999999999704
100
AcDbArc
 50
185.1166334564
 51
190.2025154798
  0
LINE
  5
E0
330
1F
100
AcDbEntity
  8
0
100
AcDbLine
 10
179.4629997673
 20
174.3985624775
 30
0.0
 11
179.7138915395
 21
174.6854546488
 31
0.0
  0
LINE
  5
E1
330
1F
100
AcDbEntity
  8
0
100
AcDbLine
 10
179.7138915395
 20
174.6854546488
 30
0.0
 11
179.4269993681
 21
174.9363464209
 31
0.0
  0
ARC
  5
E2
330
1F
100
AcDbEntity
  8
0
100
AcDbCircle
 10
191.4151823673
 20
175.4687639061
 30
0.0
 40
11.99999999999705
100
AcDbArc
 50
177.4570589883
 51
182.5429410117
  0
LINE
  5
E3
330
1F
100
AcDbEntity
  8
0
100
AcDbLine
 10
179.4269993681
 20
176.0011813912
 30
0.0
 11
179.7138915395
 21
176.2520731633
 31
0.0
  0
LINE
  5
E4
330
1F
100
AcDbEntity
  8
0
100
AcDbLine
 10
179.7138915395
 20
176.2520731633
 30
0.0
 11
179.4629997673
 21
176.5389653347
 31
0.0
  0
ARC
  5
E5
330
1F
100
AcDbEntity
  8
0
100
AcDbCircle
 10
191.4151823673
 20
175.4687639061
 30
0.0
 40
11.99999999999705
100
AcDbArc
 50
169.7974845202
 51
174.8833665436
  0
LINE
  5
E6
330
1F
100
AcDbEntity
  8
0
100
AcDbLine
 10
179.9227013515
 20
177.8047135056
 30
0.0
 11
179.7122871482
 21
178.1224864786
 31
0.0
  0
ARC
  5
E7
330
1F
100
AcDbEntity
  8
0
100
AcDbCircle
 10
191.4151823673
 20
175.4687639061
 30
0.0
 40
11.99999999999706
100
AcDbArc
 50
162.1379100521
 51
167.2237920755
  0
LINE
  5
E8
330
1F
100
AcDbEntity
  8
0
100
AcDbLine
 10
179.9936116511
 20
179.1494869839
 30
0.0
 11
180.3365947595
 21
179.3156687719
 31
0.0
  0
LINE
  5
E9
330
1F
100
AcDbEntity
  8
0
100
AcDbLine
 10
180.3365947595
 20
179.3156687719
 30
0.0
 11
180.1704129715
 21
179.6586518803
 31
0.0
  0
ARC
  5
EA
330
1F
100
AcDbEntity
  8
0
100
AcDbCircle
 10
191.4151823673
 20
175.4687639061
 30
0.0
 40
11.99999999999704
100
AcDbArc
 50
154.478335584
 51
159.5642176074
  0
LINE
  5
EB
330
1F
100
AcDbEntity
  8
0
100
AcDbLine
 10
180.5861131237
 20
180.638992075
 30
0.0
 11
180.9481858259
 21
180.7579759297
 31
0.0
  0
LINE
  5
EC
330
1F
100
AcDbEntity
  8
0
100
AcDbLine
 10
180.9481858259
 20
180.7579759297
 30
0.0
 11
180.8292019711
 21
181.1200486318
 31
0.0
  0
LINE
  5
ED
330
1F
100
AcDbEntity
  8
0
100
AcDbLine
 10
181.3718595936
 20
182.0362343219
 30
0.0
 11
181.7465606934
 21
182.1058969737
 31
0.0
  0
LINE
  5
EE
330
1F
100
AcDbEntity
  8
0
100
AcDbLine
 10
181.7465606934
 20
182.1058969737
 30
0.0
 11
181.6768980416
 21
182.4805980736
 31
0.0
  0
LINE
  5
EF
330
1F
100
AcDbEntity
  8
0
100
AcDbLine
 10
182.3368293962
 20
183.3162799037
 30
0.0
 11
182.7174723438
 21
183.3353782209
 31
0.0
  0
LINE
  5
F0
330
1F
100
AcDbEntity
  8
0
100
AcDbLine
 10
182.7174723438
 20
183.3353782209
 30
0.0
 11
182.6983740267
 21
183.7160211685
 31
0.0
  0
LINE
  5
F1
330
1F
100
AcDbEntity
  8
0
100
AcDbLine
 10
183.4638026227
 20
184.4562863765
 30
0.0
 11
183.8435948357
 21
184.4244795492
 31
0.0
  0
LINE
  5
F2
330
1F
100
AcDbEntity
  8
0
100
AcDbLine
 10
183.8435948357
 20
184.4244795492
 30
0.0
 11
183.875401663
 21
184.8042717622
 31
0.0
  0
ARC
  5
F3
330
1F
100
AcDbEntity
  8
0
100
AcDbCircle
 10
191.4151823673
 20
175.4687639061
 30
0.0
 40
11.99999999999705
100
AcDbArc
 50
123.8400377117
 51
128.9259197351
  0
LINE
  5
F4
330
1F
100
AcDbEntity
  8
0
100
AcDbLine
 10
184.7326684091
 20
185.435910298
 30
0.0
 11
185.1048324864
 21
185.3537659197
 31
0.0
  0
LINE
  5
F5
330
1F
100
AcDbEntity
  8
0
100
AcDbLine
 10
185.1048324864
 20
185.3537659197
 30
0.0
 11
185.1869768647
 21
185.725929997
 31
0.0
  0
ARC
  5
F6
330
1F
100
AcDbEntity
  8
0
100
AcDbCircle
 10
191.4151823673
 20
175.4687639061
 30
0.0
 40
11.99999999999706
100
AcDbArc
 50
116.1804632436
 51
121.266345267
  0
LINE
  5
F7
330
1F
100
AcDbEntity
  8
0
100
AcDbLine
 10
186.1207838154
 20
186.237670256
 30
0.0
 11
186.4786784802
 21
186.1066541951
 31
0.0
  0
LINE
  5
F8
330
1F
100
AcDbEntity
  8
0
100
AcDbLine
 10
186.4786784802
 20
186.1066541951
 30
0.0
 11
186.6096945411
 21
186.4645488599
 31
0.0
  0
ARC
  5
F9
330
1F
100
AcDbEntity
  8
0
100
AcDbCircle
 10
191.4151823673
 20
175.4687639061
 30
0.0
 40
11.99999999999705
100
AcDbArc
 50
108.5208887755
 51
113.6067707989
  0
ARC
  5
FA
330
1F
100
AcDbEntity
  8
0
100
AcDbCircle
 10
191.4151823673
 20
175.4687639061
 30
0.0
 40
11.99999999999705
100
AcDbArc
 50
100.8613143074
 51
105.9471963308
  0
ARC
  5
FB
330
1F
100
AcDbEntity
  8
0
100
AcDbCircle
 10
191.4151823673
 20
175.4687639061
 30
0.0
 40
11.99999999999707
100
AcDbArc
 50
93.2017398393
 51
98.2876218628
  0
ARC
  5
FC
330
1F
100
AcDbEntity
  8
0
100
AcDbCircle
 10
191.4151823673
 20
175.4687639061
 30
0.0
 40
11.99999999999705
100
AcDbArc
 50
85.5421653713
 51
90.6280473947
  0
ARC
  5
FD
330
1F
100
AcDbEntity
  8
0
100
AcDbCircle
 10
191.4151823673
 20
175.4687639061
 30
0.0
 40
11.99999999999705
100
AcDbArc
 50
77.8825909032
 51
82.9684729266
  0
ARC
  5
FE
330
1F
100
AcDbEntity
  8
0
100
AcDbCircle
 10
191.4151823673
 20
175.4687639061
 30
0.0
 40
11.99999999999705
100
AcDbArc
 50
70.2230164351
 51
75.3088984585
  0
ARC
  5
FF
330
1F
100
AcDbEntity
  8
0
100
AcDbCircle
 10
191.4151823673
 20
175.4687639061
 30
0.0
 40
11.99999999999705
100
AcDbArc
 50
62.563441967
 51
67.6493239904
  0
ARC
  5
100
330
1F
100
AcDbEntity
  8
0
100
AcDbCircle
 10
191.4151823673
 20
175.4687639061
 30
0.0
 40
11.99999999999705
100
AcDbArc
 50
54.9038674989
 51
59.9897495223
  0
LINE
  5
101
330
1F
100
AcDbEntity
  8
0
100
AcDbLine
 10
200.6633810506
 20
183.1153854551
 30
0.0
 11
200.6189012373
 21
182.7368681563
 31
0.0
  0
LINE
  5
102
330
1F
100
AcDbEntity
  8
0
100
AcDbLine
 10
200.6189012373
 20
182.7368681563
 30
0.0
 11
200.9974185361
 21
182.6923883429
 31
0.0
  0
ARC
  5
103
330
1F
100
AcDbEntity
  8
0
100
AcDbCircle
 10
191.4151823673
 20
175.4687639061
 30
0.0
 40
11.99999999999706
100
AcDbArc
 50
31.9251440947
 51
37.0110261181
  0
LINE
  5
104
330
1F
100
AcDbEntity
  8
0
100
AcDbLine
 10
201.6000587935
 20
181.8144941385
 30
0.0
 11
201.5055244335
 21
181.4452827437
 31
0.0
  0
LINE
  5
105
330
1F
100
AcDbEntity
  8
0
100
AcDbLine
 10
201.5055244335
 20
181.4452827437
 30
0.0
 11
201.8747358283
 21
181.3507483837
 31
0.0
  0
ARC
  5
106
330
1F
100
AcDbEntity
  8
0
100
AcDbCircle
 10
191.4151823673
 20
175.4687639061
 30
0.0
 40
11.99999999999707
100
AcDbArc
 50
24.2655696266
 51
29.35145165
  0
LINE
  5
107
330
1F
100
AcDbEntity
  8
0
100
AcDbLine
 10
202.3549871752
 20
180.4003631157
 30
0.0
 11
202.2120852365
 21
180.0470462109
 31
0.0
  0
LINE
  5
108
330
1F
100
AcDbEntity
  8
0
100
AcDbLine
 10
202.2120852365
 20
180.0470462109
 30
0.0
 11
202.5654021413
 21
179.9041442722
 31
0.0
  0
ARC
  5
109
330
1F
100
AcDbEntity
  8
0
100
AcDbCircle
 10
191.4151823673
 20
175.4687639061
 30
0.0
 40
11.99999999999707
100
AcDbArc
 50
16.6059951585
 51
21.6918771819
  0
LINE
  5
10A
330
1F
100
AcDbEntity
  8
0
100
AcDbLine
 10
202.914694481
 20
178.8982275881
 30
0.0
 11
202.725975052
 21
178.5671101219
 31
0.0
  0
LINE
  5
10B
330
1F
100
AcDbEntity
  8
0
100
AcDbLine
 10
202.725975052
 20
178.5671101219
 30
0.0
 11
203.0570925182
 21
178.3783906929
 31
0.0
  0
ARC
  5
10C
330
1F
100
AcDbEntity
  8
0
100
AcDbCircle
 10
191.4151823673
 20
175.4687639061
 30
0.0
 40
11.99999999999705
100
AcDbArc
 50
8.9464206904
 51
14.0323027138
  0
LINE
  5
10D
330
1F
100
AcDbEntity
  8
0
100
AcDbLine
 10
203.2691927207
 20
177.3348931998
 30
0.0
 11
203.0380235041
 21
177.0318839713
 31
0.0
  0
LINE
  5
10E
330
1F
100
AcDbEntity
  8
0
100
AcDbLine
 10
203.0380235041
 20
177.0318839713
 30
0.0
 11
203.3410327326
 21
176.8007147547
 31
0.0
  0
ARC
  5
10F
330
1F
100
AcDbEntity
  8
0
100
AcDbCircle
 10
191.4151823673
 20
175.4687639061
 30
0.0
 40
11.99999999999707
100
AcDbArc
 50
1.2868462223
 51
6.3727282458
  0
LINE
  5
110
330
1F
100
AcDbEntity
  8
0
100
AcDbLine
 10
203.4121558648
 20
175.7382576901
 30
0.0
 11
203.1426620807
 21
175.4687639061
 31
0.0
  0
LINE
  5
111
330
1F
100
AcDbEntity
  8
0
100
AcDbLine
 10
203.1426620807
 20
175.4687639061
 30
0.0
 11
203.4121558648
 21
175.199270122
 31
0.0
  0
ARC
  5
112
330
1F
100
AcDbEntity
  8
0
100
AcDbCircle
 10
191.4151823673
 20
175.4687639061
 30
0.0
 40
11.99999999999707
100
AcDbArc
 50
353.6272717542
 51
358.7131537777
  0
LINE
  5
113
330
1F
100
AcDbEntity
  8
0
100
AcDbLine
 10
203.3410327326
 20
174.1368130575
 30
0.0
 11
203.0380235041
 21
173.9056438408
 31
0.0
  0
LINE
  5
114
330
1F
100
AcDbEntity
  8
0
100
AcDbLine
 10
203.0380235041
 20
173.9056438408
 30
0.0
 11
203.2691927207
 21
173.6026346123
 31
0.0
  0
LINE
  5
115
330
1F
100
AcDbEntity
  8
0
100
AcDbLine
 10
189.1539937044
 20
187.2537978827
 30
0.0
 11
189.4645582357
 21
187.0328828058
 31
0.0
  0
LINE
  5
116
330
1F
100
AcDbEntity
  8
0
100
AcDbLine
 10
190.7449604847
 20
187.4500327299
 30
0.0
 11
191.0233089023
 21
187.1896945695
 31
0.0
  0
LINE
  5
117
330
1F
100
AcDbEntity
  8
0
100
AcDbLine
 10
191.0233089023
 20
187.1896945695
 30
0.0
 11
191.2836470627
 21
187.4680429871
 31
0.0
  0
LINE
  5
118
330
1F
100
AcDbEntity
  8
0
100
AcDbLine
 10
192.3478873905
 20
187.432461551
 30
0.0
 11
192.5890525602
 21
187.1373460479
 31
0.0
  0
LINE
  5
119
330
1F
100
AcDbEntity
  8
0
100
AcDbLine
 10
192.5890525602
 20
187.1373460479
 30
0.0
 11
192.8841680634
 21
187.3785112176
 31
0.0
  0
LINE
  5
11A
330
1F
100
AcDbEntity
  8
0
100
AcDbLine
 10
193.934170153
 20
187.2013979042
 30
0.0
 11
194.1338484767
 21
186.8767714015
 31
0.0
  0
LINE
  5
11B
330
1F
100
AcDbEntity
  8
0
100
AcDbLine
 10
194.1338484767
 20
186.8767714015
 30
0.0
 11
194.4584749795
 21
187.0764497252
 31
0.0
  0
LINE
  5
11C
330
1F
100
AcDbEntity
  8
0
100
AcDbLine
 10
195.4755015187
 20
186.7609651258
 30
0.0
 11
195.6301297321
 21
186.412620591
 31
0.0
  0
LINE
  5
11D
330
1F
100
AcDbEntity
  8
0
100
AcDbLine
 10
195.6301297321
 20
186.412620591
 30
0.0
 11
195.9784742669
 21
186.5672488044
 31
0.0
  0
LINE
  5
11E
330
1F
100
AcDbEntity
  8
0
100
AcDbLine
 10
196.9443763931
 20
186.1190227492
 30
0.0
 11
197.0511951519
 21
185.7531763988
 31
0.0
  0
LINE
  5
11F
330
1F
100
AcDbEntity
  8
0
100
AcDbLine
 10
197.0511951519
 20
185.7531763988
 30
0.0
 11
197.4170415022
 21
185.8599951577
 31
0.0
  0
LINE
  5
120
330
1F
100
AcDbEntity
  8
0
100
AcDbLine
 10
198.314582669
 20
185.2870262511
 30
0.0
 11
198.37168579
 21
184.910206622
 31
0.0
  0
LINE
  5
121
330
1F
100
AcDbEntity
  8
0
100
AcDbLine
 10
198.37168579
 20
184.910206622
 30
0.0
 11
198.7485054191
 21
184.967309743
 31
0.0
  0
LINE
  5
122
330
1F
100
AcDbEntity
  8
0
100
AcDbLine
 10
199.5616689831
 20
184.2798226289
 30
0.0
 11
199.5680374598
 21
183.8987540763
 31
0.0
  0
LINE
  5
123
330
1F
100
AcDbEntity
  8
0
100
AcDbLine
 10
199.5680374598
 20
183.8987540763
 30
0.0
 11
199.9491060124
 21
183.9051225529
 31
0.0
  0
LINE
  5
124
330
1F
100
AcDbEntity
  8
0
100
AcDbLine
 10
187.6033778893
 20
186.847258825
 30
0.0
 11
187.9406165029
 21
186.6697090663
 31
0.0
  0
LINE
  5
125
330
1F
100
AcDbEntity
  8
0
100
AcDbLine
 10
187.9406165029
 20
186.6697090663
 30
0.0
 11
188.1181662616
 21
187.0069476799
 31
0.0
  0
LINE
  5
126
330
1F
100
AcDbEntity
  8
0
100
AcDbLine
 10
189.4645582357
 20
187.0328828058
 30
0.0
 11
189.6854733126
 21
187.343447337
 31
0.0
  0
LINE
  5
127
330
1F
100
AcDbEntity
  8
0
100
AcDbLine
 10
179.6049283785
 20
177.5942993023
 30
0.0
 11
179.9227013515
 21
177.8047135056
 31
0.0
  0
ARC
  5
128
330
1F
100
AcDbEntity
  8
0
100
AcDbCircle
 10
191.4151823673
 20
175.4687639061
 30
0.0
 40
12.49999999999566
100
AcDbArc
 50
57.0568340441
 51
57.8367829772
  0
LINE
  5
129
330
1F
100
AcDbEntity
  8
0
100
AcDbLine
 10
197.4170415022
 20
185.8599951577
 30
0.0
 11
198.0693439144
 21
186.0504525286
 31
0.0
  0
LINE
  5
12A
330
1F
100
AcDbEntity
  8
0
100
AcDbLine
 10
198.2127680587
 20
185.9588939704
 30
0.0
 11
198.314582669
 21
185.2870262511
 31
0.0
  0
ARC
  5
12B
330
1F
100
AcDbEntity
  8
0
100
AcDbCircle
 10
191.4151823673
 20
175.4687639061
 30
0.0
 40
12.49999999999372
100
AcDbArc
 50
95.3547063845
 51
96.1346553176
  0
LINE
  5
12C
330
1F
100
AcDbEntity
  8
0
100
AcDbLine
 10
190.2486664967
 20
187.9142145095
 30
0.0
 11
190.7449604847
 21
187.4500327299
 31
0.0
  0
LINE
  5
12D
330
1F
100
AcDbEntity
  8
0
100
AcDbLine
 10
189.6854733126
 20
187.343447337
 30
0.0
 11
190.0793639102
 21
187.8971825122
 31
0.0
  0
ARC
  5
12E
330
1F
100
AcDbEntity
  8
0
100
AcDbCircle
 10
191.4151823673
 20
175.4687639061
 30
0.0
 40
12.49999999999259
100
AcDbArc
 50
118.3334297888
 51
119.1133787218
  0
LINE
  5
12F
330
1F
100
AcDbEntity
  8
0
100
AcDbLine
 10
185.1869768647
 20
185.725929997
 30
0.0
 11
185.3334399251
 21
186.3894968882
 31
0.0
  0
LINE
  5
130
330
1F
100
AcDbEntity
  8
0
100
AcDbLine
 10
185.4826592231
 20
186.4712713086
 30
0.0
 11
186.1207838154
 21
186.237670256
 31
0.0
  0
ARC
  5
131
330
1F
100
AcDbEntity
  8
0
100
AcDbCircle
 10
191.4151823673
 20
175.4687639061
 30
0.0
 40
12.49999999999492
100
AcDbArc
 50
72.3759829803
 51
73.1559319133
  0
LINE
  5
132
330
1F
100
AcDbEntity
  8
0
100
AcDbLine
 10
194.4584749795
 20
187.0764497252
 30
0.0
 11
195.0372825872
 21
187.4324752866
 31
0.0
  0
LINE
  5
133
330
1F
100
AcDbEntity
  8
0
100
AcDbLine
 10
195.1998001034
 20
187.382061879
 30
0.0
 11
195.4755015187
 21
186.7609651258
 31
0.0
  0
ARC
  5
134
330
1F
100
AcDbEntity
  8
0
100
AcDbCircle
 10
191.4151823673
 20
175.4687639061
 30
0.0
 40
12.49999999999414
100
AcDbArc
 50
87.6951319164
 51
88.4750808495
  0
LINE
  5
135
330
1F
100
AcDbEntity
  8
0
100
AcDbLine
 10
191.2836470627
 20
187.4680429871
 30
0.0
 11
191.7478288423
 21
187.964336975
 31
0.0
  0
LINE
  5
136
330
1F
100
AcDbEntity
  8
0
100
AcDbLine
 10
191.9178909676
 20
187.9586511779
 30
0.0
 11
192.3478873905
 21
187.432461551
 31
0.0
  0
ARC
  5
137
330
1F
100
AcDbEntity
  8
0
100
AcDbCircle
 10
191.4151823673
 20
175.4687639061
 30
0.0
 40
12.49999999999297
100
AcDbArc
 50
110.6738553207
 51
111.4538042537
  0
LINE
  5
138
330
1F
100
AcDbEntity
  8
0
100
AcDbLine
 10
186.6096945411
 20
186.4645488599
 30
0.0
 11
186.8432955937
 21
187.1026734523
 31
0.0
  0
LINE
  5
139
330
1F
100
AcDbEntity
  8
0
100
AcDbLine
 10
187.0020829443
 20
187.1638292536
 30
0.0
 11
187.6033778893
 21
186.847258825
 31
0.0
  0
ARC
  5
13A
330
1F
100
AcDbEntity
  8
0
100
AcDbCircle
 10
191.4151823673
 20
175.4687639061
 30
0.0
 40
12.49999999999529
100
AcDbArc
 50
64.7164085122
 51
65.4963574452
  0
LINE
  5
13B
330
1F
100
AcDbEntity
  8
0
100
AcDbLine
 10
195.9784742669
 20
186.5672488044
 30
0.0
 11
196.59957102
 21
186.8429502197
 31
0.0
  0
LINE
  5
13C
330
1F
100
AcDbEntity
  8
0
100
AcDbLine
 10
196.7539190221
 20
186.7713251614
 30
0.0
 11
196.9443763931
 21
186.1190227492
 31
0.0
  0
ARC
  5
13D
330
1F
100
AcDbEntity
  8
0
100
AcDbCircle
 10
191.4151823673
 20
175.4687639061
 30
0.0
 40
12.49999999999454
100
AcDbArc
 50
80.0355574484
 51
80.8155063814
  0
LINE
  5
13E
330
1F
100
AcDbEntity
  8
0
100
AcDbLine
 10
192.8841680634
 20
187.3785112176
 30
0.0
 11
193.4103576902
 21
187.8085076405
 31
0.0
  0
LINE
  5
13F
330
1F
100
AcDbEntity
  8
0
100
AcDbLine
 10
193.5781445916
 20
187.780205512
 30
0.0
 11
193.934170153
 21
187.2013979042
 31
0.0
  0
ARC
  5
140
330
1F
100
AcDbEntity
  8
0
100
AcDbCircle
 10
191.4151823673
 20
175.4687639061
 30
0.0
 40
12.49999999999226
100
AcDbArc
 50
125.9930042569
 51
126.7729531899
  0
LINE
  5
141
330
1F
100
AcDbEntity
  8
0
100
AcDbLine
 10
183.875401663
 20
184.8042717622
 30
0.0
 11
183.9321130944
 21
185.4814395853
 31
0.0
  0
LINE
  5
142
330
1F
100
AcDbEntity
  8
0
100
AcDbLine
 10
184.069101518
 20
185.5823733584
 30
0.0
 11
184.7326684091
 21
185.435910298
 31
0.0
  0
ARC
  5
143
330
1F
100
AcDbEntity
  8
0
100
AcDbCircle
 10
191.4151823673
 20
175.4687639061
 30
0.0
 40
12.49999999999117
100
AcDbArc
 50
164.2908765973
 51
165.0708255304
  0
LINE
  5
144
330
1F
100
AcDbEntity
  8
0
100
AcDbLine
 10
179.7122871482
 20
178.1224864786
 30
0.0
 11
179.3371195615
 21
178.6890742732
 31
0.0
  0
LINE
  5
145
330
1F
100
AcDbEntity
  8
0
100
AcDbLine
 10
179.3820742974
 20
178.8531855966
 30
0.0
 11
179.9936116511
 21
179.1494869839
 31
0.0
  0
ARC
  5
146
330
1F
100
AcDbEntity
  8
0
100
AcDbCircle
 10
191.4151823673
 20
175.4687639061
 30
0.0
 40
12.49999999999108
100
AcDbArc
 50
171.9504510654
 51
172.7303999984
  0
LINE
  5
147
330
1F
100
AcDbEntity
  8
0
100
AcDbLine
 10
179.4629997673
 20
176.5389653347
 30
0.0
 11
179.0156608558
 21
177.0504927976
 31
0.0
  0
LINE
  5
148
330
1F
100
AcDbEntity
  8
0
100
AcDbLine
 10
179.0383405839
 20
177.2191317156
 30
0.0
 11
179.6049283785
 21
177.5942993023
 31
0.0
  0
ARC
  5
149
330
1F
100
AcDbEntity
  8
0
100
AcDbCircle
 10
191.4151823673
 20
175.4687639061
 30
0.0
 40
12.49999999999333
100
AcDbArc
 50
103.0142808526
 51
103.7942297857
  0
LINE
  5
14A
330
1F
100
AcDbEntity
  8
0
100
AcDbLine
 10
188.6002585292
 20
187.6476884803
 30
0.0
 11
189.1539937044
 21
187.2537978827
 31
0.0
  0
LINE
  5
14B
330
1F
100
AcDbEntity
  8
0
100
AcDbLine
 10
188.1181662616
 20
187.0069476799
 30
0.0
 11
188.4347366901
 21
187.6082426249
 31
0.0
  0
ARC
  5
14C
330
1F
100
AcDbEntity
  8
0
100
AcDbCircle
 10
191.4151823673
 20
175.4687639061
 30
0.0
 40
12.49999999999126
100
AcDbArc
 50
156.6313021292
 51
157.4112510623
  0
LINE
  5
14D
330
1F
100
AcDbEntity
  8
0
100
AcDbLine
 10
180.1704129715
 20
179.6586518803
 30
0.0
 11
179.8741115842
 21
180.270189234
 31
0.0
  0
LINE
  5
14E
330
1F
100
AcDbEntity
  8
0
100
AcDbLine
 10
179.9405391095
 20
180.4268443922
 30
0.0
 11
180.5861131237
 21
180.638992075
 31
0.0
  0
ARC
  5
14F
330
1F
100
AcDbEntity
  8
0
100
AcDbCircle
 10
191.4151823673
 20
175.4687639061
 30
0.0
 40
12.49999999999197
100
AcDbArc
 50
225.567472342
 51
226.347421275
  0
LINE
  5
150
330
1F
100
AcDbEntity
  8
0
100
AcDbLine
 10
183.4638026227
 20
166.4812414356
 30
0.0
 11
182.7866347996
 21
166.4245300042
 31
0.0
  0
LINE
  5
151
330
1F
100
AcDbEntity
  8
0
100
AcDbLine
 10
182.6643218122
 20
166.5428219644
 30
0.0
 11
182.6983740267
 21
167.2215066436
 31
0.0
  0
ARC
  5
152
330
1F
100
AcDbEntity
  8
0
100
AcDbCircle
 10
191.4151823673
 20
175.4687639061
 30
0.0
 40
12.49999999999116
100
AcDbArc
 50
194.9291744696
 51
195.7091234027
  0
LINE
  5
153
330
1F
100
AcDbEntity
  8
0
100
AcDbLine
 10
179.9936116511
 20
171.7880408282
 30
0.0
 11
179.3820742974
 21
172.0843422156
 31
0.0
  0
LINE
  5
154
330
1F
100
AcDbEntity
  8
0
100
AcDbLine
 10
179.3371195615
 20
172.2484535389
 30
0.0
 11
179.7122871482
 21
172.8150413336
 31
0.0
  0
ARC
  5
155
330
1F
100
AcDbEntity
  8
0
100
AcDbCircle
 10
191.4151823673
 20
175.4687639061
 30
0.0
 40
12.49999999999171
100
AcDbArc
 50
217.9078978739
 51
218.687846807
  0
LINE
  5
156
330
1F
100
AcDbEntity
  8
0
100
AcDbLine
 10
182.3368293962
 20
167.6212479084
 30
0.0
 11
181.658144717
 21
167.6553001229
 31
0.0
  0
LINE
  5
157
330
1F
100
AcDbEntity
  8
0
100
AcDbLine
 10
181.5526898439
 20
167.7888393474
 30
0.0
 11
181.6768980416
 21
168.4569297385
 31
0.0
  0
ARC
  5
158
330
1F
100
AcDbEntity
  8
0
100
AcDbCircle
 10
191.4151823673
 20
175.4687639061
 30
0.0
 40
12.49999999999108
100
AcDbArc
 50
187.2696000016
 51
188.0495489346
  0
LINE
  5
159
330
1F
100
AcDbEntity
  8
0
100
AcDbLine
 10
179.0156608558
 20
173.8870350145
 30
0.0
 11
179.4629997673
 21
174.3985624775
 31
0.0
  0
LINE
  5
15A
330
1F
100
AcDbEntity
  8
0
100
AcDbLine
 10
179.6049283785
 20
173.3432285098
 30
0.0
 11
179.0383405839
 21
173.7183960965
 31
0.0
  0
ARC
  5
15B
330
1F
100
AcDbEntity
  8
0
100
AcDbCircle
 10
191.4151823673
 20
175.4687639061
 30
0.0
 40
12.49999999999698
100
AcDbArc
 50
11.0993872356
 51
11.8793361687
  0
LINE
  5
15C
330
1F
100
AcDbEntity
  8
0
100
AcDbLine
 10
203.0570925182
 20
178.3783906929
 30
0.0
 11
203.6474734847
 21
178.041904792
 31
0.0
  0
LINE
  5
15D
330
1F
100
AcDbEntity
  8
0
100
AcDbLine
 10
203.6813664037
 20
177.8751573039
 30
0.0
 11
203.2691927207
 21
177.3348931998
 31
0.0
  0
ARC
  5
15E
330
1F
100
AcDbEntity
  8
0
100
AcDbCircle
 10
191.4151823673
 20
175.4687639061
 30
0.0
 40
12.49999999999101
100
AcDbArc
 50
179.6100255335
 51
180.3899744665
  0
LINE
  5
15F
330
1F
100
AcDbEntity
  8
0
100
AcDbLine
 10
178.9154719052
 20
175.5538424797
 30
0.0
 11
179.4269993681
 21
176.0011813912
 31
0.0
  0
LINE
  5
160
330
1F
100
AcDbEntity
  8
0
100
AcDbLine
 10
179.4269993681
 20
174.9363464209
 30
0.0
 11
178.9154719052
 21
175.3836853325
 31
0.0
  0
ARC
  5
161
330
1F
100
AcDbEntity
  8
0
100
AcDbCircle
 10
191.4151823673
 20
175.4687639061
 30
0.0
 40
12.49999999999128
100
AcDbArc
 50
202.5887489377
 51
203.3686978708
  0
LINE
  5
162
330
1F
100
AcDbEntity
  8
0
100
AcDbLine
 10
179.8741115842
 20
170.6673385781
 30
0.0
 11
180.1704129715
 21
171.2788759318
 31
0.0
  0
LINE
  5
163
330
1F
100
AcDbEntity
  8
0
100
AcDbLine
 10
180.5861131237
 20
170.2985357371
 30
0.0
 11
179.9405391095
 21
170.5106834199
 31
0.0
  0
ARC
  5
164
330
1F
100
AcDbEntity
  8
0
100
AcDbCircle
 10
191.4151823673
 20
175.4687639061
 30
0.0
 40
12.49999999999701
100
AcDbArc
 50
3.4398127675
 51
4.2197617006
  0
LINE
  5
165
330
1F
100
AcDbEntity
  8
0
100
AcDbLine
 10
203.8926620807
 20
176.2187639061
 30
0.0
 11
203.4121558648
 21
175.7382576901
 31
0.0
  0
LINE
  5
166
330
1F
100
AcDbEntity
  8
0
100
AcDbLine
 10
203.3410327326
 20
176.8007147547
 30
0.0
 11
203.8812968367
 21
176.3885410717
 31
0.0
  0
ARC
  5
167
330
1F
100
AcDbEntity
  8
0
100
AcDbCircle
 10
191.4151823673
 20
175.4687639061
 30
0.0
 40
12.49999999999688
100
AcDbArc
 50
18.7589617037
 51
19.5389106367
  0
LINE
  5
168
330
1F
100
AcDbEntity
  8
0
100
AcDbLine
 10
203.2511803819
 20
179.4886085546
 30
0.0
 11
202.914694481
 21
178.8982275881
 31
0.0
  0
LINE
  5
169
330
1F
100
AcDbEntity
  8
0
100
AcDbLine
 10
202.5654021413
 20
179.9041442722
 30
0.0
 11
203.1953646079
 21
179.6493507523
 31
0.0
  0
ARC
  5
16A
330
1F
100
AcDbEntity
  8
0
100
AcDbCircle
 10
191.4151823673
 20
175.4687639061
 30
0.0
 40
12.49999999999702
100
AcDbArc
 50
355.7802382994
 51
356.5601872325
  0
LINE
  5
16B
330
1F
100
AcDbEntity
  8
0
100
AcDbLine
 10
203.8812968367
 20
174.5489867404
 30
0.0
 11
203.3410327326
 21
174.1368130575
 31
0.0
  0
LINE
  5
16C
330
1F
100
AcDbEntity
  8
0
100
AcDbLine
 10
203.4121558648
 20
175.199270122
 30
0.0
 11
203.8926620807
 21
174.7187639061
 31
0.0
  0
ARC
  5
16D
330
1F
100
AcDbEntity
  8
0
100
AcDbCircle
 10
191.4151823673
 20
175.4687639061
 30
0.0
 40
12.4999999999965
100
AcDbArc
 50
34.0781106398
 51
34.8580595729
  0
LINE
  5
16E
330
1F
100
AcDbEntity
  8
0
100
AcDbLine
 10
200.9974185361
 20
182.6923883429
 30
0.0
 11
201.672313193
 21
182.613081034
 31
0.0
  0
LINE
  5
16F
330
1F
100
AcDbEntity
  8
0
100
AcDbLine
 10
201.768613136
 20
182.4727964101
 30
0.0
 11
201.6000587935
 21
181.8144941385
 31
0.0
  0
ARC
  5
170
330
1F
100
AcDbEntity
  8
0
100
AcDbCircle
 10
191.4151823673
 20
175.4687639061
 30
0.0
 40
12.49999999999669
100
AcDbArc
 50
26.4185361718
 51
27.1984851048
  0
LINE
  5
171
330
1F
100
AcDbEntity
  8
0
100
AcDbLine
 10
201.8747358283
 20
181.3507483837
 30
0.0
 11
202.5330380999
 21
181.1821940412
 31
0.0
  0
LINE
  5
172
330
1F
100
AcDbEntity
  8
0
100
AcDbLine
 10
202.6097806951
 20
181.0303255823
 30
0.0
 11
202.3549871752
 21
180.4003631157
 31
0.0
  0
ARC
  5
173
330
1F
100
AcDbEntity
  8
0
100
AcDbCircle
 10
191.4151823673
 20
175.4687639061
 30
0.0
 40
12.49999999999147
100
AcDbArc
 50
210.2483234058
 51
211.0282723389
  0
LINE
  5
174
330
1F
100
AcDbEntity
  8
0
100
AcDbLine
 10
181.3718595936
 20
168.9012934902
 30
0.0
 11
180.7037692024
 21
169.0255016879
 31
0.0
  0
LINE
  5
175
330
1F
100
AcDbEntity
  8
0
100
AcDbLine
 10
180.6170542884
 20
169.1719051661
 30
0.0
 11
180.8292019711
 21
169.8174791803
 31
0.0
  0
ARC
  5
176
330
1F
100
AcDbEntity
  8
0
100
AcDbCircle
 10
191.4151823673
 20
175.4687639061
 30
0.0
 40
12.49999999999531
100
AcDbArc
 50
294.5036425548
 51
295.2835914878
  0
LINE
  5
177
330
1F
100
AcDbEntity
  8
0
100
AcDbLine
 10
196.59957102
 20
164.0945775924
 30
0.0
 11
195.9784742669
 21
164.3702790077
 31
0.0
  0
LINE
  5
178
330
1F
100
AcDbEntity
  8
0
100
AcDbLine
 10
196.9443763931
 20
164.818505063
 30
0.0
 11
196.7539190221
 21
164.1662026507
 31
0.0
  0
ARC
  5
179
330
1F
100
AcDbEntity
  8
0
100
AcDbCircle
 10
191.4151823673
 20
175.4687639061
 30
0.0
 40
12.49999999999457
100
AcDbArc
 50
279.1844936186
 51
279.9644425516
  0
LINE
  5
17A
330
1F
100
AcDbEntity
  8
0
100
AcDbLine
 10
193.934170153
 20
163.7361299079
 30
0.0
 11
193.5781445916
 21
163.1573223001
 31
0.0
  0
LINE
  5
17B
330
1F
100
AcDbEntity
  8
0
100
AcDbLine
 10
193.4103576902
 20
163.1290201717
 30
0.0
 11
192.8841680634
 21
163.5590165945
 31
0.0
  0
ARC
  5
17C
330
1F
100
AcDbEntity
  8
0
100
AcDbCircle
 10
191.4151823673
 20
175.4687639061
 30
0.0
 40
12.49999999999626
100
AcDbArc
 50
317.482365959
 51
318.2623148921
  0
LINE
  5
17D
330
1F
100
AcDbEntity
  8
0
100
AcDbLine
 10
200.6285495435
 20
167.0210502937
 30
0.0
 11
199.9491060124
 21
167.0324052592
 31
0.0
  0
LINE
  5
17E
330
1F
100
AcDbEntity
  8
0
100
AcDbLine
 10
200.6633810506
 20
167.822142357
 30
0.0
 11
200.7426883595
 21
167.1472477002
 31
0.0
  0
ARC
  5
17F
330
1F
100
AcDbEntity
  8
0
100
AcDbCircle
 10
191.4151823673
 20
175.4687639061
 30
0.0
 40
12.49999999999374
100
AcDbArc
 50
263.8653446824
 51
264.6452936155
  0
LINE
  5
180
330
1F
100
AcDbEntity
  8
0
100
AcDbLine
 10
190.7449604847
 20
163.4874950823
 30
0.0
 11
190.2486664967
 21
163.0233133026
 31
0.0
  0
LINE
  5
181
330
1F
100
AcDbEntity
  8
0
100
AcDbLine
 10
190.0793639102
 20
163.0403452999
 30
0.0
 11
189.6854733126
 21
163.5940804751
 31
0.0
  0
ARC
  5
182
330
1F
100
AcDbEntity
  8
0
100
AcDbCircle
 10
191.4151823673
 20
175.4687639061
 30
0.0
 40
12.49999999999598
100
AcDbArc
 50
309.8227914909
 51
310.602740424
  0
LINE
  5
183
330
1F
100
AcDbEntity
  8
0
100
AcDbLine
 10
199.4203731384
 20
165.8684034588
 30
0.0
 11
198.7485054191
 21
165.9702180691
 31
0.0
  0
LINE
  5
184
330
1F
100
AcDbEntity
  8
0
100
AcDbLine
 10
199.5616689831
 20
166.6577051832
 30
0.0
 11
199.5503140176
 21
165.9782616522
 31
0.0
  0
ARC
  5
185
330
1F
100
AcDbEntity
  8
0
100
AcDbCircle
 10
191.4151823673
 20
175.4687639061
 30
0.0
 40
12.49999999999567
100
AcDbArc
 50
302.1632170228
 51
302.9431659559
  0
LINE
  5
186
330
1F
100
AcDbEntity
  8
0
100
AcDbLine
 10
198.0693439144
 20
164.8870752835
 30
0.0
 11
197.4170415022
 21
165.0775326545
 31
0.0
  0
LINE
  5
187
330
1F
100
AcDbEntity
  8
0
100
AcDbLine
 10
198.314582669
 20
165.650501561
 30
0.0
 11
198.2127680587
 21
164.9786338417
 31
0.0
  0
ARC
  5
188
330
1F
100
AcDbEntity
  8
0
100
AcDbCircle
 10
191.4151823673
 20
175.4687639061
 30
0.0
 40
12.49999999999697
100
AcDbArc
 50
348.1206638314
 51
348.9006127644
  0
LINE
  5
189
330
1F
100
AcDbEntity
  8
0
100
AcDbLine
 10
203.6474734847
 20
172.8956230201
 30
0.0
 11
203.0570925182
 21
172.5591371192
 31
0.0
  0
LINE
  5
18A
330
1F
100
AcDbEntity
  8
0
100
AcDbLine
 10
203.2691927207
 20
173.6026346123
 30
0.0
 11
203.6813664037
 21
173.0623705082
 31
0.0
  0
ARC
  5
18B
330
1F
100
AcDbEntity
  8
0
100
AcDbCircle
 10
191.4151823673
 20
175.4687639061
 30
0.0
 40
12.49999999999263
100
AcDbArc
 50
240.8866212782
 51
241.6665702112
  0
LINE
  5
18C
330
1F
100
AcDbEntity
  8
0
100
AcDbLine
 10
185.3334399251
 20
164.5480309239
 30
0.0
 11
185.1869768647
 21
165.2115978151
 31
0.0
  0
LINE
  5
18D
330
1F
100
AcDbEntity
  8
0
100
AcDbLine
 10
186.1207838154
 20
164.6998575561
 30
0.0
 11
185.4826592231
 21
164.4662565035
 31
0.0
  0
ARC
  5
18E
330
1F
100
AcDbEntity
  8
0
100
AcDbCircle
 10
191.4151823673
 20
175.4687639061
 30
0.0
 40
12.49999999999494
100
AcDbArc
 50
286.8440680867
 51
287.6240170197
  0
LINE
  5
18F
330
1F
100
AcDbEntity
  8
0
100
AcDbLine
 10
195.4755015187
 20
164.1765626863
 30
0.0
 11
195.1998001034
 21
163.5554659332
 31
0.0
  0
LINE
  5
190
330
1F
100
AcDbEntity
  8
0
100
AcDbLine
 10
195.0372825872
 20
163.5050525255
 30
0.0
 11
194.4584749795
 21
163.8610780869
 31
0.0
  0
ARC
  5
191
330
1F
100
AcDbEntity
  8
0
100
AcDbCircle
 10
191.4151823673
 20
175.4687639061
 30
0.0
 40
12.49999999999227
100
AcDbArc
 50
233.2270468101
 51
234.0069957431
  0
LINE
  5
192
330
1F
100
AcDbEntity
  8
0
100
AcDbLine
 10
184.7326684091
 20
165.5016175141
 30
0.0
 11
184.069101518
 21
165.3551544537
 31
0.0
  0
LINE
  5
193
330
1F
100
AcDbEntity
  8
0
100
AcDbLine
 10
183.9321130944
 20
165.4560882268
 30
0.0
 11
183.875401663
 21
166.1332560499
 31
0.0
  0
ARC
  5
194
330
1F
100
AcDbEntity
  8
0
100
AcDbCircle
 10
191.4151823673
 20
175.4687639061
 30
0.0
 40
12.4999999999967
100
AcDbArc
 50
332.8015148952
 51
333.5814638282
  0
LINE
  5
195
330
1F
100
AcDbEntity
  8
0
100
AcDbLine
 10
202.5330380999
 20
169.7553337709
 30
0.0
 11
201.8747358283
 21
169.5867794284
 31
0.0
  0
LINE
  5
196
330
1F
100
AcDbEntity
  8
0
100
AcDbLine
 10
202.3549871752
 20
170.5371646965
 30
0.0
 11
202.6097806951
 21
169.9072022298
 31
0.0
  0
ARC
  5
197
330
1F
100
AcDbEntity
  8
0
100
AcDbCircle
 10
191.4151823673
 20
175.4687639061
 30
0.0
 40
12.49999999999414
100
AcDbArc
 50
271.5249191505
 51
272.3048680836
  0
LINE
  5
198
330
1F
100
AcDbEntity
  8
0
100
AcDbLine
 10
191.7478288423
 20
162.9731908371
 30
0.0
 11
191.2836470627
 21
163.4694848251
 31
0.0
  0
LINE
  5
199
330
1F
100
AcDbEntity
  8
0
100
AcDbLine
 10
192.3478873905
 20
163.5050662611
 30
0.0
 11
191.9178909676
 21
162.9788766342
 31
0.0
  0
ARC
  5
19A
330
1F
100
AcDbEntity
  8
0
100
AcDbCircle
 10
191.4151823673
 20
175.4687639061
 30
0.0
 40
12.49999999999335
100
AcDbArc
 50
256.2057702143
 51
256.9857191474
  0
LINE
  5
19B
330
1F
100
AcDbEntity
  8
0
100
AcDbLine
 10
189.1539937044
 20
163.6837299294
 30
0.0
 11
188.6002585292
 21
163.2898393318
 31
0.0
  0
LINE
  5
19C
330
1F
100
AcDbEntity
  8
0
100
AcDbLine
 10
188.4347366901
 20
163.3292851872
 30
0.0
 11
188.1181662616
 21
163.9305801322
 31
0.0
  0
ARC
  5
19D
330
1F
100
AcDbEntity
  8
0
100
AcDbCircle
 10
191.4151823673
 20
175.4687639061
 30
0.0
 40
12.49999999999299
100
AcDbArc
 50
248.5461957463
 51
249.3261446793
  0
LINE
  5
19E
330
1F
100
AcDbEntity
  8
0
100
AcDbLine
 10
186.8432955937
 20
163.8348543598
 30
0.0
 11
186.6096945411
 21
164.4729789522
 31
0.0
  0
LINE
  5
19F
330
1F
100
AcDbEntity
  8
0
100
AcDbLine
 10
187.6033778893
 20
164.0902689871
 30
0.0
 11
187.0020829443
 21
163.7736985585
 31
0.0
  0
ARC
  5
1A0
330
1F
100
AcDbEntity
  8
0
100
AcDbCircle
 10
191.4151823673
 20
175.4687639061
 30
0.0
 40
12.49999999999651
100
AcDbArc
 50
325.1419404271
 51
325.9218893602
  0
LINE
  5
1A1
330
1F
100
AcDbEntity
  8
0
100
AcDbLine
 10
201.6000587935
 20
169.1230336736
 30
0.0
 11
201.768613136
 21
168.464731402
 31
0.0
  0
LINE
  5
1A2
330
1F
100
AcDbEntity
  8
0
100
AcDbLine
 10
201.672313193
 20
168.3244467781
 30
0.0
 11
200.9974185361
 21
168.2451394692
 31
0.0
  0
ARC
  5
1A3
330
1F
100
AcDbEntity
  8
0
100
AcDbCircle
 10
191.4151823673
 20
175.4687639061
 30
0.0
 40
12.49999999999689
100
AcDbArc
 50
340.4610893633
 51
341.2410382963
  0
LINE
  5
1A4
330
1F
100
AcDbEntity
  8
0
100
AcDbLine
 10
203.1953646079
 20
171.2881770599
 30
0.0
 11
202.5654021413
 21
171.03338354
 31
0.0
  0
LINE
  5
1A5
330
1F
100
AcDbEntity
  8
0
100
AcDbLine
 10
202.914694481
 20
172.039300224
 30
0.0
 11
203.2511803819
 21
171.4489192575
 31
0.0
  0
ARC
  5
1A6
330
1F
100
AcDbEntity
  8
0
100
AcDbCircle
 10
218.9151823673
 20
152.3187639061
 30
0.0
 40
3.0
100
AcDbArc
 50
270.0
 51
0.0
  0
ARC
  5
1A7
330
1F
100
AcDbEntity
  8
0
100
AcDbCircle
 10
162.6151823673
 20
152.3187639061
 30
0.0
 40
3.0
100
AcDbArc
 50
180.0
 51
270.0
  0
ARC
  5
1A8
330
1F
100
AcDbEntity
  8
0
100
AcDbCircle
 10
162.6151823673
 20
198.6187639061
 30
0.0
 40
3.0
100
AcDbArc
 50
90.0
 51
180.0
  0
ARC
  5
1A9
330
1F
100
AcDbEntity
  8
0
100
AcDbCircle
 10
218.9151823673
 20
198.6187639061
 30
0.0
 40
3.0
100
AcDbArc
 50
0.0
 51
90.0
  0
LINE
  5
1AA
330
1F
100
AcDbEntity
  8
0
100
AcDbLine
 10
162.6151823673
 20
201.6187639061
 30
0.0
 11
218.9151823673
 21
201.6187639061
 31
0.0
  0
LINE
  5
1AB
330
1F
100
AcDbEntity
  8
0
100
AcDbLine
 10
221.9151823673
 20
198.6187639061
 30
0.0
 11
221.9151823673
 21
152.3187639061
 31
0.0
  0
LINE
  5
1AC
330
1F
100
AcDbEntity
  8
0
100
AcDbLine
 10
218.9151823673
 20
149.3187639061
 30
0.0
 11
162.6151823673
 21
149.3187639061
 31
0.0
  0
LINE
  5
1AD
330
1F
100
AcDbEntity
  8
0
100
AcDbLine
 10
159.6151823673
 20
152.3187639061
 30
0.0
 11
159.6151823673
 21
198.6187639061
 31
0.0
  0
LINE
  5
1AE
330
1F
100
AcDbEntity
  8
0
100
AcDbLine
 10
192.1651823673
 20
148.8187639061
 30
0.0
 11
189.3651823673
 21
148.8187639061
 31
0.0
  0
LINE
  5
1AF
330
1F
100
AcDbEntity
  8
0
100
AcDbLine
 10
189.3651823673
 20
202.1187639061
 30
0.0
 11
192.1651823673
 21
202.1187639061
 31
0.0
  0
LINE
  5
1B0
330
1F
100
AcDbEntity
  8
0
100
AcDbLine
 10
123.8338658404
 20
164.103150292
 30
0.0
 11
123.8338658404
 21
186.103150292
 31
0.0
  0
LINE
  5
1B1
330
1F
100
AcDbEntity
  8
0
100
AcDbLine
 10
125.8338658404
 20
164.103150292
 30
0.0
 11
125.8338658404
 21
186.103150292
 31
0.0
  0
LINE
  5
1B2
330
1F
100
AcDbEntity
  8
0
100
AcDbLine
 10
126.3338658404
 20
185.603150292
 30
0.0
 11
126.3338658404
 21
164.603150292
 31
0.0
  0
LINE
  5
1B3
330
1F
100
AcDbEntity
  8
0
100
AcDbLine
 10
113.3338658404
 20
170.5343697043
 30
0.0
 11
113.3338658404
 21
180.603150292
 31
0.0
  0
LINE
  5
1B4
330
1F
100
AcDbEntity
  8
0
100
AcDbLine
 10
113.3338658404
 20
169.603150292
 30
0.0
 11
113.3338658404
 21
170.5343697043
 31
0.0
  0
LINE
  5
1B5
330
1F
100
AcDbEntity
  8
0
100
AcDbLine
 10
113.8338658404
 20
170.1190260145
 30
0.0
 11
113.8338658404
 21
169.103150292
 31
0.0
  0
LINE
  5
1B6
330
1F
100
AcDbEntity
  8
0
100
AcDbLine
 10
113.8338658404
 20
181.103150292
 30
0.0
 11
113.8338658404
 21
170.1190260145
 31
0.0
  0
LINE
  5
1B7
330
1F
100
AcDbEntity
  8
0
100
AcDbLine
 10
117.6338658404
 20
169.103150292
 30
0.0
 11
117.6338658404
 21
181.103150292
 31
0.0
  0
LINE
  5
1B8
330
1F
100
AcDbEntity
  8
0
100
AcDbLine
 10
119.6338658404
 20
169.103150292
 30
0.0
 11
119.6338658404
 21
181.103150292
 31
0.0
  0
LINE
  5
1B9
330
1F
100
AcDbEntity
  8
0
100
AcDbLine
 10
146.0655016286
 20
176.0594252391
 30
0.0
 11
146.0655016286
 21
179.4687639061
 31
0.0
  0
LINE
  5
1BA
330
1F
100
AcDbEntity
  8
0
100
AcDbLine
 10
146.0655016286
 20
171.468763906
 30
0.0
 11
146.0655016286
 21
176.0594252391
 31
0.0
  0
LINE
  5
1BB
330
1F
100
AcDbEntity
  8
0
100
AcDbLine
 10
145.0655016287
 20
175.9741706192
 30
0.0
 11
145.0655016287
 21
178.8914136369
 31
0.0
  0
LINE
  5
1BC
330
1F
100
AcDbEntity
  8
0
100
AcDbLine
 10
145.0655016287
 20
172.0461141752
 30
0.0
 11
145.0655016287
 21
175.9741706192
 31
0.0
  0
LINE
  5
1BD
330
1F
100
AcDbEntity
  8
0
100
AcDbLine
 10
158.7651823673
 20
157.4687639061
 30
0.0
 11
158.7651823673
 21
193.4687639061
 31
0.0
  0
LINE
  5
1BE
330
1F
100
AcDbEntity
  8
0
100
AcDbLine
 10
159.6151823673
 20
157.4687639061
 30
0.0
 11
158.7651823673
 21
157.4687639061
 31
0.0
  0
LINE
  5
1BF
330
1F
100
AcDbEntity
  8
0
100
AcDbLine
 10
158.7651823673
 20
193.4687639061
 30
0.0
 11
159.6151823673
 21
193.4687639061
 31
0.0
  0
LINE
  5
1C0
330
1F
100
AcDbEntity
  8
0
  6
PHANTOM
 62
     1
370
     0
100
AcDbLine
 10
196.6151823673
 20
194.4687639061
 30
0.0
 11
159.6151823673
 21
194.4687639061
 31
0.0
  0
LINE
  5
1C1
330
1F
100
AcDbEntity
  8
0
  6
PHANTOM
 62
     1
370
     0
100
AcDbLine
 10
196.6151823673
 20
156.4687639061
 30
0.0
 11
159.6151823673
 21
156.4687639061
 31
0.0
  0
ARC
  5
1C2
330
1F
100
AcDbEntity
  8
0
  6
PHANTOM
 62
     1
370
     0
100
AcDbCircle
 10
196.6151823673
 20
175.4687639061
 30
0.0
 40
19.00000000000003
100
AcDbArc
 50
270.0
 51
90.0
  0
CIRCLE
  5
1C3
330
1F
100
AcDbEntity
  8
0
  6
Continuous
 62
     7
100
AcDbCircle
 10
190.7651823673
 20
265.4128607273
 30
0.0
 40
1.400000000027202
  0
CIRCLE
  5
1C4
330
1F
100
AcDbEntity
  8
0
  6
Continuous
 62
     7
100
AcDbCircle
 10
190.7651823673
 20
284.8128607273
 30
0.0
 40
1.400000000027315
  0
CIRCLE
  5
1C5
330
1F
100
AcDbEntity
  8
0
  6
Continuous
 62
     7
100
AcDbCircle
 10
190.7651823673
 20
284.8128607273
 30
0.0
 40
1.400000000027262
  0
CIRCLE
  5
1C6
330
1F
100
AcDbEntity
  8
0
  6
Continuous
 62
     7
100
AcDbCircle
 10
190.7651823673
 20
265.4128607273
 30
0.0
 40
1.400000000027252
  0
LINE
  5
1C7
330
1F
100
AcDbEntity
  8
0
100
AcDbLine
 10
182.4151818488
 20
289.5128625561
 30
0.0
 11
182.9151828621
 21
289.0128615428
 31
0.0
  0
LINE
  5
1C8
330
1F
100
AcDbEntity
  8
0
100
AcDbLine
 10
199.915182389
 20
289.0128615428
 30
0.0
 11
200.4151824709
 21
289.5128625561
 31
0.0
  0
LINE
  5
1C9
330
1F
100
AcDbEntity
  8
0
100
AcDbLine
 10
182.4151818488
 20
291.7753617395
 30
0.0
 11
182.4151818488
 21
289.5128625561
 31
0.0
  0
LINE
  5
1CA
330
1F
100
AcDbEntity
  8
0
100
AcDbLine
 10
182.4151818488
 20
297.0128591288
 30
0.0
 11
182.4151818488
 21
296.2362329591
 31
0.0
  0
LINE
  5
1CB
330
1F
100
AcDbEntity
  8
0
100
AcDbLine
 10
200.4151824709
 20
289.5128625561
 30
0.0
 11
200.4151824709
 21
297.0128591288
 31
0.0
  0
LINE
  5
1CC
330
1F
100
AcDbEntity
  8
0
100
AcDbLine
 10
178.9151822064
 20
297.5128601421
 30
0.0
 11
179.4151832197
 21
297.0128591288
 31
0.0
  0
LINE
  5
1CD
330
1F
100
AcDbEntity
  8
0
100
AcDbLine
 10
179.4151832197
 20
303.0128601123
 30
0.0
 11
178.9151822064
 21
302.512859099
 31
0.0
  0
LINE
  5
1CE
330
1F
100
AcDbEntity
  8
0
100
AcDbLine
 10
178.9151822064
 20
302.512859099
 30
0.0
 11
178.9151822064
 21
297.5128601421
 31
0.0
  0
LINE
  5
1CF
330
1F
100
AcDbEntity
  8
0
100
AcDbLine
 10
182.5580057536
 20
295.5794642795
 30
0.0
 11
182.4151818488
 21
295.312860154
 31
0.0
  0
LINE
  5
1D0
330
1F
100
AcDbEntity
  8
0
100
AcDbLine
 10
182.4151818488
 20
292.7128608454
 30
0.0
 11
182.5575885211
 21
292.4470353056
 31
0.0
  0
LINE
  5
1D1
330
1F
100
AcDbEntity
  8
0
100
AcDbLine
 10
167.7651815895
 20
274.6128636528
 30
0.0
 11
167.7651815895
 21
272.9128572274
 31
0.0
  0
LINE
  5
1D2
330
1F
100
AcDbEntity
  8
0
100
AcDbLine
 10
172.7651805465
 20
272.9128572274
 30
0.0
 11
172.7651805465
 21
274.6128636528
 31
0.0
  0
LINE
  5
1D3
330
1F
100
AcDbEntity
  8
0
100
AcDbLine
 10
207.2651823597
 20
274.6128636528
 30
0.0
 11
207.2651823597
 21
272.9128572274
 31
0.0
  0
LINE
  5
1D4
330
1F
100
AcDbEntity
  8
0
100
AcDbLine
 10
212.2651823644
 20
272.9128572274
 30
0.0
 11
212.2651823644
 21
274.6128636528
 31
0.0
  0
ARC
  5
1D5
330
1F
100
AcDbEntity
  8
0
100
AcDbCircle
 10
197.9651823673
 20
277.2394693505
 30
0.0
 40
2.000000000000022
100
AcDbArc
 50
217.8288116182
 51
239.6896402075
  0
ARC
  5
1D6
330
1F
100
AcDbEntity
  8
0
100
AcDbCircle
 10
197.9651823673
 20
277.2394693505
 30
0.0
 40
2.000000000000007
100
AcDbArc
 50
300.3103597925
 51
322.1711883818
  0
LINE
  5
1D7
330
1F
100
AcDbEntity
  8
0
100
AcDbLine
 10
200.465182386
 20
272.0128643442
 30
0.0
 11
200.465182386
 21
275.5128639866
 31
0.0
  0
LINE
  5
1D8
330
1F
100
AcDbEntity
  8
0
100
AcDbLine
 10
182.4651826952
 20
275.5128639866
 30
0.0
 11
182.4651826952
 21
275.312860601
 31
0.0
  0
LINE
  5
1D9
330
1F
100
AcDbEntity
  8
0
100
AcDbLine
 10
199.965182304
 20
271.5128633309
 30
0.0
 11
200.465182386
 21
272.0128643442
 31
0.0
  0
LINE
  5
1DA
330
1F
100
AcDbEntity
  8
0
100
AcDbLine
 10
194.4651827995
 20
275.5128639866
 30
0.0
 11
194.4651827995
 21
276.0128575493
 31
0.0
  0
LINE
  5
1DB
330
1F
100
AcDbEntity
  8
0
100
AcDbLine
 10
188.465181816
 20
276.0128575493
 30
0.0
 11
188.465181816
 21
275.5128639866
 31
0.0
  0
LINE
  5
1DC
330
1F
100
AcDbEntity
  8
0
100
AcDbLine
 10
194.4651827995
 20
288.8128581572
 30
0.0
 11
194.4651827995
 21
289.0128615428
 31
0.0
  0
LINE
  5
1DD
330
1F
100
AcDbEntity
  8
0
100
AcDbLine
 10
188.465181816
 20
289.0128615428
 30
0.0
 11
188.465181816
 21
288.8128581572
 31
0.0
  0
LINE
  5
1DE
330
1F
100
AcDbEntity
  8
0
100
AcDbLine
 10
146.0655034367
 20
279.81286227
 30
0.0
 11
145.0655014102
 21
279.2355093289
 31
0.0
  0
LINE
  5
1DF
330
1F
100
AcDbEntity
  8
0
100
AcDbLine
 10
145.0655014102
 20
272.3902138997
 30
0.0
 11
146.0655034367
 21
271.8128609587
 31
0.0
  0
LINE
  5
1E0
330
1F
100
AcDbEntity
  8
0
100
AcDbLine
 10
146.0655034367
 20
271.8128609587
 30
0.0
 11
158.765181977
 21
271.8128609587
 31
0.0
  0
LINE
  5
1E1
330
1F
100
AcDbEntity
  8
0
100
AcDbLine
 10
162.7651826326
 20
271.8128609587
 30
0.0
 11
163.2651836459
 21
271.8128609587
 31
0.0
  0
LINE
  5
1E2
330
1F
100
AcDbEntity
  8
0
100
AcDbLine
 10
158.765181977
 20
279.81286227
 30
0.0
 11
146.0655034367
 21
279.81286227
 31
0.0
  0
LINE
  5
1E3
330
1F
100
AcDbEntity
  8
0
100
AcDbLine
 10
213.2651825283
 20
274.6128636528
 30
0.0
 11
213.2651825283
 21
279.0128636289
 31
0.0
  0
LINE
  5
1E4
330
1F
100
AcDbEntity
  8
0
100
AcDbLine
 10
213.2651825283
 20
271.0128623176
 30
0.0
 11
213.2651825283
 21
272.9128572274
 31
0.0
  0
LINE
  5
1E5
330
1F
100
AcDbEntity
  8
0
100
AcDbLine
 10
191.7478284646
 20
297.5128601421
 30
0.0
 11
191.7478284646
 21
302.512859099
 31
0.0
  0
LINE
  5
1E6
330
1F
100
AcDbEntity
  8
0
100
AcDbLine
 10
191.2836470489
 20
297.0128591288
 30
0.0
 11
191.7478284646
 21
297.5128601421
 31
0.0
  0
LINE
  5
1E7
330
1F
100
AcDbEntity
  8
0
100
AcDbLine
 10
191.0233088617
 20
297.0128591288
 30
0.0
 11
191.2836470489
 21
297.0128591288
 31
0.0
  0
LINE
  5
1E8
330
1F
100
AcDbEntity
  8
0
100
AcDbLine
 10
191.0233088617
 20
297.0128591288
 30
0.0
 11
191.0233088617
 21
303.0128601123
 31
0.0
  0
LINE
  5
1E9
330
1F
100
AcDbEntity
  8
0
100
AcDbLine
 10
191.2836470489
 20
303.0128601123
 30
0.0
 11
191.0233088617
 21
303.0128601123
 31
0.0
  0
LINE
  5
1EA
330
1F
100
AcDbEntity
  8
0
100
AcDbLine
 10
191.7478284646
 20
302.512859099
 30
0.0
 11
191.2836470489
 21
303.0128601123
 31
0.0
  0
LINE
  5
1EB
330
1F
100
AcDbEntity
  8
0
100
AcDbLine
 10
191.2836470489
 20
297.0128591288
 30
0.0
 11
192.34788705
 21
297.0128591288
 31
0.0
  0
LINE
  5
1EC
330
1F
100
AcDbEntity
  8
0
100
AcDbLine
 10
191.7478284646
 20
297.5128601421
 30
0.0
 11
191.9178907607
 21
297.5128601421
 31
0.0
  0
LINE
  5
1ED
330
1F
100
AcDbEntity
  8
0
100
AcDbLine
 10
191.9178907607
 20
297.5128601421
 30
0.0
 11
192.34788705
 21
297.0128591288
 31
0.0
  0
LINE
  5
1EE
330
1F
100
AcDbEntity
  8
0
100
AcDbLine
 10
191.7478284646
 20
302.512859099
 30
0.0
 11
191.9178907607
 21
302.512859099
 31
0.0
  0
LINE
  5
1EF
330
1F
100
AcDbEntity
  8
0
100
AcDbLine
 10
191.9178907607
 20
297.5128601421
 30
0.0
 11
191.9178907607
 21
302.512859099
 31
0.0
  0
LINE
  5
1F0
330
1F
100
AcDbEntity
  8
0
100
AcDbLine
 10
191.2836470489
 20
303.0128601123
 30
0.0
 11
192.34788705
 21
303.0128601123
 31
0.0
  0
LINE
  5
1F1
330
1F
100
AcDbEntity
  8
0
100
AcDbLine
 10
192.34788705
 20
303.0128601123
 30
0.0
 11
191.9178907607
 21
302.512859099
 31
0.0
  0
LINE
  5
1F2
330
1F
100
AcDbEntity
  8
0
100
AcDbLine
 10
192.5890520994
 20
303.0128601123
 30
0.0
 11
192.34788705
 21
303.0128601123
 31
0.0
  0
LINE
  5
1F3
330
1F
100
AcDbEntity
  8
0
100
AcDbLine
 10
192.5890520994
 20
297.0128591288
 30
0.0
 11
192.5890520994
 21
303.0128601123
 31
0.0
  0
LINE
  5
1F4
330
1F
100
AcDbEntity
  8
0
100
AcDbLine
 10
192.34788705
 20
297.0128591288
 30
0.0
 11
192.5890520994
 21
297.0128591288
 31
0.0
  0
LINE
  5
1F5
330
1F
100
AcDbEntity
  8
0
100
AcDbLine
 10
191.0233088617
 20
303.0128601123
 30
0.0
 11
190.7449607585
 21
303.0128601123
 31
0.0
  0
LINE
  5
1F6
330
1F
100
AcDbEntity
  8
0
100
AcDbLine
 10
190.7449607585
 20
297.0128591288
 30
0.0
 11
191.0233088617
 21
297.0128591288
 31
0.0
  0
LINE
  5
1F7
330
1F
100
AcDbEntity
  8
0
100
AcDbLine
 10
190.2486664091
 20
297.5128601421
 30
0.0
 11
190.7449607585
 21
297.0128591288
 31
0.0
  0
LINE
  5
1F8
330
1F
100
AcDbEntity
  8
0
100
AcDbLine
 10
190.2486664091
 20
297.5128601421
 30
0.0
 11
190.2486664091
 21
302.512859099
 31
0.0
  0
LINE
  5
1F9
330
1F
100
AcDbEntity
  8
0
100
AcDbLine
 10
190.7449607585
 20
303.0128601123
 30
0.0
 11
190.2486664091
 21
302.512859099
 31
0.0
  0
LINE
  5
1FA
330
1F
100
AcDbEntity
  8
0
100
AcDbLine
 10
189.6854732965
 20
297.0128591288
 30
0.0
 11
190.7449607585
 21
297.0128591288
 31
0.0
  0
LINE
  5
1FB
330
1F
100
AcDbEntity
  8
0
100
AcDbLine
 10
189.6854732965
 20
297.0128591288
 30
0.0
 11
190.0793640722
 21
297.5128601421
 31
0.0
  0
LINE
  5
1FC
330
1F
100
AcDbEntity
  8
0
100
AcDbLine
 10
190.0793640722
 20
297.5128601421
 30
0.0
 11
190.2486664091
 21
297.5128601421
 31
0.0
  0
LINE
  5
1FD
330
1F
100
AcDbEntity
  8
0
100
AcDbLine
 10
190.0793640722
 20
297.5128601421
 30
0.0
 11
190.0793640722
 21
302.512859099
 31
0.0
  0
LINE
  5
1FE
330
1F
100
AcDbEntity
  8
0
100
AcDbLine
 10
190.0793640722
 20
302.512859099
 30
0.0
 11
190.2486664091
 21
302.512859099
 31
0.0
  0
LINE
  5
1FF
330
1F
100
AcDbEntity
  8
0
100
AcDbLine
 10
190.0793640722
 20
302.512859099
 30
0.0
 11
189.6854732965
 21
303.0128601123
 31
0.0
  0
LINE
  5
200
330
1F
100
AcDbEntity
  8
0
100
AcDbLine
 10
189.6854732965
 20
303.0128601123
 30
0.0
 11
190.7449607585
 21
303.0128601123
 31
0.0
  0
LINE
  5
201
330
1F
100
AcDbEntity
  8
0
100
AcDbLine
 10
189.4645579938
 20
297.0128591288
 30
0.0
 11
189.6854732965
 21
297.0128591288
 31
0.0
  0
LINE
  5
202
330
1F
100
AcDbEntity
  8
0
100
AcDbLine
 10
189.4645579938
 20
297.0128591288
 30
0.0
 11
189.4645579938
 21
303.0128601123
 31
0.0
  0
LINE
  5
203
330
1F
100
AcDbEntity
  8
0
100
AcDbLine
 10
189.6854732965
 20
303.0128601123
 30
0.0
 11
189.4645579938
 21
303.0128601123
 31
0.0
  0
LINE
  5
204
330
1F
100
AcDbEntity
  8
0
100
AcDbLine
 10
192.8841677342
 20
297.0128591288
 30
0.0
 11
193.9341706071
 21
297.0128591288
 31
0.0
  0
LINE
  5
205
330
1F
100
AcDbEntity
  8
0
100
AcDbLine
 10
192.8841677342
 20
297.0128591288
 30
0.0
 11
193.4103575383
 21
297.5128601421
 31
0.0
  0
LINE
  5
206
330
1F
100
AcDbEntity
  8
0
100
AcDbLine
 10
193.4103575383
 20
297.5128601421
 30
0.0
 11
193.5781446133
 21
297.5128601421
 31
0.0
  0
LINE
  5
207
330
1F
100
AcDbEntity
  8
0
100
AcDbLine
 10
193.5781446133
 20
297.5128601421
 30
0.0
 11
193.9341706071
 21
297.0128591288
 31
0.0
  0
LINE
  5
208
330
1F
100
AcDbEntity
  8
0
100
AcDbLine
 10
193.4103575383
 20
297.5128601421
 30
0.0
 11
193.4103575383
 21
302.512859099
 31
0.0
  0
LINE
  5
209
330
1F
100
AcDbEntity
  8
0
100
AcDbLine
 10
192.5890520994
 20
297.0128591288
 30
0.0
 11
192.8841677342
 21
297.0128591288
 31
0.0
  0
LINE
  5
20A
330
1F
100
AcDbEntity
  8
0
100
AcDbLine
 10
192.8841677342
 20
303.0128601123
 30
0.0
 11
192.5890520994
 21
303.0128601123
 31
0.0
  0
LINE
  5
20B
330
1F
100
AcDbEntity
  8
0
100
AcDbLine
 10
193.4103575383
 20
302.512859099
 30
0.0
 11
192.8841677342
 21
303.0128601123
 31
0.0
  0
LINE
  5
20C
330
1F
100
AcDbEntity
  8
0
100
AcDbLine
 10
193.4103575383
 20
302.512859099
 30
0.0
 11
193.5781446133
 21
302.512859099
 31
0.0
  0
LINE
  5
20D
330
1F
100
AcDbEntity
  8
0
100
AcDbLine
 10
193.5781446133
 20
297.5128601421
 30
0.0
 11
193.5781446133
 21
302.512859099
 31
0.0
  0
LINE
  5
20E
330
1F
100
AcDbEntity
  8
0
100
AcDbLine
 10
192.8841677342
 20
303.0128601123
 30
0.0
 11
193.9341706071
 21
303.0128601123
 31
0.0
  0
LINE
  5
20F
330
1F
100
AcDbEntity
  8
0
100
AcDbLine
 10
193.9341706071
 20
303.0128601123
 30
0.0
 11
193.5781446133
 21
302.512859099
 31
0.0
  0
LINE
  5
210
330
1F
100
AcDbEntity
  8
0
100
AcDbLine
 10
194.1338480298
 20
303.0128601123
 30
0.0
 11
193.9341706071
 21
303.0128601123
 31
0.0
  0
LINE
  5
211
330
1F
100
AcDbEntity
  8
0
100
AcDbLine
 10
194.1338480298
 20
297.0128591288
 30
0.0
 11
194.1338480298
 21
303.0128601123
 31
0.0
  0
LINE
  5
212
330
1F
100
AcDbEntity
  8
0
100
AcDbLine
 10
193.9341706071
 20
297.0128591288
 30
0.0
 11
194.1338480298
 21
297.0128591288
 31
0.0
  0
LINE
  5
213
330
1F
100
AcDbEntity
  8
0
100
AcDbLine
 10
188.1181654368
 20
297.0128591288
 30
0.0
 11
189.1539935802
 21
297.0128591288
 31
0.0
  0
LINE
  5
214
330
1F
100
AcDbEntity
  8
0
100
AcDbLine
 10
188.1181654368
 20
297.0128591288
 30
0.0
 11
188.4347368811
 21
297.5128601421
 31
0.0
  0
LINE
  5
215
330
1F
100
AcDbEntity
  8
0
100
AcDbLine
 10
188.4347368811
 20
297.5128601421
 30
0.0
 11
188.6002589796
 21
297.5128601421
 31
0.0
  0
LINE
  5
216
330
1F
100
AcDbEntity
  8
0
100
AcDbLine
 10
188.6002589796
 20
297.5128601421
 30
0.0
 11
189.1539935802
 21
297.0128591288
 31
0.0
  0
LINE
  5
217
330
1F
100
AcDbEntity
  8
0
100
AcDbLine
 10
189.4645579938
 20
303.0128601123
 30
0.0
 11
189.1539935802
 21
303.0128601123
 31
0.0
  0
LINE
  5
218
330
1F
100
AcDbEntity
  8
0
100
AcDbLine
 10
189.1539935802
 20
297.0128591288
 30
0.0
 11
189.4645579938
 21
297.0128591288
 31
0.0
  0
LINE
  5
219
330
1F
100
AcDbEntity
  8
0
100
AcDbLine
 10
188.6002589796
 20
297.5128601421
 30
0.0
 11
188.6002589796
 21
302.512859099
 31
0.0
  0
LINE
  5
21A
330
1F
100
AcDbEntity
  8
0
100
AcDbLine
 10
189.1539935802
 20
303.0128601123
 30
0.0
 11
188.6002589796
 21
302.512859099
 31
0.0
  0
LINE
  5
21B
330
1F
100
AcDbEntity
  8
0
100
AcDbLine
 10
188.4347368811
 20
297.5128601421
 30
0.0
 11
188.4347368811
 21
302.512859099
 31
0.0
  0
LINE
  5
21C
330
1F
100
AcDbEntity
  8
0
100
AcDbLine
 10
188.4347368811
 20
302.512859099
 30
0.0
 11
188.6002589796
 21
302.512859099
 31
0.0
  0
LINE
  5
21D
330
1F
100
AcDbEntity
  8
0
100
AcDbLine
 10
188.4347368811
 20
302.512859099
 30
0.0
 11
188.1181654368
 21
303.0128601123
 31
0.0
  0
LINE
  5
21E
330
1F
100
AcDbEntity
  8
0
100
AcDbLine
 10
188.1181654368
 20
303.0128601123
 30
0.0
 11
189.1539935802
 21
303.0128601123
 31
0.0
  0
LINE
  5
21F
330
1F
100
AcDbEntity
  8
0
100
AcDbLine
 10
187.9406162385
 20
297.0128591288
 30
0.0
 11
188.1181654368
 21
297.0128591288
 31
0.0
  0
LINE
  5
220
330
1F
100
AcDbEntity
  8
0
100
AcDbLine
 10
187.9406162385
 20
297.0128591288
 30
0.0
 11
187.9406162385
 21
303.0128601123
 31
0.0
  0
LINE
  5
221
330
1F
100
AcDbEntity
  8
0
100
AcDbLine
 10
188.1181654368
 20
303.0128601123
 30
0.0
 11
187.9406162385
 21
303.0128601123
 31
0.0
  0
LINE
  5
222
330
1F
100
AcDbEntity
  8
0
100
AcDbLine
 10
195.0372821499
 20
297.5128601421
 30
0.0
 11
195.0372821499
 21
302.512859099
 31
0.0
  0
LINE
  5
223
330
1F
100
AcDbEntity
  8
0
100
AcDbLine
 10
194.4584754143
 20
297.0128591288
 30
0.0
 11
195.0372821499
 21
297.5128601421
 31
0.0
  0
LINE
  5
224
330
1F
100
AcDbEntity
  8
0
100
AcDbLine
 10
195.0372821499
 20
302.512859099
 30
0.0
 11
194.4584754143
 21
303.0128601123
 31
0.0
  0
LINE
  5
225
330
1F
100
AcDbEntity
  8
0
100
AcDbLine
 10
194.1338480298
 20
297.0128591288
 30
0.0
 11
194.4584754143
 21
297.0128591288
 31
0.0
  0
LINE
  5
226
330
1F
100
AcDbEntity
  8
0
100
AcDbLine
 10
194.4584754143
 20
303.0128601123
 30
0.0
 11
194.1338480298
 21
303.0128601123
 31
0.0
  0
LINE
  5
227
330
1F
100
AcDbEntity
  8
0
100
AcDbLine
 10
195.0372821499
 20
297.5128601421
 30
0.0
 11
195.1997998018
 21
297.5128601421
 31
0.0
  0
LINE
  5
228
330
1F
100
AcDbEntity
  8
0
100
AcDbLine
 10
195.1997998018
 20
297.5128601421
 30
0.0
 11
195.4755010862
 21
297.0128591288
 31
0.0
  0
LINE
  5
229
330
1F
100
AcDbEntity
  8
0
100
AcDbLine
 10
194.4584754143
 20
297.0128591288
 30
0.0
 11
195.4755010862
 21
297.0128591288
 31
0.0
  0
LINE
  5
22A
330
1F
100
AcDbEntity
  8
0
100
AcDbLine
 10
195.0372821499
 20
302.512859099
 30
0.0
 11
195.1997998018
 21
302.512859099
 31
0.0
  0
LINE
  5
22B
330
1F
100
AcDbEntity
  8
0
100
AcDbLine
 10
195.1997998018
 20
297.5128601421
 30
0.0
 11
195.1997998018
 21
302.512859099
 31
0.0
  0
LINE
  5
22C
330
1F
100
AcDbEntity
  8
0
100
AcDbLine
 10
195.4755010862
 20
303.0128601123
 30
0.0
 11
195.1997998018
 21
302.512859099
 31
0.0
  0
LINE
  5
22D
330
1F
100
AcDbEntity
  8
0
100
AcDbLine
 10
194.4584754143
 20
303.0128601123
 30
0.0
 11
195.4755010862
 21
303.0128601123
 31
0.0
  0
LINE
  5
22E
330
1F
100
AcDbEntity
  8
0
100
AcDbLine
 10
195.6301295046
 20
297.0128591288
 30
0.0
 11
195.6301295046
 21
303.0128601123
 31
0.0
  0
LINE
  5
22F
330
1F
100
AcDbEntity
  8
0
100
AcDbLine
 10
195.4755010862
 20
297.0128591288
 30
0.0
 11
195.6301295046
 21
297.0128591288
 31
0.0
  0
LINE
  5
230
330
1F
100
AcDbEntity
  8
0
100
AcDbLine
 10
195.6301295046
 20
303.0128601123
 30
0.0
 11
195.4755010862
 21
303.0128601123
 31
0.0
  0
LINE
  5
231
330
1F
100
AcDbEntity
  8
0
100
AcDbLine
 10
187.0020833645
 20
297.5128601421
 30
0.0
 11
187.6033787463
 21
297.0128591288
 31
0.0
  0
LINE
  5
232
330
1F
100
AcDbEntity
  8
0
100
AcDbLine
 10
187.0020833645
 20
297.5128601421
 30
0.0
 11
187.0020833645
 21
302.512859099
 31
0.0
  0
LINE
  5
233
330
1F
100
AcDbEntity
  8
0
100
AcDbLine
 10
187.6033787463
 20
303.0128601123
 30
0.0
 11
187.0020833645
 21
302.512859099
 31
0.0
  0
LINE
  5
234
330
1F
100
AcDbEntity
  8
0
100
AcDbLine
 10
187.6033787463
 20
297.0128591288
 30
0.0
 11
187.9406162385
 21
297.0128591288
 31
0.0
  0
LINE
  5
235
330
1F
100
AcDbEntity
  8
0
100
AcDbLine
 10
187.9406162385
 20
303.0128601123
 30
0.0
 11
187.6033787463
 21
303.0128601123
 31
0.0
  0
LINE
  5
236
330
1F
100
AcDbEntity
  8
0
100
AcDbLine
 10
186.6096948121
 20
297.0128591288
 30
0.0
 11
186.8432947282
 21
297.5128601421
 31
0.0
  0
LINE
  5
237
330
1F
100
AcDbEntity
  8
0
100
AcDbLine
 10
186.8432947282
 20
297.5128601421
 30
0.0
 11
187.0020833645
 21
297.5128601421
 31
0.0
  0
LINE
  5
238
330
1F
100
AcDbEntity
  8
0
100
AcDbLine
 10
186.6096948121
 20
297.0128591288
 30
0.0
 11
187.6033787463
 21
297.0128591288
 31
0.0
  0
LINE
  5
239
330
1F
100
AcDbEntity
  8
0
100
AcDbLine
 10
186.8432947282
 20
297.5128601421
 30
0.0
 11
186.8432947282
 21
302.512859099
 31
0.0
  0
LINE
  5
23A
330
1F
100
AcDbEntity
  8
0
100
AcDbLine
 10
186.8432947282
 20
302.512859099
 30
0.0
 11
187.0020833645
 21
302.512859099
 31
0.0
  0
LINE
  5
23B
330
1F
100
AcDbEntity
  8
0
100
AcDbLine
 10
186.8432947282
 20
302.512859099
 30
0.0
 11
186.6096948121
 21
303.0128601123
 31
0.0
  0
LINE
  5
23C
330
1F
100
AcDbEntity
  8
0
100
AcDbLine
 10
186.6096948121
 20
303.0128601123
 30
0.0
 11
187.6033787463
 21
303.0128601123
 31
0.0
  0
LINE
  5
23D
330
1F
100
AcDbEntity
  8
0
100
AcDbLine
 10
186.478678215
 20
297.0128591288
 30
0.0
 11
186.478678215
 21
303.0128601123
 31
0.0
  0
LINE
  5
23E
330
1F
100
AcDbEntity
  8
0
100
AcDbLine
 10
186.478678215
 20
297.0128591288
 30
0.0
 11
186.6096948121
 21
297.0128591288
 31
0.0
  0
LINE
  5
23F
330
1F
100
AcDbEntity
  8
0
100
AcDbLine
 10
186.6096948121
 20
303.0128601123
 30
0.0
 11
186.478678215
 21
303.0128601123
 31
0.0
  0
LINE
  5
240
330
1F
100
AcDbEntity
  8
0
100
AcDbLine
 10
195.9784739498
 20
297.0128591288
 30
0.0
 11
196.5995711122
 21
297.5128601421
 31
0.0
  0
LINE
  5
241
330
1F
100
AcDbEntity
  8
0
100
AcDbLine
 10
196.5995711122
 20
297.5128601421
 30
0.0
 11
196.7539192025
 21
297.5128601421
 31
0.0
  0
LINE
  5
242
330
1F
100
AcDbEntity
  8
0
100
AcDbLine
 10
196.7539192025
 20
297.5128601421
 30
0.0
 11
196.9443765317
 21
297.0128591288
 31
0.0
  0
LINE
  5
243
330
1F
100
AcDbEntity
  8
0
100
AcDbLine
 10
195.9784739498
 20
297.0128591288
 30
0.0
 11
196.9443765317
 21
297.0128591288
 31
0.0
  0
LINE
  5
244
330
1F
100
AcDbEntity
  8
0
100
AcDbLine
 10
196.5995711122
 20
297.5128601421
 30
0.0
 11
196.5995711122
 21
302.512859099
 31
0.0
  0
LINE
  5
245
330
1F
100
AcDbEntity
  8
0
100
AcDbLine
 10
196.5995711122
 20
302.512859099
 30
0.0
 11
195.9784739498
 21
303.0128601123
 31
0.0
  0
LINE
  5
246
330
1F
100
AcDbEntity
  8
0
100
AcDbLine
 10
195.6301295046
 20
297.0128591288
 30
0.0
 11
195.9784739498
 21
297.0128591288
 31
0.0
  0
LINE
  5
247
330
1F
100
AcDbEntity
  8
0
100
AcDbLine
 10
195.9784739498
 20
303.0128601123
 30
0.0
 11
195.6301295046
 21
303.0128601123
 31
0.0
  0
LINE
  5
248
330
1F
100
AcDbEntity
  8
0
100
AcDbLine
 10
196.5995711122
 20
302.512859099
 30
0.0
 11
196.7539192025
 21
302.512859099
 31
0.0
  0
LINE
  5
249
330
1F
100
AcDbEntity
  8
0
100
AcDbLine
 10
196.7539192025
 20
297.5128601421
 30
0.0
 11
196.7539192025
 21
302.512859099
 31
0.0
  0
LINE
  5
24A
330
1F
100
AcDbEntity
  8
0
100
AcDbLine
 10
196.9443765317
 20
303.0128601123
 30
0.0
 11
196.7539192025
 21
302.512859099
 31
0.0
  0
LINE
  5
24B
330
1F
100
AcDbEntity
  8
0
100
AcDbLine
 10
195.9784739498
 20
303.0128601123
 30
0.0
 11
196.9443765317
 21
303.0128601123
 31
0.0
  0
LINE
  5
24C
330
1F
100
AcDbEntity
  8
0
100
AcDbLine
 10
197.0511955057
 20
297.0128591288
 30
0.0
 11
197.0511955057
 21
303.0128601123
 31
0.0
  0
LINE
  5
24D
330
1F
100
AcDbEntity
  8
0
100
AcDbLine
 10
196.9443765317
 20
297.0128591288
 30
0.0
 11
197.0511955057
 21
297.0128591288
 31
0.0
  0
LINE
  5
24E
330
1F
100
AcDbEntity
  8
0
100
AcDbLine
 10
197.0511955057
 20
303.0128601123
 30
0.0
 11
196.9443765317
 21
303.0128601123
 31
0.0
  0
LINE
  5
24F
330
1F
100
AcDbEntity
  8
0
100
AcDbLine
 10
185.1869766448
 20
297.0128591288
 30
0.0
 11
185.3334401582
 21
297.5128601421
 31
0.0
  0
LINE
  5
250
330
1F
100
AcDbEntity
  8
0
100
AcDbLine
 10
185.3334401582
 20
297.5128601421
 30
0.0
 11
185.4826585237
 21
297.5128601421
 31
0.0
  0
LINE
  5
251
330
1F
100
AcDbEntity
  8
0
100
AcDbLine
 10
185.4826585237
 20
297.5128601421
 30
0.0
 11
186.1207839881
 21
297.0128591288
 31
0.0
  0
LINE
  5
252
330
1F
100
AcDbEntity
  8
0
100
AcDbLine
 10
185.1869766448
 20
297.0128591288
 30
0.0
 11
186.1207839881
 21
297.0128591288
 31
0.0
  0
LINE
  5
253
330
1F
100
AcDbEntity
  8
0
100
AcDbLine
 10
185.4826585237
 20
297.5128601421
 30
0.0
 11
185.4826585237
 21
302.512859099
 31
0.0
  0
LINE
  5
254
330
1F
100
AcDbEntity
  8
0
100
AcDbLine
 10
186.1207839881
 20
303.0128601123
 30
0.0
 11
185.4826585237
 21
302.512859099
 31
0.0
  0
LINE
  5
255
330
1F
100
AcDbEntity
  8
0
100
AcDbLine
 10
186.1207839881
 20
297.0128591288
 30
0.0
 11
186.478678215
 21
297.0128591288
 31
0.0
  0
LINE
  5
256
330
1F
100
AcDbEntity
  8
0
100
AcDbLine
 10
186.478678215
 20
303.0128601123
 30
0.0
 11
186.1207839881
 21
303.0128601123
 31
0.0
  0
LINE
  5
257
330
1F
100
AcDbEntity
  8
0
100
AcDbLine
 10
185.3334401582
 20
297.5128601421
 30
0.0
 11
185.3334401582
 21
302.512859099
 31
0.0
  0
LINE
  5
258
330
1F
100
AcDbEntity
  8
0
100
AcDbLine
 10
185.3334401582
 20
302.512859099
 30
0.0
 11
185.4826585237
 21
302.512859099
 31
0.0
  0
LINE
  5
259
330
1F
100
AcDbEntity
  8
0
100
AcDbLine
 10
185.3334401582
 20
302.512859099
 30
0.0
 11
185.1869766448
 21
303.0128601123
 31
0.0
  0
LINE
  5
25A
330
1F
100
AcDbEntity
  8
0
100
AcDbLine
 10
185.1869766448
 20
303.0128601123
 30
0.0
 11
186.1207839881
 21
303.0128601123
 31
0.0
  0
LINE
  5
25B
330
1F
100
AcDbEntity
  8
0
100
AcDbLine
 10
185.1048321311
 20
297.0128591288
 30
0.0
 11
185.1048321311
 21
303.0128601123
 31
0.0
  0
LINE
  5
25C
330
1F
100
AcDbEntity
  8
0
100
AcDbLine
 10
185.1048321311
 20
297.0128591288
 30
0.0
 11
185.1869766448
 21
297.0128591288
 31
0.0
  0
LINE
  5
25D
330
1F
100
AcDbEntity
  8
0
100
AcDbLine
 10
185.1869766448
 20
303.0128601123
 30
0.0
 11
185.1048321311
 21
303.0128601123
 31
0.0
  0
LINE
  5
25E
330
1F
100
AcDbEntity
  8
0
100
AcDbLine
 10
198.0693438869
 20
297.5128601421
 30
0.0
 11
198.0693438869
 21
302.512859099
 31
0.0
  0
LINE
  5
25F
330
1F
100
AcDbEntity
  8
0
100
AcDbLine
 10
197.4170413647
 20
297.0128591288
 30
0.0
 11
198.0693438869
 21
297.5128601421
 31
0.0
  0
LINE
  5
260
330
1F
100
AcDbEntity
  8
0
100
AcDbLine
 10
198.0693438869
 20
302.512859099
 30
0.0
 11
197.4170413647
 21
303.0128601123
 31
0.0
  0
LINE
  5
261
330
1F
100
AcDbEntity
  8
0
100
AcDbLine
 10
197.0511955057
 20
297.0128591288
 30
0.0
 11
197.4170413647
 21
297.0128591288
 31
0.0
  0
LINE
  5
262
330
1F
100
AcDbEntity
  8
0
100
AcDbLine
 10
197.4170413647
 20
303.0128601123
 30
0.0
 11
197.0511955057
 21
303.0128601123
 31
0.0
  0
LINE
  5
263
330
1F
100
AcDbEntity
  8
0
100
AcDbLine
 10
198.0693438869
 20
297.5128601421
 30
0.0
 11
198.2127680291
 21
297.5128601421
 31
0.0
  0
LINE
  5
264
330
1F
100
AcDbEntity
  8
0
100
AcDbLine
 10
198.2127680291
 20
297.5128601421
 30
0.0
 11
198.3145825413
 21
297.0128591288
 31
0.0
  0
LINE
  5
265
330
1F
100
AcDbEntity
  8
0
100
AcDbLine
 10
197.4170413647
 20
297.0128591288
 30
0.0
 11
198.3145825413
 21
297.0128591288
 31
0.0
  0
LINE
  5
266
330
1F
100
AcDbEntity
  8
0
100
AcDbLine
 10
198.0693438869
 20
302.512859099
 30
0.0
 11
198.2127680291
 21
302.512859099
 31
0.0
  0
LINE
  5
267
330
1F
100
AcDbEntity
  8
0
100
AcDbLine
 10
198.2127680291
 20
297.5128601421
 30
0.0
 11
198.2127680291
 21
302.512859099
 31
0.0
  0
LINE
  5
268
330
1F
100
AcDbEntity
  8
0
100
AcDbLine
 10
198.3145825413
 20
303.0128601123
 30
0.0
 11
198.2127680291
 21
302.512859099
 31
0.0
  0
LINE
  5
269
330
1F
100
AcDbEntity
  8
0
100
AcDbLine
 10
197.4170413647
 20
303.0128601123
 30
0.0
 11
198.3145825413
 21
303.0128601123
 31
0.0
  0
LINE
  5
26A
330
1F
100
AcDbEntity
  8
0
100
AcDbLine
 10
198.3716856536
 20
297.0128591288
 30
0.0
 11
198.3716856536
 21
303.0128601123
 31
0.0
  0
LINE
  5
26B
330
1F
100
AcDbEntity
  8
0
100
AcDbLine
 10
198.3145825413
 20
297.0128591288
 30
0.0
 11
198.3716856536
 21
297.0128591288
 31
0.0
  0
LINE
  5
26C
330
1F
100
AcDbEntity
  8
0
100
AcDbLine
 10
198.3716856536
 20
303.0128601123
 30
0.0
 11
198.3145825413
 21
303.0128601123
 31
0.0
  0
LINE
  5
26D
330
1F
100
AcDbEntity
  8
0
100
AcDbLine
 10
183.8754025136
 20
297.0128591288
 30
0.0
 11
183.9321126078
 21
297.5128601421
 31
0.0
  0
LINE
  5
26E
330
1F
100
AcDbEntity
  8
0
100
AcDbLine
 10
183.9321126078
 20
297.5128601421
 30
0.0
 11
184.0691008453
 21
297.5128601421
 31
0.0
  0
LINE
  5
26F
330
1F
100
AcDbEntity
  8
0
100
AcDbLine
 10
184.0691008453
 20
297.5128601421
 30
0.0
 11
184.7326681797
 21
297.0128591288
 31
0.0
  0
LINE
  5
270
330
1F
100
AcDbEntity
  8
0
100
AcDbLine
 10
183.8754025136
 20
297.0128591288
 30
0.0
 11
184.7326681797
 21
297.0128591288
 31
0.0
  0
LINE
  5
271
330
1F
100
AcDbEntity
  8
0
100
AcDbLine
 10
184.0691008453
 20
297.5128601421
 30
0.0
 11
184.0691008453
 21
302.512859099
 31
0.0
  0
LINE
  5
272
330
1F
100
AcDbEntity
  8
0
100
AcDbLine
 10
184.7326681797
 20
303.0128601123
 30
0.0
 11
184.0691008453
 21
302.512859099
 31
0.0
  0
LINE
  5
273
330
1F
100
AcDbEntity
  8
0
100
AcDbLine
 10
184.7326681797
 20
297.0128591288
 30
0.0
 11
185.1048321311
 21
297.0128591288
 31
0.0
  0
LINE
  5
274
330
1F
100
AcDbEntity
  8
0
100
AcDbLine
 10
185.1048321311
 20
303.0128601123
 30
0.0
 11
184.7326681797
 21
303.0128601123
 31
0.0
  0
LINE
  5
275
330
1F
100
AcDbEntity
  8
0
100
AcDbLine
 10
183.9321126078
 20
297.5128601421
 30
0.0
 11
183.9321126078
 21
302.512859099
 31
0.0
  0
LINE
  5
276
330
1F
100
AcDbEntity
  8
0
100
AcDbLine
 10
183.9321126078
 20
302.512859099
 30
0.0
 11
184.0691008453
 21
302.512859099
 31
0.0
  0
LINE
  5
277
330
1F
100
AcDbEntity
  8
0
100
AcDbLine
 10
183.9321126078
 20
302.512859099
 30
0.0
 11
183.8754025136
 21
303.0128601123
 31
0.0
  0
LINE
  5
278
330
1F
100
AcDbEntity
  8
0
100
AcDbLine
 10
183.8754025136
 20
303.0128601123
 30
0.0
 11
184.7326681797
 21
303.0128601123
 31
0.0
  0
LINE
  5
279
330
1F
100
AcDbEntity
  8
0
100
AcDbLine
 10
183.8435941223
 20
297.0128591288
 30
0.0
 11
183.8435941223
 21
303.0128601123
 31
0.0
  0
LINE
  5
27A
330
1F
100
AcDbEntity
  8
0
100
AcDbLine
 10
183.8435941223
 20
297.0128591288
 30
0.0
 11
183.8754025136
 21
297.0128591288
 31
0.0
  0
LINE
  5
27B
330
1F
100
AcDbEntity
  8
0
100
AcDbLine
 10
183.8754025136
 20
303.0128601123
 30
0.0
 11
183.8435941223
 21
303.0128601123
 31
0.0
  0
LINE
  5
27C
330
1F
100
AcDbEntity
  8
0
100
AcDbLine
 10
198.7485052865
 20
297.0128591288
 30
0.0
 11
199.4203730334
 21
297.5128601421
 31
0.0
  0
LINE
  5
27D
330
1F
100
AcDbEntity
  8
0
100
AcDbLine
 10
199.4203730334
 20
297.5128601421
 30
0.0
 11
199.550313953
 21
297.5128601421
 31
0.0
  0
LINE
  5
27E
330
1F
100
AcDbEntity
  8
0
100
AcDbLine
 10
199.550313953
 20
297.5128601421
 30
0.0
 11
199.5616691035
 21
297.0128591288
 31
0.0
  0
LINE
  5
27F
330
1F
100
AcDbEntity
  8
0
100
AcDbLine
 10
198.7485052865
 20
297.0128591288
 30
0.0
 11
199.5616691035
 21
297.0128591288
 31
0.0
  0
LINE
  5
280
330
1F
100
AcDbEntity
  8
0
100
AcDbLine
 10
199.4203730334
 20
297.5128601421
 30
0.0
 11
199.4203730334
 21
302.512859099
 31
0.0
  0
LINE
  5
281
330
1F
100
AcDbEntity
  8
0
100
AcDbLine
 10
199.4203730334
 20
302.512859099
 30
0.0
 11
198.7485052865
 21
303.0128601123
 31
0.0
  0
LINE
  5
282
330
1F
100
AcDbEntity
  8
0
100
AcDbLine
 10
198.3716856536
 20
297.0128591288
 30
0.0
 11
198.7485052865
 21
297.0128591288
 31
0.0
  0
LINE
  5
283
330
1F
100
AcDbEntity
  8
0
100
AcDbLine
 10
198.7485052865
 20
303.0128601123
 30
0.0
 11
198.3716856536
 21
303.0128601123
 31
0.0
  0
LINE
  5
284
330
1F
100
AcDbEntity
  8
0
100
AcDbLine
 10
199.4203730334
 20
302.512859099
 30
0.0
 11
199.550313953
 21
302.512859099
 31
0.0
  0
LINE
  5
285
330
1F
100
AcDbEntity
  8
0
100
AcDbLine
 10
199.550313953
 20
297.5128601421
 30
0.0
 11
199.550313953
 21
302.512859099
 31
0.0
  0
LINE
  5
286
330
1F
100
AcDbEntity
  8
0
100
AcDbLine
 10
199.5616691035
 20
303.0128601123
 30
0.0
 11
199.550313953
 21
302.512859099
 31
0.0
  0
LINE
  5
287
330
1F
100
AcDbEntity
  8
0
100
AcDbLine
 10
198.7485052865
 20
303.0128601123
 30
0.0
 11
199.5616691035
 21
303.0128601123
 31
0.0
  0
LINE
  5
288
330
1F
100
AcDbEntity
  8
0
100
AcDbLine
 10
199.5680374872
 20
297.0128591288
 30
0.0
 11
199.5680374872
 21
303.0128601123
 31
0.0
  0
LINE
  5
289
330
1F
100
AcDbEntity
  8
0
100
AcDbLine
 10
199.5616691035
 20
297.0128591288
 30
0.0
 11
199.5680374872
 21
297.0128591288
 31
0.0
  0
LINE
  5
28A
330
1F
100
AcDbEntity
  8
0
100
AcDbLine
 10
199.5680374872
 20
303.0128601123
 30
0.0
 11
199.5616691035
 21
303.0128601123
 31
0.0
  0
LINE
  5
28B
330
1F
100
AcDbEntity
  8
0
100
AcDbLine
 10
182.7866342698
 20
297.5128601421
 30
0.0
 11
183.4638026391
 21
297.0128591288
 31
0.0
  0
LINE
  5
28C
330
1F
100
AcDbEntity
  8
0
100
AcDbLine
 10
182.7866342698
 20
297.5128601421
 30
0.0
 11
182.7866342698
 21
302.512859099
 31
0.0
  0
LINE
  5
28D
330
1F
100
AcDbEntity
  8
0
100
AcDbLine
 10
183.4638026391
 20
303.0128601123
 30
0.0
 11
182.7866342698
 21
302.512859099
 31
0.0
  0
LINE
  5
28E
330
1F
100
AcDbEntity
  8
0
100
AcDbLine
 10
183.4638026391
 20
297.0128591288
 30
0.0
 11
183.8435941223
 21
297.0128591288
 31
0.0
  0
LINE
  5
28F
330
1F
100
AcDbEntity
  8
0
100
AcDbLine
 10
183.8435941223
 20
303.0128601123
 30
0.0
 11
183.4638026391
 21
303.0128601123
 31
0.0
  0
LINE
  5
290
330
1F
100
AcDbEntity
  8
0
100
AcDbLine
 10
182.698374692
 20
297.0128591288
 30
0.0
 11
182.6643218134
 21
297.5128601421
 31
0.0
  0
LINE
  5
291
330
1F
100
AcDbEntity
  8
0
100
AcDbLine
 10
182.6643218134
 20
297.5128601421
 30
0.0
 11
182.7866342698
 21
297.5128601421
 31
0.0
  0
LINE
  5
292
330
1F
100
AcDbEntity
  8
0
100
AcDbLine
 10
182.698374692
 20
297.0128591288
 30
0.0
 11
183.4638026391
 21
297.0128591288
 31
0.0
  0
LINE
  5
293
330
1F
100
AcDbEntity
  8
0
100
AcDbLine
 10
182.6643218134
 20
297.5128601421
 30
0.0
 11
182.6643218134
 21
302.512859099
 31
0.0
  0
LINE
  5
294
330
1F
100
AcDbEntity
  8
0
100
AcDbLine
 10
182.6643218134
 20
302.512859099
 30
0.0
 11
182.7866342698
 21
302.512859099
 31
0.0
  0
LINE
  5
295
330
1F
100
AcDbEntity
  8
0
100
AcDbLine
 10
182.6643218134
 20
302.512859099
 30
0.0
 11
182.698374692
 21
303.0128601123
 31
0.0
  0
LINE
  5
296
330
1F
100
AcDbEntity
  8
0
100
AcDbLine
 10
182.698374692
 20
303.0128601123
 30
0.0
 11
183.4638026391
 21
303.0128601123
 31
0.0
  0
LINE
  5
297
330
1F
100
AcDbEntity
  8
0
100
AcDbLine
 10
182.4151818488
 20
289.5128625561
 30
0.0
 11
200.4151824709
 21
289.5128625561
 31
0.0
  0
LINE
  5
298
330
1F
100
AcDbEntity
  8
0
100
AcDbLine
 10
182.9151828621
 20
289.0128615428
 30
0.0
 11
199.915182389
 21
289.0128615428
 31
0.0
  0
SPLINE
  5
299
330
1F
100
AcDbEntity
  8
0
100
AcDbSpline
210
0.0
220
0.0
230
1.0
 70
     8
 71
     3
 72
    12
 73
     8
 74
     0
 42
0.000000001
 43
0.00000001
 40
0.0
 40
0.0
 40
0.0
 40
0.0
 40
0.210237185584052
 40
0.420311848689557
 40
0.634559984674916
 40
0.8517355357569281
 40
1.0
 40
1.0
 40
1.0
 40
1.0
 10
182.7009693567112
 20
294.0128604997003
 30
0.0
 10
182.6946012615294
 20
294.2612991195936
 30
0.0
 10
182.6818699939802
 20
294.757984305533
 30
0.0
 10
182.59301386897
 20
295.4242423070416
 30
0.0
 10
182.4954474642821
 20
295.932584391518
 30
0.0
 10
182.423201462378
 20
296.2311511062607
 30
0.0
 10
182.422187138836
 20
296.2347662438693
 30
0.0
 10
182.4217756126478
 20
296.2362329591119
 30
0.0
  0
SPLINE
  5
29A
330
1F
100
AcDbEntity
  8
0
100
AcDbSpline
210
0.0
220
0.0
230
1.0
 70
     8
 71
     3
 72
    12
 73
     8
 74
     0
 42
0.000000001
 43
0.00000001
 40
0.0
 40
0.0
 40
0.0
 40
0.0
 40
0.1850153890579282
 40
0.393287852997636
 40
0.6065819923340862
 40
0.8237470473515143
 40
1.0
 40
1.0
 40
1.0
 40
1.0
 10
182.4182514880254
 20
291.7753617394769
 30
0.0
 10
182.4217615945661
 20
291.7890003163943
 30
0.0
 10
182.4292230401906
 20
291.8179918865611
 30
0.0
 10
182.5086042501238
 20
292.1542580820155
 30
0.0
 10
182.6069238928193
 20
292.6859480744139
 30
0.0
 10
182.6865443949171
 20
293.3404319215912
 30
0.0
 10
182.6965063556366
 20
293.8048149249855
 30
0.0
 10
182.7009693567112
 20
294.0128604997003
 30
0.0
  0
LINE
  5
29B
330
1F
100
AcDbEntity
  8
0
100
AcDbLine
 10
200.6285494041
 20
297.5128601421
 30
0.0
 11
200.6285494041
 21
302.512859099
 31
0.0
  0
LINE
  5
29C
330
1F
100
AcDbEntity
  8
0
100
AcDbLine
 10
199.9491058138
 20
297.0128591288
 30
0.0
 11
200.6285494041
 21
297.5128601421
 31
0.0
  0
LINE
  5
29D
330
1F
100
AcDbEntity
  8
0
100
AcDbLine
 10
200.6285494041
 20
302.512859099
 30
0.0
 11
199.9491058138
 21
303.0128601123
 31
0.0
  0
LINE
  5
29E
330
1F
100
AcDbEntity
  8
0
100
AcDbLine
 10
199.5680374872
 20
297.0128591288
 30
0.0
 11
199.9491058138
 21
297.0128591288
 31
0.0
  0
LINE
  5
29F
330
1F
100
AcDbEntity
  8
0
100
AcDbLine
 10
199.9491058138
 20
303.0128601123
 30
0.0
 11
199.5680374872
 21
303.0128601123
 31
0.0
  0
LINE
  5
2A0
330
1F
100
AcDbEntity
  8
0
100
AcDbLine
 10
200.6285494041
 20
302.512859099
 30
0.0
 11
200.7426885736
 21
302.512859099
 31
0.0
  0
LINE
  5
2A1
330
1F
100
AcDbEntity
  8
0
100
AcDbLine
 10
200.6633808684
 20
303.0128601123
 30
0.0
 11
200.7426885736
 21
302.512859099
 31
0.0
  0
LINE
  5
2A2
330
1F
100
AcDbEntity
  8
0
100
AcDbLine
 10
199.9491058138
 20
303.0128601123
 30
0.0
 11
200.6633808684
 21
303.0128601123
 31
0.0
  0
LINE
  5
2A3
330
1F
100
AcDbEntity
  8
0
100
AcDbLine
 10
200.6285494041
 20
297.5128601421
 30
0.0
 11
200.7426885736
 21
297.5128601421
 31
0.0
  0
LINE
  5
2A4
330
1F
100
AcDbEntity
  8
0
100
AcDbLine
 10
200.7426885736
 20
297.5128601421
 30
0.0
 11
200.6633808684
 21
297.0128591288
 31
0.0
  0
LINE
  5
2A5
330
1F
100
AcDbEntity
  8
0
100
AcDbLine
 10
199.9491058138
 20
297.0128591288
 30
0.0
 11
200.6633808684
 21
297.0128591288
 31
0.0
  0
LINE
  5
2A6
330
1F
100
AcDbEntity
  8
0
100
AcDbLine
 10
200.7426885736
 20
297.5128601421
 30
0.0
 11
200.7426885736
 21
302.512859099
 31
0.0
  0
LINE
  5
2A7
330
1F
100
AcDbEntity
  8
0
100
AcDbLine
 10
181.6581451182
 20
297.5128601421
 30
0.0
 11
182.3368296806
 21
297.0128591288
 31
0.0
  0
LINE
  5
2A8
330
1F
100
AcDbEntity
  8
0
100
AcDbLine
 10
181.6581451182
 20
297.5128601421
 30
0.0
 11
181.6581451182
 21
302.512859099
 31
0.0
  0
LINE
  5
2A9
330
1F
100
AcDbEntity
  8
0
100
AcDbLine
 10
182.3368296806
 20
303.0128601123
 30
0.0
 11
181.6581451182
 21
302.512859099
 31
0.0
  0
LINE
  5
2AA
330
1F
100
AcDbEntity
  8
0
100
AcDbLine
 10
182.3368296806
 20
297.0128591288
 30
0.0
 11
182.698374692
 21
297.0128591288
 31
0.0
  0
LINE
  5
2AB
330
1F
100
AcDbEntity
  8
0
100
AcDbLine
 10
182.698374692
 20
303.0128601123
 30
0.0
 11
182.3368296806
 21
303.0128601123
 31
0.0
  0
LINE
  5
2AC
330
1F
100
AcDbEntity
  8
0
100
AcDbLine
 10
181.6768982295
 20
297.0128591288
 30
0.0
 11
181.5526896004
 21
297.5128601421
 31
0.0
  0
LINE
  5
2AD
330
1F
100
AcDbEntity
  8
0
100
AcDbLine
 10
181.5526896004
 20
297.5128601421
 30
0.0
 11
181.6581451182
 21
297.5128601421
 31
0.0
  0
LINE
  5
2AE
330
1F
100
AcDbEntity
  8
0
100
AcDbLine
 10
181.6768982295
 20
297.0128591288
 30
0.0
 11
182.3368296806
 21
297.0128591288
 31
0.0
  0
LINE
  5
2AF
330
1F
100
AcDbEntity
  8
0
100
AcDbLine
 10
181.5526896004
 20
302.512859099
 30
0.0
 11
181.6581451182
 21
302.512859099
 31
0.0
  0
LINE
  5
2B0
330
1F
100
AcDbEntity
  8
0
100
AcDbLine
 10
181.5526896004
 20
302.512859099
 30
0.0
 11
181.6768982295
 21
303.0128601123
 31
0.0
  0
LINE
  5
2B1
330
1F
100
AcDbEntity
  8
0
100
AcDbLine
 10
181.6768982295
 20
303.0128601123
 30
0.0
 11
182.3368296806
 21
303.0128601123
 31
0.0
  0
LINE
  5
2B2
330
1F
100
AcDbEntity
  8
0
100
AcDbLine
 10
181.5526896004
 20
297.5128601421
 30
0.0
 11
181.5526896004
 21
302.512859099
 31
0.0
  0
LINE
  5
2B3
330
1F
100
AcDbEntity
  8
0
100
AcDbLine
 10
201.6723133471
 20
297.5128601421
 30
0.0
 11
201.6723133471
 21
302.512859099
 31
0.0
  0
LINE
  5
2B4
330
1F
100
AcDbEntity
  8
0
100
AcDbLine
 10
200.9974183362
 20
297.0128591288
 30
0.0
 11
201.6723133471
 21
297.5128601421
 31
0.0
  0
LINE
  5
2B5
330
1F
100
AcDbEntity
  8
0
100
AcDbLine
 10
201.6723133471
 20
302.512859099
 30
0.0
 11
200.9974183362
 21
303.0128601123
 31
0.0
  0
LINE
  5
2B6
330
1F
100
AcDbEntity
  8
0
100
AcDbLine
 10
200.6633808684
 20
297.0128591288
 30
0.0
 11
200.9974183362
 21
297.0128591288
 31
0.0
  0
LINE
  5
2B7
330
1F
100
AcDbEntity
  8
0
100
AcDbLine
 10
200.9974183362
 20
303.0128601123
 30
0.0
 11
200.6633808684
 21
303.0128601123
 31
0.0
  0
LINE
  5
2B8
330
1F
100
AcDbEntity
  8
0
100
AcDbLine
 10
201.6723133471
 20
297.5128601421
 30
0.0
 11
201.7686130327
 21
297.5128601421
 31
0.0
  0
LINE
  5
2B9
330
1F
100
AcDbEntity
  8
0
100
AcDbLine
 10
201.7686130327
 20
297.5128601421
 30
0.0
 11
201.6000590135
 21
297.0128591288
 31
0.0
  0
LINE
  5
2BA
330
1F
100
AcDbEntity
  8
0
100
AcDbLine
 10
200.9974183362
 20
297.0128591288
 30
0.0
 11
201.6000590135
 21
297.0128591288
 31
0.0
  0
LINE
  5
2BB
330
1F
100
AcDbEntity
  8
0
100
AcDbLine
 10
201.6723133471
 20
302.512859099
 30
0.0
 11
201.7686130327
 21
302.512859099
 31
0.0
  0
LINE
  5
2BC
330
1F
100
AcDbEntity
  8
0
100
AcDbLine
 10
201.6000590135
 20
303.0128601123
 30
0.0
 11
201.7686130327
 21
302.512859099
 31
0.0
  0
LINE
  5
2BD
330
1F
100
AcDbEntity
  8
0
100
AcDbLine
 10
200.9974183362
 20
303.0128601123
 30
0.0
 11
201.6000590135
 21
303.0128601123
 31
0.0
  0
LINE
  5
2BE
330
1F
100
AcDbEntity
  8
0
100
AcDbLine
 10
201.7686130327
 20
297.5128601421
 30
0.0
 11
201.7686130327
 21
302.512859099
 31
0.0
  0
LINE
  5
2BF
330
1F
100
AcDbEntity
  8
0
100
AcDbLine
 10
180.7037685845
 20
297.5128601421
 30
0.0
 11
181.371860284
 21
297.0128591288
 31
0.0
  0
LINE
  5
2C0
330
1F
100
AcDbEntity
  8
0
100
AcDbLine
 10
180.7037685845
 20
297.5128601421
 30
0.0
 11
180.7037685845
 21
302.512859099
 31
0.0
  0
LINE
  5
2C1
330
1F
100
AcDbEntity
  8
0
100
AcDbLine
 10
181.371860284
 20
303.0128601123
 30
0.0
 11
180.7037685845
 21
302.512859099
 31
0.0
  0
LINE
  5
2C2
330
1F
100
AcDbEntity
  8
0
100
AcDbLine
 10
181.371860284
 20
297.0128591288
 30
0.0
 11
181.6768982295
 21
297.0128591288
 31
0.0
  0
LINE
  5
2C3
330
1F
100
AcDbEntity
  8
0
100
AcDbLine
 10
181.6768982295
 20
303.0128601123
 30
0.0
 11
181.371860284
 21
303.0128601123
 31
0.0
  0
LINE
  5
2C4
330
1F
100
AcDbEntity
  8
0
100
AcDbLine
 10
180.8292028342
 20
297.0128591288
 30
0.0
 11
180.6170550023
 21
297.5128601421
 31
0.0
  0
LINE
  5
2C5
330
1F
100
AcDbEntity
  8
0
100
AcDbLine
 10
180.6170550023
 20
297.5128601421
 30
0.0
 11
180.7037685845
 21
297.5128601421
 31
0.0
  0
LINE
  5
2C6
330
1F
100
AcDbEntity
  8
0
100
AcDbLine
 10
180.8292028342
 20
297.0128591288
 30
0.0
 11
181.371860284
 21
297.0128591288
 31
0.0
  0
LINE
  5
2C7
330
1F
100
AcDbEntity
  8
0
100
AcDbLine
 10
180.6170550023
 20
302.512859099
 30
0.0
 11
180.7037685845
 21
302.512859099
 31
0.0
  0
LINE
  5
2C8
330
1F
100
AcDbEntity
  8
0
100
AcDbLine
 10
180.6170550023
 20
302.512859099
 30
0.0
 11
180.8292028342
 21
303.0128601123
 31
0.0
  0
LINE
  5
2C9
330
1F
100
AcDbEntity
  8
0
100
AcDbLine
 10
180.8292028342
 20
303.0128601123
 30
0.0
 11
181.371860284
 21
303.0128601123
 31
0.0
  0
LINE
  5
2CA
330
1F
100
AcDbEntity
  8
0
100
AcDbLine
 10
180.6170550023
 20
297.5128601421
 30
0.0
 11
180.6170550023
 21
302.512859099
 31
0.0
  0
LINE
  5
2CB
330
1F
100
AcDbEntity
  8
0
100
AcDbLine
 10
202.5330381781
 20
297.5128601421
 30
0.0
 11
202.5330381781
 21
302.512859099
 31
0.0
  0
LINE
  5
2CC
330
1F
100
AcDbEntity
  8
0
100
AcDbLine
 10
201.8747358431
 20
297.0128591288
 30
0.0
 11
202.5330381781
 21
297.5128601421
 31
0.0
  0
LINE
  5
2CD
330
1F
100
AcDbEntity
  8
0
100
AcDbLine
 10
202.5330381781
 20
302.512859099
 30
0.0
 11
201.8747358431
 21
303.0128601123
 31
0.0
  0
LINE
  5
2CE
330
1F
100
AcDbEntity
  8
0
100
AcDbLine
 10
201.6000590135
 20
297.0128591288
 30
0.0
 11
201.8747358431
 21
297.0128591288
 31
0.0
  0
LINE
  5
2CF
330
1F
100
AcDbEntity
  8
0
100
AcDbLine
 10
201.8747358431
 20
303.0128601123
 30
0.0
 11
201.6000590135
 21
303.0128601123
 31
0.0
  0
LINE
  5
2D0
330
1F
100
AcDbEntity
  8
0
100
AcDbLine
 10
202.5330381781
 20
297.5128601421
 30
0.0
 11
202.6097807881
 21
297.5128601421
 31
0.0
  0
LINE
  5
2D1
330
1F
100
AcDbEntity
  8
0
100
AcDbLine
 10
202.6097807881
 20
297.5128601421
 30
0.0
 11
202.3549872298
 21
297.0128591288
 31
0.0
  0
LINE
  5
2D2
330
1F
100
AcDbEntity
  8
0
100
AcDbLine
 10
201.8747358431
 20
297.0128591288
 30
0.0
 11
202.3549872298
 21
297.0128591288
 31
0.0
  0
LINE
  5
2D3
330
1F
100
AcDbEntity
  8
0
100
AcDbLine
 10
202.5330381781
 20
302.512859099
 30
0.0
 11
202.6097807881
 21
302.512859099
 31
0.0
  0
LINE
  5
2D4
330
1F
100
AcDbEntity
  8
0
100
AcDbLine
 10
202.3549872298
 20
303.0128601123
 30
0.0
 11
202.6097807881
 21
302.512859099
 31
0.0
  0
LINE
  5
2D5
330
1F
100
AcDbEntity
  8
0
100
AcDbLine
 10
201.8747358431
 20
303.0128601123
 30
0.0
 11
202.3549872298
 21
303.0128601123
 31
0.0
  0
LINE
  5
2D6
330
1F
100
AcDbEntity
  8
0
100
AcDbLine
 10
202.6097807881
 20
297.5128601421
 30
0.0
 11
202.6097807881
 21
302.512859099
 31
0.0
  0
LINE
  5
2D7
330
1F
100
AcDbEntity
  8
0
100
AcDbLine
 10
179.9405385588
 20
297.5128601421
 30
0.0
 11
180.586112741
 21
297.0128591288
 31
0.0
  0
LINE
  5
2D8
330
1F
100
AcDbEntity
  8
0
100
AcDbLine
 10
179.9405385588
 20
297.5128601421
 30
0.0
 11
179.9405385588
 21
302.512859099
 31
0.0
  0
LINE
  5
2D9
330
1F
100
AcDbEntity
  8
0
100
AcDbLine
 10
180.586112741
 20
303.0128601123
 30
0.0
 11
179.9405385588
 21
302.512859099
 31
0.0
  0
LINE
  5
2DA
330
1F
100
AcDbEntity
  8
0
100
AcDbLine
 10
180.586112741
 20
297.0128591288
 30
0.0
 11
180.8292028342
 21
297.0128591288
 31
0.0
  0
LINE
  5
2DB
330
1F
100
AcDbEntity
  8
0
100
AcDbLine
 10
180.8292028342
 20
303.0128601123
 30
0.0
 11
180.586112741
 21
303.0128601123
 31
0.0
  0
LINE
  5
2DC
330
1F
100
AcDbEntity
  8
0
100
AcDbLine
 10
180.1704131846
 20
297.0128591288
 30
0.0
 11
179.8741110448
 21
297.5128601421
 31
0.0
  0
LINE
  5
2DD
330
1F
100
AcDbEntity
  8
0
100
AcDbLine
 10
179.8741110448
 20
297.5128601421
 30
0.0
 11
179.9405385588
 21
297.5128601421
 31
0.0
  0
LINE
  5
2DE
330
1F
100
AcDbEntity
  8
0
100
AcDbLine
 10
180.1704131846
 20
297.0128591288
 30
0.0
 11
180.586112741
 21
297.0128591288
 31
0.0
  0
LINE
  5
2DF
330
1F
100
AcDbEntity
  8
0
100
AcDbLine
 10
179.8741110448
 20
302.512859099
 30
0.0
 11
179.9405385588
 21
302.512859099
 31
0.0
  0
LINE
  5
2E0
330
1F
100
AcDbEntity
  8
0
100
AcDbLine
 10
179.8741110448
 20
302.512859099
 30
0.0
 11
180.1704131846
 21
303.0128601123
 31
0.0
  0
LINE
  5
2E1
330
1F
100
AcDbEntity
  8
0
100
AcDbLine
 10
180.1704131846
 20
303.0128601123
 30
0.0
 11
180.586112741
 21
303.0128601123
 31
0.0
  0
LINE
  5
2E2
330
1F
100
AcDbEntity
  8
0
100
AcDbLine
 10
179.8741110448
 20
297.5128601421
 30
0.0
 11
179.8741110448
 21
302.512859099
 31
0.0
  0
LINE
  5
2E3
330
1F
100
AcDbEntity
  8
0
100
AcDbLine
 10
203.1953645252
 20
297.5128601421
 30
0.0
 11
203.1953645252
 21
302.512859099
 31
0.0
  0
LINE
  5
2E4
330
1F
100
AcDbEntity
  8
0
100
AcDbLine
 10
202.5654021033
 20
297.0128591288
 30
0.0
 11
203.1953645252
 21
297.5128601421
 31
0.0
  0
LINE
  5
2E5
330
1F
100
AcDbEntity
  8
0
100
AcDbLine
 10
203.1953645252
 20
302.512859099
 30
0.0
 11
202.5654021033
 21
303.0128601123
 31
0.0
  0
LINE
  5
2E6
330
1F
100
AcDbEntity
  8
0
100
AcDbLine
 10
202.3549872298
 20
297.0128591288
 30
0.0
 11
202.5654021033
 21
297.0128591288
 31
0.0
  0
LINE
  5
2E7
330
1F
100
AcDbEntity
  8
0
100
AcDbLine
 10
202.5654021033
 20
303.0128601123
 30
0.0
 11
202.3549872298
 21
303.0128601123
 31
0.0
  0
LINE
  5
2E8
330
1F
100
AcDbEntity
  8
0
100
AcDbLine
 10
203.1953645252
 20
297.5128601421
 30
0.0
 11
203.2511803169
 21
297.5128601421
 31
0.0
  0
LINE
  5
2E9
330
1F
100
AcDbEntity
  8
0
100
AcDbLine
 10
203.2511803169
 20
297.5128601421
 30
0.0
 11
202.914694402
 21
297.0128591288
 31
0.0
  0
LINE
  5
2EA
330
1F
100
AcDbEntity
  8
0
100
AcDbLine
 10
202.5654021033
 20
297.0128591288
 30
0.0
 11
202.914694402
 21
297.0128591288
 31
0.0
  0
LINE
  5
2EB
330
1F
100
AcDbEntity
  8
0
100
AcDbLine
 10
203.1953645252
 20
302.512859099
 30
0.0
 11
203.2511803169
 21
302.512859099
 31
0.0
  0
LINE
  5
2EC
330
1F
100
AcDbEntity
  8
0
100
AcDbLine
 10
202.914694402
 20
303.0128601123
 30
0.0
 11
203.2511803169
 21
302.512859099
 31
0.0
  0
LINE
  5
2ED
330
1F
100
AcDbEntity
  8
0
100
AcDbLine
 10
202.5654021033
 20
303.0128601123
 30
0.0
 11
202.914694402
 21
303.0128601123
 31
0.0
  0
LINE
  5
2EE
330
1F
100
AcDbEntity
  8
0
100
AcDbLine
 10
203.2511803169
 20
297.5128601421
 30
0.0
 11
203.2511803169
 21
302.512859099
 31
0.0
  0
LINE
  5
2EF
330
1F
100
AcDbEntity
  8
0
100
AcDbLine
 10
179.3820747022
 20
297.5128601421
 30
0.0
 11
179.993610907
 21
297.0128591288
 31
0.0
  0
LINE
  5
2F0
330
1F
100
AcDbEntity
  8
0
100
AcDbLine
 10
179.3820747022
 20
297.5128601421
 30
0.0
 11
179.3820747022
 21
302.512859099
 31
0.0
  0
LINE
  5
2F1
330
1F
100
AcDbEntity
  8
0
100
AcDbLine
 10
179.993610907
 20
303.0128601123
 30
0.0
 11
179.3820747022
 21
302.512859099
 31
0.0
  0
LINE
  5
2F2
330
1F
100
AcDbEntity
  8
0
100
AcDbLine
 10
179.993610907
 20
297.0128591288
 30
0.0
 11
180.1704131846
 21
297.0128591288
 31
0.0
  0
LINE
  5
2F3
330
1F
100
AcDbEntity
  8
0
100
AcDbLine
 10
180.1704131846
 20
303.0128601123
 30
0.0
 11
179.993610907
 21
303.0128601123
 31
0.0
  0
LINE
  5
2F4
330
1F
100
AcDbEntity
  8
0
100
AcDbLine
 10
179.7122862969
 20
297.0128591288
 30
0.0
 11
179.3371197615
 21
297.5128601421
 31
0.0
  0
LINE
  5
2F5
330
1F
100
AcDbEntity
  8
0
100
AcDbLine
 10
179.3371197615
 20
297.5128601421
 30
0.0
 11
179.3820747022
 21
297.5128601421
 31
0.0
  0
LINE
  5
2F6
330
1F
100
AcDbEntity
  8
0
100
AcDbLine
 10
179.7122862969
 20
297.0128591288
 30
0.0
 11
179.993610907
 21
297.0128591288
 31
0.0
  0
LINE
  5
2F7
330
1F
100
AcDbEntity
  8
0
100
AcDbLine
 10
179.3371197615
 20
302.512859099
 30
0.0
 11
179.3820747022
 21
302.512859099
 31
0.0
  0
LINE
  5
2F8
330
1F
100
AcDbEntity
  8
0
100
AcDbLine
 10
179.3371197615
 20
302.512859099
 30
0.0
 11
179.7122862969
 21
303.0128601123
 31
0.0
  0
LINE
  5
2F9
330
1F
100
AcDbEntity
  8
0
100
AcDbLine
 10
179.7122862969
 20
303.0128601123
 30
0.0
 11
179.993610907
 21
303.0128601123
 31
0.0
  0
LINE
  5
2FA
330
1F
100
AcDbEntity
  8
0
100
AcDbLine
 10
179.3371197615
 20
297.5128601421
 30
0.0
 11
179.3371197615
 21
302.512859099
 31
0.0
  0
LINE
  5
2FB
330
1F
100
AcDbEntity
  8
0
100
AcDbLine
 10
203.6474734392
 20
297.5128601421
 30
0.0
 11
203.6474734392
 21
302.512859099
 31
0.0
  0
LINE
  5
2FC
330
1F
100
AcDbEntity
  8
0
100
AcDbLine
 10
203.0570924595
 20
297.0128591288
 30
0.0
 11
203.6474734392
 21
297.5128601421
 31
0.0
  0
LINE
  5
2FD
330
1F
100
AcDbEntity
  8
0
100
AcDbLine
 10
203.6474734392
 20
302.512859099
 30
0.0
 11
203.0570924595
 21
303.0128601123
 31
0.0
  0
LINE
  5
2FE
330
1F
100
AcDbEntity
  8
0
100
AcDbLine
 10
202.914694402
 20
297.0128591288
 30
0.0
 11
203.0570924595
 21
297.0128591288
 31
0.0
  0
LINE
  5
2FF
330
1F
100
AcDbEntity
  8
0
100
AcDbLine
 10
203.0570924595
 20
303.0128601123
 30
0.0
 11
202.914694402
 21
303.0128601123
 31
0.0
  0
LINE
  5
300
330
1F
100
AcDbEntity
  8
0
100
AcDbLine
 10
203.6474734392
 20
297.5128601421
 30
0.0
 11
203.6813663632
 21
297.5128601421
 31
0.0
  0
LINE
  5
301
330
1F
100
AcDbEntity
  8
0
100
AcDbLine
 10
203.6813663632
 20
297.5128601421
 30
0.0
 11
203.269192794
 21
297.0128591288
 31
0.0
  0
LINE
  5
302
330
1F
100
AcDbEntity
  8
0
100
AcDbLine
 10
203.0570924595
 20
297.0128591288
 30
0.0
 11
203.269192794
 21
297.0128591288
 31
0.0
  0
LINE
  5
303
330
1F
100
AcDbEntity
  8
0
100
AcDbLine
 10
203.6474734392
 20
302.512859099
 30
0.0
 11
203.6813663632
 21
302.512859099
 31
0.0
  0
LINE
  5
304
330
1F
100
AcDbEntity
  8
0
100
AcDbLine
 10
203.269192794
 20
303.0128601123
 30
0.0
 11
203.6813663632
 21
302.512859099
 31
0.0
  0
LINE
  5
305
330
1F
100
AcDbEntity
  8
0
100
AcDbLine
 10
203.0570924595
 20
303.0128601123
 30
0.0
 11
203.269192794
 21
303.0128601123
 31
0.0
  0
LINE
  5
306
330
1F
100
AcDbEntity
  8
0
100
AcDbLine
 10
203.6813663632
 20
297.5128601421
 30
0.0
 11
203.6813663632
 21
302.512859099
 31
0.0
  0
LINE
  5
307
330
1F
100
AcDbEntity
  8
0
100
AcDbLine
 10
179.0383403037
 20
297.5128601421
 30
0.0
 11
179.6049290184
 21
297.0128591288
 31
0.0
  0
LINE
  5
308
330
1F
100
AcDbEntity
  8
0
100
AcDbLine
 10
179.0383403037
 20
297.5128601421
 30
0.0
 11
179.0383403037
 21
302.512859099
 31
0.0
  0
LINE
  5
309
330
1F
100
AcDbEntity
  8
0
100
AcDbLine
 10
179.6049290184
 20
303.0128601123
 30
0.0
 11
179.0383403037
 21
302.512859099
 31
0.0
  0
LINE
  5
30A
330
1F
100
AcDbEntity
  8
0
100
AcDbLine
 10
179.6049290184
 20
297.0128591288
 30
0.0
 11
179.7122862969
 21
297.0128591288
 31
0.0
  0
LINE
  5
30B
330
1F
100
AcDbEntity
  8
0
100
AcDbLine
 10
179.7122862969
 20
303.0128601123
 30
0.0
 11
179.6049290184
 21
303.0128601123
 31
0.0
  0
LINE
  5
30C
330
1F
100
AcDbEntity
  8
0
100
AcDbLine
 10
179.4629991834
 20
297.0128591288
 30
0.0
 11
179.0156607364
 21
297.5128601421
 31
0.0
  0
LINE
  5
30D
330
1F
100
AcDbEntity
  8
0
100
AcDbLine
 10
179.0156607364
 20
297.5128601421
 30
0.0
 11
179.0383403037
 21
297.5128601421
 31
0.0
  0
LINE
  5
30E
330
1F
100
AcDbEntity
  8
0
100
AcDbLine
 10
179.4629991834
 20
297.0128591288
 30
0.0
 11
179.6049290184
 21
297.0128591288
 31
0.0
  0
LINE
  5
30F
330
1F
100
AcDbEntity
  8
0
100
AcDbLine
 10
179.0156607364
 20
302.512859099
 30
0.0
 11
179.0383403037
 21
302.512859099
 31
0.0
  0
LINE
  5
310
330
1F
100
AcDbEntity
  8
0
100
AcDbLine
 10
179.0156607364
 20
302.512859099
 30
0.0
 11
179.4629991834
 21
303.0128601123
 31
0.0
  0
LINE
  5
311
330
1F
100
AcDbEntity
  8
0
100
AcDbLine
 10
179.4629991834
 20
303.0128601123
 30
0.0
 11
179.6049290184
 21
303.0128601123
 31
0.0
  0
LINE
  5
312
330
1F
100
AcDbEntity
  8
0
100
AcDbLine
 10
179.0156607364
 20
297.5128601421
 30
0.0
 11
179.0156607364
 21
302.512859099
 31
0.0
  0
LINE
  5
313
330
1F
100
AcDbEntity
  8
0
100
AcDbLine
 10
203.8812968728
 20
297.5128601421
 30
0.0
 11
203.8812968728
 21
302.512859099
 31
0.0
  0
LINE
  5
314
330
1F
100
AcDbEntity
  8
0
100
AcDbLine
 10
203.3410326891
 20
297.0128591288
 30
0.0
 11
203.8812968728
 21
297.5128601421
 31
0.0
  0
LINE
  5
315
330
1F
100
AcDbEntity
  8
0
100
AcDbLine
 10
203.8812968728
 20
302.512859099
 30
0.0
 11
203.3410326891
 21
303.0128601123
 31
0.0
  0
LINE
  5
316
330
1F
100
AcDbEntity
  8
0
100
AcDbLine
 10
203.269192794
 20
297.0128591288
 30
0.0
 11
203.3410326891
 21
297.0128591288
 31
0.0
  0
LINE
  5
317
330
1F
100
AcDbEntity
  8
0
100
AcDbLine
 10
203.3410326891
 20
303.0128601123
 30
0.0
 11
203.269192794
 21
303.0128601123
 31
0.0
  0
LINE
  5
318
330
1F
100
AcDbEntity
  8
0
100
AcDbLine
 10
203.8812968728
 20
297.5128601421
 30
0.0
 11
203.892662035
 21
297.5128601421
 31
0.0
  0
LINE
  5
319
330
1F
100
AcDbEntity
  8
0
100
AcDbLine
 10
203.892662035
 20
297.5128601421
 30
0.0
 11
203.4121559315
 21
297.0128591288
 31
0.0
  0
LINE
  5
31A
330
1F
100
AcDbEntity
  8
0
100
AcDbLine
 10
203.3410326891
 20
297.0128591288
 30
0.0
 11
203.4121559315
 21
297.0128591288
 31
0.0
  0
LINE
  5
31B
330
1F
100
AcDbEntity
  8
0
100
AcDbLine
 10
203.4121559315
 20
303.0128601123
 30
0.0
 11
203.892662035
 21
302.512859099
 31
0.0
  0
LINE
  5
31C
330
1F
100
AcDbEntity
  8
0
100
AcDbLine
 10
203.8812968728
 20
302.512859099
 30
0.0
 11
203.892662035
 21
302.512859099
 31
0.0
  0
LINE
  5
31D
330
1F
100
AcDbEntity
  8
0
100
AcDbLine
 10
203.3410326891
 20
303.0128601123
 30
0.0
 11
203.4121559315
 21
303.0128601123
 31
0.0
  0
LINE
  5
31E
330
1F
100
AcDbEntity
  8
0
100
AcDbLine
 10
203.892662035
 20
297.5128601421
 30
0.0
 11
203.892662035
 21
302.512859099
 31
0.0
  0
LINE
  5
31F
330
1F
100
AcDbEntity
  8
0
100
AcDbLine
 10
178.9154727791
 20
297.5128601421
 30
0.0
 11
179.4269998406
 21
297.0128591288
 31
0.0
  0
LINE
  5
320
330
1F
100
AcDbEntity
  8
0
100
AcDbLine
 10
178.9154727791
 20
297.5128601421
 30
0.0
 11
178.9154727791
 21
302.512859099
 31
0.0
  0
LINE
  5
321
330
1F
100
AcDbEntity
  8
0
100
AcDbLine
 10
179.4269998406
 20
303.0128601123
 30
0.0
 11
178.9154727791
 21
302.512859099
 31
0.0
  0
LINE
  5
322
330
1F
100
AcDbEntity
  8
0
100
AcDbLine
 10
179.4269998406
 20
297.0128591288
 30
0.0
 11
179.4629991834
 21
297.0128591288
 31
0.0
  0
LINE
  5
323
330
1F
100
AcDbEntity
  8
0
100
AcDbLine
 10
179.4629991834
 20
303.0128601123
 30
0.0
 11
179.4269998406
 21
303.0128601123
 31
0.0
  0
LINE
  5
324
330
1F
100
AcDbEntity
  8
0
100
AcDbLine
 10
178.9151822064
 20
297.5128601421
 30
0.0
 11
178.9154727791
 21
297.5128601421
 31
0.0
  0
LINE
  5
325
330
1F
100
AcDbEntity
  8
0
100
AcDbLine
 10
179.4151832197
 20
297.0128591288
 30
0.0
 11
179.4269998406
 21
297.0128591288
 31
0.0
  0
LINE
  5
326
330
1F
100
AcDbEntity
  8
0
100
AcDbLine
 10
178.9151822064
 20
302.512859099
 30
0.0
 11
178.9154727791
 21
302.512859099
 31
0.0
  0
LINE
  5
327
330
1F
100
AcDbEntity
  8
0
100
AcDbLine
 10
179.4151832197
 20
303.0128601123
 30
0.0
 11
179.4269998406
 21
303.0128601123
 31
0.0
  0
LINE
  5
328
330
1F
100
AcDbEntity
  8
0
100
AcDbLine
 10
182.4151818488
 20
292.8870293427
 30
0.0
 11
182.4151818488
 21
292.7128608454
 31
0.0
  0
LINE
  5
329
330
1F
100
AcDbEntity
  8
0
100
AcDbLine
 10
182.4151818488
 20
295.312860154
 30
0.0
 11
182.4151818488
 21
292.8870293427
 31
0.0
  0
LINE
  5
32A
330
1F
100
AcDbEntity
  8
0
100
AcDbLine
 10
221.9151818041
 20
288.8128581572
 30
0.0
 11
221.9151818041
 21
281.8128588725
 31
0.0
  0
LINE
  5
32B
330
1F
100
AcDbEntity
  8
0
100
AcDbLine
 10
221.9151818041
 20
281.8128588725
 30
0.0
 11
218.9151822437
 21
281.8128588725
 31
0.0
  0
LINE
  5
32C
330
1F
100
AcDbEntity
  8
0
100
AcDbLine
 10
218.9151822437
 20
288.8128581572
 30
0.0
 11
221.9151818041
 21
288.8128581572
 31
0.0
  0
LINE
  5
32D
330
1F
100
AcDbEntity
  8
0
100
AcDbLine
 10
218.9151822437
 20
288.8128581572
 30
0.0
 11
162.6151838188
 21
288.8128581572
 31
0.0
  0
CIRCLE
  5
32E
330
1F
100
AcDbEntity
  8
0
100
AcDbCircle
 10
190.7651823673
 20
284.8128607273
 30
0.0
 40
1.599999999999966
  0
LINE
  5
32F
330
1F
100
AcDbEntity
  8
0
100
AcDbLine
 10
218.9151822437
 20
281.8128588725
 30
0.0
 11
162.6151838188
 21
281.8128588725
 31
0.0
  0
LINE
  5
330
330
1F
100
AcDbEntity
  8
0
100
AcDbLine
 10
159.6151814644
 20
281.8128588725
 30
0.0
 11
159.6151814644
 21
288.8128581572
 31
0.0
  0
LINE
  5
331
330
1F
100
AcDbEntity
  8
0
100
AcDbLine
 10
159.6151814644
 20
288.8128581572
 30
0.0
 11
162.6151838188
 21
288.8128581572
 31
0.0
  0
LINE
  5
332
330
1F
100
AcDbEntity
  8
0
100
AcDbLine
 10
162.6151838188
 20
281.8128588725
 30
0.0
 11
159.6151814644
 21
281.8128588725
 31
0.0
  0
LINE
  5
333
330
1F
100
AcDbEntity
  8
0
100
AcDbLine
 10
162.6151838188
 20
261.4128637243
 30
0.0
 11
218.9151822437
 21
261.4128637243
 31
0.0
  0
LINE
  5
334
330
1F
100
AcDbEntity
  8
0
100
AcDbLine
 10
162.6151838188
 20
268.4128630091
 30
0.0
 11
218.9151822437
 21
268.4128630091
 31
0.0
  0
CIRCLE
  5
335
330
1F
100
AcDbEntity
  8
0
100
AcDbCircle
 10
190.7651823673
 20
265.4128607273
 30
0.0
 40
1.600000000000023
  0
LINE
  5
336
330
1F
100
AcDbEntity
  8
0
100
AcDbLine
 10
159.6151814644
 20
261.4128637243
 30
0.0
 11
159.6151814644
 21
268.4128630091
 31
0.0
  0
LINE
  5
337
330
1F
100
AcDbEntity
  8
0
100
AcDbLine
 10
159.6151814644
 20
268.4128630091
 30
0.0
 11
162.6151838188
 21
268.4128630091
 31
0.0
  0
LINE
  5
338
330
1F
100
AcDbEntity
  8
0
100
AcDbLine
 10
162.6151838188
 20
261.4128637243
 30
0.0
 11
159.6151814644
 21
261.4128637243
 31
0.0
  0
LINE
  5
339
330
1F
100
AcDbEntity
  8
0
100
AcDbLine
 10
218.9151822437
 20
268.4128630091
 30
0.0
 11
221.9151818041
 21
268.4128630091
 31
0.0
  0
LINE
  5
33A
330
1F
100
AcDbEntity
  8
0
100
AcDbLine
 10
221.9151818041
 20
268.4128630091
 30
0.0
 11
221.9151818041
 21
261.4128637243
 31
0.0
  0
LINE
  5
33B
330
1F
100
AcDbEntity
  8
0
100
AcDbLine
 10
221.9151818041
 20
261.4128637243
 30
0.0
 11
218.9151822437
 21
261.4128637243
 31
0.0
  0
LINE
  5
33C
330
1F
100
AcDbEntity
  8
0
100
AcDbLine
 10
166.265182275
 20
269.5128592778
 30
0.0
 11
215.2651819248
 21
269.5128592778
 31
0.0
  0
LINE
  5
33D
330
1F
100
AcDbEntity
  8
0
100
AcDbLine
 10
219.7651826624
 20
268.4128630091
 30
0.0
 11
219.7651826624
 21
269.5128592778
 31
0.0
  0
LINE
  5
33E
330
1F
100
AcDbEntity
  8
0
100
AcDbLine
 10
215.2651819248
 20
269.5128592778
 30
0.0
 11
219.7651826624
 21
269.5128592778
 31
0.0
  0
LINE
  5
33F
330
1F
100
AcDbEntity
  8
0
100
AcDbLine
 10
161.7651806061
 20
268.4128630091
 30
0.0
 11
161.7651806061
 21
269.5128592778
 31
0.0
  0
LINE
  5
340
330
1F
100
AcDbEntity
  8
0
100
AcDbLine
 10
161.7651806061
 20
269.5128592778
 30
0.0
 11
166.265182275
 21
269.5128592778
 31
0.0
  0
LINE
  5
341
330
1F
100
AcDbEntity
  8
0
100
AcDbLine
 10
161.7651806061
 20
280.5128592182
 30
0.0
 11
166.265182275
 21
280.5128592182
 31
0.0
  0
LINE
  5
342
330
1F
100
AcDbEntity
  8
0
100
AcDbLine
 10
161.7651806061
 20
280.5128592182
 30
0.0
 11
161.7651806061
 21
281.8128588725
 31
0.0
  0
LINE
  5
343
330
1F
100
AcDbEntity
  8
0
100
AcDbLine
 10
166.265182275
 20
280.5128592182
 30
0.0
 11
215.2651819248
 21
280.5128592182
 31
0.0
  0
LINE
  5
344
330
1F
100
AcDbEntity
  8
0
100
AcDbLine
 10
219.7651826624
 20
280.5128592182
 30
0.0
 11
219.7651826624
 21
281.8128588725
 31
0.0
  0
LINE
  5
345
330
1F
100
AcDbEntity
  8
0
100
AcDbLine
 10
215.2651819248
 20
280.5128592182
 30
0.0
 11
219.7651826624
 21
280.5128592182
 31
0.0
  0
LINE
  5
346
330
1F
100
AcDbEntity
  8
0
100
AcDbLine
 10
166.265182275
 20
279.0128636289
 30
0.0
 11
215.2651819248
 21
279.0128636289
 31
0.0
  0
LINE
  5
347
330
1F
100
AcDbEntity
  8
0
100
AcDbLine
 10
219.7651826624
 20
279.0128636289
 30
0.0
 11
219.7651826624
 21
280.5128592182
 31
0.0
  0
LINE
  5
348
330
1F
100
AcDbEntity
  8
0
100
AcDbLine
 10
215.2651819248
 20
279.0128636289
 30
0.0
 11
219.7651826624
 21
279.0128636289
 31
0.0
  0
LINE
  5
349
330
1F
100
AcDbEntity
  8
0
100
AcDbLine
 10
161.7651806061
 20
279.0128636289
 30
0.0
 11
161.7651806061
 21
280.5128592182
 31
0.0
  0
LINE
  5
34A
330
1F
100
AcDbEntity
  8
0
100
AcDbLine
 10
161.7651806061
 20
279.0128636289
 30
0.0
 11
166.265182275
 21
279.0128636289
 31
0.0
  0
LINE
  5
34B
330
1F
100
AcDbEntity
  8
0
100
AcDbLine
 10
166.265182275
 20
271.0128623176
 30
0.0
 11
215.2651819248
 21
271.0128623176
 31
0.0
  0
LINE
  5
34C
330
1F
100
AcDbEntity
  8
0
100
AcDbLine
 10
219.7651826624
 20
269.5128592778
 30
0.0
 11
219.7651826624
 21
271.0128623176
 31
0.0
  0
LINE
  5
34D
330
1F
100
AcDbEntity
  8
0
100
AcDbLine
 10
215.2651819248
 20
271.0128623176
 30
0.0
 11
219.7651826624
 21
271.0128623176
 31
0.0
  0
LINE
  5
34E
330
1F
100
AcDbEntity
  8
0
100
AcDbLine
 10
161.7651806061
 20
269.5128592778
 30
0.0
 11
161.7651806061
 21
271.0128623176
 31
0.0
  0
LINE
  5
34F
330
1F
100
AcDbEntity
  8
0
100
AcDbLine
 10
161.7651806061
 20
271.0128623176
 30
0.0
 11
166.265182275
 21
271.0128623176
 31
0.0
  0
CIRCLE
  5
350
330
1F
100
AcDbEntity
  8
0
100
AcDbCircle
 10
190.7651823673
 20
265.4128607273
 30
0.0
 40
1.400000000000001
  0
LINE
  5
351
330
1F
100
AcDbEntity
  8
0
100
AcDbLine
 10
190.7651825656
 20
264.5352902938
 30
0.0
 11
191.5251827646
 21
264.9740773369
 31
0.0
  0
LINE
  5
352
330
1F
100
AcDbEntity
  8
0
100
AcDbLine
 10
191.5251827646
 20
264.9740773369
 30
0.0
 11
191.5251827646
 21
265.8516439725
 31
0.0
  0
LINE
  5
353
330
1F
100
AcDbEntity
  8
0
100
AcDbLine
 10
191.5251827646
 20
265.8516439725
 30
0.0
 11
190.7651825656
 21
266.2904310156
 31
0.0
  0
LINE
  5
354
330
1F
100
AcDbEntity
  8
0
100
AcDbLine
 10
190.7651825656
 20
266.2904310156
 30
0.0
 11
190.0051832978
 21
265.8516439725
 31
0.0
  0
LINE
  5
355
330
1F
100
AcDbEntity
  8
0
100
AcDbLine
 10
190.0051832978
 20
265.8516439725
 30
0.0
 11
190.0051832978
 21
264.9740773369
 31
0.0
  0
LINE
  5
356
330
1F
100
AcDbEntity
  8
0
100
AcDbLine
 10
190.0051832978
 20
264.9740773369
 30
0.0
 11
190.7651825656
 21
264.5352902938
 31
0.0
  0
LINE
  5
357
330
1F
100
AcDbEntity
  8
0
100
AcDbLine
 10
190.7651825656
 20
285.6904315878
 30
0.0
 11
190.0051832978
 21
285.2516445447
 31
0.0
  0
LINE
  5
358
330
1F
100
AcDbEntity
  8
0
100
AcDbLine
 10
190.0051832978
 20
285.2516445447
 30
0.0
 11
190.0051832978
 21
284.3740779091
 31
0.0
  0
LINE
  5
359
330
1F
100
AcDbEntity
  8
0
100
AcDbLine
 10
190.0051832978
 20
284.3740779091
 30
0.0
 11
190.7651825656
 21
283.935290866
 31
0.0
  0
LINE
  5
35A
330
1F
100
AcDbEntity
  8
0
100
AcDbLine
 10
190.7651825656
 20
283.935290866
 30
0.0
 11
191.5251827646
 21
284.3740779091
 31
0.0
  0
LINE
  5
35B
330
1F
100
AcDbEntity
  8
0
100
AcDbLine
 10
191.5251827646
 20
284.3740779091
 30
0.0
 11
191.5251827646
 21
285.2516445447
 31
0.0
  0
LINE
  5
35C
330
1F
100
AcDbEntity
  8
0
100
AcDbLine
 10
191.5251827646
 20
285.2516445447
 30
0.0
 11
190.7651825656
 21
285.6904315878
 31
0.0
  0
CIRCLE
  5
35D
330
1F
100
AcDbEntity
  8
0
100
AcDbCircle
 10
190.7651823673
 20
284.8128607273
 30
0.0
 40
1.400000000000015
  0
LINE
  5
35E
330
1F
100
AcDbEntity
  8
0
100
AcDbLine
 10
200.465182386
 20
272.0128643442
 30
0.0
 11
193.5655019094
 21
272.0128643442
 31
0.0
  0
LINE
  5
35F
330
1F
100
AcDbEntity
  8
0
100
AcDbLine
 10
200.465182386
 20
275.5128639866
 30
0.0
 11
182.4651826952
 21
275.5128639866
 31
0.0
  0
LINE
  5
360
330
1F
100
AcDbEntity
  8
0
100
AcDbLine
 10
199.965182304
 20
271.5128633309
 30
0.0
 11
193.5655019094
 21
271.5128633309
 31
0.0
  0
LINE
  5
361
330
1F
100
AcDbEntity
  8
0
100
AcDbLine
 10
145.0655014102
 20
272.3902138997
 30
0.0
 11
145.0655014102
 21
279.2355093289
 31
0.0
  0
LINE
  5
362
330
1F
100
AcDbEntity
  8
0
100
AcDbLine
 10
146.0655034367
 20
271.8128609587
 30
0.0
 11
146.0655034367
 21
279.81286227
 31
0.0
  0
LINE
  5
363
330
1F
100
AcDbEntity
  8
0
100
AcDbLine
 10
193.5655019094
 20
271.8128609587
 30
0.0
 11
193.5655019094
 21
271.0128623176
 31
0.0
  0
LINE
  5
364
330
1F
100
AcDbEntity
  8
0
100
AcDbLine
 10
165.0655009631
 20
272.9128572274
 30
0.0
 11
165.0655009631
 21
274.6128636528
 31
0.0
  0
LINE
  5
365
330
1F
100
AcDbEntity
  8
0
100
AcDbLine
 10
174.2651835863
 20
275.312860601
 30
0.0
 11
193.5655019094
 21
275.312860601
 31
0.0
  0
LINE
  5
366
330
1F
100
AcDbEntity
  8
0
100
AcDbLine
 10
193.5655019094
 20
275.312860601
 30
0.0
 11
193.5655019094
 21
271.8128609587
 31
0.0
  0
LINE
  5
367
330
1F
100
AcDbEntity
  8
0
100
AcDbLine
 10
162.7651826326
 20
274.6128636528
 30
0.0
 11
162.7651826326
 21
271.0128623176
 31
0.0
  0
LINE
  5
368
330
1F
100
AcDbEntity
  8
0
100
AcDbLine
 10
158.765181977
 20
269.8128643561
 30
0.0
 11
161.2651833181
 21
269.8128643561
 31
0.0
  0
LINE
  5
369
330
1F
100
AcDbEntity
  8
0
100
AcDbLine
 10
158.765181977
 20
269.8128643561
 30
0.0
 11
158.765181977
 21
281.8128588725
 31
0.0
  0
LINE
  5
36A
330
1F
100
AcDbEntity
  8
0
100
AcDbLine
 10
159.6151814644
 20
281.8128588725
 30
0.0
 11
158.765181977
 21
281.8128588725
 31
0.0
  0
LINE
  5
36B
330
1F
100
AcDbEntity
  8
0
100
AcDbLine
 10
195.2651823719
 20
276.0128575493
 30
0.0
 11
174.2651835863
 21
276.0128575493
 31
0.0
  0
LINE
  5
36C
330
1F
100
AcDbEntity
  8
0
100
AcDbLine
 10
174.2651835863
 20
276.0128575493
 30
0.0
 11
174.2651835863
 21
274.6128636528
 31
0.0
  0
LINE
  5
36D
330
1F
100
AcDbEntity
  8
0
100
AcDbLine
 10
174.2651835863
 20
274.6128636528
 30
0.0
 11
162.7651826326
 21
274.6128636528
 31
0.0
  0
LINE
  5
36E
330
1F
100
AcDbEntity
  8
0
100
AcDbLine
 10
161.7651806061
 20
269.5128592778
 30
0.0
 11
161.2651833181
 21
269.5128592778
 31
0.0
  0
LINE
  5
36F
330
1F
100
AcDbEntity
  8
0
100
AcDbLine
 10
161.2651833181
 20
269.8128643561
 30
0.0
 11
161.2651833181
 21
269.5128592778
 31
0.0
  0
LINE
  5
370
330
1F
100
AcDbEntity
  8
0
100
AcDbLine
 10
212.8151111152
 20
276.0128575493
 30
0.0
 11
212.8151111152
 21
274.6128636528
 31
0.0
  0
LINE
  5
371
330
1F
100
AcDbEntity
  8
0
100
AcDbLine
 10
212.8151111152
 20
276.0128575493
 30
0.0
 11
195.2651823719
 21
276.0128575493
 31
0.0
  0
LINE
  5
372
330
1F
100
AcDbEntity
  8
0
100
AcDbLine
 10
213.2651825283
 20
274.6128636528
 30
0.0
 11
212.8151111152
 21
274.6128636528
 31
0.0
  0
LINE
  5
373
330
1F
100
AcDbEntity
  8
0
100
AcDbLine
 10
161.2651833181
 20
269.5128592778
 30
0.0
 11
161.2651833181
 21
268.4128630091
 31
0.0
  0
LINE
  5
374
330
1F
100
AcDbEntity
  8
0
100
AcDbLine
 10
205.7651823685
 20
276.0128575493
 30
0.0
 11
205.7651823685
 21
274.6128636528
 31
0.0
  0
LINE
  5
375
330
1F
100
AcDbEntity
  8
0
100
AcDbLine
 10
205.7651823685
 20
274.6128636528
 30
0.0
 11
212.8151111152
 21
274.6128636528
 31
0.0
  0
LINE
  5
376
330
1F
100
AcDbEntity
  8
0
100
AcDbLine
 10
163.2651836459
 20
272.9128572274
 30
0.0
 11
173.765182573
 21
272.9128572274
 31
0.0
  0
LINE
  5
377
330
1F
100
AcDbEntity
  8
0
100
AcDbLine
 10
163.2651836459
 20
272.9128572274
 30
0.0
 11
163.2651836459
 21
271.0128623176
 31
0.0
  0
LINE
  5
378
330
1F
100
AcDbEntity
  8
0
100
AcDbLine
 10
173.765182573
 20
272.9128572274
 30
0.0
 11
173.765182573
 21
271.0128623176
 31
0.0
  0
LINE
  5
379
330
1F
100
AcDbEntity
  8
0
100
AcDbLine
 10
212.8151111152
 20
272.9128572274
 30
0.0
 11
212.8151111152
 21
271.0128623176
 31
0.0
  0
LINE
  5
37A
330
1F
100
AcDbEntity
  8
0
100
AcDbLine
 10
212.8151111152
 20
272.9128572274
 30
0.0
 11
213.2651825283
 21
272.9128572274
 31
0.0
  0
LINE
  5
37B
330
1F
100
AcDbEntity
  8
0
100
AcDbLine
 10
206.7651823942
 20
272.9128572274
 30
0.0
 11
212.8151111152
 21
272.9128572274
 31
0.0
  0
LINE
  5
37C
330
1F
100
AcDbEntity
  8
0
100
AcDbLine
 10
206.7651823942
 20
272.9128572274
 30
0.0
 11
206.7651823942
 21
271.0128623176
 31
0.0
  0
LINE
  5
37D
330
1F
100
AcDbEntity
  8
0
  6
Continuous
 62
     8
370
     0
100
AcDbLine
 10
218.9151822437
 20
281.8128588725
 30
0.0
 11
218.9151822437
 21
288.8128581572
 31
0.0
  0
LINE
  5
37E
330
1F
100
AcDbEntity
  8
0
  6
Continuous
 62
     8
370
     0
100
AcDbLine
 10
162.6151838188
 20
288.8128581572
 30
0.0
 11
162.6151838188
 21
281.8128588725
 31
0.0
  0
LINE
  5
37F
330
1F
100
AcDbEntity
  8
0
  6
Continuous
 62
     8
370
     0
100
AcDbLine
 10
218.9151822437
 20
261.4128637243
 30
0.0
 11
218.9151822437
 21
268.4128630091
 31
0.0
  0
LINE
  5
380
330
1F
100
AcDbEntity
  8
0
  6
Continuous
 62
     8
370
     0
100
AcDbLine
 10
162.6151838188
 20
268.4128630091
 30
0.0
 11
162.6151838188
 21
261.4128637243
 31
0.0
  0
LINE
  5
381
330
1F
100
AcDbEntity
  8
0
  6
Continuous
 62
     8
370
     0
100
AcDbLine
 10
215.2651819248
 20
268.4128630091
 30
0.0
 11
215.2651819248
 21
269.5128592778
 31
0.0
  0
LINE
  5
382
330
1F
100
AcDbEntity
  8
0
  6
Continuous
 62
     8
370
     0
100
AcDbLine
 10
166.265182275
 20
268.4128630091
 30
0.0
 11
166.265182275
 21
269.5128592778
 31
0.0
  0
LINE
  5
383
330
1F
100
AcDbEntity
  8
0
  6
Continuous
 62
     8
370
     0
100
AcDbLine
 10
166.265182275
 20
280.5128592182
 30
0.0
 11
166.265182275
 21
281.8128588725
 31
0.0
  0
LINE
  5
384
330
1F
100
AcDbEntity
  8
0
  6
Continuous
 62
     8
370
     0
100
AcDbLine
 10
215.2651819248
 20
280.5128592182
 30
0.0
 11
215.2651819248
 21
281.8128588725
 31
0.0
  0
LINE
  5
385
330
1F
100
AcDbEntity
  8
0
  6
Continuous
 62
     8
370
     0
100
AcDbLine
 10
215.2651819248
 20
279.0128636289
 30
0.0
 11
215.2651819248
 21
280.5128592182
 31
0.0
  0
LINE
  5
386
330
1F
100
AcDbEntity
  8
0
  6
Continuous
 62
     8
370
     0
100
AcDbLine
 10
166.265182275
 20
279.0128636289
 30
0.0
 11
166.265182275
 21
280.5128592182
 31
0.0
  0
LINE
  5
387
330
1F
100
AcDbEntity
  8
0
  6
Continuous
 62
     8
370
     0
100
AcDbLine
 10
215.2651819248
 20
269.5128592778
 30
0.0
 11
215.2651819248
 21
271.0128623176
 31
0.0
  0
LINE
  5
388
330
1F
100
AcDbEntity
  8
0
  6
Continuous
 62
     8
370
     0
100
AcDbLine
 10
166.265182275
 20
269.5128592778
 30
0.0
 11
166.265182275
 21
271.0128623176
 31
0.0
  0
LINE
  5
389
330
1F
100
AcDbEntity
  8
0
  6
Continuous
 62
     8
370
     0
100
AcDbLine
 10
173.765182573
 20
271.8128609587
 30
0.0
 11
193.5655019094
 21
271.8128609587
 31
0.0
  0
LINE
  5
38A
330
1F
100
AcDbEntity
  8
0
  6
Continuous
 62
     8
370
     0
100
AcDbLine
 10
195.2651823719
 20
276.0128575493
 30
0.0
 11
195.2651823719
 21
279.0128636289
 31
0.0
  0
LINE
  5
38B
330
1F
100
AcDbEntity
  8
0
100
AcDbLine
 10
313.606348341
 20
184.4687631627
 30
0.0
 11
313.1063473277
 21
183.9687640121
 31
0.0
  0
LINE
  5
38C
330
1F
100
AcDbEntity
  8
0
100
AcDbLine
 10
313.1063473277
 20
166.9687640195
 30
0.0
 11
313.606348341
 21
166.4687639376
 31
0.0
  0
LINE
  5
38D
330
1F
100
AcDbEntity
  8
0
100
AcDbLine
 10
321.1063449137
 20
184.4687631627
 30
0.0
 11
313.606348341
 21
184.4687631627
 31
0.0
  0
LINE
  5
38E
330
1F
100
AcDbEntity
  8
0
100
AcDbLine
 10
313.606348341
 20
166.4687639376
 30
0.0
 11
321.1063449137
 21
166.4687639376
 31
0.0
  0
LINE
  5
38F
330
1F
100
AcDbEntity
  8
0
100
AcDbLine
 10
321.2471385353
 20
187.6095554133
 30
0.0
 11
321.1063449137
 21
187.4687636544
 31
0.0
  0
LINE
  5
390
330
1F
100
AcDbEntity
  8
0
100
AcDbLine
 10
327.1063458972
 20
187.4687636544
 30
0.0
 11
326.9655560009
 21
187.6095554133
 31
0.0
  0
LINE
  5
391
330
1F
100
AcDbEntity
  8
0
100
AcDbLine
 10
321.1063449137
 20
163.4687639115
 30
0.0
 11
321.2471385353
 21
163.3279719198
 31
0.0
  0
LINE
  5
392
330
1F
100
AcDbEntity
  8
0
100
AcDbLine
 10
326.9655560009
 20
163.3279719198
 30
0.0
 11
327.1063458972
 21
163.4687639115
 31
0.0
  0
LINE
  5
393
330
1F
100
AcDbEntity
  8
0
100
AcDbLine
 10
290.9063440614
 20
201.6187629004
 30
0.0
 11
290.9063440614
 21
202.1187639137
 31
0.0
  0
LINE
  5
394
330
1F
100
AcDbEntity
  8
0
100
AcDbLine
 10
288.1063488178
 20
202.1187639137
 30
0.0
 11
288.1063488178
 21
201.6187629004
 31
0.0
  0
LINE
  5
395
330
1F
100
AcDbEntity
  8
0
100
AcDbLine
 10
288.1063488178
 20
149.3187641998
 30
0.0
 11
288.1063488178
 21
148.8187631865
 31
0.0
  0
LINE
  5
396
330
1F
100
AcDbEntity
  8
0
100
AcDbLine
 10
290.9063440614
 20
148.8187631865
 30
0.0
 11
290.9063440614
 21
149.3187641998
 31
0.0
  0
LINE
  5
397
330
1F
100
AcDbEntity
  8
0
100
AcDbLine
 10
307.50634939
 20
149.3187641998
 30
0.0
 11
307.50634939
 21
148.8187631865
 31
0.0
  0
LINE
  5
398
330
1F
100
AcDbEntity
  8
0
100
AcDbLine
 10
310.3063446336
 20
148.8187631865
 30
0.0
 11
310.3063446336
 21
149.3187641998
 31
0.0
  0
LINE
  5
399
330
1F
100
AcDbEntity
  8
0
100
AcDbLine
 10
310.3063446336
 20
201.6187629004
 30
0.0
 11
310.3063446336
 21
202.1187639137
 31
0.0
  0
LINE
  5
39A
330
1F
100
AcDbEntity
  8
0
100
AcDbLine
 10
307.50634939
 20
202.1187639137
 30
0.0
 11
307.50634939
 21
201.6187629004
 31
0.0
  0
LINE
  5
39B
330
1F
100
AcDbEntity
  8
0
100
AcDbLine
 10
312.9063439422
 20
172.4687639897
 30
0.0
 11
313.1063473277
 21
172.4687639897
 31
0.0
  0
LINE
  5
39C
330
1F
100
AcDbEntity
  8
0
100
AcDbLine
 10
313.1063473277
 20
178.4687640419
 30
0.0
 11
312.9063439422
 21
178.4687640419
 31
0.0
  0
LINE
  5
39D
330
1F
100
AcDbEntity
  8
0
100
AcDbLine
 10
321.1063449137
 20
176.0011811083
 30
0.0
 11
321.1063449137
 21
174.936345992
 31
0.0
  0
LINE
  5
39E
330
1F
100
AcDbEntity
  8
0
100
AcDbLine
 10
321.1063449137
 20
176.0011811083
 30
0.0
 11
321.606345927
 21
175.5538426613
 31
0.0
  0
LINE
  5
39F
330
1F
100
AcDbEntity
  8
0
100
AcDbLine
 10
321.606345927
 20
175.5538426613
 30
0.0
 11
321.606345927
 21
175.3836853703
 31
0.0
  0
LINE
  5
3A0
330
1F
100
AcDbEntity
  8
0
100
AcDbLine
 10
321.606345927
 20
175.3836853703
 30
0.0
 11
321.1063449137
 21
174.936345992
 31
0.0
  0
LINE
  5
3A1
330
1F
100
AcDbEntity
  8
0
100
AcDbLine
 10
321.606345927
 20
175.5538426613
 30
0.0
 11
326.6063448839
 21
175.5538426613
 31
0.0
  0
LINE
  5
3A2
330
1F
100
AcDbEntity
  8
0
100
AcDbLine
 10
326.6063448839
 20
175.5538426613
 30
0.0
 11
326.6063448839
 21
175.3836853703
 31
0.0
  0
LINE
  5
3A3
330
1F
100
AcDbEntity
  8
0
100
AcDbLine
 10
321.606345927
 20
175.3836853703
 30
0.0
 11
326.6063448839
 21
175.3836853703
 31
0.0
  0
LINE
  5
3A4
330
1F
100
AcDbEntity
  8
0
100
AcDbLine
 10
326.6063448839
 20
175.5538426613
 30
0.0
 11
327.1063458972
 21
176.0011811083
 31
0.0
  0
LINE
  5
3A5
330
1F
100
AcDbEntity
  8
0
100
AcDbLine
 10
327.1063458972
 20
176.0011811083
 30
0.0
 11
327.1063458972
 21
174.936345992
 31
0.0
  0
LINE
  5
3A6
330
1F
100
AcDbEntity
  8
0
100
AcDbLine
 10
327.1063458972
 20
174.936345992
 30
0.0
 11
326.6063448839
 21
175.3836853703
 31
0.0
  0
LINE
  5
3A7
330
1F
100
AcDbEntity
  8
0
100
AcDbLine
 10
327.1063458972
 20
174.6854542096
 30
0.0
 11
327.1063458972
 21
174.936345992
 31
0.0
  0
LINE
  5
3A8
330
1F
100
AcDbEntity
  8
0
100
AcDbLine
 10
321.1063449137
 20
174.6854542096
 30
0.0
 11
327.1063458972
 21
174.6854542096
 31
0.0
  0
LINE
  5
3A9
330
1F
100
AcDbEntity
  8
0
100
AcDbLine
 10
321.1063449137
 20
174.936345992
 30
0.0
 11
321.1063449137
 21
174.6854542096
 31
0.0
  0
LINE
  5
3AA
330
1F
100
AcDbEntity
  8
0
100
AcDbLine
 10
321.1063449137
 20
176.2520728906
 30
0.0
 11
321.1063449137
 21
176.0011811083
 31
0.0
  0
LINE
  5
3AB
330
1F
100
AcDbEntity
  8
0
100
AcDbLine
 10
321.1063449137
 20
176.2520728906
 30
0.0
 11
327.1063458972
 21
176.2520728906
 31
0.0
  0
LINE
  5
3AC
330
1F
100
AcDbEntity
  8
0
100
AcDbLine
 10
327.1063458972
 20
176.0011811083
 30
0.0
 11
327.1063458972
 21
176.2520728906
 31
0.0
  0
LINE
  5
3AD
330
1F
100
AcDbEntity
  8
0
100
AcDbLine
 10
321.606345927
 20
177.219132175
 30
0.0
 11
321.606345927
 21
177.0504929398
 31
0.0
  0
LINE
  5
3AE
330
1F
100
AcDbEntity
  8
0
100
AcDbLine
 10
321.606345927
 20
177.219132175
 30
0.0
 11
326.6063448839
 21
177.219132175
 31
0.0
  0
LINE
  5
3AF
330
1F
100
AcDbEntity
  8
0
100
AcDbLine
 10
326.6063448839
 20
177.219132175
 30
0.0
 11
326.6063448839
 21
177.0504929398
 31
0.0
  0
LINE
  5
3B0
330
1F
100
AcDbEntity
  8
0
100
AcDbLine
 10
321.606345927
 20
177.0504929398
 30
0.0
 11
326.6063448839
 21
177.0504929398
 31
0.0
  0
LINE
  5
3B1
330
1F
100
AcDbEntity
  8
0
100
AcDbLine
 10
327.1063458972
 20
176.2520728906
 30
0.0
 11
327.1063458972
 21
176.5389649471
 31
0.0
  0
LINE
  5
3B2
330
1F
100
AcDbEntity
  8
0
100
AcDbLine
 10
321.1063449137
 20
176.5389649471
 30
0.0
 11
321.1063449137
 21
176.2520728906
 31
0.0
  0
LINE
  5
3B3
330
1F
100
AcDbEntity
  8
0
100
AcDbLine
 10
321.606345927
 20
177.0504929398
 30
0.0
 11
321.1063449137
 21
176.5389649471
 31
0.0
  0
LINE
  5
3B4
330
1F
100
AcDbEntity
  8
0
100
AcDbLine
 10
327.1063458972
 20
176.5389649471
 30
0.0
 11
326.6063448839
 21
177.0504929398
 31
0.0
  0
LINE
  5
3B5
330
1F
100
AcDbEntity
  8
0
100
AcDbLine
 10
321.1063449137
 20
177.5942996417
 30
0.0
 11
321.1063449137
 21
176.5389649471
 31
0.0
  0
LINE
  5
3B6
330
1F
100
AcDbEntity
  8
0
100
AcDbLine
 10
321.1063449137
 20
177.5942996417
 30
0.0
 11
321.606345927
 21
177.219132175
 31
0.0
  0
LINE
  5
3B7
330
1F
100
AcDbEntity
  8
0
100
AcDbLine
 10
326.6063448839
 20
177.219132175
 30
0.0
 11
327.1063458972
 21
177.5942996417
 31
0.0
  0
LINE
  5
3B8
330
1F
100
AcDbEntity
  8
0
100
AcDbLine
 10
327.1063458972
 20
177.5942996417
 30
0.0
 11
327.1063458972
 21
176.5389649471
 31
0.0
  0
LINE
  5
3B9
330
1F
100
AcDbEntity
  8
0
100
AcDbLine
 10
321.606345927
 20
173.8870350917
 30
0.0
 11
321.606345927
 21
173.7183958565
 31
0.0
  0
LINE
  5
3BA
330
1F
100
AcDbEntity
  8
0
100
AcDbLine
 10
321.606345927
 20
173.8870350917
 30
0.0
 11
326.6063448839
 21
173.8870350917
 31
0.0
  0
LINE
  5
3BB
330
1F
100
AcDbEntity
  8
0
100
AcDbLine
 10
326.6063448839
 20
173.8870350917
 30
0.0
 11
326.6063448839
 21
173.7183958565
 31
0.0
  0
LINE
  5
3BC
330
1F
100
AcDbEntity
  8
0
100
AcDbLine
 10
321.606345927
 20
173.7183958565
 30
0.0
 11
326.6063448839
 21
173.7183958565
 31
0.0
  0
LINE
  5
3BD
330
1F
100
AcDbEntity
  8
0
100
AcDbLine
 10
321.1063449137
 20
174.3985621532
 30
0.0
 11
321.606345927
 21
173.8870350917
 31
0.0
  0
LINE
  5
3BE
330
1F
100
AcDbEntity
  8
0
100
AcDbLine
 10
321.1063449137
 20
174.6854542096
 30
0.0
 11
321.1063449137
 21
174.3985621532
 31
0.0
  0
LINE
  5
3BF
330
1F
100
AcDbEntity
  8
0
100
AcDbLine
 10
327.1063458972
 20
174.3985621532
 30
0.0
 11
327.1063458972
 21
174.6854542096
 31
0.0
  0
LINE
  5
3C0
330
1F
100
AcDbEntity
  8
0
100
AcDbLine
 10
326.6063448839
 20
173.8870350917
 30
0.0
 11
327.1063458972
 21
174.3985621532
 31
0.0
  0
LINE
  5
3C1
330
1F
100
AcDbEntity
  8
0
100
AcDbLine
 10
321.1063449137
 20
174.3985621532
 30
0.0
 11
321.1063449137
 21
173.3432283898
 31
0.0
  0
LINE
  5
3C2
330
1F
100
AcDbEntity
  8
0
100
AcDbLine
 10
321.606345927
 20
173.7183958565
 30
0.0
 11
321.1063449137
 21
173.3432283898
 31
0.0
  0
LINE
  5
3C3
330
1F
100
AcDbEntity
  8
0
100
AcDbLine
 10
327.1063458972
 20
174.3985621532
 30
0.0
 11
327.1063458972
 21
173.3432283898
 31
0.0
  0
LINE
  5
3C4
330
1F
100
AcDbEntity
  8
0
100
AcDbLine
 10
327.1063458972
 20
173.3432283898
 30
0.0
 11
326.6063448839
 21
173.7183958565
 31
0.0
  0
LINE
  5
3C5
330
1F
100
AcDbEntity
  8
0
100
AcDbLine
 10
321.1063449137
 20
177.804713351
 30
0.0
 11
321.1063449137
 21
177.5942996417
 31
0.0
  0
LINE
  5
3C6
330
1F
100
AcDbEntity
  8
0
100
AcDbLine
 10
321.1063449137
 20
177.804713351
 30
0.0
 11
327.1063458972
 21
177.804713351
 31
0.0
  0
LINE
  5
3C7
330
1F
100
AcDbEntity
  8
0
100
AcDbLine
 10
327.1063458972
 20
177.5942996417
 30
0.0
 11
327.1063458972
 21
177.804713351
 31
0.0
  0
LINE
  5
3C8
330
1F
100
AcDbEntity
  8
0
100
AcDbLine
 10
327.1063458972
 20
173.1328146805
 30
0.0
 11
327.1063458972
 21
173.3432283898
 31
0.0
  0
LINE
  5
3C9
330
1F
100
AcDbEntity
  8
0
100
AcDbLine
 10
321.1063449137
 20
173.1328146805
 30
0.0
 11
327.1063458972
 21
173.1328146805
 31
0.0
  0
LINE
  5
3CA
330
1F
100
AcDbEntity
  8
0
100
AcDbLine
 10
321.1063449137
 20
173.3432283898
 30
0.0
 11
321.1063449137
 21
173.1328146805
 31
0.0
  0
LINE
  5
3CB
330
1F
100
AcDbEntity
  8
0
100
AcDbLine
 10
321.1063449137
 20
179.1494872694
 30
0.0
 11
321.1063449137
 21
178.1224862014
 31
0.0
  0
LINE
  5
3CC
330
1F
100
AcDbEntity
  8
0
100
AcDbLine
 10
321.1063449137
 20
179.1494872694
 30
0.0
 11
321.606345927
 21
178.853186061
 31
0.0
  0
LINE
  5
3CD
330
1F
100
AcDbEntity
  8
0
100
AcDbLine
 10
321.606345927
 20
178.853186061
 30
0.0
 11
321.606345927
 21
178.6890739848
 31
0.0
  0
LINE
  5
3CE
330
1F
100
AcDbEntity
  8
0
100
AcDbLine
 10
321.606345927
 20
178.6890739848
 30
0.0
 11
321.1063449137
 21
178.1224862014
 31
0.0
  0
LINE
  5
3CF
330
1F
100
AcDbEntity
  8
0
100
AcDbLine
 10
321.606345927
 20
178.853186061
 30
0.0
 11
326.6063448839
 21
178.853186061
 31
0.0
  0
LINE
  5
3D0
330
1F
100
AcDbEntity
  8
0
100
AcDbLine
 10
326.6063448839
 20
178.853186061
 30
0.0
 11
326.6063448839
 21
178.6890739848
 31
0.0
  0
LINE
  5
3D1
330
1F
100
AcDbEntity
  8
0
100
AcDbLine
 10
321.606345927
 20
178.6890739848
 30
0.0
 11
326.6063448839
 21
178.6890739848
 31
0.0
  0
LINE
  5
3D2
330
1F
100
AcDbEntity
  8
0
100
AcDbLine
 10
327.1063458972
 20
177.804713351
 30
0.0
 11
327.1063458972
 21
178.1224862014
 31
0.0
  0
LINE
  5
3D3
330
1F
100
AcDbEntity
  8
0
100
AcDbLine
 10
321.1063449137
 20
178.1224862014
 30
0.0
 11
321.1063449137
 21
177.804713351
 31
0.0
  0
LINE
  5
3D4
330
1F
100
AcDbEntity
  8
0
100
AcDbLine
 10
327.1063458972
 20
178.1224862014
 30
0.0
 11
326.6063448839
 21
178.6890739848
 31
0.0
  0
LINE
  5
3D5
330
1F
100
AcDbEntity
  8
0
100
AcDbLine
 10
326.6063448839
 20
178.853186061
 30
0.0
 11
327.1063458972
 21
179.1494872694
 31
0.0
  0
LINE
  5
3D6
330
1F
100
AcDbEntity
  8
0
100
AcDbLine
 10
327.1063458972
 20
179.1494872694
 30
0.0
 11
327.1063458972
 21
178.1224862014
 31
0.0
  0
LINE
  5
3D7
330
1F
100
AcDbEntity
  8
0
100
AcDbLine
 10
321.606345927
 20
172.2484535811
 30
0.0
 11
321.606345927
 21
172.0843424362
 31
0.0
  0
LINE
  5
3D8
330
1F
100
AcDbEntity
  8
0
100
AcDbLine
 10
321.606345927
 20
172.2484535811
 30
0.0
 11
326.6063448839
 21
172.2484535811
 31
0.0
  0
LINE
  5
3D9
330
1F
100
AcDbEntity
  8
0
100
AcDbLine
 10
326.6063448839
 20
172.2484535811
 30
0.0
 11
326.6063448839
 21
172.0843424362
 31
0.0
  0
LINE
  5
3DA
330
1F
100
AcDbEntity
  8
0
100
AcDbLine
 10
321.606345927
 20
172.0843424362
 30
0.0
 11
326.6063448839
 21
172.0843424362
 31
0.0
  0
LINE
  5
3DB
330
1F
100
AcDbEntity
  8
0
100
AcDbLine
 10
321.1063449137
 20
172.8150408988
 30
0.0
 11
321.1063449137
 21
171.7880407621
 31
0.0
  0
LINE
  5
3DC
330
1F
100
AcDbEntity
  8
0
100
AcDbLine
 10
321.1063449137
 20
172.8150408988
 30
0.0
 11
321.606345927
 21
172.2484535811
 31
0.0
  0
LINE
  5
3DD
330
1F
100
AcDbEntity
  8
0
100
AcDbLine
 10
321.606345927
 20
172.0843424362
 30
0.0
 11
321.1063449137
 21
171.7880407621
 31
0.0
  0
LINE
  5
3DE
330
1F
100
AcDbEntity
  8
0
100
AcDbLine
 10
321.1063449137
 20
173.1328146805
 30
0.0
 11
321.1063449137
 21
172.8150408988
 31
0.0
  0
LINE
  5
3DF
330
1F
100
AcDbEntity
  8
0
100
AcDbLine
 10
327.1063458972
 20
172.8150408988
 30
0.0
 11
327.1063458972
 21
173.1328146805
 31
0.0
  0
LINE
  5
3E0
330
1F
100
AcDbEntity
  8
0
100
AcDbLine
 10
326.6063448839
 20
172.2484535811
 30
0.0
 11
327.1063458972
 21
172.8150408988
 31
0.0
  0
LINE
  5
3E1
330
1F
100
AcDbEntity
  8
0
100
AcDbLine
 10
327.1063458972
 20
172.8150408988
 30
0.0
 11
327.1063458972
 21
171.7880407621
 31
0.0
  0
LINE
  5
3E2
330
1F
100
AcDbEntity
  8
0
100
AcDbLine
 10
327.1063458972
 20
171.7880407621
 30
0.0
 11
326.6063448839
 21
172.0843424362
 31
0.0
  0
LINE
  5
3E3
330
1F
100
AcDbEntity
  8
0
100
AcDbLine
 10
321.1063449137
 20
179.3156687443
 30
0.0
 11
321.1063449137
 21
179.1494872694
 31
0.0
  0
LINE
  5
3E4
330
1F
100
AcDbEntity
  8
0
100
AcDbLine
 10
321.1063449137
 20
179.3156687443
 30
0.0
 11
327.1063458972
 21
179.3156687443
 31
0.0
  0
LINE
  5
3E5
330
1F
100
AcDbEntity
  8
0
100
AcDbLine
 10
327.1063458972
 20
179.1494872694
 30
0.0
 11
327.1063458972
 21
179.3156687443
 31
0.0
  0
LINE
  5
3E6
330
1F
100
AcDbEntity
  8
0
100
AcDbLine
 10
327.1063458972
 20
171.6218588216
 30
0.0
 11
327.1063458972
 21
171.7880407621
 31
0.0
  0
LINE
  5
3E7
330
1F
100
AcDbEntity
  8
0
100
AcDbLine
 10
321.1063449137
 20
171.6218588216
 30
0.0
 11
327.1063458972
 21
171.6218588216
 31
0.0
  0
LINE
  5
3E8
330
1F
100
AcDbEntity
  8
0
100
AcDbLine
 10
321.1063449137
 20
171.7880407621
 30
0.0
 11
321.1063449137
 21
171.6218588216
 31
0.0
  0
LINE
  5
3E9
330
1F
100
AcDbEntity
  8
0
100
AcDbLine
 10
321.606345927
 20
180.426843678
 30
0.0
 11
321.606345927
 21
180.270189633
 31
0.0
  0
LINE
  5
3EA
330
1F
100
AcDbEntity
  8
0
100
AcDbLine
 10
321.606345927
 20
180.426843678
 30
0.0
 11
326.6063448839
 21
180.426843678
 31
0.0
  0
LINE
  5
3EB
330
1F
100
AcDbEntity
  8
0
100
AcDbLine
 10
326.6063448839
 20
180.426843678
 30
0.0
 11
326.6063448839
 21
180.270189633
 31
0.0
  0
LINE
  5
3EC
330
1F
100
AcDbEntity
  8
0
100
AcDbLine
 10
321.606345927
 20
180.270189633
 30
0.0
 11
326.6063448839
 21
180.270189633
 31
0.0
  0
LINE
  5
3ED
330
1F
100
AcDbEntity
  8
0
100
AcDbLine
 10
321.606345927
 20
180.270189633
 30
0.0
 11
321.1063449137
 21
179.6586515655
 31
0.0
  0
LINE
  5
3EE
330
1F
100
AcDbEntity
  8
0
100
AcDbLine
 10
327.1063458972
 20
179.6586515655
 30
0.0
 11
326.6063448839
 21
180.270189633
 31
0.0
  0
LINE
  5
3EF
330
1F
100
AcDbEntity
  8
0
100
AcDbLine
 10
321.1063449137
 20
179.6586515655
 30
0.0
 11
321.1063449137
 21
179.3156687443
 31
0.0
  0
LINE
  5
3F0
330
1F
100
AcDbEntity
  8
0
100
AcDbLine
 10
327.1063458972
 20
179.3156687443
 30
0.0
 11
327.1063458972
 21
179.6586515655
 31
0.0
  0
LINE
  5
3F1
330
1F
100
AcDbEntity
  8
0
100
AcDbLine
 10
321.1063449137
 20
180.6389915099
 30
0.0
 11
321.606345927
 21
180.426843678
 31
0.0
  0
LINE
  5
3F2
330
1F
100
AcDbEntity
  8
0
100
AcDbLine
 10
321.1063449137
 20
180.6389915099
 30
0.0
 11
321.1063449137
 21
179.6586515655
 31
0.0
  0
LINE
  5
3F3
330
1F
100
AcDbEntity
  8
0
100
AcDbLine
 10
326.6063448839
 20
180.426843678
 30
0.0
 11
327.1063458972
 21
180.6389915099
 31
0.0
  0
LINE
  5
3F4
330
1F
100
AcDbEntity
  8
0
100
AcDbLine
 10
327.1063458972
 20
180.6389915099
 30
0.0
 11
327.1063458972
 21
179.6586515655
 31
0.0
  0
LINE
  5
3F5
330
1F
100
AcDbEntity
  8
0
100
AcDbLine
 10
321.606345927
 20
170.6673383986
 30
0.0
 11
321.606345927
 21
170.5106834223
 31
0.0
  0
LINE
  5
3F6
330
1F
100
AcDbEntity
  8
0
100
AcDbLine
 10
321.606345927
 20
170.6673383986
 30
0.0
 11
326.6063448839
 21
170.6673383986
 31
0.0
  0
LINE
  5
3F7
330
1F
100
AcDbEntity
  8
0
100
AcDbLine
 10
326.6063448839
 20
170.6673383986
 30
0.0
 11
326.6063448839
 21
170.5106834223
 31
0.0
  0
LINE
  5
3F8
330
1F
100
AcDbEntity
  8
0
100
AcDbLine
 10
321.606345927
 20
170.5106834223
 30
0.0
 11
326.6063448839
 21
170.5106834223
 31
0.0
  0
LINE
  5
3F9
330
1F
100
AcDbEntity
  8
0
100
AcDbLine
 10
321.1063449137
 20
171.2788760004
 30
0.0
 11
321.606345927
 21
170.6673383986
 31
0.0
  0
LINE
  5
3FA
330
1F
100
AcDbEntity
  8
0
100
AcDbLine
 10
321.606345927
 20
170.5106834223
 30
0.0
 11
321.1063449137
 21
170.2985355904
 31
0.0
  0
LINE
  5
3FB
330
1F
100
AcDbEntity
  8
0
100
AcDbLine
 10
321.1063449137
 20
171.2788760004
 30
0.0
 11
321.1063449137
 21
170.2985355904
 31
0.0
  0
LINE
  5
3FC
330
1F
100
AcDbEntity
  8
0
100
AcDbLine
 10
326.6063448839
 20
170.6673383986
 30
0.0
 11
327.1063458972
 21
171.2788760004
 31
0.0
  0
LINE
  5
3FD
330
1F
100
AcDbEntity
  8
0
100
AcDbLine
 10
321.1063449137
 20
171.6218588216
 30
0.0
 11
321.1063449137
 21
171.2788760004
 31
0.0
  0
LINE
  5
3FE
330
1F
100
AcDbEntity
  8
0
100
AcDbLine
 10
327.1063458972
 20
171.2788760004
 30
0.0
 11
327.1063458972
 21
171.6218588216
 31
0.0
  0
LINE
  5
3FF
330
1F
100
AcDbEntity
  8
0
100
AcDbLine
 10
327.1063458972
 20
170.2985355904
 30
0.0
 11
326.6063448839
 21
170.5106834223
 31
0.0
  0
LINE
  5
400
330
1F
100
AcDbEntity
  8
0
100
AcDbLine
 10
327.1063458972
 20
171.2788760004
 30
0.0
 11
327.1063458972
 21
170.2985355904
 31
0.0
  0
LINE
  5
401
330
1F
100
AcDbEntity
  8
0
100
AcDbLine
 10
321.1063449137
 20
180.7579754194
 30
0.0
 11
327.1063458972
 21
180.7579754194
 31
0.0
  0
LINE
  5
402
330
1F
100
AcDbEntity
  8
0
100
AcDbLine
 10
321.1063449137
 20
180.7579754194
 30
0.0
 11
321.1063449137
 21
180.6389915099
 31
0.0
  0
LINE
  5
403
330
1F
100
AcDbEntity
  8
0
100
AcDbLine
 10
327.1063458972
 20
180.6389915099
 30
0.0
 11
327.1063458972
 21
180.7579754194
 31
0.0
  0
LINE
  5
404
330
1F
100
AcDbEntity
  8
0
100
AcDbLine
 10
321.1063449137
 20
170.1795516809
 30
0.0
 11
327.1063458972
 21
170.1795516809
 31
0.0
  0
LINE
  5
405
330
1F
100
AcDbEntity
  8
0
100
AcDbLine
 10
321.1063449137
 20
170.2985355904
 30
0.0
 11
321.1063449137
 21
170.1795516809
 31
0.0
  0
LINE
  5
406
330
1F
100
AcDbEntity
  8
0
100
AcDbLine
 10
327.1063458972
 20
170.1795516809
 30
0.0
 11
327.1063458972
 21
170.2985355904
 31
0.0
  0
LINE
  5
407
330
1F
100
AcDbEntity
  8
0
100
AcDbLine
 10
321.1063449137
 20
182.0362342795
 30
0.0
 11
321.606345927
 21
181.9120256503
 31
0.0
  0
LINE
  5
408
330
1F
100
AcDbEntity
  8
0
100
AcDbLine
 10
321.606345927
 20
181.9120256503
 30
0.0
 11
321.606345927
 21
181.7656217416
 31
0.0
  0
LINE
  5
409
330
1F
100
AcDbEntity
  8
0
100
AcDbLine
 10
321.606345927
 20
181.7656217416
 30
0.0
 11
321.1063449137
 21
181.120049422
 31
0.0
  0
LINE
  5
40A
330
1F
100
AcDbEntity
  8
0
100
AcDbLine
 10
321.1063449137
 20
182.0362342795
 30
0.0
 11
321.1063449137
 21
181.120049422
 31
0.0
  0
LINE
  5
40B
330
1F
100
AcDbEntity
  8
0
100
AcDbLine
 10
321.606345927
 20
181.9120256503
 30
0.0
 11
326.6063448839
 21
181.9120256503
 31
0.0
  0
LINE
  5
40C
330
1F
100
AcDbEntity
  8
0
100
AcDbLine
 10
326.6063448839
 20
181.9120256503
 30
0.0
 11
326.6063448839
 21
181.7656217416
 31
0.0
  0
LINE
  5
40D
330
1F
100
AcDbEntity
  8
0
100
AcDbLine
 10
321.606345927
 20
181.7656217416
 30
0.0
 11
326.6063448839
 21
181.7656217416
 31
0.0
  0
LINE
  5
40E
330
1F
100
AcDbEntity
  8
0
100
AcDbLine
 10
327.1063458972
 20
181.120049422
 30
0.0
 11
326.6063448839
 21
181.7656217416
 31
0.0
  0
LINE
  5
40F
330
1F
100
AcDbEntity
  8
0
100
AcDbLine
 10
321.1063449137
 20
181.120049422
 30
0.0
 11
321.1063449137
 21
180.7579754194
 31
0.0
  0
LINE
  5
410
330
1F
100
AcDbEntity
  8
0
100
AcDbLine
 10
327.1063458972
 20
180.7579754194
 30
0.0
 11
327.1063458972
 21
181.120049422
 31
0.0
  0
LINE
  5
411
330
1F
100
AcDbEntity
  8
0
100
AcDbLine
 10
326.6063448839
 20
181.9120256503
 30
0.0
 11
327.1063458972
 21
182.0362342795
 31
0.0
  0
LINE
  5
412
330
1F
100
AcDbEntity
  8
0
100
AcDbLine
 10
327.1063458972
 20
182.0362342795
 30
0.0
 11
327.1063458972
 21
181.120049422
 31
0.0
  0
LINE
  5
413
330
1F
100
AcDbEntity
  8
0
100
AcDbLine
 10
321.1063449137
 20
169.8174790752
 30
0.0
 11
321.606345927
 21
169.1719053586
 31
0.0
  0
LINE
  5
414
330
1F
100
AcDbEntity
  8
0
100
AcDbLine
 10
321.606345927
 20
169.1719053586
 30
0.0
 11
321.606345927
 21
169.0255019156
 31
0.0
  0
LINE
  5
415
330
1F
100
AcDbEntity
  8
0
100
AcDbLine
 10
321.606345927
 20
169.0255019156
 30
0.0
 11
321.1063449137
 21
168.9012932864
 31
0.0
  0
LINE
  5
416
330
1F
100
AcDbEntity
  8
0
100
AcDbLine
 10
321.1063449137
 20
169.8174790752
 30
0.0
 11
321.1063449137
 21
168.9012932864
 31
0.0
  0
LINE
  5
417
330
1F
100
AcDbEntity
  8
0
100
AcDbLine
 10
321.606345927
 20
169.1719053586
 30
0.0
 11
326.6063448839
 21
169.1719053586
 31
0.0
  0
LINE
  5
418
330
1F
100
AcDbEntity
  8
0
100
AcDbLine
 10
326.6063448839
 20
169.1719053586
 30
0.0
 11
326.6063448839
 21
169.0255019156
 31
0.0
  0
LINE
  5
419
330
1F
100
AcDbEntity
  8
0
100
AcDbLine
 10
321.606345927
 20
169.0255019156
 30
0.0
 11
326.6063448839
 21
169.0255019156
 31
0.0
  0
LINE
  5
41A
330
1F
100
AcDbEntity
  8
0
100
AcDbLine
 10
326.6063448839
 20
169.1719053586
 30
0.0
 11
327.1063458972
 21
169.8174790752
 31
0.0
  0
LINE
  5
41B
330
1F
100
AcDbEntity
  8
0
100
AcDbLine
 10
321.1063449137
 20
170.1795516809
 30
0.0
 11
321.1063449137
 21
169.8174790752
 31
0.0
  0
LINE
  5
41C
330
1F
100
AcDbEntity
  8
0
100
AcDbLine
 10
327.1063458972
 20
169.8174790752
 30
0.0
 11
327.1063458972
 21
170.1795516809
 31
0.0
  0
LINE
  5
41D
330
1F
100
AcDbEntity
  8
0
100
AcDbLine
 10
327.1063458972
 20
168.9012932864
 30
0.0
 11
326.6063448839
 21
169.0255019156
 31
0.0
  0
LINE
  5
41E
330
1F
100
AcDbEntity
  8
0
100
AcDbLine
 10
327.1063458972
 20
169.8174790752
 30
0.0
 11
327.1063458972
 21
168.9012932864
 31
0.0
  0
LINE
  5
41F
330
1F
100
AcDbEntity
  8
0
100
AcDbLine
 10
321.1063449137
 20
182.1058972081
 30
0.0
 11
327.1063458972
 21
182.1058972081
 31
0.0
  0
LINE
  5
420
330
1F
100
AcDbEntity
  8
0
100
AcDbLine
 10
321.1063449137
 20
182.1058972081
 30
0.0
 11
321.1063449137
 21
182.0362342795
 31
0.0
  0
LINE
  5
421
330
1F
100
AcDbEntity
  8
0
100
AcDbLine
 10
327.1063458972
 20
182.0362342795
 30
0.0
 11
327.1063458972
 21
182.1058972081
 31
0.0
  0
LINE
  5
422
330
1F
100
AcDbEntity
  8
0
100
AcDbLine
 10
321.1063449137
 20
168.8316308235
 30
0.0
 11
327.1063458972
 21
168.8316308235
 31
0.0
  0
LINE
  5
423
330
1F
100
AcDbEntity
  8
0
100
AcDbLine
 10
321.1063449137
 20
168.9012932864
 30
0.0
 11
321.1063449137
 21
168.8316308235
 31
0.0
  0
LINE
  5
424
330
1F
100
AcDbEntity
  8
0
100
AcDbLine
 10
327.1063458972
 20
168.8316308235
 30
0.0
 11
327.1063458972
 21
168.9012932864
 31
0.0
  0
LINE
  5
425
330
1F
100
AcDbEntity
  8
0
100
AcDbLine
 10
321.606345927
 20
183.148687919
 30
0.0
 11
321.1063449137
 21
182.4805980821
 31
0.0
  0
LINE
  5
426
330
1F
100
AcDbEntity
  8
0
100
AcDbLine
 10
321.606345927
 20
183.148687919
 30
0.0
 11
326.6063448839
 21
183.148687919
 31
0.0
  0
LINE
  5
427
330
1F
100
AcDbEntity
  8
0
100
AcDbLine
 10
327.1063458972
 20
182.4805980821
 30
0.0
 11
326.6063448839
 21
183.148687919
 31
0.0
  0
LINE
  5
428
330
1F
100
AcDbEntity
  8
0
100
AcDbLine
 10
321.1063449137
 20
182.4805980821
 30
0.0
 11
321.1063449137
 21
182.1058972081
 31
0.0
  0
LINE
  5
429
330
1F
100
AcDbEntity
  8
0
100
AcDbLine
 10
327.1063458972
 20
182.1058972081
 30
0.0
 11
327.1063458972
 21
182.4805980821
 31
0.0
  0
LINE
  5
42A
330
1F
100
AcDbEntity
  8
0
100
AcDbLine
 10
321.606345927
 20
183.2822284003
 30
0.0
 11
321.606345927
 21
183.148687919
 31
0.0
  0
LINE
  5
42B
330
1F
100
AcDbEntity
  8
0
100
AcDbLine
 10
321.606345927
 20
183.2822284003
 30
0.0
 11
326.6063448839
 21
183.2822284003
 31
0.0
  0
LINE
  5
42C
330
1F
100
AcDbEntity
  8
0
100
AcDbLine
 10
326.6063448839
 20
183.2822284003
 30
0.0
 11
326.6063448839
 21
183.148687919
 31
0.0
  0
LINE
  5
42D
330
1F
100
AcDbEntity
  8
0
100
AcDbLine
 10
321.1063449137
 20
183.3162794163
 30
0.0
 11
321.606345927
 21
183.2822284003
 31
0.0
  0
LINE
  5
42E
330
1F
100
AcDbEntity
  8
0
100
AcDbLine
 10
321.1063449137
 20
183.3162794163
 30
0.0
 11
321.1063449137
 21
182.4805980821
 31
0.0
  0
LINE
  5
42F
330
1F
100
AcDbEntity
  8
0
100
AcDbLine
 10
326.6063448839
 20
183.2822284003
 30
0.0
 11
327.1063458972
 21
183.3162794163
 31
0.0
  0
LINE
  5
430
330
1F
100
AcDbEntity
  8
0
100
AcDbLine
 10
327.1063458972
 20
183.3162794163
 30
0.0
 11
327.1063458972
 21
182.4805980821
 31
0.0
  0
LINE
  5
431
330
1F
100
AcDbEntity
  8
0
100
AcDbLine
 10
321.606345927
 20
167.7888394141
 30
0.0
 11
326.6063448839
 21
167.7888394141
 31
0.0
  0
LINE
  5
432
330
1F
100
AcDbEntity
  8
0
100
AcDbLine
 10
321.1063449137
 20
168.4569299494
 30
0.0
 11
321.606345927
 21
167.7888394141
 31
0.0
  0
LINE
  5
433
330
1F
100
AcDbEntity
  8
0
100
AcDbLine
 10
326.6063448839
 20
167.7888394141
 30
0.0
 11
327.1063458972
 21
168.4569299494
 31
0.0
  0
LINE
  5
434
330
1F
100
AcDbEntity
  8
0
100
AcDbLine
 10
321.1063449137
 20
168.8316308235
 30
0.0
 11
321.1063449137
 21
168.4569299494
 31
0.0
  0
LINE
  5
435
330
1F
100
AcDbEntity
  8
0
100
AcDbLine
 10
327.1063458972
 20
168.4569299494
 30
0.0
 11
327.1063458972
 21
168.8316308235
 31
0.0
  0
LINE
  5
436
330
1F
100
AcDbEntity
  8
0
100
AcDbLine
 10
321.606345927
 20
167.7888394141
 30
0.0
 11
321.606345927
 21
167.6553000969
 31
0.0
  0
LINE
  5
437
330
1F
100
AcDbEntity
  8
0
100
AcDbLine
 10
321.606345927
 20
167.6553000969
 30
0.0
 11
321.1063449137
 21
167.6212479168
 31
0.0
  0
LINE
  5
438
330
1F
100
AcDbEntity
  8
0
100
AcDbLine
 10
321.1063449137
 20
168.4569299494
 30
0.0
 11
321.1063449137
 21
167.6212479168
 31
0.0
  0
LINE
  5
439
330
1F
100
AcDbEntity
  8
0
100
AcDbLine
 10
326.6063448839
 20
167.7888394141
 30
0.0
 11
326.6063448839
 21
167.6553000969
 31
0.0
  0
LINE
  5
43A
330
1F
100
AcDbEntity
  8
0
100
AcDbLine
 10
321.606345927
 20
167.6553000969
 30
0.0
 11
326.6063448839
 21
167.6553000969
 31
0.0
  0
LINE
  5
43B
330
1F
100
AcDbEntity
  8
0
100
AcDbLine
 10
327.1063458972
 20
167.6212479168
 30
0.0
 11
326.6063448839
 21
167.6553000969
 31
0.0
  0
LINE
  5
43C
330
1F
100
AcDbEntity
  8
0
100
AcDbLine
 10
327.1063458972
 20
168.4569299494
 30
0.0
 11
327.1063458972
 21
167.6212479168
 31
0.0
  0
LINE
  5
43D
330
1F
100
AcDbEntity
  8
0
100
AcDbLine
 10
321.1063449137
 20
183.3353789796
 30
0.0
 11
327.1063458972
 21
183.3353789796
 31
0.0
  0
LINE
  5
43E
330
1F
100
AcDbEntity
  8
0
100
AcDbLine
 10
321.1063449137
 20
183.3353789796
 30
0.0
 11
321.1063449137
 21
183.3162794163
 31
0.0
  0
LINE
  5
43F
330
1F
100
AcDbEntity
  8
0
100
AcDbLine
 10
327.1063458972
 20
183.3162794163
 30
0.0
 11
327.1063458972
 21
183.3353789796
 31
0.0
  0
LINE
  5
440
330
1F
100
AcDbEntity
  8
0
100
AcDbLine
 10
321.1063449137
 20
167.6021495176
 30
0.0
 11
327.1063458972
 21
167.6021495176
 31
0.0
  0
LINE
  5
441
330
1F
100
AcDbEntity
  8
0
100
AcDbLine
 10
321.1063449137
 20
167.6212479168
 30
0.0
 11
321.1063449137
 21
167.6021495176
 31
0.0
  0
LINE
  5
442
330
1F
100
AcDbEntity
  8
0
100
AcDbLine
 10
327.1063458972
 20
167.6021495176
 30
0.0
 11
327.1063458972
 21
167.6212479168
 31
0.0
  0
LINE
  5
443
330
1F
100
AcDbEntity
  8
0
100
AcDbLine
 10
313.606348341
 20
184.4687631627
 30
0.0
 11
313.606348341
 21
166.4687639376
 31
0.0
  0
LINE
  5
444
330
1F
100
AcDbEntity
  8
0
100
AcDbLine
 10
313.1063473277
 20
183.9687640121
 30
0.0
 11
313.1063473277
 21
166.9687640195
 31
0.0
  0
SPLINE
  5
445
330
1F
100
AcDbEntity
  8
0
100
AcDbSpline
210
0.0
220
0.0
230
1.0
 70
    11
 71
     3
 72
    26
 73
    22
 74
     0
 42
0.000000001
 43
0.00000001
 40
0.0
 40
0.0
 40
0.0
 40
0.0
 40
0.0525377630716627
 40
0.1050349121698839
 40
0.158575002024464
 40
0.2128466458157707
 40
0.2660105182712798
 40
0.3180044703888818
 40
0.3704806919315222
 40
0.4243746103476984
 40
0.4785122906448119
 40
0.5312166576557168
 40
0.583072862205464
 40
0.6359557818013634
 40
0.6901521437674962
 40
0.7439358557509135
 40
0.7962684910796625
 40
0.848332864781081
 40
0.9016525671011638
 40
0.9559399287880626
 40
1.0
 40
1.0
 40
1.0
 40
1.0
 10
318.1063462846197
 20
173.2187636469801
 30
0.0
 10
318.354910811793
 20
173.2428411201208
 30
0.0
 10
318.8518477149609
 20
173.2909774534694
 30
0.0
 10
319.5162064648277
 20
173.6652629682106
 30
0.0
 10
320.0319368850131
 20
174.22267204541
 30
0.0
 10
320.3358169572848
 20
174.9310645984651
 30
0.0
 10
320.3868599932094
 20
175.6949820149732
 30
0.0
 10
320.1887097150972
 20
176.423246321463
 30
0.0
 10
319.7672458688324
 20
177.0479437451502
 30
0.0
 10
319.1570085824014
 20
177.5074269358912
 30
0.0
 10
318.4228377166503
 20
177.7398961657812
 30
0.0
 10
317.6609242878394
 20
177.7161792050361
 30
0.0
 10
316.957340800012
 20
177.4504702936107
 30
0.0
 10
316.3740709233787
 20
176.9702102344599
 30
0.0
 10
315.9746592317601
 20
176.3153777372855
 30
0.0
 10
315.8157338757041
 20
175.5625535304643
 30
0.0
 10
315.9123102395724
 20
174.8099512291047
 30
0.0
 10
316.2438138802118
 20
174.1338280753889
 30
0.0
 10
316.7805212910064
 20
173.6007628724962
 30
0.0
 10
317.4337030855368
 20
173.2737829769398
 30
0.0
 10
317.8982343073972
 20
173.2357863145087
 30
0.0
 10
318.1063462846197
 20
173.2187636469801
 30
0.0
  0
LINE
  5
446
330
1F
100
AcDbEntity
  8
0
100
AcDbLine
 10
321.606345927
 20
184.5129972597
 30
0.0
 11
321.606345927
 21
184.3947062542
 31
0.0
  0
LINE
  5
447
330
1F
100
AcDbEntity
  8
0
100
AcDbLine
 10
321.606345927
 20
184.5129972597
 30
0.0
 11
326.6063448839
 21
184.5129972597
 31
0.0
  0
LINE
  5
448
330
1F
100
AcDbEntity
  8
0
100
AcDbLine
 10
326.6063448839
 20
184.5129972597
 30
0.0
 11
326.6063448839
 21
184.3947062542
 31
0.0
  0
LINE
  5
449
330
1F
100
AcDbEntity
  8
0
100
AcDbLine
 10
321.606345927
 20
184.3947062542
 30
0.0
 11
326.6063448839
 21
184.3947062542
 31
0.0
  0
LINE
  5
44A
330
1F
100
AcDbEntity
  8
0
100
AcDbLine
 10
321.606345927
 20
184.3947062542
 30
0.0
 11
321.1063449137
 21
183.7160216918
 31
0.0
  0
LINE
  5
44B
330
1F
100
AcDbEntity
  8
0
100
AcDbLine
 10
327.1063458972
 20
183.7160216918
 30
0.0
 11
326.6063448839
 21
184.3947062542
 31
0.0
  0
LINE
  5
44C
330
1F
100
AcDbEntity
  8
0
100
AcDbLine
 10
321.1063449137
 20
183.7160216918
 30
0.0
 11
321.1063449137
 21
183.3353789796
 31
0.0
  0
LINE
  5
44D
330
1F
100
AcDbEntity
  8
0
100
AcDbLine
 10
327.1063458972
 20
183.3353789796
 30
0.0
 11
327.1063458972
 21
183.7160216918
 31
0.0
  0
LINE
  5
44E
330
1F
100
AcDbEntity
  8
0
100
AcDbLine
 10
321.1063449137
 20
184.4562871655
 30
0.0
 11
321.606345927
 21
184.5129972597
 31
0.0
  0
LINE
  5
44F
330
1F
100
AcDbEntity
  8
0
100
AcDbLine
 10
321.1063449137
 20
184.4562871655
 30
0.0
 11
321.1063449137
 21
183.7160216918
 31
0.0
  0
LINE
  5
450
330
1F
100
AcDbEntity
  8
0
100
AcDbLine
 10
326.6063448839
 20
184.5129972597
 30
0.0
 11
327.1063458972
 21
184.4562871655
 31
0.0
  0
LINE
  5
451
330
1F
100
AcDbEntity
  8
0
100
AcDbLine
 10
327.1063458972
 20
184.4562871655
 30
0.0
 11
327.1063458972
 21
183.7160216918
 31
0.0
  0
LINE
  5
452
330
1F
100
AcDbEntity
  8
0
100
AcDbLine
 10
321.606345927
 20
166.5428220102
 30
0.0
 11
326.6063448839
 21
166.5428220102
 31
0.0
  0
LINE
  5
453
330
1F
100
AcDbEntity
  8
0
100
AcDbLine
 10
321.1063449137
 20
167.2215065726
 30
0.0
 11
321.606345927
 21
166.5428220102
 31
0.0
  0
LINE
  5
454
330
1F
100
AcDbEntity
  8
0
100
AcDbLine
 10
326.6063448839
 20
166.5428220102
 30
0.0
 11
327.1063458972
 21
167.2215065726
 31
0.0
  0
LINE
  5
455
330
1F
100
AcDbEntity
  8
0
100
AcDbLine
 10
321.1063449137
 20
167.6021495176
 30
0.0
 11
321.1063449137
 21
167.2215065726
 31
0.0
  0
LINE
  5
456
330
1F
100
AcDbEntity
  8
0
100
AcDbLine
 10
327.1063458972
 20
167.2215065726
 30
0.0
 11
327.1063458972
 21
167.6021495176
 31
0.0
  0
LINE
  5
457
330
1F
100
AcDbEntity
  8
0
100
AcDbLine
 10
321.606345927
 20
166.5428220102
 30
0.0
 11
321.606345927
 21
166.4245300734
 31
0.0
  0
LINE
  5
458
330
1F
100
AcDbEntity
  8
0
100
AcDbLine
 10
326.6063448839
 20
166.5428220102
 30
0.0
 11
326.6063448839
 21
166.4245300734
 31
0.0
  0
LINE
  5
459
330
1F
100
AcDbEntity
  8
0
100
AcDbLine
 10
321.606345927
 20
166.4245300734
 30
0.0
 11
326.6063448839
 21
166.4245300734
 31
0.0
  0
LINE
  5
45A
330
1F
100
AcDbEntity
  8
0
100
AcDbLine
 10
321.606345927
 20
166.4245300734
 30
0.0
 11
321.1063449137
 21
166.4812413317
 31
0.0
  0
LINE
  5
45B
330
1F
100
AcDbEntity
  8
0
100
AcDbLine
 10
321.1063449137
 20
167.2215065726
 30
0.0
 11
321.1063449137
 21
166.4812413317
 31
0.0
  0
LINE
  5
45C
330
1F
100
AcDbEntity
  8
0
100
AcDbLine
 10
327.1063458972
 20
166.4812413317
 30
0.0
 11
326.6063448839
 21
166.4245300734
 31
0.0
  0
LINE
  5
45D
330
1F
100
AcDbEntity
  8
0
100
AcDbLine
 10
327.1063458972
 20
167.2215065726
 30
0.0
 11
327.1063458972
 21
166.4812413317
 31
0.0
  0
LINE
  5
45E
330
1F
100
AcDbEntity
  8
0
100
AcDbLine
 10
321.606345927
 20
185.4814404895
 30
0.0
 11
321.1063449137
 21
184.8042721202
 31
0.0
  0
LINE
  5
45F
330
1F
100
AcDbEntity
  8
0
100
AcDbLine
 10
321.606345927
 20
185.4814404895
 30
0.0
 11
326.6063448839
 21
185.4814404895
 31
0.0
  0
LINE
  5
460
330
1F
100
AcDbEntity
  8
0
100
AcDbLine
 10
327.1063458972
 20
184.8042721202
 30
0.0
 11
326.6063448839
 21
185.4814404895
 31
0.0
  0
LINE
  5
461
330
1F
100
AcDbEntity
  8
0
100
AcDbLine
 10
321.1063449137
 20
184.8042721202
 30
0.0
 11
321.1063449137
 21
184.4562871655
 31
0.0
  0
LINE
  5
462
330
1F
100
AcDbEntity
  8
0
100
AcDbLine
 10
327.1063458972
 20
184.4562871655
 30
0.0
 11
327.1063458972
 21
184.8042721202
 31
0.0
  0
LINE
  5
463
330
1F
100
AcDbEntity
  8
0
100
AcDbLine
 10
321.606345927
 20
165.4560882406
 30
0.0
 11
326.6063448839
 21
165.4560882406
 31
0.0
  0
LINE
  5
464
330
1F
100
AcDbEntity
  8
0
100
AcDbLine
 10
321.1063449137
 20
166.1332560278
 30
0.0
 11
321.606345927
 21
165.4560882406
 31
0.0
  0
LINE
  5
465
330
1F
100
AcDbEntity
  8
0
100
AcDbLine
 10
326.6063448839
 20
165.4560882406
 30
0.0
 11
327.1063458972
 21
166.1332560278
 31
0.0
  0
LINE
  5
466
330
1F
100
AcDbEntity
  8
0
100
AcDbLine
 10
321.1063449137
 20
166.4812413317
 30
0.0
 11
321.1063449137
 21
166.1332560278
 31
0.0
  0
LINE
  5
467
330
1F
100
AcDbEntity
  8
0
100
AcDbLine
 10
327.1063458972
 20
166.1332560278
 30
0.0
 11
327.1063458972
 21
166.4812413317
 31
0.0
  0
LINE
  5
468
330
1F
100
AcDbEntity
  8
0
100
AcDbLine
 10
321.1063449137
 20
185.4359099915
 30
0.0
 11
321.606345927
 21
185.5823735048
 31
0.0
  0
LINE
  5
469
330
1F
100
AcDbEntity
  8
0
100
AcDbLine
 10
321.606345927
 20
185.5823735048
 30
0.0
 11
321.606345927
 21
185.4814404895
 31
0.0
  0
LINE
  5
46A
330
1F
100
AcDbEntity
  8
0
100
AcDbLine
 10
321.1063449137
 20
185.4359099915
 30
0.0
 11
321.1063449137
 21
184.8042721202
 31
0.0
  0
LINE
  5
46B
330
1F
100
AcDbEntity
  8
0
100
AcDbLine
 10
326.6063448839
 20
185.5823735048
 30
0.0
 11
326.6063448839
 21
185.4814404895
 31
0.0
  0
LINE
  5
46C
330
1F
100
AcDbEntity
  8
0
100
AcDbLine
 10
326.6063448839
 20
185.5823735048
 30
0.0
 11
327.1063458972
 21
185.4359099915
 31
0.0
  0
LINE
  5
46D
330
1F
100
AcDbEntity
  8
0
100
AcDbLine
 10
327.1063458972
 20
185.4359099915
 30
0.0
 11
327.1063458972
 21
184.8042721202
 31
0.0
  0
LINE
  5
46E
330
1F
100
AcDbEntity
  8
0
100
AcDbLine
 10
321.606345927
 20
165.4560882406
 30
0.0
 11
321.606345927
 21
165.3551544685
 31
0.0
  0
LINE
  5
46F
330
1F
100
AcDbEntity
  8
0
100
AcDbLine
 10
321.606345927
 20
165.3551544685
 30
0.0
 11
321.1063449137
 21
165.501617458
 31
0.0
  0
LINE
  5
470
330
1F
100
AcDbEntity
  8
0
100
AcDbLine
 10
321.1063449137
 20
166.1332560278
 30
0.0
 11
321.1063449137
 21
165.501617458
 31
0.0
  0
LINE
  5
471
330
1F
100
AcDbEntity
  8
0
100
AcDbLine
 10
326.6063448839
 20
165.4560882406
 30
0.0
 11
326.6063448839
 21
165.3551544685
 31
0.0
  0
LINE
  5
472
330
1F
100
AcDbEntity
  8
0
100
AcDbLine
 10
327.1063458972
 20
165.501617458
 30
0.0
 11
326.6063448839
 21
165.3551544685
 31
0.0
  0
LINE
  5
473
330
1F
100
AcDbEntity
  8
0
100
AcDbLine
 10
327.1063458972
 20
166.1332560278
 30
0.0
 11
327.1063458972
 21
165.501617458
 31
0.0
  0
LINE
  5
474
330
1F
100
AcDbEntity
  8
0
100
AcDbLine
 10
321.606345927
 20
185.5823735048
 30
0.0
 11
326.6063448839
 21
185.5823735048
 31
0.0
  0
LINE
  5
475
330
1F
100
AcDbEntity
  8
0
100
AcDbLine
 10
321.606345927
 20
165.3551544685
 30
0.0
 11
326.6063448839
 21
165.3551544685
 31
0.0
  0
LINE
  5
476
330
1F
100
AcDbEntity
  8
0
100
AcDbLine
 10
321.606345927
 20
186.3894967635
 30
0.0
 11
321.1063449137
 21
185.7259294291
 31
0.0
  0
LINE
  5
477
330
1F
100
AcDbEntity
  8
0
100
AcDbLine
 10
321.606345927
 20
186.3894967635
 30
0.0
 11
326.6063448839
 21
186.3894967635
 31
0.0
  0
LINE
  5
478
330
1F
100
AcDbEntity
  8
0
100
AcDbLine
 10
327.1063458972
 20
185.7259294291
 30
0.0
 11
326.6063448839
 21
186.3894967635
 31
0.0
  0
LINE
  5
479
330
1F
100
AcDbEntity
  8
0
100
AcDbLine
 10
321.1063449137
 20
185.7259294291
 30
0.0
 11
321.1063449137
 21
185.4359099915
 31
0.0
  0
LINE
  5
47A
330
1F
100
AcDbEntity
  8
0
100
AcDbLine
 10
327.1063458972
 20
185.4359099915
 30
0.0
 11
327.1063458972
 21
185.7259294291
 31
0.0
  0
LINE
  5
47B
330
1F
100
AcDbEntity
  8
0
100
AcDbLine
 10
321.606345927
 20
164.5480309261
 30
0.0
 11
326.6063448839
 21
164.5480309261
 31
0.0
  0
LINE
  5
47C
330
1F
100
AcDbEntity
  8
0
100
AcDbLine
 10
321.1063449137
 20
165.2115977875
 30
0.0
 11
321.606345927
 21
164.5480309261
 31
0.0
  0
LINE
  5
47D
330
1F
100
AcDbEntity
  8
0
100
AcDbLine
 10
326.6063448839
 20
164.5480309261
 30
0.0
 11
327.1063458972
 21
165.2115977875
 31
0.0
  0
LINE
  5
47E
330
1F
100
AcDbEntity
  8
0
100
AcDbLine
 10
321.1063449137
 20
165.501617458
 30
0.0
 11
321.1063449137
 21
165.2115977875
 31
0.0
  0
LINE
  5
47F
330
1F
100
AcDbEntity
  8
0
100
AcDbLine
 10
327.1063458972
 20
165.2115977875
 30
0.0
 11
327.1063458972
 21
165.501617458
 31
0.0
  0
LINE
  5
480
330
1F
100
AcDbEntity
  8
0
100
AcDbLine
 10
321.1063449137
 20
186.2376706948
 30
0.0
 11
321.606345927
 21
186.4712706109
 31
0.0
  0
LINE
  5
481
330
1F
100
AcDbEntity
  8
0
100
AcDbLine
 10
321.606345927
 20
186.4712706109
 30
0.0
 11
321.606345927
 21
186.3894967635
 31
0.0
  0
LINE
  5
482
330
1F
100
AcDbEntity
  8
0
100
AcDbLine
 10
321.1063449137
 20
186.2376706948
 30
0.0
 11
321.1063449137
 21
185.7259294291
 31
0.0
  0
LINE
  5
483
330
1F
100
AcDbEntity
  8
0
100
AcDbLine
 10
326.6063448839
 20
186.4712706109
 30
0.0
 11
326.6063448839
 21
186.3894967635
 31
0.0
  0
LINE
  5
484
330
1F
100
AcDbEntity
  8
0
100
AcDbLine
 10
326.6063448839
 20
186.4712706109
 30
0.0
 11
327.1063458972
 21
186.2376706948
 31
0.0
  0
LINE
  5
485
330
1F
100
AcDbEntity
  8
0
100
AcDbLine
 10
327.1063458972
 20
186.2376706948
 30
0.0
 11
327.1063458972
 21
185.7259294291
 31
0.0
  0
LINE
  5
486
330
1F
100
AcDbEntity
  8
0
100
AcDbLine
 10
321.606345927
 20
164.5480309261
 30
0.0
 11
321.606345927
 21
164.4662565035
 31
0.0
  0
LINE
  5
487
330
1F
100
AcDbEntity
  8
0
100
AcDbLine
 10
321.606345927
 20
164.4662565035
 30
0.0
 11
321.1063449137
 21
164.6998575551
 31
0.0
  0
LINE
  5
488
330
1F
100
AcDbEntity
  8
0
100
AcDbLine
 10
321.1063449137
 20
165.2115977875
 30
0.0
 11
321.1063449137
 21
164.6998575551
 31
0.0
  0
LINE
  5
489
330
1F
100
AcDbEntity
  8
0
100
AcDbLine
 10
326.6063448839
 20
164.5480309261
 30
0.0
 11
326.6063448839
 21
164.4662565035
 31
0.0
  0
LINE
  5
48A
330
1F
100
AcDbEntity
  8
0
100
AcDbLine
 10
327.1063458972
 20
164.6998575551
 30
0.0
 11
326.6063448839
 21
164.4662565035
 31
0.0
  0
LINE
  5
48B
330
1F
100
AcDbEntity
  8
0
100
AcDbLine
 10
327.1063458972
 20
165.2115977875
 30
0.0
 11
327.1063458972
 21
164.6998575551
 31
0.0
  0
LINE
  5
48C
330
1F
100
AcDbEntity
  8
0
100
AcDbLine
 10
321.606345927
 20
186.4712706109
 30
0.0
 11
326.6063448839
 21
186.4712706109
 31
0.0
  0
LINE
  5
48D
330
1F
100
AcDbEntity
  8
0
100
AcDbLine
 10
321.606345927
 20
164.4662565035
 30
0.0
 11
326.6063448839
 21
164.4662565035
 31
0.0
  0
LINE
  5
48E
330
1F
100
AcDbEntity
  8
0
100
AcDbLine
 10
321.606345927
 20
187.1026737889
 30
0.0
 11
321.1063449137
 21
186.4645483245
 31
0.0
  0
LINE
  5
48F
330
1F
100
AcDbEntity
  8
0
100
AcDbLine
 10
321.606345927
 20
187.1026737889
 30
0.0
 11
326.6063448839
 21
187.1026737889
 31
0.0
  0
LINE
  5
490
330
1F
100
AcDbEntity
  8
0
100
AcDbLine
 10
327.1063458972
 20
186.4645483245
 30
0.0
 11
326.6063448839
 21
187.1026737889
 31
0.0
  0
LINE
  5
491
330
1F
100
AcDbEntity
  8
0
100
AcDbLine
 10
321.1063449137
 20
186.4645483245
 30
0.0
 11
321.1063449137
 21
186.2376706948
 31
0.0
  0
LINE
  5
492
330
1F
100
AcDbEntity
  8
0
100
AcDbLine
 10
327.1063458972
 20
186.2376706948
 30
0.0
 11
327.1063458972
 21
186.4645483245
 31
0.0
  0
LINE
  5
493
330
1F
100
AcDbEntity
  8
0
100
AcDbLine
 10
321.606345927
 20
163.8348543591
 30
0.0
 11
326.6063448839
 21
163.8348543591
 31
0.0
  0
LINE
  5
494
330
1F
100
AcDbEntity
  8
0
100
AcDbLine
 10
321.1063449137
 20
164.4729789521
 30
0.0
 11
321.606345927
 21
163.8348543591
 31
0.0
  0
LINE
  5
495
330
1F
100
AcDbEntity
  8
0
100
AcDbLine
 10
326.6063448839
 20
163.8348543591
 30
0.0
 11
327.1063458972
 21
164.4729789521
 31
0.0
  0
LINE
  5
496
330
1F
100
AcDbEntity
  8
0
100
AcDbLine
 10
321.1063449137
 20
164.6998575551
 30
0.0
 11
321.1063449137
 21
164.4729789521
 31
0.0
  0
LINE
  5
497
330
1F
100
AcDbEntity
  8
0
100
AcDbLine
 10
327.1063458972
 20
164.4729789521
 30
0.0
 11
327.1063458972
 21
164.6998575551
 31
0.0
  0
LINE
  5
498
330
1F
100
AcDbEntity
  8
0
100
AcDbLine
 10
321.1063449137
 20
186.8472585728
 30
0.0
 11
321.606345927
 21
187.1638300171
 31
0.0
  0
LINE
  5
499
330
1F
100
AcDbEntity
  8
0
100
AcDbLine
 10
321.606345927
 20
187.1638300171
 30
0.0
 11
321.606345927
 21
187.1026737889
 31
0.0
  0
LINE
  5
49A
330
1F
100
AcDbEntity
  8
0
100
AcDbLine
 10
321.1063449137
 20
186.8472585728
 30
0.0
 11
321.1063449137
 21
186.4645483245
 31
0.0
  0
LINE
  5
49B
330
1F
100
AcDbEntity
  8
0
100
AcDbLine
 10
326.6063448839
 20
187.1638300171
 30
0.0
 11
326.6063448839
 21
187.1026737889
 31
0.0
  0
LINE
  5
49C
330
1F
100
AcDbEntity
  8
0
100
AcDbLine
 10
326.6063448839
 20
187.1638300171
 30
0.0
 11
327.1063458972
 21
186.8472585728
 31
0.0
  0
LINE
  5
49D
330
1F
100
AcDbEntity
  8
0
100
AcDbLine
 10
327.1063458972
 20
186.8472585728
 30
0.0
 11
327.1063458972
 21
186.4645483245
 31
0.0
  0
LINE
  5
49E
330
1F
100
AcDbEntity
  8
0
100
AcDbLine
 10
321.606345927
 20
163.8348543591
 30
0.0
 11
321.606345927
 21
163.7736985384
 31
0.0
  0
LINE
  5
49F
330
1F
100
AcDbEntity
  8
0
100
AcDbLine
 10
321.606345927
 20
163.7736985384
 30
0.0
 11
321.1063449137
 21
164.0902689931
 31
0.0
  0
LINE
  5
4A0
330
1F
100
AcDbEntity
  8
0
100
AcDbLine
 10
321.1063449137
 20
164.4729789521
 30
0.0
 11
321.1063449137
 21
164.0902689931
 31
0.0
  0
LINE
  5
4A1
330
1F
100
AcDbEntity
  8
0
100
AcDbLine
 10
326.6063448839
 20
163.8348543591
 30
0.0
 11
326.6063448839
 21
163.7736985384
 31
0.0
  0
LINE
  5
4A2
330
1F
100
AcDbEntity
  8
0
100
AcDbLine
 10
327.1063458972
 20
164.0902689931
 30
0.0
 11
326.6063448839
 21
163.7736985384
 31
0.0
  0
LINE
  5
4A3
330
1F
100
AcDbEntity
  8
0
100
AcDbLine
 10
327.1063458972
 20
164.4729789521
 30
0.0
 11
327.1063458972
 21
164.0902689931
 31
0.0
  0
LINE
  5
4A4
330
1F
100
AcDbEntity
  8
0
100
AcDbLine
 10
321.606345927
 20
187.1638300171
 30
0.0
 11
326.6063448839
 21
187.1638300171
 31
0.0
  0
LINE
  5
4A5
330
1F
100
AcDbEntity
  8
0
100
AcDbLine
 10
321.606345927
 20
163.7736985384
 30
0.0
 11
326.6063448839
 21
163.7736985384
 31
0.0
  0
LINE
  5
4A6
330
1F
100
AcDbEntity
  8
0
100
AcDbLine
 10
321.606345927
 20
187.6082422485
 30
0.0
 11
321.1063449137
 21
187.0069468667
 31
0.0
  0
LINE
  5
4A7
330
1F
100
AcDbEntity
  8
0
100
AcDbLine
 10
321.606345927
 20
187.6082422485
 30
0.0
 11
326.6063448839
 21
187.6082422485
 31
0.0
  0
LINE
  5
4A8
330
1F
100
AcDbEntity
  8
0
100
AcDbLine
 10
327.1063458972
 20
187.0069468667
 30
0.0
 11
326.6063448839
 21
187.6082422485
 31
0.0
  0
LINE
  5
4A9
330
1F
100
AcDbEntity
  8
0
100
AcDbLine
 10
321.1063449137
 20
187.0069468667
 30
0.0
 11
321.1063449137
 21
186.8472585728
 31
0.0
  0
LINE
  5
4AA
330
1F
100
AcDbEntity
  8
0
100
AcDbLine
 10
327.1063458972
 20
186.8472585728
 30
0.0
 11
327.1063458972
 21
187.0069468667
 31
0.0
  0
LINE
  5
4AB
330
1F
100
AcDbEntity
  8
0
100
AcDbLine
 10
321.606345927
 20
163.329285201
 30
0.0
 11
326.6063448839
 21
163.329285201
 31
0.0
  0
LINE
  5
4AC
330
1F
100
AcDbEntity
  8
0
100
AcDbLine
 10
321.1063449137
 20
163.9305801171
 30
0.0
 11
321.606345927
 21
163.329285201
 31
0.0
  0
LINE
  5
4AD
330
1F
100
AcDbEntity
  8
0
100
AcDbLine
 10
326.6063448839
 20
163.329285201
 30
0.0
 11
327.1063458972
 21
163.9305801171
 31
0.0
  0
LINE
  5
4AE
330
1F
100
AcDbEntity
  8
0
100
AcDbLine
 10
321.1063449137
 20
164.0902689931
 30
0.0
 11
321.1063449137
 21
163.9305801171
 31
0.0
  0
LINE
  5
4AF
330
1F
100
AcDbEntity
  8
0
100
AcDbLine
 10
327.1063458972
 20
163.9305801171
 30
0.0
 11
327.1063458972
 21
164.0902689931
 31
0.0
  0
LINE
  5
4B0
330
1F
100
AcDbEntity
  8
0
100
AcDbLine
 10
321.1063449137
 20
187.2537976404
 30
0.0
 11
321.606345927
 21
187.6476893475
 31
0.0
  0
LINE
  5
4B1
330
1F
100
AcDbEntity
  8
0
100
AcDbLine
 10
321.606345927
 20
187.6476893475
 30
0.0
 11
321.606345927
 21
187.6082422485
 31
0.0
  0
LINE
  5
4B2
330
1F
100
AcDbEntity
  8
0
100
AcDbLine
 10
321.1063449137
 20
187.2537976404
 30
0.0
 11
321.1063449137
 21
187.0069468667
 31
0.0
  0
LINE
  5
4B3
330
1F
100
AcDbEntity
  8
0
100
AcDbLine
 10
326.6063448839
 20
187.6476893475
 30
0.0
 11
326.6063448839
 21
187.6082422485
 31
0.0
  0
LINE
  5
4B4
330
1F
100
AcDbEntity
  8
0
100
AcDbLine
 10
326.6063448839
 20
187.6476893475
 30
0.0
 11
327.1063458972
 21
187.2537976404
 31
0.0
  0
LINE
  5
4B5
330
1F
100
AcDbEntity
  8
0
100
AcDbLine
 10
327.1063458972
 20
187.2537976404
 30
0.0
 11
327.1063458972
 21
187.0069468667
 31
0.0
  0
LINE
  5
4B6
330
1F
100
AcDbEntity
  8
0
100
AcDbLine
 10
321.606345927
 20
163.329285201
 30
0.0
 11
321.606345927
 21
163.2898393826
 31
0.0
  0
LINE
  5
4B7
330
1F
100
AcDbEntity
  8
0
100
AcDbLine
 10
321.606345927
 20
163.2898393826
 30
0.0
 11
321.1063449137
 21
163.6837299255
 31
0.0
  0
LINE
  5
4B8
330
1F
100
AcDbEntity
  8
0
100
AcDbLine
 10
321.1063449137
 20
163.9305801171
 30
0.0
 11
321.1063449137
 21
163.6837299255
 31
0.0
  0
LINE
  5
4B9
330
1F
100
AcDbEntity
  8
0
100
AcDbLine
 10
326.6063448839
 20
163.329285201
 30
0.0
 11
326.6063448839
 21
163.2898393826
 31
0.0
  0
LINE
  5
4BA
330
1F
100
AcDbEntity
  8
0
100
AcDbLine
 10
327.1063458972
 20
163.6837299255
 30
0.0
 11
326.6063448839
 21
163.2898393826
 31
0.0
  0
LINE
  5
4BB
330
1F
100
AcDbEntity
  8
0
100
AcDbLine
 10
327.1063458972
 20
163.9305801171
 30
0.0
 11
327.1063458972
 21
163.6837299255
 31
0.0
  0
LINE
  5
4BC
330
1F
100
AcDbEntity
  8
0
100
AcDbLine
 10
321.606345927
 20
187.6476893475
 30
0.0
 11
326.6063448839
 21
187.6476893475
 31
0.0
  0
LINE
  5
4BD
330
1F
100
AcDbEntity
  8
0
100
AcDbLine
 10
321.606345927
 20
163.2898393826
 30
0.0
 11
326.6063448839
 21
163.2898393826
 31
0.0
  0
LINE
  5
4BE
330
1F
100
AcDbEntity
  8
0
100
AcDbLine
 10
321.606345927
 20
187.8971832146
 30
0.0
 11
321.1063449137
 21
187.3434467514
 31
0.0
  0
LINE
  5
4BF
330
1F
100
AcDbEntity
  8
0
100
AcDbLine
 10
321.606345927
 20
187.8971832146
 30
0.0
 11
326.6063448839
 21
187.8971832146
 31
0.0
  0
LINE
  5
4C0
330
1F
100
AcDbEntity
  8
0
100
AcDbLine
 10
327.1063458972
 20
187.3434467514
 30
0.0
 11
326.6063448839
 21
187.8971832146
 31
0.0
  0
LINE
  5
4C1
330
1F
100
AcDbEntity
  8
0
100
AcDbLine
 10
321.1063449137
 20
187.3434467514
 30
0.0
 11
321.1063449137
 21
187.2537976404
 31
0.0
  0
LINE
  5
4C2
330
1F
100
AcDbEntity
  8
0
100
AcDbLine
 10
327.1063458972
 20
187.2537976404
 30
0.0
 11
327.1063458972
 21
187.3434467514
 31
0.0
  0
LINE
  5
4C3
330
1F
100
AcDbEntity
  8
0
100
AcDbLine
 10
321.606345927
 20
163.0403452826
 30
0.0
 11
326.6063448839
 21
163.0403452826
 31
0.0
  0
LINE
  5
4C4
330
1F
100
AcDbEntity
  8
0
100
AcDbLine
 10
321.1063449137
 20
163.5940804652
 30
0.0
 11
321.606345927
 21
163.0403452826
 31
0.0
  0
LINE
  5
4C5
330
1F
100
AcDbEntity
  8
0
100
AcDbLine
 10
326.6063448839
 20
163.0403452826
 30
0.0
 11
327.1063458972
 21
163.5940804652
 31
0.0
  0
LINE
  5
4C6
330
1F
100
AcDbEntity
  8
0
100
AcDbLine
 10
321.1063449137
 20
163.6837299255
 30
0.0
 11
321.1063449137
 21
163.5940804652
 31
0.0
  0
LINE
  5
4C7
330
1F
100
AcDbEntity
  8
0
100
AcDbLine
 10
327.1063458972
 20
163.5940804652
 30
0.0
 11
327.1063458972
 21
163.6837299255
 31
0.0
  0
LINE
  5
4C8
330
1F
100
AcDbEntity
  8
0
100
AcDbLine
 10
321.1063449137
 20
187.4500328948
 30
0.0
 11
321.606345927
 21
187.9142152419
 31
0.0
  0
LINE
  5
4C9
330
1F
100
AcDbEntity
  8
0
100
AcDbLine
 10
321.606345927
 20
187.9142152419
 30
0.0
 11
321.606345927
 21
187.8971832146
 31
0.0
  0
LINE
  5
4CA
330
1F
100
AcDbEntity
  8
0
100
AcDbLine
 10
321.1063449137
 20
187.4500328948
 30
0.0
 11
321.1063449137
 21
187.3434467514
 31
0.0
  0
LINE
  5
4CB
330
1F
100
AcDbEntity
  8
0
100
AcDbLine
 10
326.6063448839
 20
187.9142152419
 30
0.0
 11
326.6063448839
 21
187.8971832146
 31
0.0
  0
LINE
  5
4CC
330
1F
100
AcDbEntity
  8
0
100
AcDbLine
 10
326.6063448839
 20
187.9142152419
 30
0.0
 11
327.1063458972
 21
187.4500328948
 31
0.0
  0
LINE
  5
4CD
330
1F
100
AcDbEntity
  8
0
100
AcDbLine
 10
327.1063458972
 20
187.4500328948
 30
0.0
 11
327.1063458972
 21
187.3434467514
 31
0.0
  0
LINE
  5
4CE
330
1F
100
AcDbEntity
  8
0
100
AcDbLine
 10
321.606345927
 20
163.0403452826
 30
0.0
 11
321.606345927
 21
163.0233132554
 31
0.0
  0
LINE
  5
4CF
330
1F
100
AcDbEntity
  8
0
100
AcDbLine
 10
321.606345927
 20
163.0233132554
 30
0.0
 11
321.1063449137
 21
163.4874951368
 31
0.0
  0
LINE
  5
4D0
330
1F
100
AcDbEntity
  8
0
100
AcDbLine
 10
321.1063449137
 20
163.5940804652
 30
0.0
 11
321.1063449137
 21
163.4874951368
 31
0.0
  0
LINE
  5
4D1
330
1F
100
AcDbEntity
  8
0
100
AcDbLine
 10
326.6063448839
 20
163.0403452826
 30
0.0
 11
326.6063448839
 21
163.0233132554
 31
0.0
  0
LINE
  5
4D2
330
1F
100
AcDbEntity
  8
0
100
AcDbLine
 10
327.1063458972
 20
163.4874951368
 30
0.0
 11
326.6063448839
 21
163.0233132554
 31
0.0
  0
LINE
  5
4D3
330
1F
100
AcDbEntity
  8
0
100
AcDbLine
 10
327.1063458972
 20
163.5940804652
 30
0.0
 11
327.1063458972
 21
163.4874951368
 31
0.0
  0
LINE
  5
4D4
330
1F
100
AcDbEntity
  8
0
100
AcDbLine
 10
321.606345927
 20
187.9142152419
 30
0.0
 11
326.6063448839
 21
187.9142152419
 31
0.0
  0
LINE
  5
4D5
330
1F
100
AcDbEntity
  8
0
100
AcDbLine
 10
321.606345927
 20
163.0233132554
 30
0.0
 11
326.6063448839
 21
163.0233132554
 31
0.0
  0
LINE
  5
4D6
330
1F
100
AcDbEntity
  8
0
100
AcDbLine
 10
321.606345927
 20
187.9643371602
 30
0.0
 11
321.1063449137
 21
187.4680428108
 31
0.0
  0
LINE
  5
4D7
330
1F
100
AcDbEntity
  8
0
100
AcDbLine
 10
321.606345927
 20
187.9643371602
 30
0.0
 11
326.6063448839
 21
187.9643371602
 31
0.0
  0
LINE
  5
4D8
330
1F
100
AcDbEntity
  8
0
100
AcDbLine
 10
327.1063458972
 20
187.4680428108
 30
0.0
 11
326.6063448839
 21
187.9643371602
 31
0.0
  0
LINE
  5
4D9
330
1F
100
AcDbEntity
  8
0
100
AcDbLine
 10
321.1063449137
 20
187.4680428108
 30
0.0
 11
321.1063449137
 21
187.4500328948
 31
0.0
  0
LINE
  5
4DA
330
1F
100
AcDbEntity
  8
0
100
AcDbLine
 10
327.1063458972
 20
187.4500328948
 30
0.0
 11
327.1063458972
 21
187.4680428108
 31
0.0
  0
LINE
  5
4DB
330
1F
100
AcDbEntity
  8
0
100
AcDbLine
 10
321.606345927
 20
162.9731908714
 30
0.0
 11
326.6063448839
 21
162.9731908714
 31
0.0
  0
LINE
  5
4DC
330
1F
100
AcDbEntity
  8
0
100
AcDbLine
 10
321.1063449137
 20
163.4694848716
 30
0.0
 11
321.606345927
 21
162.9731908714
 31
0.0
  0
LINE
  5
4DD
330
1F
100
AcDbEntity
  8
0
100
AcDbLine
 10
326.6063448839
 20
162.9731908714
 30
0.0
 11
327.1063458972
 21
163.4694848716
 31
0.0
  0
LINE
  5
4DE
330
1F
100
AcDbEntity
  8
0
100
AcDbLine
 10
321.1063449137
 20
163.4874951368
 30
0.0
 11
321.1063449137
 21
163.4694848716
 31
0.0
  0
LINE
  5
4DF
330
1F
100
AcDbEntity
  8
0
100
AcDbLine
 10
327.1063458972
 20
163.4694848716
 30
0.0
 11
327.1063458972
 21
163.4874951368
 31
0.0
  0
LINE
  5
4E0
330
1F
100
AcDbEntity
  8
0
100
AcDbLine
 10
321.1063449137
 20
187.4687636544
 30
0.0
 11
321.1063449137
 21
187.4680428108
 31
0.0
  0
LINE
  5
4E1
330
1F
100
AcDbEntity
  8
0
100
AcDbLine
 10
327.1063458972
 20
187.4687636544
 30
0.0
 11
327.1063458972
 21
187.4680428108
 31
0.0
  0
LINE
  5
4E2
330
1F
100
AcDbEntity
  8
0
100
AcDbLine
 10
321.1063449137
 20
163.4694848716
 30
0.0
 11
321.1063449137
 21
163.4687639115
 31
0.0
  0
LINE
  5
4E3
330
1F
100
AcDbEntity
  8
0
100
AcDbLine
 10
327.1063458972
 20
163.4694848716
 30
0.0
 11
327.1063458972
 21
163.4687639115
 31
0.0
  0
CIRCLE
  5
4E4
330
1F
100
AcDbEntity
  8
0
100
AcDbCircle
 10
318.1063465122
 20
175.4687639061
 30
0.0
 40
1.29999999998352
  0
CIRCLE
  5
4E5
330
1F
100
AcDbEntity
  8
0
100
AcDbCircle
 10
318.1063465122
 20
175.4687639061
 30
0.0
 40
2.000000000000002
  0
LINE
  5
4E6
330
1F
100
AcDbEntity
  8
0
100
AcDbLine
 10
317.5289970689
 20
174.4687643175
 30
0.0
 11
318.6836955004
 21
174.4687643175
 31
0.0
  0
LINE
  5
4E7
330
1F
100
AcDbEntity
  8
0
100
AcDbLine
 10
318.6836955004
 20
174.4687643175
 30
0.0
 11
319.2610484414
 21
175.4687635501
 31
0.0
  0
LINE
  5
4E8
330
1F
100
AcDbEntity
  8
0
100
AcDbLine
 10
319.2610484414
 20
175.4687635501
 30
0.0
 11
318.6836955004
 21
176.468763714
 31
0.0
  0
LINE
  5
4E9
330
1F
100
AcDbEntity
  8
0
100
AcDbLine
 10
318.6836955004
 20
176.468763714
 30
0.0
 11
317.5289970689
 21
176.468763714
 31
0.0
  0
LINE
  5
4EA
330
1F
100
AcDbEntity
  8
0
100
AcDbLine
 10
316.9516441278
 20
175.4687635501
 30
0.0
 11
317.5289970689
 21
176.468763714
 31
0.0
  0
LINE
  5
4EB
330
1F
100
AcDbEntity
  8
0
100
AcDbLine
 10
316.9516441278
 20
175.4687635501
 30
0.0
 11
317.5289970689
 21
174.4687643175
 31
0.0
  0
LINE
  5
4EC
330
1F
100
AcDbEntity
  8
0
100
AcDbLine
 10
312.9063439422
 20
149.3187641998
 30
0.0
 11
305.9063446574
 21
149.3187641998
 31
0.0
  0
LINE
  5
4ED
330
1F
100
AcDbEntity
  8
0
100
AcDbLine
 10
305.9063446574
 20
149.3187641998
 30
0.0
 11
305.9063446574
 21
152.3187637602
 31
0.0
  0
LINE
  5
4EE
330
1F
100
AcDbEntity
  8
0
100
AcDbLine
 10
312.9063439422
 20
152.3187637602
 30
0.0
 11
312.9063439422
 21
149.3187641998
 31
0.0
  0
LINE
  5
4EF
330
1F
100
AcDbEntity
  8
0
100
AcDbLine
 10
305.9063446574
 20
152.3187637602
 30
0.0
 11
305.9063446574
 21
157.4687638593
 31
0.0
  0
LINE
  5
4F0
330
1F
100
AcDbEntity
  8
0
100
AcDbLine
 10
305.9063446574
 20
193.4687646379
 30
0.0
 11
305.9063446574
 21
198.6187642713
 31
0.0
  0
LINE
  5
4F1
330
1F
100
AcDbEntity
  8
0
100
AcDbLine
 10
312.9063439422
 20
152.3187637602
 30
0.0
 11
312.9063439422
 21
198.6187642713
 31
0.0
  0
LINE
  5
4F2
330
1F
100
AcDbEntity
  8
0
100
AcDbLine
 10
305.9063446574
 20
198.6187642713
 30
0.0
 11
305.9063446574
 21
201.6187629004
 31
0.0
  0
LINE
  5
4F3
330
1F
100
AcDbEntity
  8
0
100
AcDbLine
 10
305.9063446574
 20
201.6187629004
 30
0.0
 11
312.9063439422
 21
201.6187629004
 31
0.0
  0
LINE
  5
4F4
330
1F
100
AcDbEntity
  8
0
100
AcDbLine
 10
312.9063439422
 20
201.6187629004
 30
0.0
 11
312.9063439422
 21
198.6187642713
 31
0.0
  0
LINE
  5
4F5
330
1F
100
AcDbEntity
  8
0
100
AcDbLine
 10
292.506348794
 20
152.3187637602
 30
0.0
 11
292.506348794
 21
149.3187641998
 31
0.0
  0
LINE
  5
4F6
330
1F
100
AcDbEntity
  8
0
100
AcDbLine
 10
292.506348794
 20
149.3187641998
 30
0.0
 11
285.5063495092
 21
149.3187641998
 31
0.0
  0
LINE
  5
4F7
330
1F
100
AcDbEntity
  8
0
100
AcDbLine
 10
285.5063495092
 20
149.3187641998
 30
0.0
 11
285.5063495092
 21
152.3187637602
 31
0.0
  0
LINE
  5
4F8
330
1F
100
AcDbEntity
  8
0
100
AcDbLine
 10
292.506348794
 20
198.6187642713
 30
0.0
 11
292.506348794
 21
152.3187637602
 31
0.0
  0
LINE
  5
4F9
330
1F
100
AcDbEntity
  8
0
100
AcDbLine
 10
285.5063495092
 20
198.6187642713
 30
0.0
 11
285.5063495092
 21
152.3187637602
 31
0.0
  0
LINE
  5
4FA
330
1F
100
AcDbEntity
  8
0
100
AcDbLine
 10
285.5063495092
 20
201.6187629004
 30
0.0
 11
292.506348794
 21
201.6187629004
 31
0.0
  0
LINE
  5
4FB
330
1F
100
AcDbEntity
  8
0
100
AcDbLine
 10
292.506348794
 20
201.6187629004
 30
0.0
 11
292.506348794
 21
198.6187642713
 31
0.0
  0
LINE
  5
4FC
330
1F
100
AcDbEntity
  8
0
100
AcDbLine
 10
285.5063495092
 20
198.6187642713
 30
0.0
 11
285.5063495092
 21
201.6187629004
 31
0.0
  0
LINE
  5
4FD
330
1F
100
AcDbEntity
  8
0
100
AcDbLine
 10
292.506348794
 20
156.9687637774
 30
0.0
 11
293.6063450627
 21
156.9687637774
 31
0.0
  0
LINE
  5
4FE
330
1F
100
AcDbEntity
  8
0
100
AcDbLine
 10
293.6063450627
 20
156.9687637774
 30
0.0
 11
293.6063450627
 21
155.4687639972
 31
0.0
  0
LINE
  5
4FF
330
1F
100
AcDbEntity
  8
0
100
AcDbLine
 10
292.506348794
 20
150.9687641909
 30
0.0
 11
293.6063450627
 21
150.9687641909
 31
0.0
  0
LINE
  5
500
330
1F
100
AcDbEntity
  8
0
100
AcDbLine
 10
293.6063450627
 20
155.4687639972
 30
0.0
 11
293.6063450627
 21
150.9687641909
 31
0.0
  0
LINE
  5
501
330
1F
100
AcDbEntity
  8
0
100
AcDbLine
 10
292.506348794
 20
199.968764772
 30
0.0
 11
293.6063450627
 21
199.968764772
 31
0.0
  0
LINE
  5
502
330
1F
100
AcDbEntity
  8
0
100
AcDbLine
 10
293.6063450627
 20
199.968764772
 30
0.0
 11
293.6063450627
 21
195.4687631031
 31
0.0
  0
LINE
  5
503
330
1F
100
AcDbEntity
  8
0
100
AcDbLine
 10
293.6063450627
 20
193.9687637885
 30
0.0
 11
292.506348794
 21
193.9687637885
 31
0.0
  0
LINE
  5
504
330
1F
100
AcDbEntity
  8
0
100
AcDbLine
 10
293.6063450627
 20
195.4687631031
 30
0.0
 11
293.6063450627
 21
193.9687637885
 31
0.0
  0
LINE
  5
505
330
1F
100
AcDbEntity
  8
0
100
AcDbLine
 10
293.6063450627
 20
193.9687637885
 30
0.0
 11
293.6063450627
 21
193.4687646379
 31
0.0
  0
LINE
  5
506
330
1F
100
AcDbEntity
  8
0
100
AcDbLine
 10
293.6063450627
 20
157.4687638593
 30
0.0
 11
293.6063450627
 21
156.9687637774
 31
0.0
  0
LINE
  5
507
330
1F
100
AcDbEntity
  8
0
100
AcDbLine
 10
304.6063450031
 20
199.968764772
 30
0.0
 11
304.6063450031
 21
195.4687631031
 31
0.0
  0
LINE
  5
508
330
1F
100
AcDbEntity
  8
0
100
AcDbLine
 10
304.6063450031
 20
199.968764772
 30
0.0
 11
305.9063446574
 21
199.968764772
 31
0.0
  0
LINE
  5
509
330
1F
100
AcDbEntity
  8
0
100
AcDbLine
 10
305.9063446574
 20
193.9687637885
 30
0.0
 11
304.6063450031
 21
193.9687637885
 31
0.0
  0
LINE
  5
50A
330
1F
100
AcDbEntity
  8
0
100
AcDbLine
 10
304.6063450031
 20
193.9687637885
 30
0.0
 11
304.6063450031
 21
195.4687631031
 31
0.0
  0
LINE
  5
50B
330
1F
100
AcDbEntity
  8
0
100
AcDbLine
 10
304.6063450031
 20
156.9687637774
 30
0.0
 11
305.9063446574
 21
156.9687637774
 31
0.0
  0
LINE
  5
50C
330
1F
100
AcDbEntity
  8
0
100
AcDbLine
 10
304.6063450031
 20
155.4687639972
 30
0.0
 11
304.6063450031
 21
156.9687637774
 31
0.0
  0
LINE
  5
50D
330
1F
100
AcDbEntity
  8
0
100
AcDbLine
 10
304.6063450031
 20
150.9687641909
 30
0.0
 11
305.9063446574
 21
150.9687641909
 31
0.0
  0
LINE
  5
50E
330
1F
100
AcDbEntity
  8
0
100
AcDbLine
 10
304.6063450031
 20
155.4687639972
 30
0.0
 11
304.6063450031
 21
150.9687641909
 31
0.0
  0
LINE
  5
50F
330
1F
100
AcDbEntity
  8
0
100
AcDbLine
 10
304.6063450031
 20
193.9687637885
 30
0.0
 11
304.6063450031
 21
193.4687646379
 31
0.0
  0
LINE
  5
510
330
1F
100
AcDbEntity
  8
0
100
AcDbLine
 10
304.6063450031
 20
157.4687638593
 30
0.0
 11
304.6063450031
 21
156.9687637774
 31
0.0
  0
LINE
  5
511
330
1F
100
AcDbEntity
  8
0
100
AcDbLine
 10
303.1063494139
 20
150.9687641909
 30
0.0
 11
304.6063450031
 21
150.9687641909
 31
0.0
  0
LINE
  5
512
330
1F
100
AcDbEntity
  8
0
100
AcDbLine
 10
303.1063494139
 20
155.4687639972
 30
0.0
 11
303.1063494139
 21
150.9687641909
 31
0.0
  0
LINE
  5
513
330
1F
100
AcDbEntity
  8
0
100
AcDbLine
 10
303.1063494139
 20
156.9687637774
 30
0.0
 11
304.6063450031
 21
156.9687637774
 31
0.0
  0
LINE
  5
514
330
1F
100
AcDbEntity
  8
0
100
AcDbLine
 10
303.1063494139
 20
155.4687639972
 30
0.0
 11
303.1063494139
 21
156.9687637774
 31
0.0
  0
LINE
  5
515
330
1F
100
AcDbEntity
  8
0
100
AcDbLine
 10
303.1063494139
 20
199.968764772
 30
0.0
 11
304.6063450031
 21
199.968764772
 31
0.0
  0
LINE
  5
516
330
1F
100
AcDbEntity
  8
0
100
AcDbLine
 10
303.1063494139
 20
199.968764772
 30
0.0
 11
303.1063494139
 21
195.4687631031
 31
0.0
  0
LINE
  5
517
330
1F
100
AcDbEntity
  8
0
100
AcDbLine
 10
304.6063450031
 20
193.9687637885
 30
0.0
 11
303.1063494139
 21
193.9687637885
 31
0.0
  0
LINE
  5
518
330
1F
100
AcDbEntity
  8
0
100
AcDbLine
 10
303.1063494139
 20
193.9687637885
 30
0.0
 11
303.1063494139
 21
195.4687631031
 31
0.0
  0
LINE
  5
519
330
1F
100
AcDbEntity
  8
0
100
AcDbLine
 10
303.1063494139
 20
193.9687637885
 30
0.0
 11
303.1063494139
 21
193.4687646379
 31
0.0
  0
LINE
  5
51A
330
1F
100
AcDbEntity
  8
0
100
AcDbLine
 10
303.1063494139
 20
157.4687638593
 30
0.0
 11
303.1063494139
 21
156.9687637774
 31
0.0
  0
LINE
  5
51B
330
1F
100
AcDbEntity
  8
0
100
AcDbLine
 10
293.6063450627
 20
150.9687641909
 30
0.0
 11
295.1063481026
 21
150.9687641909
 31
0.0
  0
LINE
  5
51C
330
1F
100
AcDbEntity
  8
0
100
AcDbLine
 10
295.1063481026
 20
155.4687639972
 30
0.0
 11
295.1063481026
 21
150.9687641909
 31
0.0
  0
LINE
  5
51D
330
1F
100
AcDbEntity
  8
0
100
AcDbLine
 10
293.6063450627
 20
156.9687637774
 30
0.0
 11
295.1063481026
 21
156.9687637774
 31
0.0
  0
LINE
  5
51E
330
1F
100
AcDbEntity
  8
0
100
AcDbLine
 10
295.1063481026
 20
156.9687637774
 30
0.0
 11
295.1063481026
 21
155.4687639972
 31
0.0
  0
LINE
  5
51F
330
1F
100
AcDbEntity
  8
0
100
AcDbLine
 10
293.6063450627
 20
199.968764772
 30
0.0
 11
295.1063481026
 21
199.968764772
 31
0.0
  0
LINE
  5
520
330
1F
100
AcDbEntity
  8
0
100
AcDbLine
 10
295.1063481026
 20
199.968764772
 30
0.0
 11
295.1063481026
 21
195.4687631031
 31
0.0
  0
LINE
  5
521
330
1F
100
AcDbEntity
  8
0
100
AcDbLine
 10
295.1063481026
 20
193.9687637885
 30
0.0
 11
293.6063450627
 21
193.9687637885
 31
0.0
  0
LINE
  5
522
330
1F
100
AcDbEntity
  8
0
100
AcDbLine
 10
295.1063481026
 20
195.4687631031
 30
0.0
 11
295.1063481026
 21
193.9687637885
 31
0.0
  0
LINE
  5
523
330
1F
100
AcDbEntity
  8
0
100
AcDbLine
 10
295.1063481026
 20
193.9687637885
 30
0.0
 11
295.1063481026
 21
193.4687646379
 31
0.0
  0
LINE
  5
524
330
1F
100
AcDbEntity
  8
0
100
AcDbLine
 10
295.1063481026
 20
157.4687638593
 30
0.0
 11
295.1063481026
 21
156.9687637774
 31
0.0
  0
LINE
  5
525
330
1F
100
AcDbEntity
  8
0
100
AcDbLine
 10
288.1063488178
 20
202.1187639137
 30
0.0
 11
290.9063440614
 21
202.1187639137
 31
0.0
  0
LINE
  5
526
330
1F
100
AcDbEntity
  8
0
100
AcDbLine
 10
290.7187831454
 20
148.8187631865
 30
0.0
 11
288.1063488178
 21
148.8187631865
 31
0.0
  0
LINE
  5
527
330
1F
100
AcDbEntity
  8
0
100
AcDbLine
 10
290.9063440614
 20
148.8187631865
 30
0.0
 11
290.7187831454
 21
148.8187631865
 31
0.0
  0
LINE
  5
528
330
1F
100
AcDbEntity
  8
0
100
AcDbLine
 10
310.3063446336
 20
148.8187631865
 30
0.0
 11
307.50634939
 21
148.8187631865
 31
0.0
  0
LINE
  5
529
330
1F
100
AcDbEntity
  8
0
100
AcDbLine
 10
307.50634939
 20
202.1187639137
 30
0.0
 11
310.3063446336
 21
202.1187639137
 31
0.0
  0
CIRCLE
  5
52A
330
1F
100
AcDbEntity
  8
0
100
AcDbCircle
 10
266.3917652256
 20
175.103150292
 30
0.0
 40
5.500000000000028
  0
CIRCLE
  5
52B
330
1F
100
AcDbEntity
  8
0
100
AcDbCircle
 10
266.3917652256
 20
175.103150292
 30
0.0
 40
6.000000000000017
  0
CIRCLE
  5
52C
330
1F
100
AcDbEntity
  8
0
100
AcDbCircle
 10
266.3917652256
 20
175.103150292
 30
0.0
 40
4.099999999999968
  0
CIRCLE
  5
52D
330
1F
100
AcDbEntity
  8
0
100
AcDbCircle
 10
266.3917652256
 20
175.103150292
 30
0.0
 40
11.0
  0
CIRCLE
  5
52E
330
1F
100
AcDbEntity
  8
0
100
AcDbCircle
 10
299.9063465122
 20
175.4687639061
 30
0.0
 40
3.422649730850941
  0
CIRCLE
  5
52F
330
1F
100
AcDbEntity
  8
0
100
AcDbCircle
 10
299.9063465122
 20
175.4687639061
 30
0.0
 40
4.000000000026713
  0
LINE
  5
530
330
1F
100
AcDbEntity
  8
0
100
AcDbLine
 10
305.9063446574
 20
157.4687638593
 30
0.0
 11
305.9063446574
 21
193.4687646379
 31
0.0
  0
LINE
  5
531
330
1F
100
AcDbEntity
  8
0
100
AcDbLine
 10
293.906350141
 20
157.4687638593
 30
0.0
 11
305.9063446574
 21
157.4687638593
 31
0.0
  0
LINE
  5
532
330
1F
100
AcDbEntity
  8
0
100
AcDbLine
 10
293.906350141
 20
157.4687638593
 30
0.0
 11
293.906350141
 21
193.4687646379
 31
0.0
  0
LINE
  5
533
330
1F
100
AcDbEntity
  8
0
100
AcDbLine
 10
293.906350141
 20
193.4687646379
 30
0.0
 11
305.9063446574
 21
193.4687646379
 31
0.0
  0
CIRCLE
  5
534
330
1F
100
AcDbEntity
  8
0
100
AcDbCircle
 10
299.9063465122
 20
175.4687639061
 30
0.0
 40
4.5
  0
LINE
  5
535
330
1F
100
AcDbEntity
  8
0
100
AcDbLine
 10
293.6063450627
 20
164.7187639126
 30
0.0
 11
292.506348794
 21
164.7187639126
 31
0.0
  0
LINE
  5
536
330
1F
100
AcDbEntity
  8
0
100
AcDbLine
 10
292.506348794
 20
186.2187629839
 30
0.0
 11
293.6063450627
 21
186.2187629839
 31
0.0
  0
LINE
  5
537
330
1F
100
AcDbEntity
  8
0
100
AcDbLine
 10
293.6063450627
 20
186.2187629839
 30
0.0
 11
293.6063450627
 21
193.4687646379
 31
0.0
  0
LINE
  5
538
330
1F
100
AcDbEntity
  8
0
100
AcDbLine
 10
293.6063450627
 20
157.4687638593
 30
0.0
 11
293.6063450627
 21
164.7187639126
 31
0.0
  0
LINE
  5
539
330
1F
100
AcDbEntity
  8
0
100
AcDbLine
 10
293.6063450627
 20
193.4687646379
 30
0.0
 11
293.906350141
 21
193.4687646379
 31
0.0
  0
LINE
  5
53A
330
1F
100
AcDbEntity
  8
0
100
AcDbLine
 10
293.906350141
 20
157.4687638593
 30
0.0
 11
293.6063450627
 21
157.4687638593
 31
0.0
  0
LINE
  5
53B
330
1F
100
AcDbEntity
  8
0
100
AcDbLine
 10
293.6063450627
 20
157.4687638593
 30
0.0
 11
292.506348794
 21
157.4687638593
 31
0.0
  0
LINE
  5
53C
330
1F
100
AcDbEntity
  8
0
100
AcDbLine
 10
293.6063450627
 20
164.4687639062
 30
0.0
 11
292.506348794
 21
164.4687639062
 31
0.0
  0
LINE
  5
53D
330
1F
100
AcDbEntity
  8
0
100
AcDbLine
 10
293.6063450627
 20
193.4687646379
 30
0.0
 11
292.506348794
 21
193.4687646379
 31
0.0
  0
LINE
  5
53E
330
1F
100
AcDbEntity
  8
0
100
AcDbLine
 10
293.6063450627
 20
186.4687634905
 30
0.0
 11
292.506348794
 21
186.4687634905
 31
0.0
  0
LINE
  5
53F
330
1F
100
AcDbEntity
  8
0
  6
Continuous
 62
     8
370
     0
100
AcDbLine
 10
305.9063446574
 20
152.3187637602
 30
0.0
 11
312.9063439422
 21
152.3187637602
 31
0.0
  0
LINE
  5
540
330
1F
100
AcDbEntity
  8
0
  6
Continuous
 62
     8
370
     0
100
AcDbLine
 10
312.9063439422
 20
198.6187642713
 30
0.0
 11
305.9063446574
 21
198.6187642713
 31
0.0
  0
LINE
  5
541
330
1F
100
AcDbEntity
  8
0
  6
Continuous
 62
     8
370
     0
100
AcDbLine
 10
285.5063495092
 20
152.3187637602
 30
0.0
 11
292.506348794
 21
152.3187637602
 31
0.0
  0
LINE
  5
542
330
1F
100
AcDbEntity
  8
0
  6
Continuous
 62
     8
370
     0
100
AcDbLine
 10
292.506348794
 20
198.6187642713
 30
0.0
 11
285.5063495092
 21
198.6187642713
 31
0.0
  0
LINE
  5
543
330
1F
100
AcDbEntity
  8
0
  6
Continuous
 62
     8
370
     0
100
AcDbLine
 10
292.506348794
 20
155.4687639972
 30
0.0
 11
293.6063450627
 21
155.4687639972
 31
0.0
  0
LINE
  5
544
330
1F
100
AcDbEntity
  8
0
  6
Continuous
 62
     8
370
     0
100
AcDbLine
 10
292.506348794
 20
195.4687631031
 30
0.0
 11
293.6063450627
 21
195.4687631031
 31
0.0
  0
LINE
  5
545
330
1F
100
AcDbEntity
  8
0
  6
Continuous
 62
     8
370
     0
100
AcDbLine
 10
304.6063450031
 20
195.4687631031
 30
0.0
 11
305.9063446574
 21
195.4687631031
 31
0.0
  0
LINE
  5
546
330
1F
100
AcDbEntity
  8
0
  6
Continuous
 62
     8
370
     0
100
AcDbLine
 10
304.6063450031
 20
155.4687639972
 30
0.0
 11
305.9063446574
 21
155.4687639972
 31
0.0
  0
LINE
  5
547
330
1F
100
AcDbEntity
  8
0
  6
Continuous
 62
     8
370
     0
100
AcDbLine
 10
303.1063494139
 20
155.4687639972
 30
0.0
 11
304.6063450031
 21
155.4687639972
 31
0.0
  0
LINE
  5
548
330
1F
100
AcDbEntity
  8
0
  6
Continuous
 62
     8
370
     0
100
AcDbLine
 10
303.1063494139
 20
195.4687631031
 30
0.0
 11
304.6063450031
 21
195.4687631031
 31
0.0
  0
LINE
  5
549
330
1F
100
AcDbEntity
  8
0
  6
Continuous
 62
     8
370
     0
100
AcDbLine
 10
293.6063450627
 20
155.4687639972
 30
0.0
 11
295.1063481026
 21
155.4687639972
 31
0.0
  0
LINE
  5
54A
330
1F
100
AcDbEntity
  8
0
  6
Continuous
 62
     8
370
     0
100
AcDbLine
 10
293.6063450627
 20
195.4687631031
 30
0.0
 11
295.1063481026
 21
195.4687631031
 31
0.0
  0
ENDSEC
  0
SECTION
  2
OBJECTS
  0
DICTIONARY
  5
C
330
0
100
AcDbDictionary
281
     1
  3
ACAD_GROUP
350
D
  3
ACAD_LAYOUT
350
1A
  3
ACAD_MLINESTYLE
350
17
  3
ACAD_PLOTSETTINGS
350
19
  3
ACAD_PLOTSTYLENAME
350
E
  3
ACAD_SCALELIST
350
47
  0
DICTIONARY
  5
D
102
{ACAD_REACTORS
330
C
102
}
330
C
100
AcDbDictionary
281
     1
  0
DICTIONARY
  5
1A
102
{ACAD_REACTORS
330
C
102
}
330
C
100
AcDbDictionary
281
     1
  3
Layout1
350
1E
  3
Layout2
350
26
  3
Model
350
22
  0
DICTIONARY
  5
17
102
{ACAD_REACTORS
330
C
102
}
330
C
100
AcDbDictionary
281
     1
  3
Standard
350
18
  0
DICTIONARY
  5
19
102
{ACAD_REACTORS
330
C
102
}
330
C
100
AcDbDictionary
281
     1
  0
ACDBDICTIONARYWDFLT
  5
E
102
{ACAD_REACTORS
330
C
102
}
330
C
100
AcDbDictionary
281
     1
  3
Normal
350
F
100
AcDbDictionaryWithDefault
340
F
  0
DICTIONARY
  5
47
102
{ACAD_REACTORS
330
C
102
}
330
C
100
AcDbDictionary
281
     1
  3
A0
350
48
  3
A1
350
49
  3
A2
350
4A
  3
A3
350
4B
  3
A4
350
4C
  3
A5
350
4D
  3
A6
350
4E
  3
A7
350
4F
  3
A8
350
50
  3
A9
350
51
  3
B0
350
52
  3
B1
350
53
  3
B2
350
54
  3
B3
350
55
  3
B4
350
56
  3
B5
350
57
  3
B6
350
58
  3
B7
350
59
  3
B8
350
5A
  3
B9
350
5B
  3
C0
350
5C
  3
C1
350
5D
  3
C2
350
5E
  3
C3
350
5F
  3
C4
350
60
  3
C5
350
61
  3
C6
350
62
  3
C7
350
63
  3
C8
350
64
  3
C9
350
65
  3
D0
350
66
  3
D1
350
67
  3
D2
350
68
  0
LAYOUT
  5
1E
102
{ACAD_REACTORS
330
1A
102
}
330
1A
100
AcDbPlotSettings
  1

  2
none_device
  4

  6

 40
0.0
 41
0.0
 42
0.0
 43
0.0
 44
0.0
 45
0.0
 46
0.0
 47
0.0
 48
0.0
 49
0.0
140
0.0
141
0.0
142
1.0
143
1.0
 70
   688
 72
     1
 73
     0
 74
     5
  7

 75
    16
147
1.0
148
0.0
149
0.0
100
AcDbLayout
  1
Layout1
 70
     1
 71
     1
 10
0.0
 20
0.0
 11
420.0
 21
297.0
 12
0.0
 22
0.0
 32
0.0
 14
1.0000000000E+20
 24
1.0000000000E+20
 34
1.0000000000E+20
 15
-1.0000000000E+20
 25
-1.0000000000E+20
 35
-1.0000000000E+20
146
0.0
 13
0.0
 23
0.0
 33
0.0
 16
1.0
 26
0.0
 36
0.0
 17
0.0
 27
1.0
 37
0.0
 76
     0
330
1B
  0
LAYOUT
  5
26
102
{ACAD_REACTORS
330
1A
102
}
330
1A
100
AcDbPlotSettings
  1

  2
none_device
  4

  6

 40
0.0
 41
0.0
 42
0.0
 43
0.0
 44
0.0
 45
0.0
 46
0.0
 47
0.0
 48
0.0
 49
0.0
140
0.0
141
0.0
142
1.0
143
1.0
 70
   688
 72
     1
 73
     0
 74
     5
  7

 75
    16
147
1.0
148
0.0
149
0.0
100
AcDbLayout
  1
Layout2
 70
     1
 71
     2
 10
0.0
 20
0.0
 11
0.0
 21
0.0
 12
0.0
 22
0.0
 32
0.0
 14
0.0
 24
0.0
 34
0.0
 15
0.0
 25
0.0
 35
0.0
146
0.0
 13
0.0
 23
0.0
 33
0.0
 16
1.0
 26
0.0
 36
0.0
 17
0.0
 27
1.0
 37
0.0
 76
     0
330
23
  0
LAYOUT
  5
22
102
{ACAD_REACTORS
330
1A
102
}
330
1A
100
AcDbPlotSettings
  1

  2
none_device
  4
Letter_(8.50_x_11.00_Inches)
  6

 40
6.35
 41
6.35
 42
6.35000508
 43
6.35000508
 44
215.9
 45
279.4
 46
0.0
 47
0.0
 48
0.0
 49
0.0
140
0.0
141
0.0
142
1.0
143
1.0
 70
  1712
 72
     1
 73
     0
 74
     0
  7

 75
     0
147
1.0
148
0.0
149
0.0
100
AcDbLayout
  1
Model
 70
     1
 71
     0
 10
0.0
 20
0.0
 11
470.0
 21
347.0
 12
0.0
 22
0.0
 32
0.0
 14
0.0
 24
0.0
 34
0.0
 15
470.0
 25
347.0
 35
0.0
146
0.0
 13
0.0
 23
0.0
 33
0.0
 16
1.0
 26
0.0
 36
0.0
 17
0.0
 27
1.0
 37
0.0
 76
     0
330
1F
331
29
  0
MLINESTYLE
  5
18
102
{ACAD_REACTORS
330
17
102
}
330
17
100
AcDbMlineStyle
  2
Standard
 70
     0
  3

 62
   256
 51
90.0
 52
90.0
 71
     2
 49
0.5
 62
   256
  6
BYLAYER
 49
-0.5
 62
   256
  6
BYLAYER
  0
ACDBPLACEHOLDER
  5
F
102
{ACAD_REACTORS
330
E
102
}
330
E
  0
SCALE
  5
48
102
{ACAD_REACTORS
330
47
102
}
330
47
100
AcDbScale
 70
     0
300
1:1
140
1.0
141
1.0
290
     1
  0
SCALE
  5
49
102
{ACAD_REACTORS
330
47
102
}
330
47
100
AcDbScale
 70
     0
300
1:2
140
1.0
141
2.0
290
     0
  0
SCALE
  5
4A
102
{ACAD_REACTORS
330
47
102
}
330
47
100
AcDbScale
 70
     0
300
1:4
140
1.0
141
4.0
290
     0
  0
SCALE
  5
4B
102
{ACAD_REACTORS
330
47
102
}
330
47
100
AcDbScale
 70
     0
300
1:5
140
1.0
141
5.0
290
     0
  0
SCALE
  5
4C
102
{ACAD_REACTORS
330
47
102
}
330
47
100
AcDbScale
 70
     0
300
1:8
140
1.0
141
8.0
290
     0
  0
SCALE
  5
4D
102
{ACAD_REACTORS
330
47
102
}
330
47
100
AcDbScale
 70
     0
300
1:10
140
1.0
141
10.0
290
     0
  0
SCALE
  5
4E
102
{ACAD_REACTORS
330
47
102
}
330
47
100
AcDbScale
 70
     0
300
1:16
140
1.0
141
16.0
290
     0
  0
SCALE
  5
4F
102
{ACAD_REACTORS
330
47
102
}
330
47
100
AcDbScale
 70
     0
300
1:20
140
1.0
141
20.0
290
     0
  0
SCALE
  5
50
102
{ACAD_REACTORS
330
47
102
}
330
47
100
AcDbScale
 70
     0
300
1:30
140
1.0
141
30.0
290
     0
  0
SCALE
  5
51
102
{ACAD_REACTORS
330
47
102
}
330
47
100
AcDbScale
 70
     0
300
1:40
140
1.0
141
40.0
290
     0
  0
SCALE
  5
52
102
{ACAD_REACTORS
330
47
102
}
330
47
100
AcDbScale
 70
     0
300
1:50
140
1.0
141
50.0
290
     0
  0
SCALE
  5
53
102
{ACAD_REACTORS
330
47
102
}
330
47
100
AcDbScale
 70
     0
300
1:100
140
1.0
141
100.0
290
     0
  0
SCALE
  5
54
102
{ACAD_REACTORS
330
47
102
}
330
47
100
AcDbScale
 70
     0
300
2:1
140
2.0
141
1.0
290
     0
  0
SCALE
  5
55
102
{ACAD_REACTORS
330
47
102
}
330
47
100
AcDbScale
 70
     0
300
4:1
140
4.0
141
1.0
290
     0
  0
SCALE
  5
56
102
{ACAD_REACTORS
330
47
102
}
330
47
100
AcDbScale
 70
     0
300
8:1
140
8.0
141
1.0
290
     0
  0
SCALE
  5
57
102
{ACAD_REACTORS
330
47
102
}
330
47
100
AcDbScale
 70
     0
300
10:1
140
10.0
141
1.0
290
     0
  0
SCALE
  5
58
102
{ACAD_REACTORS
330
47
102
}
330
47
100
AcDbScale
 70
     0
300
100:1
140
100.0
141
1.0
290
     0
  0
SCALE
  5
59
102
{ACAD_REACTORS
330
47
102
}
330
47
100
AcDbScale
 70
     0
300
1/128" = 1'-0"
140
0.0078125
141
12.0
290
     0
  0
SCALE
  5
5A
102
{ACAD_REACTORS
330
47
102
}
330
47
100
AcDbScale
 70
     0
300
1/64" = 1'-0"
140
0.015625
141
12.0
290
     0
  0
SCALE
  5
5B
102
{ACAD_REACTORS
330
47
102
}
330
47
100
AcDbScale
 70
     0
300
1/32" = 1'-0"
140
0.03125
141
12.0
290
     0
  0
SCALE
  5
5C
102
{ACAD_REACTORS
330
47
102
}
330
47
100
AcDbScale
 70
     0
300
1/16" = 1'-0"
140
0.0625
141
12.0
290
     0
  0
SCALE
  5
5D
102
{ACAD_REACTORS
330
47
102
}
330
47
100
AcDbScale
 70
     0
300
3/32" = 1'-0"
140
0.09375
141
12.0
290
     0
  0
SCALE
  5
5E
102
{ACAD_REACTORS
330
47
102
}
330
47
100
AcDbScale
 70
     0
300
1/8" = 1'-0"
140
0.125
141
12.0
290
     0
  0
SCALE
  5
5F
102
{ACAD_REACTORS
330
47
102
}
330
47
100
AcDbScale
 70
     0
300
3/16" = 1'-0"
140
0.1875
141
12.0
290
     0
  0
SCALE
  5
60
102
{ACAD_REACTORS
330
47
102
}
330
47
100
AcDbScale
 70
     0
300
1/4" = 1'-0"
140
0.25
141
12.0
290
     0
  0
SCALE
  5
61
102
{ACAD_REACTORS
330
47
102
}
330
47
100
AcDbScale
 70
     0
300
3/8" = 1'-0"
140
0.375
141
12.0
290
     0
  0
SCALE
  5
62
102
{ACAD_REACTORS
330
47
102
}
330
47
100
AcDbScale
 70
     0
300
1/2" = 1'-0"
140
0.5
141
12.0
290
     0
  0
SCALE
  5
63
102
{ACAD_REACTORS
330
47
102
}
330
47
100
AcDbScale
 70
     0
300
3/4" = 1'-0"
140
0.75
141
12.0
290
     0
  0
SCALE
  5
64
102
{ACAD_REACTORS
330
47
102
}
330
47
100
AcDbScale
 70
     0
300
1" = 1'-0"
140
1.0
141
12.0
290
     0
  0
SCALE
  5
65
102
{ACAD_REACTORS
330
47
102
}
330
47
100
AcDbScale
 70
     0
300
1-1/2" = 1'-0"
140
1.5
141
12.0
290
     0
  0
SCALE
  5
66
102
{ACAD_REACTORS
330
47
102
}
330
47
100
AcDbScale
 70
     0
300
3" = 1'-0"
140
3.0
141
12.0
290
     0
  0
SCALE
  5
67
102
{ACAD_REACTORS
330
47
102
}
330
47
100
AcDbScale
 70
     0
300
6" = 1'-0"
140
6.0
141
12.0
290
     0
  0
SCALE
  5
68
102
{ACAD_REACTORS
330
47
102
}
330
47
100
AcDbScale
 70
     0
300
1'-0" = 1'-0"
140
12.0
141
12.0
290
     0
  0
ENDSEC
  0
EOF
