  0
SECTION
  2
HEADER
  9
$ACADVER
  1
AC1015
  9
$ACADMAINTVER
 70
    20
  9
$DWGCODEPAGE
  3
ANSI_1252
  9
$INSBASE
 10
0.0
 20
0.0
 30
0.0
  9
$EXTMIN
 10
-100.8209992110241
 20
-129.779717025945
 30
-0.0000000000000087
  9
$EXTMAX
 10
159.5060827241832
 20
160.0576898210506
 30
0.0000000000000065
  9
$LIMMIN
 10
-20.0
 20
-0.021978
  9
$LIMMAX
 10
2645.85
 20
758.35
  9
$ORTHOMODE
 70
     0
  9
$REGENMODE
 70
     1
  9
$FILLMODE
 70
     1
  9
$QTEXTMODE
 70
     0
  9
$MIRRTEXT
 70
     1
  9
$LTSCALE
 40
10.0
  9
$ATTMODE
 70
     1
  9
$TEXTSIZE
 40
0.0
  9
$TRACEWID
 40
0.05
  9
$TEXTSTYLE
  7
Standard
  9
$CLAYER
  8
0
  9
$CELTYPE
  6
Continuous
  9
$CECOLOR
 62
   256
  9
$CELTSCALE
 40
1.0
  9
$DISPSILH
 70
     0
  9
$DIMSCALE
 40
1.0
  9
$DIMASZ
 40
1.25
  9
$DIMEXO
 40
0.0
  9
$DIMDLI
 40
0.38
  9
$DIMRND
 40
0.0
  9
$DIMDLE
 40
0.0
  9
$DIMEXE
 40
0.75
  9
$DIMTP
 40
0.0
  9
$DIMTM
 40
0.0
  9
$DIMTXT
 40
2.5
  9
$DIMCEN
 40
0.09
  9
$DIMTSZ
 40
0.0
  9
$DIMTOL
 70
     0
  9
$DIMLIM
 70
     0
  9
$DIMTIH
 70
     0
  9
$DIMTOH
 70
     0
  9
$DIMSE1
 70
     0
  9
$DIMSE2
 70
     0
  9
$DIMTAD
 70
     1
  9
$DIMZIN
 70
     0
  9
$DIMBLK
  1

  9
$DIMASO
 70
     1
  9
$DIMSHO
 70
     1
  9
$DIMPOST
  1

  9
$DIMAPOST
  1

  9
$DIMALT
 70
     0
  9
$DIMALTD
 70
     2
  9
$DIMALTF
 40
25.4
  9
$DIMLFAC
 40
1.0
  9
$DIMTOFL
 70
     0
  9
$DIMTVP
 40
0.0
  9
$DIMTIX
 70
     0
  9
$DIMSOXD
 70
     0
  9
$DIMSAH
 70
     0
  9
$DIMBLK1
  1

  9
$DIMBLK2
  1

  9
$DIMSTYLE
  2
Standard
  9
$DIMCLRD
 70
     7
  9
$DIMCLRE
 70
     7
  9
$DIMCLRT
 70
     7
  9
$DIMTFAC
 40
0.8
  9
$DIMGAP
 40
1.25
  9
$DIMJUST
 70
     0
  9
$DIMSD1
 70
     0
  9
$DIMSD2
 70
     0
  9
$DIMTOLJ
 70
     1
  9
$DIMTZIN
 70
     0
  9
$DIMALTZ
 70
     0
  9
$DIMALTTZ
 70
     0
  9
$DIMUPT
 70
     0
  9
$DIMDEC
 70
     2
  9
$DIMTDEC
 70
     4
  9
$DIMALTU
 70
     2
  9
$DIMALTTD
 70
     2
  9
$DIMTXSTY
  7
Standard
  9
$DIMAUNIT
 70
     0
  9
$DIMADEC
 70
     0
  9
$DIMALTRND
 40
0.0
  9
$DIMAZIN
 70
     0
  9
$DIMDSEP
 70
     0
  9
$DIMATFIT
 70
     3
  9
$DIMFRAC
 70
     0
  9
$DIMLDRBLK
  1

  9
$DIMLUNIT
 70
     2
  9
$DIMLWD
 70
     0
  9
$DIMLWE
 70
     0
  9
$DIMTMOVE
 70
     0
  9
$LUNITS
 70
     2
  9
$LUPREC
 70
     4
  9
$SKETCHINC
 40
0.1
  9
$FILLETRAD
 40
0.0
  9
$AUNITS
 70
     0
  9
$AUPREC
 70
     0
  9
$MENU
  1
acad
  9
$ELEVATION
 40
0.0
  9
$PELEVATION
 40
0.0
  9
$THICKNESS
 40
0.0
  9
$LIMCHECK
 70
     0
  9
$CHAMFERA
 40
0.0
  9
$CHAMFERB
 40
0.0
  9
$CHAMFERC
 40
0.0
  9
$CHAMFERD
 40
0.0
  9
$SKPOLY
 70
     0
  9
$TDCREATE
 40
2455329.702198484
  9
$TDUCREATE
 40
2455329.618865150
  9
$TDUPDATE
 40
2455383.401302408
  9
$TDUUPDATE
 40
2455383.317969074
  9
$TDINDWG
 40
0.0293232176
  9
$TDUSRTIMER
 40
0.0293210648
  9
$USRTIMER
 70
     1
  9
$ANGBASE
 50
0.0
  9
$ANGDIR
 70
     0
  9
$PDMODE
 70
     0
  9
$PDSIZE
 40
0.0
  9
$PLINEWID
 40
0.0
  9
$SPLFRAME
 70
     0
  9
$SPLINETYPE
 70
     6
  9
$SPLINESEGS
 70
     8
  9
$HANDSEED
  5
84B4
  9
$SURFTAB1
 70
     6
  9
$SURFTAB2
 70
     6
  9
$SURFTYPE
 70
     6
  9
$SURFU
 70
     6
  9
$SURFV
 70
     6
  9
$UCSBASE
  2

  9
$UCSNAME
  2

  9
$UCSORG
 10
0.0
 20
0.0
 30
0.0
  9
$UCSXDIR
 10
1.0
 20
0.0
 30
0.0
  9
$UCSYDIR
 10
0.0
 20
1.0
 30
0.0
  9
$UCSORTHOREF
  2

  9
$UCSORTHOVIEW
 70
     0
  9
$UCSORGTOP
 10
0.0
 20
0.0
 30
0.0
  9
$UCSORGBOTTOM
 10
0.0
 20
0.0
 30
0.0
  9
$UCSORGLEFT
 10
0.0
 20
0.0
 30
0.0
  9
$UCSORGRIGHT
 10
0.0
 20
0.0
 30
0.0
  9
$UCSORGFRONT
 10
0.0
 20
0.0
 30
0.0
  9
$UCSORGBACK
 10
0.0
 20
0.0
 30
0.0
  9
$PUCSBASE
  2

  9
$PUCSNAME
  2

  9
$PUCSORG
 10
0.0
 20
0.0
 30
0.0
  9
$PUCSXDIR
 10
1.0
 20
0.0
 30
0.0
  9
$PUCSYDIR
 10
0.0
 20
1.0
 30
0.0
  9
$PUCSORTHOREF
  2

  9
$PUCSORTHOVIEW
 70
     0
  9
$PUCSORGTOP
 10
0.0
 20
0.0
 30
0.0
  9
$PUCSORGBOTTOM
 10
0.0
 20
0.0
 30
0.0
  9
$PUCSORGLEFT
 10
0.0
 20
0.0
 30
0.0
  9
$PUCSORGRIGHT
 10
0.0
 20
0.0
 30
0.0
  9
$PUCSORGFRONT
 10
0.0
 20
0.0
 30
0.0
  9
$PUCSORGBACK
 10
0.0
 20
0.0
 30
0.0
  9
$USERI1
 70
     0
  9
$USERI2
 70
     0
  9
$USERI3
 70
     0
  9
$USERI4
 70
     0
  9
$USERI5
 70
     0
  9
$USERR1
 40
0.0
  9
$USERR2
 40
0.0
  9
$USERR3
 40
0.0
  9
$USERR4
 40
0.0
  9
$USERR5
 40
0.0
  9
$WORLDVIEW
 70
     1
  9
$SHADEDGE
 70
     3
  9
$SHADEDIF
 70
    70
  9
$TILEMODE
 70
     1
  9
$MAXACTVP
 70
    16
  9
$PINSBASE
 10
0.0
 20
0.0
 30
0.0
  9
$PLIMCHECK
 70
     0
  9
$PEXTMIN
 10
1.000000000000000E+20
 20
1.000000000000000E+20
 30
1.000000000000000E+20
  9
$PEXTMAX
 10
-1.000000000000000E+20
 20
-1.000000000000000E+20
 30
-1.000000000000000E+20
  9
$PLIMMIN
 10
0.0
 20
0.0
  9
$PLIMMAX
 10
12.0
 20
9.0
  9
$UNITMODE
 70
     0
  9
$VISRETAIN
 70
     0
  9
$PLINEGEN
 70
     1
  9
$PSLTSCALE
 70
     0
  9
$TREEDEPTH
 70
  3020
  9
$CMLSTYLE
  2
Standard
  9
$CMLJUST
 70
     0
  9
$CMLSCALE
 40
1.0
  9
$PROXYGRAPHICS
 70
     0
  9
$MEASUREMENT
 70
     1
  9
$CELWEIGHT
370
     0
  9
$ENDCAPS
280
     0
  9
$JOINSTYLE
280
     0
  9
$LWDISPLAY
290
     0
  9
$INSUNITS
 70
     0
  9
$HYPERLINKBASE
  1

  9
$STYLESHEET
  1

  9
$XEDIT
290
     1
  9
$CEPSNTYPE
380
     0
  9
$PSTYLEMODE
290
     1
  9
$FINGERPRINTGUID
  2

  9
$VERSIONGUID
  2
{95F0D1CD-4C8C-49CD-9585-C7B9589F269B}
  9
$EXTNAMES
290
     1
  9
$PSVPSCALE
 40
0.0
  9
$OLESTARTUP
290
     0
  0
ENDSEC
  0
SECTION
  2
CLASSES
  0
CLASS
  1
IMAGE
  2
AcDbRasterImage
  3
ISM
 90
    34943
280
     0
281
     1
  0
CLASS
  1
DICTIONARYVAR
  2
AcDbDictionaryVar
  3
ObjectDBX Classes
 90
        0
280
     0
281
     0
  0
CLASS
  1
RASTERVARIABLES
  2
AcDbRasterVariables
  3
ISM
 90
    32768
280
     0
281
     0
  0
CLASS
  1
IMAGEDEF
  2
AcDbRasterImageDef
  3
ISM
 90
    32768
280
     0
281
     0
  0
CLASS
  1
IMAGEDEF_REACTOR
  2
AcDbRasterImageDefReactor
  3
ISM
 90
    32769
280
     0
281
     0
  0
CLASS
  1
IDBUFFER
  2
AcDbIdBuffer
  3
ObjectDBX Classes
 90
    32768
280
     0
281
     0
  0
CLASS
  1
SPATIAL_FILTER
  2
AcDbSpatialFilter
  3
ObjectDBX Classes
 90
    32768
280
     0
281
     0
  0
CLASS
  1
SORTENTSTABLE
  2
AcDbSortentsTable
  3
ObjectDBX Classes
 90
        0
280
     0
281
     0
  0
CLASS
  1
LAYER_INDEX
  2
AcDbLayerIndex
  3
ObjectDBX Classes
 90
    32768
280
     0
281
     0
  0
CLASS
  1
SPATIAL_INDEX
  2
AcDbSpatialIndex
  3
ObjectDBX Classes
 90
    32768
280
     0
281
     0
  0
CLASS
  1
OBJECT_PTR
  2
CAseDLPNTableRecord
  3
ASE-LPNTableRecord
 90
    32769
280
     0
281
     0
  0
CLASS
  1
PLOTSETTINGS
  2
AcDbPlotSettings
  3
ObjectDBX Classes
 90
    32768
280
     0
281
     0
  0
CLASS
  1
ACDBDICTIONARYWDFLT
  2
AcDbDictionaryWithDefault
  3
ObjectDBX Classes
 90
        0
280
     0
281
     0
  0
CLASS
  1
WIPEOUT
  2
AcDbWipeout
  3
"WipeOut|Product Desc: Object Enabler for WipeOut entity                        |Company: Autodesk, Inc.                        |WEB Address: www.autodesk.com"
 90
    34943
280
     0
281
     1
  0
CLASS
  1
WIPEOUTVARIABLES
  2
AcDbWipeoutVariables
  3
"WipeOut|Product Desc:     WipeOut Dbx Application|Company:          Autodesk, Inc.|WEB Address:      www.autodesk.com"
 90
        0
280
     0
281
     0
  0
CLASS
  1
RTEXT
  2
RText
  3
RText|AutoCAD Express Tool|expresstools@autodesk.com
 90
    35839
280
     0
281
     1
  0
CLASS
  1
ARCALIGNEDTEXT
  2
AcDbArcAlignedText
  3
ATEXT|AutoCAD Express Tool|expresstools@autodesk.com
 90
    32768
280
     0
281
     1
  0
CLASS
  1
MATERIAL
  2
AcDbMaterial
  3
ObjectDBX Classes
 90
     1153
280
     0
281
     0
  0
CLASS
  1
VISUALSTYLE
  2
AcDbVisualStyle
  3
ObjectDBX Classes
 90
     4095
280
     0
281
     0
  0
CLASS
  1
TABLESTYLE
  2
AcDbTableStyle
  3
ObjectDBX Classes
 90
     4095
280
     0
281
     0
  0
CLASS
  1
SCALE
  2
AcDbScale
  3
ObjectDBX Classes
 90
     1153
280
     0
281
     0
  0
CLASS
  1
MLEADERSTYLE
  2
AcDbMLeaderStyle
  3
ACDB_MLEADERSTYLE_CLASS
 90
     4095
280
     0
281
     0
  0
CLASS
  1
CELLSTYLEMAP
  2
AcDbCellStyleMap
  3
ObjectDBX Classes
 90
     1152
280
     0
281
     0
  0
CLASS
  1
ACDBPLACEHOLDER
  2
AcDbPlaceHolder
  3
ObjectDBX Classes
 90
        0
280
     0
281
     0
  0
CLASS
  1
LAYOUT
  2
AcDbLayout
  3
ObjectDBX Classes
 90
        0
280
     0
281
     0
  0
ENDSEC
  0
SECTION
  2
TABLES
  0
TABLE
  2
VPORT
  5
7
330
0
100
AcDbSymbolTable
 70
     1
  0
VPORT
  5
15
330
7
100
AcDbSymbolTableRecord
100
AcDbViewportTableRecord
  2
*ACTIVE
 70
     0
 10
0.0
 20
0.0
 11
1.0
 21
1.0
 12
29.7223127964686
 22
13.96991038135991
 13
0.0
 23
0.0
 14
1.0
 24
1.0
 15
0.0
 25
0.0
 16
0.0
 26
0.0
 36
1.0
 17
0.0
 27
0.0
 37
0.0
 40
327.9256220088416
 41
1.611330698287219
 42
50.0
 43
0.0
 44
0.0
 50
0.0
 51
0.0
 71
     0
 72
   100
 73
     1
 74
     1
 75
     0
 76
     0
 77
     0
 78
     0
281
     0
 65
     0
110
0.0
120
0.0
130
0.0
111
1.0
121
0.0
131
0.0
112
0.0
122
1.0
132
0.0
 79
     0
146
0.0
  0
ENDTAB
  0
TABLE
  2
LTYPE
  5
4
330
0
100
AcDbSymbolTable
 70
     3
  0
LTYPE
  5
11
330
4
100
AcDbSymbolTableRecord
100
AcDbLinetypeTableRecord
  2
ByBlock
 70
     0
  3

 72
    65
 73
     0
 40
0.0
  0
LTYPE
  5
12
330
4
100
AcDbSymbolTableRecord
100
AcDbLinetypeTableRecord
  2
ByLayer
 70
     0
  3

 72
    65
 73
     0
 40
0.0
  0
LTYPE
  5
13
330
4
100
AcDbSymbolTableRecord
100
AcDbLinetypeTableRecord
  2
Continuous
 70
     0
  3
Solid line
 72
    65
 73
     0
 40
0.0
  0
LTYPE
  5
2A2
330
4
100
AcDbSymbolTableRecord
100
AcDbLinetypeTableRecord
  2
CENTER
 70
     0
  3
____ _ ____ _ ____ _ ____ _ ____ _ ____ _ ____
 72
    65
 73
     4
 40
2.0
 49
1.25
 74
     0
 49
-0.25
 74
     0
 49
0.25
 74
     0
 49
-0.25
 74
     0
  0
ENDTAB
  0
TABLE
  2
LAYER
  5
2
330
0
100
AcDbSymbolTable
 70
     1
  0
LAYER
  5
14
102
{ACAD_XDICTIONARY
360
72C9
102
}
330
2
100
AcDbSymbolTableRecord
100
AcDbLayerTableRecord
  2
0
 70
     0
 62
     7
  6
Continuous
370
    -3
390
1D
  0
ENDTAB
  0
TABLE
  2
STYLE
  5
3
330
0
100
AcDbSymbolTable
 70
     1
  0
STYLE
  5
17
330
3
100
AcDbSymbolTableRecord
100
AcDbTextStyleTableRecord
  2
Standard
 70
     0
 40
0.0
 41
1.0
 50
0.0
 71
     0
 42
0.0
  3
IsonormD
  4

1001
ACAD
1000
IsonormD
1071
        0
  0
ENDTAB
  0
TABLE
  2
VIEW
  5
5
330
0
100
AcDbSymbolTable
 70
     0
  0
ENDTAB
  0
TABLE
  2
UCS
  5
6
330
0
100
AcDbSymbolTable
 70
     0
  0
ENDTAB
  0
TABLE
  2
APPID
  5
8
330
0
100
AcDbSymbolTable
 70
     5
  0
APPID
  5
16
330
8
100
AcDbSymbolTableRecord
100
AcDbRegAppTableRecord
  2
ACAD
 70
     0
  0
APPID
  5
26
330
8
100
AcDbSymbolTableRecord
100
AcDbRegAppTableRecord
  2
TopSolid_Draft
 70
     0
  0
APPID
  5
39AF
330
8
100
AcDbSymbolTableRecord
100
AcDbRegAppTableRecord
  2
ACAD_MLEADERVER
 70
     0
  0
APPID
  5
72C7
330
8
100
AcDbSymbolTableRecord
100
AcDbRegAppTableRecord
  2
DCO15
 70
     0
  0
APPID
  5
7315
330
8
100
AcDbSymbolTableRecord
100
AcDbRegAppTableRecord
  2
ACAD_EXEMPT_FROM_CAD_STANDARDS
 70
     0
  0
ENDTAB
  0
TABLE
  2
DIMSTYLE
  5
9
330
0
100
AcDbSymbolTable
 70
     2
100
AcDbDimStyleTable
 71
     1
340
18
  0
DIMSTYLE
105
18
330
9
100
AcDbSymbolTableRecord
100
AcDbDimStyleTableRecord
  2
Standard
 70
     0
 41
1.25
 42
0.0
 44
0.75
 73
     0
 74
     0
 77
     1
140
2.5
146
0.8
147
1.25
176
     7
177
     7
178
     7
271
     2
340
17
  0
ENDTAB
  0
TABLE
  2
BLOCK_RECORD
  5
1
330
0
100
AcDbSymbolTable
 70
     3
  0
BLOCK_RECORD
  5
A
102
{ACAD_XDICTIONARY
360
39B7
102
}
330
1
100
AcDbSymbolTableRecord
100
AcDbBlockTableRecord
  2
*MODEL_SPACE
340
20
  0
BLOCK_RECORD
  5
B
330
1
100
AcDbSymbolTableRecord
100
AcDbBlockTableRecord
  2
*PAPER_SPACE
340
21
  0
ENDTAB
  0
ENDSEC
  0
SECTION
  2
BLOCKS
  0
BLOCK
  5
D
330
A
100
AcDbEntity
  8
0
100
AcDbBlockBegin
  2
*MODEL_SPACE
 70
     0
 10
0.0
 20
0.0
 30
0.0
  3
*MODEL_SPACE
  1

  0
ENDBLK
  5
E
330
A
100
AcDbEntity
  8
0
100
AcDbBlockEnd
  0
BLOCK
  5
F
330
B
100
AcDbEntity
 67
     1
  8
0
100
AcDbBlockBegin
  2
*PAPER_SPACE
 70
     0
 10
0.0
 20
0.0
 30
0.0
  3
*PAPER_SPACE
  1

  0
ENDBLK
  5
10
330
B
100
AcDbEntity
 67
     1
  8
0
100
AcDbBlockEnd
  0
ENDSEC
  0
SECTION
  2
ENTITIES
  0
LINE
  5
2D8B
330
A
100
AcDbEntity
  8
0
  6
CENTER
 62
     1
100
AcDbLine
 10
40.00430000000005
 20
69.75000000000017
 30
0.0
 11
40.00430000000005
 21
3.75000000000017
 31
0.0
  0
LINE
  5
2D8C
330
A
100
AcDbEntity
  8
0
  6
CENTER
 62
     1
100
AcDbLine
 10
34.25430000000006
 20
132.5000000000001
 30
0.0
 11
45.75430000000006
 21
132.5000000000001
 31
0.0
  0
LINE
  5
2D8D
330
A
100
AcDbEntity
  8
0
  6
CENTER
 62
     1
100
AcDbLine
 10
40.00430000000005
 20
126.7500000000001
 30
0.0
 11
40.00430000000005
 21
138.2500000000002
 31
0.0
  0
LINE
  5
2D8E
330
A
100
AcDbEntity
  8
0
  6
CENTER
 62
     1
100
AcDbLine
 10
-97.89570000000004
 20
0.0000000000001705
 30
0.0
 11
-88.59569999999985
 21
0.0000000000001705
 31
0.0
  0
LINE
  5
2D8F
330
A
100
AcDbEntity
  8
0
  6
CENTER
 62
     1
100
AcDbLine
 10
-97.74569999999995
 20
9.00000000000017
 30
0.0
 11
-88.74569999999994
 21
9.00000000000017
 31
0.0
  0
LINE
  5
2D90
330
A
100
AcDbEntity
  8
0
  6
CENTER
 62
     1
100
AcDbLine
 10
-97.74569999999995
 20
61.00000000000017
 30
0.0
 11
-88.74569999999994
 21
61.00000000000017
 31
0.0
  0
LINE
  5
2D91
330
A
100
AcDbEntity
  8
0
  6
CENTER
 62
     1
100
AcDbLine
 10
-97.89570000000004
 20
70.00000000000017
 30
0.0
 11
-88.59569999999985
 21
70.00000000000017
 31
0.0
  0
LINE
  5
2D92
330
A
100
AcDbEntity
  8
0
  6
CENTER
 62
     1
100
AcDbLine
 10
-57.89570000000003
 20
0.0000000000001705
 30
0.0
 11
-48.59569999999985
 21
0.0000000000001705
 31
0.0
  0
LINE
  5
2D93
330
A
100
AcDbEntity
  8
0
  6
CENTER
 62
     1
100
AcDbLine
 10
-57.74569999999994
 20
9.00000000000017
 30
0.0
 11
-48.74569999999994
 21
9.00000000000017
 31
0.0
  0
LINE
  5
2D94
330
A
100
AcDbEntity
  8
0
  6
CENTER
 62
     1
100
AcDbLine
 10
-57.74569999999994
 20
61.00000000000017
 30
0.0
 11
-48.74569999999994
 21
61.00000000000017
 31
0.0
  0
LINE
  5
2D95
330
A
100
AcDbEntity
  8
0
  6
CENTER
 62
     1
100
AcDbLine
 10
-57.89570000000003
 20
70.00000000000017
 30
0.0
 11
-48.59569999999985
 21
70.00000000000017
 31
0.0
  0
LINE
  5
2D96
330
A
100
AcDbEntity
  8
0
  6
CENTER
 62
     1
100
AcDbLine
 10
-53.24569999999994
 20
-4.649999999999835
 30
0.0
 11
-53.24569999999994
 21
13.50000000000017
 31
0.0
  0
LINE
  5
2D97
330
A
100
AcDbEntity
  8
0
  6
CENTER
 62
     1
100
AcDbLine
 10
-53.24569999999994
 20
56.50000000000017
 30
0.0
 11
-53.24569999999994
 21
74.65000000000014
 31
0.0
  0
LINE
  5
2D98
330
A
100
AcDbEntity
  8
0
  6
CENTER
 62
     1
100
AcDbLine
 10
-93.24569999999994
 20
-4.649999999999835
 30
0.0
 11
-93.24569999999994
 21
13.50000000000017
 31
0.0
  0
LINE
  5
2D99
330
A
100
AcDbEntity
  8
0
  6
CENTER
 62
     1
100
AcDbLine
 10
-93.24569999999994
 20
56.50000000000017
 30
0.0
 11
-93.24569999999994
 21
74.65000000000014
 31
0.0
  0
LINE
  5
2D9A
330
A
100
AcDbEntity
  8
0
  6
CENTER
 62
     1
100
AcDbLine
 10
89.75430000000006
 20
0.0000000000001705
 30
0.0
 11
103.7543
 21
0.0000000000001705
 31
0.0
  0
LINE
  5
2D9B
330
A
100
AcDbEntity
  8
0
  6
CENTER
 62
     1
100
AcDbLine
 10
92.25430000000006
 20
9.00000000000017
 30
0.0
 11
101.2543
 21
9.00000000000017
 31
0.0
  0
LINE
  5
2D9C
330
A
100
AcDbEntity
  8
0
  6
CENTER
 62
     1
100
AcDbLine
 10
93.00430000000005
 20
61.00000000000017
 30
0.0
 11
100.5043
 21
61.00000000000017
 31
0.0
  0
LINE
  5
2D9D
330
A
100
AcDbEntity
  8
0
  6
CENTER
 62
     1
100
AcDbLine
 10
89.75430000000006
 20
70.00000000000017
 30
0.0
 11
103.7543
 21
70.00000000000017
 31
0.0
  0
LINE
  5
2D9E
330
A
100
AcDbEntity
  8
0
  6
CENTER
 62
     1
100
AcDbLine
 10
129.7543
 20
0.0000000000001705
 30
0.0
 11
143.7543
 21
0.0000000000001705
 31
0.0
  0
LINE
  5
2D9F
330
A
100
AcDbEntity
  8
0
  6
CENTER
 62
     1
100
AcDbLine
 10
133.0043
 20
9.00000000000017
 30
0.0
 11
140.5043
 21
9.00000000000017
 31
0.0
  0
LINE
  5
2DA0
330
A
100
AcDbEntity
  8
0
  6
CENTER
 62
     1
100
AcDbLine
 10
132.2543
 20
61.00000000000017
 30
0.0
 11
141.2543
 21
61.00000000000017
 31
0.0
  0
LINE
  5
2DA1
330
A
100
AcDbEntity
  8
0
  6
CENTER
 62
     1
100
AcDbLine
 10
129.7543
 20
70.00000000000017
 30
0.0
 11
143.7543
 21
70.00000000000017
 31
0.0
  0
LINE
  5
2DA2
330
A
100
AcDbEntity
  8
0
  6
CENTER
 62
     1
100
AcDbLine
 10
136.7543
 20
-6.999999999999829
 30
0.0
 11
136.7543
 21
12.75000000000017
 31
0.0
  0
LINE
  5
2DA3
330
A
100
AcDbEntity
  8
0
  6
CENTER
 62
     1
100
AcDbLine
 10
136.7543
 20
56.50000000000017
 30
0.0
 11
136.7543
 21
77.00000000000017
 31
0.0
  0
LINE
  5
2DA4
330
A
100
AcDbEntity
  8
0
  6
CENTER
 62
     1
100
AcDbLine
 10
96.75430000000005
 20
-6.999999999999829
 30
0.0
 11
96.75430000000005
 21
13.50000000000017
 31
0.0
  0
LINE
  5
2DA5
330
A
100
AcDbEntity
  8
0
  6
CENTER
 62
     1
100
AcDbLine
 10
96.75430000000005
 20
57.25000000000017
 30
0.0
 11
96.75430000000005
 21
77.00000000000017
 31
0.0
  0
LINE
  5
2DA6
330
A
100
AcDbEntity
  8
0
  6
CENTER
 62
     1
100
AcDbLine
 10
35.09621100000004
 20
-59.99999999999983
 30
0.0
 11
44.91238900000007
 21
-59.99999999999983
 31
0.0
  0
LINE
  5
2DA7
330
A
100
AcDbEntity
  8
0
  6
CENTER
 62
     1
100
AcDbLine
 10
40.00430000000005
 20
-64.90808899999982
 30
0.0
 11
40.00430000000005
 21
-55.09191099999984
 31
0.0
  0
ELLIPSE
  5
44DD
330
A
100
AcDbEntity
  8
0
  6
Continuous
 62
     7
100
AcDbEllipse
 10
134.8144730000001
 20
-83.28307099999983
 30
0.0
 11
11.39999999999985
 21
0.0
 31
0.0
210
0.0
220
0.0
230
1.0
 40
0.4082480000000001
 41
4.401314443199209
 42
4.822317402328097
  0
ELLIPSE
  5
44DE
330
A
100
AcDbEntity
  8
0
  6
Continuous
 62
     7
100
AcDbEllipse
 10
131.570007
 20
-87.40280899999985
 30
0.0
 11
-0.7999999999999119
 21
0.0
 31
-0.0000000000000001
210
-0.0000000000000001
220
0.0
230
1.0
 40
0.4082480000000001
 41
0.7647517109784002
 42
1.259721789609405
  0
ELLIPSE
  5
44DF
330
A
100
AcDbEntity
  8
0
  6
Continuous
 62
     7
100
AcDbEllipse
 10
128.1065460000002
 20
-88.75954799999982
 30
0.0
 11
-4.000000000000004
 21
0.0
 31
0.0
210
0.0
220
0.0
230
1.0
 40
0.4082480000000002
 41
3.906344364568136
 42
4.591107551640311
  0
ELLIPSE
  5
44E0
330
A
100
AcDbEntity
  8
0
  6
Continuous
 62
     7
100
AcDbEllipse
 10
128.6872710000002
 20
-86.81434999999982
 30
0.0
 11
-0.7999999999999119
 21
0.0
 31
0.0
210
0.0
220
0.0
230
1.0
 40
0.4082480000000001
 41
0.9542370058606319
 42
1.449514898050412
  0
ELLIPSE
  5
44E1
330
A
100
AcDbEntity
  8
0
  6
Continuous
 62
     7
100
AcDbEllipse
 10
134.8165240000001
 20
-83.28371699999982
 30
0.0
 11
11.39999999999985
 21
0.0
 31
0.0
210
0.0
220
0.0
230
1.0
 40
0.4082480000000001
 41
3.178187829899361
 42
4.095829659450325
  0
ELLIPSE
  5
44E2
330
A
100
AcDbEntity
  8
0
  6
Continuous
 62
     7
100
AcDbEllipse
 10
124.2779560000001
 20
-82.81849499999982
 30
0.0
 11
-0.8000000000001339
 21
0.0
 31
0.0
210
0.0
220
0.0
230
1.0
 40
0.4082480000000001
 41
4.942018176118867
 42
5.307657630879472
  0
ELLIPSE
  5
44E3
330
A
100
AcDbEntity
  8
0
  6
Continuous
 62
     7
100
AcDbEllipse
 10
123.1853970000002
 20
-80.91034099999982
 30
0.0
 11
-4.000000000000004
 21
0.0
 31
0.0
210
0.0
220
0.0
230
1.0
 40
0.4082480000000002
 41
1.800425522529135
 42
2.65894769096393
  0
ELLIPSE
  5
44E4
330
A
100
AcDbEntity
  8
0
  6
Continuous
 62
     7
100
AcDbEllipse
 10
134.8144730000001
 20
-92.04663199999993
 30
0.0
 11
11.39999999999985
 21
0.0
 31
0.0
210
0.0
220
0.0
230
1.0
 40
0.4082480000000001
 41
4.401314443199209
 42
4.822317402328097
  0
LINE
  5
44E5
330
A
100
AcDbEntity
  8
0
  6
Continuous
 62
     9
100
AcDbLine
 10
131.325141
 20
-87.71373299999984
 30
0.0
 11
131.325141
 21
-96.47729399999983
 31
0.0
  0
ELLIPSE
  5
44E6
330
A
100
AcDbEntity
  8
0
  6
Continuous
 62
     7
100
AcDbEllipse
 10
131.570007
 20
-96.16636999999983
 30
0.0
 11
0.8000000000001339
 21
0.0
 31
0.0
210
0.0
220
0.0
230
1.0
 40
0.4082480000000001
 41
3.906344364568193
 42
4.401314443199199
  0
LINE
  5
44E7
330
A
100
AcDbEntity
  8
0
  6
Continuous
 62
     9
100
AcDbLine
 10
130.9927630000002
 20
-96.39249299999983
 30
0.0
 11
130.9927630000002
 21
-87.62893199999984
 31
0.0
  0
LINE
  5
44E8
330
A
100
AcDbEntity
  8
0
  6
Continuous
 62
     9
100
AcDbLine
 10
128.5904830000001
 20
-87.13854999999984
 30
0.0
 11
128.5904830000001
 21
-95.90211099999985
 31
0.0
  0
ELLIPSE
  5
44E9
330
A
100
AcDbEntity
  8
0
  6
Continuous
 62
     7
100
AcDbEllipse
 10
128.1065460000002
 20
-97.52310899999983
 30
0.0
 11
-4.000000000000004
 21
0.0
 31
-0.0000000000000003
210
-0.0000000000000001
220
0.0
230
1.0
 40
0.4082480000000002
 41
3.906344364568143
 42
4.59110755164032
  0
ELLIPSE
  5
44EA
330
A
100
AcDbEntity
  8
0
  6
Continuous
 62
     7
100
AcDbEllipse
 10
128.6872710000002
 20
-95.57791099999983
 30
0.0
 11
0.7999999999999119
 21
0.0
 31
0.0
210
0.0
220
0.0
230
1.0
 40
0.4082480000000001
 41
4.095829659450425
 42
4.591107551640217
  0
LINE
  5
44EB
330
A
100
AcDbEntity
  8
0
  6
Continuous
 62
     9
100
AcDbLine
 10
128.224686
 20
-95.84437399999982
 30
0.0
 11
128.224686
 21
-87.0808129999998
 31
0.0
  0
ELLIPSE
  5
44EC
330
A
100
AcDbEntity
  8
0
  6
Continuous
 62
     7
100
AcDbEllipse
 10
134.8165240000001
 20
-92.04727699999983
 30
0.0
 11
11.39999999999985
 21
0.0
 31
0.0
210
0.0
220
0.0
230
1.0
 40
0.4082480000000001
 41
3.141592653589792
 42
4.095829659450322
  0
ELLIPSE
  5
44ED
330
A
100
AcDbEntity
  8
0
  6
Continuous
 62
     7
100
AcDbEllipse
 10
156.63696
 20
-65.82970999999983
 30
0.0
 11
0.2799999998681635
 21
1.371714255985448
 31
0.0000000000000001
210
0.0
220
-0.0000000000000001
230
1.0
 40
0.4082480000000002
 41
5.819537698414249
 42
9.888424909038167
  0
ELLIPSE
  5
44EE
330
A
100
AcDbEntity
  8
0
  6
Continuous
 62
     7
100
AcDbEllipse
 10
156.63696
 20
-65.82970999999983
 30
0.0
 11
0.2799999998681635
 21
1.371714255985448
 31
0.0
210
0.0
220
0.0
230
1.0
 40
0.4082480000000002
 41
3.605239601858578
 42
5.819537698414249
  0
ELLIPSE
  5
44EF
330
A
100
AcDbEntity
  8
0
  6
Continuous
 62
     7
100
AcDbEllipse
 10
142.326125
 20
-115.4898889999998
 30
0.0
 11
0.2799999998681635
 21
1.37171425598549
 31
0.0
210
0.0
220
0.0
230
1.0
 40
0.4082480000000002
 41
5.819537698413991
 42
9.888424908623797
  0
ELLIPSE
  5
44F0
330
A
100
AcDbEntity
  8
0
  6
Continuous
 62
     7
100
AcDbEllipse
 10
142.326125
 20
-115.4898889999998
 30
0.0
 11
0.2799999998681635
 21
1.371714255985478
 31
-0.0000000000000001
210
0.0
220
0.0000000000000001
230
1.0
 40
0.4082480000000002
 41
3.605239601444211
 42
5.819537698413991
  0
ELLIPSE
  5
44F1
330
A
100
AcDbEntity
  8
0
  6
Continuous
 62
     7
100
AcDbEllipse
 10
122.795413
 20
-81.19588399999983
 30
0.0
 11
-4.559999999999896
 21
0.0000000001984246
 31
0.0
210
0.0
220
0.0
230
1.0
 40
0.4082480000000002
 41
3.672171375326152
 42
3.74528474922193
  0
ELLIPSE
  5
44F2
330
A
100
AcDbEntity
  8
0
  6
Continuous
 62
     7
100
AcDbEllipse
 10
122.795413
 20
-81.19588399999983
 30
0.0
 11
4.240000000000021
 21
-0.0000000001845191
 31
0.0000000000000003
210
-0.0000000000000001
220
0.0000000000000001
230
1.0
 40
0.4082480000000002
 41
0.3828338193893783
 42
0.5616225911885515
  0
ELLIPSE
  5
44F3
330
A
100
AcDbEntity
  8
0
  6
Continuous
 62
     7
100
AcDbEllipse
 10
122.795413
 20
-81.41497299999983
 30
0.0
 11
-4.000000000000004
 21
0.0000000001740552
 31
0.0
210
0.0
220
0.0
230
1.0
 40
0.4082480000000002
 41
3.324789294876296
 42
3.736651619034156
  0
ELLIPSE
  5
44F4
330
A
100
AcDbEntity
  8
0
  6
Continuous
 62
     7
100
AcDbEllipse
 10
122.795413
 20
-89.01005899999985
 30
0.0
 11
-4.799999999999914
 21
0.0000000002088885
 31
0.0
210
0.0
220
0.0
230
1.0
 40
0.4082480000000002
 41
1.548433783995099
 42
1.700558256888928
  0
ELLIPSE
  5
44F5
330
A
100
AcDbEntity
  8
0
  6
Continuous
 62
     7
100
AcDbEllipse
 10
122.795413
 20
-89.22914799999984
 30
0.0
 11
4.559999999999896
 21
-0.0000000001984524
 31
-0.0000000000000003
210
0.0000000000000001
220
0.0
230
1.0
 40
0.4082480000000002
 41
4.688849249645532
 42
4.855460764336052
  0
ELLIPSE
  5
44F6
330
A
100
AcDbEntity
  8
0
  6
Continuous
 62
     9
100
AcDbEllipse
 10
122.795413
 20
-74.98836199999985
 30
0.0
 11
2.399999999999957
 21
-0.0000000000347222
 31
-0.0000000000000002
210
0.0000000000000001
220
0.0000000000000001
230
1.0
 40
0.4082480000000002
 41
5.819537698626706
 42
6.283182048747692
  0
ELLIPSE
  5
44F7
330
A
100
AcDbEntity
  8
0
  6
Continuous
 62
     9
100
AcDbEllipse
 10
122.795413
 20
-74.98836199999985
 30
0.0
 11
2.399999999999957
 21
-0.0000000000347222
 31
-0.0000000000000002
210
0.0000000000000001
220
0.0
230
1.0
 40
0.4082480000000002
 41
5.157785517983346
 42
5.819537698626706
  0
ELLIPSE
  5
44F8
330
A
100
AcDbEntity
  8
0
  6
Continuous
 62
     9
100
AcDbEllipse
 10
122.795413
 20
-95.43667099999982
 30
0.0
 11
-2.399999999999957
 21
0.0000000000347222
 31
-0.0000000000000002
210
-0.0000000000000001
220
0.0
230
1.0
 40
0.4082480000000002
 41
2.016192864530105
 42
3.14159265358977
  0
ELLIPSE
  5
44F9
330
A
100
AcDbEntity
  8
0
  6
Continuous
 62
     7
100
AcDbEllipse
 10
122.795413
 20
-81.92618099999984
 30
0.0
 11
-4.000000000000004
 21
0.0000000001159628
 31
0.0
210
0.0
220
0.0
230
1.0
 40
0.4082480000000002
 41
3.324789294854411
 42
4.068887871597373
  0
ELLIPSE
  5
44FA
330
A
100
AcDbEntity
  8
0
  6
Continuous
 62
     7
100
AcDbEllipse
 10
122.795413
 20
-81.92618099999984
 30
0.0
 11
2.399999999999957
 21
-0.0000000000695832
 31
-0.0000000000000002
210
0.0000000000000001
220
0.0
230
1.0
 40
0.4082480000000002
 41
5.799577172264709
 42
6.283185307179597
  0
LINE
  5
44FB
330
A
100
AcDbEntity
  8
0
  6
Continuous
 62
     7
100
AcDbLine
 10
151.228887
 20
-89.96339599999982
 30
0.0
 11
150.9190480000002
 21
-89.12093399999983
 31
0.0
  0
LINE
  5
44FC
330
A
100
AcDbEntity
  8
0
  6
Continuous
 62
     7
100
AcDbLine
 10
151.8485640000001
 20
-89.45743099999985
 30
0.0
 11
151.228887
 21
-89.96339599999982
 31
0.0
  0
LINE
  5
44FD
330
A
100
AcDbEntity
  8
0
  6
Continuous
 62
     7
100
AcDbLine
 10
152.1584029999999
 20
-88.10900399999983
 30
0.0
 11
151.8485640000001
 21
-89.45743099999985
 31
0.0
  0
LINE
  5
44FE
330
A
100
AcDbEntity
  8
0
  6
Continuous
 62
     7
100
AcDbLine
 10
151.8485640000001
 20
-87.26654099999981
 30
0.0
 11
152.1584029999999
 21
-88.10900399999983
 31
0.0
  0
LINE
  5
44FF
330
A
100
AcDbEntity
  8
0
  6
Continuous
 62
     7
100
AcDbLine
 10
151.2288860000001
 20
-87.77250699999985
 30
0.0
 11
151.8485640000001
 21
-87.26654099999981
 31
0.0
  0
LINE
  5
4500
330
A
100
AcDbEntity
  8
0
  6
Continuous
 62
     7
100
AcDbLine
 10
150.9190480000002
 20
-89.12093399999983
 30
0.0
 11
151.2288860000001
 21
-87.77250699999985
 31
0.0
  0
ELLIPSE
  5
4501
330
A
100
AcDbEntity
  8
0
  6
Continuous
 62
     7
100
AcDbEllipse
 10
151.5387250000001
 20
-88.61496899999982
 30
0.0
 11
-0.559999999736327
 21
-2.743428511970956
 31
0.0000000000000001
210
0.0
220
0.0
230
1.0
 40
0.4082480000000002
 41
3.141592653589792
 42
3.605240921195151
  0
ELLIPSE
  5
4502
330
A
100
AcDbEntity
  8
0
  6
Continuous
 62
     7
100
AcDbEllipse
 10
151.5387250000001
 20
-88.61496899999982
 30
0.0
 11
-0.559999999736327
 21
-2.743428511970956
 31
0.0
210
0.0
220
0.0
230
1.0
 40
0.4082480000000002
 41
3.605240921195151
 42
6.283185307179584
  0
ELLIPSE
  5
4503
330
A
100
AcDbEntity
  8
0
  6
Continuous
 62
     7
100
AcDbEllipse
 10
151.5387250000001
 20
-88.61496899999982
 30
0.0
 11
-0.559999999736327
 21
-2.743428511970956
 31
0.0
210
0.0
220
0.0
230
1.0
 40
0.4082480000000002
 41
2.701390279949001
 42
3.141592653589792
  0
ELLIPSE
  5
4504
330
A
100
AcDbEntity
  8
0
  6
Continuous
 62
     7
100
AcDbEllipse
 10
151.5387250000001
 20
-88.61496899999982
 30
0.0
 11
-0.559999999736327
 21
-2.743428511970956
 31
0.0000000000000001
210
0.0
220
0.0
230
1.0
 40
0.4082480000000002
 41
1.367497591752427
 42
2.701390279949001
  0
ELLIPSE
  5
4505
330
A
100
AcDbEntity
  8
0
  6
Continuous
 62
     7
100
AcDbEllipse
 10
151.5387250000001
 20
-88.61496899999982
 30
0.0
 11
-0.559999999736327
 21
-2.743428511970956
 31
-0.0000000000000002
210
0.0000000000000001
220
-0.0000000000000001
230
1.0
 40
0.4082480000000002
 41
0.0
 42
1.367497591752427
  0
LINE
  5
4506
330
A
100
AcDbEntity
  8
0
  6
Continuous
 62
     7
100
AcDbLine
 10
151.8485640000001
 20
-89.45743099999985
 30
0.0
 11
150.977404
 21
-89.27960599999982
 31
0.0
  0
LINE
  5
4507
330
A
100
AcDbEntity
  8
0
  6
Continuous
 62
     7
100
AcDbLine
 10
152.1584029999999
 20
-88.10900399999983
 30
0.0
 11
151.1966750000001
 21
-87.91269199999982
 31
0.0
  0
ELLIPSE
  5
4508
330
A
100
AcDbEntity
  8
0
  6
Continuous
 62
     7
100
AcDbEllipse
 10
146.7088189999999
 20
-92.55857099999984
 30
0.0
 11
-0.5599999997365491
 21
-2.743428511970931
 31
0.0000000000000002
210
0.0
220
0.0000000000000001
230
1.0
 40
0.4082480000000002
 41
6.048610444785222
 42
6.283185307179584
  0
ELLIPSE
  5
4509
330
A
100
AcDbEntity
  8
0
  6
Continuous
 62
     7
100
AcDbEllipse
 10
146.7088189999999
 20
-92.55857099999984
 30
0.0
 11
-0.5599999997365491
 21
-2.743428511970931
 31
-0.0000000000000001
210
0.0
220
0.0
230
1.0
 40
0.4082480000000002
 41
3.605240921499853
 42
4.303462733907339
  0
ELLIPSE
  5
450A
330
A
100
AcDbEntity
  8
0
  6
Continuous
 62
     7
100
AcDbEllipse
 10
146.7088189999999
 20
-92.55857099999984
 30
0.0
 11
-0.5599999997365491
 21
-2.743428511970931
 31
0.0
210
0.0
220
0.0
230
1.0
 40
0.4082480000000002
 41
0.000000000000002
 42
3.141592653589633
  0
ELLIPSE
  5
450B
330
A
100
AcDbEntity
  8
0
  6
Continuous
 62
     7
100
AcDbEllipse
 10
146.7088189999999
 20
-92.55857099999984
 30
0.0
 11
-0.5599999997365491
 21
-2.743428511970931
 31
0.0
210
0.0
220
0.0
230
1.0
 40
0.4082480000000002
 41
3.141592653589792
 42
3.605240921499851
  0
LINE
  5
450C
330
A
100
AcDbEntity
  8
0
  6
Continuous
 62
     7
100
AcDbLine
 10
146.3989800000002
 20
-93.90699899999985
 30
0.0
 11
146.0891410000001
 21
-93.06453699999982
 31
0.0
  0
LINE
  5
450D
330
A
100
AcDbEntity
  8
0
  6
Continuous
 62
     7
100
AcDbLine
 10
147.0186579999999
 20
-93.40103299999984
 30
0.0
 11
146.3989800000002
 21
-93.90699899999985
 31
0.0
  0
LINE
  5
450E
330
A
100
AcDbEntity
  8
0
  6
Continuous
 62
     7
100
AcDbLine
 10
147.3284960000001
 20
-92.05260599999983
 30
0.0
 11
147.0186579999999
 21
-93.40103299999984
 31
0.0
  0
LINE
  5
450F
330
A
100
AcDbEntity
  8
0
  6
Continuous
 62
     7
100
AcDbLine
 10
147.018657
 20
-91.21014399999982
 30
0.0
 11
147.3284960000001
 21
-92.05260599999983
 31
0.0
  0
LINE
  5
4510
330
A
100
AcDbEntity
  8
0
  6
Continuous
 62
     7
100
AcDbLine
 10
146.3989800000002
 20
-91.71610899999985
 30
0.0
 11
147.018657
 21
-91.21014399999982
 31
0.0
  0
LINE
  5
4511
330
A
100
AcDbEntity
  8
0
  6
Continuous
 62
     7
100
AcDbLine
 10
146.0891410000001
 20
-93.06453699999982
 30
0.0
 11
146.3989800000002
 21
-91.71610899999985
 31
0.0
  0
LINE
  5
4512
330
A
100
AcDbEntity
  8
0
  6
Continuous
 62
     7
100
AcDbLine
 10
147.0186579999999
 20
-93.40103299999984
 30
0.0
 11
146.1474970000001
 21
-93.22320899999983
 31
0.0
  0
LINE
  5
4513
330
A
100
AcDbEntity
  8
0
  6
Continuous
 62
     7
100
AcDbLine
 10
147.3284960000001
 20
-92.05260599999983
 30
0.0
 11
146.3667680000001
 21
-91.85629399999982
 31
0.0
  0
ELLIPSE
  5
4514
330
A
100
AcDbEntity
  8
0
  6
Continuous
 62
     7
100
AcDbEllipse
 10
100.8247039999998
 20
-48.22955899999982
 30
0.0
 11
3.035786556666365
 21
-3.718064009987421
 31
0.0
210
-0.0000000000000001
220
0.0
230
1.0
 40
0.816497
 41
2.356194489554184
 42
3.141592653589794
  0
LINE
  5
4515
330
A
100
AcDbEntity
  8
0
  6
Continuous
 62
     7
100
AcDbLine
 10
139.821729
 20
-51.80801299999981
 30
0.0
 11
100.8247039999998
 21
-43.84777899999983
 31
0.0
  0
ELLIPSE
  5
4516
330
A
100
AcDbEntity
  8
0
  6
Continuous
 62
     7
100
AcDbEllipse
 10
139.821729
 20
-55.82464499999983
 30
0.0
 11
2.782804343610667
 21
-3.408225342488385
 31
0.0
210
0.0
220
0.0
230
1.0
 40
0.816497
 41
0.7853981627592908
 42
2.356194489554204
  0
ELLIPSE
  5
4517
330
A
100
AcDbEntity
  8
0
  6
Continuous
 62
     7
100
AcDbEllipse
 10
139.821729
 20
-55.82464499999983
 30
0.0
 11
2.782804343610667
 21
-3.408225342488385
 31
-0.0000000000000002
210
0.0
220
-0.0000000000000001
230
1.0
 40
0.816497
 41
6.120761850842867
 42
6.283185307179541
  0
LINE
  5
4518
330
A
100
AcDbEntity
  8
0
  6
Continuous
 62
     9
100
AcDbLine
 10
140.5372710000001
 20
-51.22377599999984
 30
0.0
 11
140.1794999999999
 21
-51.51589399999983
 31
0.0
  0
LINE
  5
4519
330
A
100
AcDbEntity
  8
0
  6
Continuous
 62
     9
100
AcDbLine
 10
140.1794999999999
 20
-51.51589399999983
 30
0.0
 11
139.821729
 21
-51.80801299999981
 31
0.0
  0
ELLIPSE
  5
451A
330
A
100
AcDbEntity
  8
0
  6
Continuous
 62
     7
100
AcDbEllipse
 10
140.5372710000001
 20
-55.24040799999983
 30
0.0
 11
2.782804343610888
 21
-3.408225342488496
 31
0.0
210
0.0
220
0.0
230
1.0
 40
0.8164970000000002
 41
0.7853981627592576
 42
2.356194489554164
  0
LINE
  5
451B
330
A
100
AcDbEntity
  8
0
  6
Continuous
 62
     9
100
AcDbLine
 10
144.472751
 20
-56.04373399999983
 30
0.0
 11
144.11498
 21
-56.33585299999984
 31
0.0
  0
LINE
  5
451C
330
A
100
AcDbEntity
  8
0
  6
Continuous
 62
     9
100
AcDbLine
 10
144.11498
 20
-56.33585299999984
 30
0.0
 11
143.7572090000001
 21
-56.62797199999983
 31
0.0
  0
LINE
  5
451D
330
A
100
AcDbEntity
  8
0
  6
Continuous
 62
     9
100
AcDbLine
 10
101.5402449999999
 20
-43.26354099999983
 30
0.0
 11
101.182475
 21
-43.55565999999984
 31
0.0
  0
LINE
  5
451E
330
A
100
AcDbEntity
  8
0
  6
Continuous
 62
     9
100
AcDbLine
 10
101.182475
 20
-43.55565999999984
 30
0.0
 11
100.8247039999998
 21
-43.84777899999983
 31
0.0
  0
LINE
  5
451F
330
A
100
AcDbEntity
  8
0
  6
Continuous
 62
     7
100
AcDbLine
 10
140.5372710000001
 20
-51.22377599999984
 30
0.0
 11
101.5402449999999
 21
-43.26354099999983
 31
0.0
  0
ELLIPSE
  5
4520
330
A
100
AcDbEntity
  8
0
  6
Continuous
 62
     7
100
AcDbEllipse
 10
140.5372710000001
 20
-55.24040799999983
 30
0.0
 11
2.782804343610889
 21
-3.408225342488466
 31
0.0000000000000002
210
0.0
220
0.0
230
1.0
 40
0.816497
 41
6.28318530717958
 42
7.068583469938848
  0
ELLIPSE
  5
4521
330
A
100
AcDbEntity
  8
0
  6
Continuous
 62
     7
100
AcDbEllipse
 10
139.821729
 20
-55.82464499999983
 30
0.0
 11
2.782804343610667
 21
-3.408225342488385
 31
0.0000000000000002
210
0.0
220
0.0
230
1.0
 40
0.816497
 41
6.283185307179542
 42
7.068583469938875
  0
ELLIPSE
  5
4522
330
A
100
AcDbEntity
  8
0
  6
Continuous
 62
     7
100
AcDbEllipse
 10
100.8247039999998
 20
-48.22955899999982
 30
0.0
 11
3.035786556666365
 21
-3.718064009987421
 31
-0.0000000000000002
210
0.0
220
-0.0000000000000001
230
1.0
 40
0.816497
 41
3.141592653589792
 42
3.455296548811716
  0
ELLIPSE
  5
4523
330
A
100
AcDbEntity
  8
0
  6
Continuous
 62
     7
100
AcDbEllipse
 10
101.5402449999999
 20
-47.64532199999982
 30
0.0
 11
3.035786556666363
 21
-3.718064009987531
 31
0.0
210
-0.0000000000000001
220
0.0
230
1.0
 40
0.816497
 41
2.356194489554102
 42
3.141592653589716
  0
LINE
  5
4524
330
A
100
AcDbEntity
  8
0
  6
Continuous
 62
     7
100
AcDbLine
 10
122.6880820000001
 20
-91.69024799999982
 30
0.0
 11
123.416524
 21
-91.09547799999985
 31
0.0
  0
LINE
  5
4525
330
A
100
AcDbEntity
  8
0
  6
Continuous
 62
     7
100
AcDbLine
 10
123.8687259999999
 20
-93.34507799999983
 30
0.0
 11
123.8687259999999
 21
-97.48150199999983
 31
0.0
  0
LINE
  5
4526
330
A
100
AcDbEntity
  8
0
  6
Continuous
 62
     7
100
AcDbLine
 10
123.8687259999999
 20
-97.48150199999983
 30
0.0
 11
126.015351
 21
-95.72878899999981
 31
0.0
  0
LINE
  5
4527
330
A
100
AcDbEntity
  8
0
  6
Continuous
 62
     7
100
AcDbLine
 10
126.015351
 20
-95.72878899999981
 30
0.0
 11
126.015351
 21
-95.00529899999984
 31
0.0
  0
LINE
  5
4528
330
A
100
AcDbEntity
  8
0
  6
Continuous
 62
     7
100
AcDbLine
 10
126.015351
 20
-80.57513199999982
 30
0.0
 11
126.7284789999999
 21
-79.99286599999982
 31
0.0
  0
LINE
  5
4529
330
A
100
AcDbEntity
  8
0
  6
Continuous
 62
     7
100
AcDbLine
 10
126.015351
 20
-80.57513199999982
 30
0.0
 11
126.015351
 21
-73.81988699999985
 31
0.0
  0
LINE
  5
452A
330
A
100
AcDbEntity
  8
0
  6
Continuous
 62
     7
100
AcDbLine
 10
123.8687259999999
 20
-75.57259899999983
 30
0.0
 11
126.015351
 21
-73.81988699999985
 31
0.0
  0
LINE
  5
452B
330
A
100
AcDbEntity
  8
0
  6
Continuous
 62
     7
100
AcDbLine
 10
123.8687259999999
 20
-75.57259899999983
 30
0.0
 11
123.8687259999999
 21
-82.32784399999983
 31
0.0
  0
LINE
  5
452C
330
A
100
AcDbEntity
  8
0
  6
Continuous
 62
     7
100
AcDbLine
 10
123.829371
 20
-82.35997699999984
 30
0.0
 11
123.8687259999999
 21
-82.32784399999983
 31
0.0
  0
LINE
  5
452D
330
A
100
AcDbEntity
  8
0
  6
Continuous
 62
     7
100
AcDbLine
 10
122.6880820000001
 20
-84.05499599999982
 30
0.0
 11
122.6880820000001
 21
-91.69024799999982
 31
0.0
  0
LINE
  5
452E
330
A
100
AcDbEntity
  8
0
  6
Continuous
 62
     7
100
AcDbLine
 10
124.9420380000001
 20
-101.3520739999998
 30
0.0
 11
126.7284789999999
 21
-99.89345199999982
 31
0.0
  0
LINE
  5
452F
330
A
100
AcDbEntity
  8
0
  6
Continuous
 62
     7
100
AcDbLine
 10
124.9420380000001
 20
-104.0176569999998
 30
0.0
 11
124.9420380000001
 21
-101.3520739999998
 31
0.0
  0
LINE
  5
4530
330
A
100
AcDbEntity
  8
0
  6
Continuous
 62
     7
100
AcDbLine
 10
124.437582
 20
-104.4295449999998
 30
0.0
 11
124.9420380000001
 21
-104.0176569999998
 31
0.0
  0
LINE
  5
4531
330
A
100
AcDbEntity
  8
0
  6
Continuous
 62
     7
100
AcDbLine
 10
124.2265039999999
 20
-102.6666099999998
 30
0.0
 11
124.2265039999999
 21
-103.5064509999998
 31
0.0
  0
ELLIPSE
  5
4532
330
A
100
AcDbEntity
  8
0
  6
Continuous
 62
     7
100
AcDbEllipse
 10
123.868733
 20
-102.9587289999998
 30
0.0
 11
-0.1599999997545787
 21
-0.7838367177407103
 31
0.0
210
0.0
220
0.0
230
1.0
 40
0.4082480000000002
 41
3.141592653589792
 42
3.715483427204476
  0
LINE
  5
4533
330
A
100
AcDbEntity
  8
0
  6
Continuous
 62
     7
100
AcDbLine
 10
122.258757
 20
-84.4055379999998
 30
0.0
 11
122.258757
 21
-93.02669199999982
 31
0.0
  0
LINE
  5
4534
330
A
100
AcDbEntity
  8
0
  6
Continuous
 62
     7
100
AcDbLine
 10
126.015351
 20
-80.57513199999982
 30
0.0
 11
125.1954130000001
 21
-80.40776299999981
 31
0.0
  0
LINE
  5
4535
330
A
100
AcDbEntity
  8
0
  6
Continuous
 62
     7
100
AcDbLine
 10
125.1881150000001
 20
-95.55993099999984
 30
0.0
 11
126.015351
 21
-95.72878899999981
 31
0.0
  0
ELLIPSE
  5
4536
330
A
100
AcDbEntity
  8
0
  6
Continuous
 62
     7
100
AcDbEllipse
 10
123.868733
 20
-102.9587289999998
 30
0.0
 11
-0.1599999997545787
 21
-0.7838367177407103
 31
0.0
210
0.0
220
0.0
230
1.0
 40
0.4082480000000002
 41
2.034443935667934
 42
3.141592653589792
  0
LINE
  5
4537
330
A
100
AcDbEntity
  8
0
  6
Continuous
 62
     9
100
AcDbLine
 10
124.2265039999999
 20
-102.6666099999998
 30
0.0
 11
123.829371
 21
-102.5855459999998
 31
0.0
  0
ELLIPSE
  5
4538
330
A
100
AcDbEntity
  8
0
  6
Continuous
 62
     7
100
AcDbEllipse
 10
101.3613600000001
 20
-47.79138099999983
 30
0.0
 11
-3.794733195840116
 21
4.647580012478612
 31
0.0
210
-0.0000000000000001
220
0.0
230
1.0
 40
0.816497
 41
6.283185307179422
 42
6.828333691612713
  0
LINE
  5
4539
330
A
100
AcDbEntity
  8
0
  6
Continuous
 62
     7
100
AcDbLine
 10
101.3613600000001
 20
-42.31415499999982
 30
0.0
 11
140.7161560000002
 21
-50.34741999999983
 31
0.0
  0
ELLIPSE
  5
453A
330
A
100
AcDbEntity
  8
0
  6
Continuous
 62
     7
100
AcDbEllipse
 10
140.7161560000002
 20
-55.82464499999983
 30
0.0
 11
-3.794733195839893
 21
4.647580012478503
 31
0.0000000000000002
210
0.0
220
0.0
230
1.0
 40
0.8164969999999998
 41
3.92699081634797
 42
5.497787143143186
  0
LINE
  5
453B
330
A
100
AcDbEntity
  8
0
  6
Continuous
 62
     7
100
AcDbLine
 10
146.0827199999999
 20
-56.92008999999981
 30
0.0
 11
146.0827199999999
 21
-60.85660399999984
 31
0.0
  0
ELLIPSE
  5
453C
330
A
100
AcDbEntity
  8
0
  6
Continuous
 62
     7
100
AcDbEllipse
 10
140.3583860000001
 20
-55.38646699999981
 30
0.0
 11
3.035786556672137
 21
-3.718064009982922
 31
-0.0000000000000002
210
0.0000000000000001
220
0.0
230
1.0
 40
0.8164970000000002
 41
5.924038012033021
 42
6.283185307179682
  0
ELLIPSE
  5
453D
330
A
100
AcDbEntity
  8
0
  6
Continuous
 62
     7
100
AcDbEllipse
 10
140.3583860000001
 20
-55.38646699999981
 30
0.0
 11
3.035786556671915
 21
-3.718064009982868
 31
0.0
210
0.0
220
0.0
230
1.0
 40
0.816497
 41
0.7853981627581785
 42
2.356194489553397
  0
LINE
  5
453E
330
A
100
AcDbEntity
  8
0
  6
Continuous
 62
     7
100
AcDbLine
 10
140.3583860000001
 20
-51.00468699999985
 30
0.0
 11
101.0035890000001
 21
-42.97142199999981
 31
0.0
  0
ELLIPSE
  5
453F
330
A
100
AcDbEntity
  8
0
  6
Continuous
 62
     7
100
AcDbEllipse
 10
101.0035890000001
 20
-47.35320299999983
 30
0.0
 11
3.035786556672136
 21
-3.718064009982839
 31
0.0
210
-0.0000000000000001
220
0.0
230
1.0
 40
0.816497
 41
2.356194489553365
 42
3.141592653589951
  0
LINE
  5
4540
330
A
100
AcDbEntity
  8
0
  6
Continuous
 62
     9
100
AcDbLine
 10
141.789469
 20
-49.47106299999981
 30
0.0
 11
140.7161560000002
 21
-50.34741999999983
 31
0.0
  0
ELLIPSE
  5
4541
330
A
100
AcDbEntity
  8
0
  6
Continuous
 62
     9
100
AcDbEllipse
 10
141.789469
 20
-54.94828899999982
 30
0.0
 11
3.794733195839893
 21
-4.647580012478503
 31
0.0
210
0.0
220
0.0
230
1.0
 40
0.8164969999999998
 41
0.785398162758167
 42
2.35619448955339
  0
LINE
  5
4542
330
A
100
AcDbEntity
  8
0
  6
Continuous
 62
     9
100
AcDbLine
 10
147.1560320000001
 20
-56.04373399999983
 30
0.0
 11
146.0827199999999
 21
-56.92008999999981
 31
0.0
  0
ELLIPSE
  5
4543
330
A
100
AcDbEntity
  8
0
  6
Continuous
 62
     7
100
AcDbEllipse
 10
140.5372710000001
 20
-55.24040799999983
 30
0.0
 11
3.035786556671915
 21
-3.71806400998281
 31
0.0
210
-0.0000000000000001
220
0.0
230
1.0
 40
0.816497
 41
5.876707863223661
 42
6.253718209567981
  0
ELLIPSE
  5
4544
330
A
100
AcDbEntity
  8
0
  6
Continuous
 62
     9
100
AcDbEllipse
 10
141.789469
 20
-52.39224999999982
 30
0.0
 11
-0.6399999990183149
 21
-3.135346870962841
 31
-0.0000000000000001
210
0.0
220
0.0
230
1.0
 40
0.4082480000000002
 41
3.141590962334328
 42
3.605240262462694
  0
ELLIPSE
  5
4545
330
A
100
AcDbEntity
  8
0
  6
Continuous
 62
     9
100
AcDbEllipse
 10
144.2938650000001
 20
-55.45949699999983
 30
0.0
 11
-3.199999999999868
 21
0.0
 31
-0.0000000000000002
210
-0.0000000000000001
220
0.0
230
1.0
 40
0.4082480000000002
 41
2.677945045228115
 42
3.141594875320221
  0
LINE
  5
4546
330
A
100
AcDbEntity
  8
0
  6
Continuous
 62
     9
100
AcDbLine
 10
102.4346730000002
 20
-41.43779899999984
 30
0.0
 11
101.3613600000001
 21
-42.31415499999982
 31
0.0
  0
LINE
  5
4547
330
A
100
AcDbEntity
  8
0
  6
Continuous
 62
     9
100
AcDbLine
 10
141.789469
 20
-49.47106299999981
 30
0.0
 11
102.4346730000002
 21
-41.43779899999984
 31
0.0
  0
LINE
  5
4548
330
A
100
AcDbEntity
  8
0
  6
Continuous
 62
     9
100
AcDbLine
 10
147.1560320000001
 20
-60.31174399999983
 30
0.0
 11
147.1560320000001
 21
-56.04373399999983
 31
0.0
  0
ELLIPSE
  5
4549
330
A
100
AcDbEntity
  8
0
  6
Continuous
 62
     7
100
AcDbEllipse
 10
140.3583860000001
 20
-55.38646699999981
 30
0.0
 11
3.035786556672137
 21
-3.718064009982922
 31
0.0000000000000002
210
0.0
220
0.0
230
1.0
 40
0.8164970000000002
 41
6.283185307179584
 42
7.068583469937887
  0
ELLIPSE
  5
454A
330
A
100
AcDbEntity
  8
0
  6
Continuous
 62
     9
100
AcDbEllipse
 10
102.4346730000002
 20
-44.35898599999984
 30
0.0
 11
0.6399999990183149
 21
3.135346870962841
 31
0.0000000000000001
210
0.0
220
0.0
230
1.0
 40
0.4082480000000002
 41
0.0000000000000017
 42
0.4636476088730339
  0
ELLIPSE
  5
454B
330
A
100
AcDbEntity
  8
0
  6
Continuous
 62
     7
100
AcDbEllipse
 10
101.3613600000001
 20
-47.79138099999983
 30
0.0
 11
-3.794733195840116
 21
4.647580012478612
 31
0.0000000000000004
210
0.0000000000000001
220
0.0
230
1.0
 40
0.816497
 41
5.497787143142985
 42
6.283185307179616
  0
ELLIPSE
  5
454C
330
A
100
AcDbEntity
  8
0
  6
Continuous
 62
     9
100
AcDbEllipse
 10
102.4346730000002
 20
-46.91502499999984
 30
0.0
 11
3.794733195839893
 21
-4.647580012478503
 31
0.0
210
0.0
220
0.0
230
1.0
 40
0.8164969999999998
 41
2.356194489553393
 42
3.141592653590013
  0
ELLIPSE
  5
454D
330
A
100
AcDbEntity
  8
0
  6
Continuous
 62
     7
100
AcDbEllipse
 10
101.182475
 20
-47.20714399999983
 30
0.0
 11
3.035786556671915
 21
-3.71806400998281
 31
-0.0000000000000002
210
0.0000000000000001
220
0.0
230
1.0
 40
0.816497
 41
3.171059703227121
 42
3.721546775054568
  0
ELLIPSE
  5
454E
330
A
100
AcDbEntity
  8
0
  6
Continuous
 62
     7
100
AcDbEllipse
 10
101.0035890000001
 20
-47.35320299999983
 30
0.0
 11
3.035786556671915
 21
-3.71806400998281
 31
0.0000000000000002
210
-0.0000000000000001
220
0.0
230
1.0
 40
0.816497
 41
3.141592653589796
 42
3.6820597232972
  0
LINE
  5
454F
330
A
100
AcDbEntity
  8
0
  6
Continuous
 62
     7
100
AcDbLine
 10
139.642844
 20
-129.7306759999998
 30
0.0
 11
139.642844
 21
-67.65545199999983
 31
0.0
  0
LINE
  5
4550
330
A
100
AcDbEntity
  8
0
  6
Continuous
 62
     7
100
AcDbLine
 10
139.642844
 20
-129.7306759999998
 30
0.0
 11
136.065135
 21
-129.0003789999998
 31
0.0
  0
LINE
  5
4551
330
A
100
AcDbEntity
  8
0
  6
Continuous
 62
     7
100
AcDbLine
 10
136.065135
 20
-129.0003789999998
 30
0.0
 11
136.065135
 21
-66.92515599999985
 31
0.0
  0
LINE
  5
4552
330
A
100
AcDbEntity
  8
0
  6
Continuous
 62
     7
100
AcDbLine
 10
139.642844
 20
-67.65545199999983
 30
0.0
 11
136.065135
 21
-66.92515599999985
 31
0.0
  0
ELLIPSE
  5
4553
330
A
100
AcDbEntity
  8
0
  6
Continuous
 62
     7
100
AcDbEllipse
 10
149.3026570000002
 20
-55.02131899999984
 30
0.0
 11
-1.199999999999862
 21
0.0
 31
0.0
210
0.0
220
0.0
230
1.0
 40
0.4082480000000002
 41
2.145762634573916
 42
2.677945045228134
  0
LINE
  5
4554
330
A
100
AcDbEntity
  8
0
  6
Continuous
 62
     7
100
AcDbLine
 10
150.37597
 20
-55.24040799999983
 30
0.0
 11
155.7425330000001
 21
-50.85862699999984
 31
0.0
  0
LINE
  5
4555
330
A
100
AcDbEntity
  8
0
  6
Continuous
 62
     7
100
AcDbLine
 10
155.7425330000001
 20
-50.85862699999984
 30
0.0
 11
159.320242
 21
-51.58892399999982
 31
0.0
  0
LINE
  5
4556
330
A
100
AcDbEntity
  8
0
  6
Continuous
 62
     7
100
AcDbLine
 10
159.320242
 20
-51.58892399999982
 30
0.0
 11
153.059252
 21
-56.70100099999982
 31
0.0
  0
LINE
  5
4557
330
A
100
AcDbEntity
  8
0
  6
Continuous
 62
     7
100
AcDbLine
 10
153.059252
 20
-56.70100099999982
 30
0.0
 11
152.5225949999999
 21
-56.77403099999984
 31
0.0
  0
LINE
  5
4558
330
A
100
AcDbEntity
  8
0
  6
Continuous
 62
     7
100
AcDbLine
 10
152.5225949999999
 20
-56.77403099999984
 30
0.0
 11
145.7249490000001
 21
-62.32428599999983
 31
0.0
  0
LINE
  5
4559
330
A
100
AcDbEntity
  8
0
  6
Continuous
 62
     7
100
AcDbLine
 10
145.7249490000001
 20
-62.32428599999983
 30
0.0
 11
145.9038339999999
 21
-62.54337499999983
 31
0.0
  0
LINE
  5
455A
330
A
100
AcDbEntity
  8
0
  6
Continuous
 62
     7
100
AcDbLine
 10
145.9038339999999
 20
-62.54337499999983
 30
0.0
 11
139.642844
 21
-67.65545199999983
 31
0.0
  0
LINE
  5
455B
330
A
100
AcDbEntity
  8
0
  6
Continuous
 62
     7
100
AcDbLine
 10
136.065135
 20
-66.92515599999985
 30
0.0
 11
141.4316980000001
 21
-62.54337499999983
 31
0.0
  0
ELLIPSE
  5
455C
330
A
100
AcDbEntity
  8
0
  6
Continuous
 62
     7
100
AcDbEllipse
 10
140.3583860000001
 20
-62.32428599999983
 30
0.0
 11
-1.20000000000009
 21
0.0
 31
0.0
210
0.0
220
0.0
230
1.0
 40
0.4082480000000002
 41
2.677945045228138
 42
3.141592653589816
  0
ELLIPSE
  5
455D
330
A
100
AcDbEntity
  8
0
  6
Continuous
 62
     7
100
AcDbEllipse
 10
134.1689490000001
 20
-56.49651799999981
 30
0.0
 11
-16.00000000000002
 21
0.0
 31
0.0
210
0.0
220
0.0
230
1.0
 40
0.4082480000000002
 41
2.050666134127688
 42
3.141592653589792
  0
LINE
  5
455E
330
A
100
AcDbEntity
  8
0
  6
Continuous
 62
     7
100
AcDbLine
 10
145.9038339999999
 20
-124.6185979999998
 30
0.0
 11
139.642844
 21
-129.7306759999998
 31
0.0
  0
LINE
  5
455F
330
A
100
AcDbEntity
  8
0
  6
Continuous
 62
     7
100
AcDbLine
 10
145.9038339999999
 20
-92.63230299999984
 30
0.0
 11
145.9038339999999
 21
-62.54337499999983
 31
0.0
  0
ELLIPSE
  5
4560
330
A
100
AcDbEntity
  8
0
  6
Continuous
 62
     7
100
AcDbEllipse
 10
147.0665900000001
 20
-92.63160099999982
 30
0.0
 11
-0.5599999991410254
 21
-2.743428512092445
 31
0.0000000000000002
210
0.0
220
0.0000000000000001
230
1.0
 40
0.4082480000000002
 41
4.795785382564655
 42
5.556287795950664
  0
LINE
  5
4561
330
A
100
AcDbEntity
  8
0
  6
Continuous
 62
     7
100
AcDbLine
 10
145.9038339999999
 20
-124.6185979999998
 30
0.0
 11
145.9038339999999
 21
-94.52966999999981
 31
0.0
  0
ELLIPSE
  5
4562
330
A
100
AcDbEntity
  8
0
  6
Continuous
 62
     7
100
AcDbEllipse
 10
142.326125
 20
-122.0625599999998
 30
0.0
 11
-0.4239999993496113
 21
-2.077167302012902
 31
0.0
210
0.0
220
0.0
230
1.0
 40
0.4082480000000002
 41
3.14159265358979
 42
5.176036589257698
  0
ELLIPSE
  5
4563
330
A
100
AcDbEntity
  8
0
  6
Continuous
 62
     7
100
AcDbEllipse
 10
142.326125
 20
-70.94178799999983
 30
0.0
 11
-0.4239999993496114
 21
-2.077167302012874
 31
0.0
210
0.0
220
0.0
230
1.0
 40
0.4082480000000002
 41
3.141592653589794
 42
5.176036589257688
  0
ELLIPSE
  5
4564
330
A
100
AcDbEntity
  8
0
  6
Continuous
 62
     7
100
AcDbEllipse
 10
142.326125
 20
-115.4898889999998
 30
0.0
 11
-0.3359999994845264
 21
-1.646057107255473
 31
0.0
210
0.0
220
0.0
230
1.0
 40
0.4082480000000002
 41
3.141592653589658
 42
5.176036589257683
  0
ELLIPSE
  5
4565
330
A
100
AcDbEntity
  8
0
  6
Continuous
 62
     7
100
AcDbEllipse
 10
142.326125
 20
-77.51445799999993
 30
0.0
 11
-0.3359999994845264
 21
-1.646057107255459
 31
0.0
210
0.0
220
0.0
230
1.0
 40
0.4082480000000002
 41
3.141592653589658
 42
5.176036589257702
  0
ELLIPSE
  5
4566
330
A
100
AcDbEntity
  8
0
  6
Continuous
 62
     7
100
AcDbEllipse
 10
141.0739269999999
 20
-70.68618399999983
 30
0.0
 11
0.4239999993496113
 21
2.077167302012902
 31
-0.0000000000000001
210
0.0
220
0.0000000000000001
230
1.0
 40
0.4082480000000002
 41
3.97217511251802
 42
5.452602848251376
  0
ELLIPSE
  5
4567
330
A
100
AcDbEntity
  8
0
  6
Continuous
 62
     7
100
AcDbEllipse
 10
142.326125
 20
-70.94178799999983
 30
0.0
 11
-0.4239999993496114
 21
-2.077167302012874
 31
0.0
210
0.0000000000000001
220
0.0
230
1.0
 40
0.4082480000000002
 41
5.176036589257688
 42
6.283185307179584
  0
ELLIPSE
  5
4568
330
A
100
AcDbEntity
  8
0
  6
Continuous
 62
     7
100
AcDbEllipse
 10
142.326125
 20
-70.94178799999983
 30
0.0
 11
-0.4239999993496114
 21
-2.077167302012874
 31
0.0
210
0.0000000000000001
220
0.0
230
1.0
 40
0.4082480000000002
 41
0.0
 42
3.141592653589798
  0
ELLIPSE
  5
4569
330
A
100
AcDbEntity
  8
0
  6
Continuous
 62
     7
100
AcDbEllipse
 10
142.326125
 20
-77.51445799999993
 30
0.0
 11
-0.3359999994845264
 21
-1.646057107255459
 31
0.0
210
0.0
220
0.0
230
1.0
 40
0.4082480000000002
 41
5.176036589257702
 42
6.283185307179719
  0
ELLIPSE
  5
456A
330
A
100
AcDbEntity
  8
0
  6
Continuous
 62
     7
100
AcDbEllipse
 10
142.326125
 20
-77.51445799999993
 30
0.0
 11
-0.3359999994845264
 21
-1.646057107255459
 31
0.0000000000000001
210
0.0
220
0.0000000000000001
230
1.0
 40
0.4082480000000002
 41
0.0000000000001329
 42
3.141592653589658
  0
ELLIPSE
  5
456B
330
A
100
AcDbEntity
  8
0
  6
Continuous
 62
     7
100
AcDbEllipse
 10
134.1689490000001
 20
-56.49651799999981
 30
0.0
 11
-16.00000000000002
 21
0.0
 31
0.0
210
0.0
220
0.0
230
1.0
 40
0.4082480000000002
 41
3.141592653589792
 42
3.305223956328523
  0
LINE
  5
456C
330
A
100
AcDbEntity
  8
0
  6
Continuous
 62
     7
100
AcDbLine
 10
141.555568
 20
-62.29073699999983
 30
0.0
 11
141.555568
 21
-62.35783499999993
 31
0.0
  0
LINE
  5
456D
330
A
100
AcDbEntity
  8
0
  6
Continuous
 62
     7
100
AcDbLine
 10
149.9552250000001
 20
-57.56058999999982
 30
0.0
 11
149.9552250000001
 21
-55.43244599999983
 31
0.0
  0
ELLIPSE
  5
456E
330
A
100
AcDbEntity
  8
0
  6
Continuous
 62
     7
100
AcDbEllipse
 10
140.3583860000001
 20
-62.32428599999983
 30
0.0
 11
-1.20000000000009
 21
0.0
 31
0.0
210
0.0
220
0.0
230
1.0
 40
0.4082480000000002
 41
3.141592653589816
 42
3.210127455882431
  0
LINE
  5
456F
330
A
100
AcDbEntity
  8
0
  6
Continuous
 62
     7
100
AcDbLine
 10
152.5225949999999
 20
-118.8492539999998
 30
0.0
 11
145.9038339999999
 21
-124.2534499999998
 31
0.0
  0
ELLIPSE
  5
4570
330
A
100
AcDbEntity
  8
0
  6
Continuous
 62
     7
100
AcDbEllipse
 10
146.7088189999999
 20
-92.55857099999984
 30
0.0
 11
-0.5599999991410254
 21
-2.743428512092445
 31
0.0000000000000001
210
0.0
220
0.0
230
1.0
 40
0.4082480000000002
 41
3.605240921917751
 42
4.303462735229172
  0
ELLIPSE
  5
4571
330
A
100
AcDbEntity
  8
0
  6
Continuous
 62
     7
100
AcDbEllipse
 10
146.7088189999999
 20
-92.55857099999984
 30
0.0
 11
-0.5599999991410254
 21
-2.743428512092445
 31
0.0
210
0.0
220
0.0
230
1.0
 40
0.4082480000000002
 41
3.141592653589556
 42
3.605240921917751
  0
LINE
  5
4572
330
A
100
AcDbEntity
  8
0
  6
Continuous
 62
     7
100
AcDbLine
 10
152.5225949999999
 20
-86.23050399999982
 30
0.0
 11
152.5225949999999
 21
-56.77403099999984
 31
0.0
  0
ELLIPSE
  5
4573
330
A
100
AcDbEntity
  8
0
  6
Continuous
 62
     7
100
AcDbEllipse
 10
151.5387250000001
 20
-88.61496899999982
 30
0.0
 11
-0.5599999991410255
 21
-2.743428512092553
 31
0.0000000000000001
210
0.0000000000000001
220
0.0
230
1.0
 40
0.4082480000000002
 41
6.283185307179503
 42
7.650682898343832
  0
LINE
  5
4574
330
A
100
AcDbEntity
  8
0
  6
Continuous
 62
     7
100
AcDbLine
 10
152.5225949999999
 20
-118.8492539999998
 30
0.0
 11
152.5225949999999
 21
-89.39278099999985
 31
0.0
  0
LINE
  5
4575
330
A
100
AcDbEntity
  8
0
  6
Continuous
 62
     7
100
AcDbLine
 10
136.065135
 20
-74.41069699999983
 30
0.0
 11
131.5929990000002
 21
-73.49782599999983
 31
0.0
  0
ELLIPSE
  5
4576
330
A
100
AcDbEntity
  8
0
  6
Continuous
 62
     7
100
AcDbEllipse
 10
135.528479
 20
-70.28452099999981
 30
0.0
 11
8.799999999999917
 21
0.0
 31
0.0
210
0.0
220
0.0
230
1.0
 40
0.4082480000000002
 41
3.797714560056803
 42
4.248741372022995
  0
ELLIPSE
  5
4577
330
A
100
AcDbEntity
  8
0
  6
Continuous
 62
     7
100
AcDbEllipse
 10
135.7431410000001
 20
-87.56334199999983
 30
0.0
 11
0.1011928852223676
 21
-0.1239354669994031
 31
0.0
210
-0.0000000000000001
220
0.0
230
1.0
 40
0.8164969999999998
 41
0.7853981627587717
 42
2.356194489553943
  0
LINE
  5
4578
330
A
100
AcDbEntity
  8
0
  6
Continuous
 62
     7
100
AcDbLine
 10
135.7431410000001
 20
-87.41728199999982
 30
0.0
 11
131.5929990000002
 21
-86.57013799999981
 31
0.0
  0
LINE
  5
4579
330
A
100
AcDbEntity
  8
0
  6
Continuous
 62
     9
100
AcDbLine
 10
131.5929990000002
 20
-86.57013799999981
 30
0.0
 11
131.5929990000002
 21
-73.49782599999983
 31
0.0
  0
LINE
  5
457A
330
A
100
AcDbEntity
  8
0
  6
Continuous
 62
     7
100
AcDbLine
 10
136.065135
 20
-109.4649409999998
 30
0.0
 11
131.5929990000002
 21
-108.5520699999998
 31
0.0
  0
LINE
  5
457B
330
A
100
AcDbEntity
  8
0
  6
Continuous
 62
     9
100
AcDbLine
 10
131.5929990000002
 20
-108.5520699999998
 30
0.0
 11
131.5929990000002
 21
-96.51097399999983
 31
0.0
  0
ELLIPSE
  5
457C
330
A
100
AcDbEntity
  8
0
  6
Continuous
 62
     7
100
AcDbEllipse
 10
135.528479
 20
-83.35683199999982
 30
0.0
 11
8.799999999999917
 21
0.0
 31
0.0
210
0.0
220
0.0
230
1.0
 40
0.4082480000000002
 41
3.141592653589788
 42
4.248741372022987
  0
ELLIPSE
  5
457D
330
A
100
AcDbEntity
  8
0
  6
Continuous
 62
     7
100
AcDbEllipse
 10
146.7088189999999
 20
-92.55857099999984
 30
0.0
 11
-0.5599999991410254
 21
-2.743428512092414
 31
0.0000000000000001
210
0.0
220
0.0
230
1.0
 40
0.4082480000000002
 41
6.048610443286151
 42
6.283185307179667
  0
ELLIPSE
  5
457E
330
A
100
AcDbEntity
  8
0
  6
Continuous
 62
     7
100
AcDbEllipse
 10
146.7088189999999
 20
-92.55857099999984
 30
0.0
 11
-0.5599999991410254
 21
-2.743428512092414
 31
-0.0000000000000001
210
0.0
220
0.0
230
1.0
 40
0.4082480000000002
 41
0.0000000000000833
 42
3.141592653589555
  0
LINE
  5
457F
330
A
100
AcDbEntity
  8
0
  6
Continuous
 62
     7
100
AcDbLine
 10
153.059252
 20
-86.78992899999983
 30
0.0
 11
153.059252
 21
-56.70100099999982
 31
0.0
  0
ELLIPSE
  5
4580
330
A
100
AcDbEntity
  8
0
  6
Continuous
 62
     7
100
AcDbEllipse
 10
149.5709859999999
 20
-88.21330599999985
 30
0.0
 11
-3.708087019404171
 21
-0.9140387273281202
 31
0.0
210
0.0
220
0.0
230
1.0
 40
0.658331
 41
3.360968582700933
 42
3.647663720511662
  0
LINE
  5
4581
330
A
100
AcDbEntity
  8
0
  6
Continuous
 62
     7
100
AcDbLine
 10
159.320242
 20
-113.6641469999998
 30
0.0
 11
159.320242
 21
-51.58892399999982
 31
0.0
  0
LINE
  5
4582
330
A
100
AcDbEntity
  8
0
  6
Continuous
 62
     7
100
AcDbLine
 10
159.320242
 20
-113.6641469999998
 30
0.0
 11
153.059252
 21
-118.7762239999998
 31
0.0
  0
LINE
  5
4583
330
A
100
AcDbEntity
  8
0
  6
Continuous
 62
     7
100
AcDbLine
 10
153.059252
 20
-118.7762239999998
 30
0.0
 11
153.059252
 21
-88.68729599999984
 31
0.0
  0
ELLIPSE
  5
4584
330
A
100
AcDbEntity
  8
0
  6
Continuous
 62
     7
100
AcDbEllipse
 10
151.896496
 20
-88.68799899999983
 30
0.0
 11
-0.5599999991410253
 21
-2.743428512092498
 31
0.0
210
0.0
220
0.0
230
1.0
 40
0.4082480000000002
 41
1.654192728974939
 42
2.414695142360784
  0
ELLIPSE
  5
4585
330
A
100
AcDbEntity
  8
0
  6
Continuous
 62
     7
100
AcDbEllipse
 10
156.63696
 20
-110.3778119999998
 30
0.0
 11
-0.4239999993496114
 21
-2.077167302012918
 31
0.0
210
0.0
220
0.0
230
1.0
 40
0.4082480000000003
 41
3.14159265358979
 42
5.176036589257605
  0
ELLIPSE
  5
4586
330
A
100
AcDbEntity
  8
0
  6
Continuous
 62
     7
100
AcDbEllipse
 10
156.63696
 20
-59.25703999999981
 30
0.0
 11
-0.4239999993496113
 21
-2.077167302012902
 31
0.0
210
0.0
220
0.0
230
1.0
 40
0.4082480000000002
 41
3.141592653589897
 42
5.17603658925771
  0
ELLIPSE
  5
4587
330
A
100
AcDbEntity
  8
0
  6
Continuous
 62
     7
100
AcDbEllipse
 10
156.63696
 20
-103.8051409999998
 30
0.0
 11
-0.3359999994845264
 21
-1.646057107255544
 31
0.0
210
0.0
220
0.0
230
1.0
 40
0.4082480000000002
 41
3.141592653590048
 42
5.17603658925771
  0
ELLIPSE
  5
4588
330
A
100
AcDbEntity
  8
0
  6
Continuous
 62
     7
100
AcDbEllipse
 10
156.63696
 20
-65.82970999999983
 30
0.0
 11
-0.3359999994845265
 21
-1.646057107255514
 31
0.0
210
0.0
220
0.0
230
1.0
 40
0.4082480000000002
 41
3.141592653590058
 42
5.176036589257698
  0
ELLIPSE
  5
4589
330
A
100
AcDbEntity
  8
0
  6
Continuous
 62
     7
100
AcDbEllipse
 10
142.326125
 20
-115.4898889999998
 30
0.0
 11
-0.3359999994845264
 21
-1.646057107255473
 31
0.0000000000000001
210
0.0
220
0.0000000000000001
230
1.0
 40
0.4082480000000002
 41
5.176036589257693
 42
6.283185307179719
  0
ELLIPSE
  5
458A
330
A
100
AcDbEntity
  8
0
  6
Continuous
 62
     7
100
AcDbEllipse
 10
142.326125
 20
-115.4898889999998
 30
0.0
 11
-0.3359999994845264
 21
-1.646057107255473
 31
0.0000000000000001
210
0.0
220
0.0000000000000001
230
1.0
 40
0.4082480000000002
 41
0.0000000000001329
 42
3.141592653589658
  0
ELLIPSE
  5
458B
330
A
100
AcDbEntity
  8
0
  6
Continuous
 62
     7
100
AcDbEllipse
 10
141.0739269999999
 20
-121.8069559999998
 30
0.0
 11
0.4239999993496113
 21
2.077167302012902
 31
-0.0000000000000001
210
0.0
220
0.0000000000000001
230
1.0
 40
0.4082480000000002
 41
3.972175114856788
 42
5.452602846059726
  0
ELLIPSE
  5
458C
330
A
100
AcDbEntity
  8
0
  6
Continuous
 62
     7
100
AcDbEllipse
 10
142.326125
 20
-122.0625599999998
 30
0.0
 11
-0.4239999993496113
 21
-2.077167302012902
 31
0.0
210
0.0000000000000001
220
0.0
230
1.0
 40
0.4082480000000002
 41
5.176036589257698
 42
6.283185307179588
  0
ELLIPSE
  5
458D
330
A
100
AcDbEntity
  8
0
  6
Continuous
 62
     7
100
AcDbEllipse
 10
142.326125
 20
-122.0625599999998
 30
0.0
 11
-0.4239999993496113
 21
-2.077167302012902
 31
0.0
210
0.0000000000000001
220
0.0
230
1.0
 40
0.4082480000000002
 41
0.000000000000001
 42
3.14159265358979
  0
ELLIPSE
  5
458E
330
A
100
AcDbEntity
  8
0
  6
Continuous
 62
     7
100
AcDbEllipse
 10
155.3847619999999
 20
-59.00143599999984
 30
0.0
 11
0.4239999993496114
 21
2.077167302012874
 31
0.0
210
0.0
220
0.0
230
1.0
 40
0.4082480000000002
 41
3.972175112517258
 42
5.452602848251966
  0
ELLIPSE
  5
458F
330
A
100
AcDbEntity
  8
0
  6
Continuous
 62
     7
100
AcDbEllipse
 10
156.63696
 20
-59.25703999999981
 30
0.0
 11
-0.4239999993496113
 21
-2.077167302012902
 31
-0.0000000000000001
210
0.0000000000000001
220
-0.0000000000000001
230
1.0
 40
0.4082480000000002
 41
5.176036589257721
 42
6.283185307179476
  0
ELLIPSE
  5
4590
330
A
100
AcDbEntity
  8
0
  6
Continuous
 62
     7
100
AcDbEllipse
 10
156.63696
 20
-59.25703999999981
 30
0.0
 11
-0.4239999993496113
 21
-2.077167302012902
 31
-0.0000000000000001
210
0.0000000000000001
220
-0.0000000000000001
230
1.0
 40
0.4082480000000002
 41
6.283185307179476
 42
9.424777960769484
  0
ELLIPSE
  5
4591
330
A
100
AcDbEntity
  8
0
  6
Continuous
 62
     7
100
AcDbEllipse
 10
151.5387250000001
 20
-88.61496899999982
 30
0.0
 11
-0.5599999991410254
 21
-2.743428512092527
 31
-0.0000000000000001
210
0.0
220
0.0
230
1.0
 40
0.4082480000000001
 41
2.701390280171666
 42
3.14159265358987
  0
ELLIPSE
  5
4592
330
A
100
AcDbEntity
  8
0
  6
Continuous
 62
     7
100
AcDbEllipse
 10
151.5387250000001
 20
-88.61496899999982
 30
0.0
 11
-0.5599999991410253
 21
-2.743428512092498
 31
-0.0000000000000001
210
0.0
220
0.0
230
1.0
 40
0.4082480000000002
 41
3.605240921612681
 42
6.283185307179584
  0
ELLIPSE
  5
4593
330
A
100
AcDbEntity
  8
0
  6
Continuous
 62
     7
100
AcDbEllipse
 10
151.5387250000001
 20
-88.61496899999982
 30
0.0
 11
-0.5599999991410255
 21
-2.743428512092553
 31
0.0
210
0.0
220
0.0
230
1.0
 40
0.4082480000000002
 41
3.14159265358987
 42
3.605240921612756
  0
ELLIPSE
  5
4594
330
A
100
AcDbEntity
  8
0
  6
Continuous
 62
     7
100
AcDbEllipse
 10
149.5709859999999
 20
-88.21330599999985
 30
0.0
 11
-3.708087019404171
 21
-0.9140387273281202
 31
0.0
210
0.0
220
0.0
230
1.0
 40
0.658331
 41
2.313771031504323
 42
2.600466169315053
  0
ELLIPSE
  5
4595
330
A
100
AcDbEntity
  8
0
  6
Continuous
 62
     7
100
AcDbEllipse
 10
135.528479
 20
-105.3387639999998
 30
0.0
 11
8.799999999999917
 21
0.0
 31
0.0
210
0.0
220
0.0
230
1.0
 40
0.4082480000000002
 41
3.141592653589798
 42
4.248741372022996
  0
ELLIPSE
  5
4596
330
A
100
AcDbEntity
  8
0
  6
Continuous
 62
     7
100
AcDbEllipse
 10
156.63696
 20
-65.82970999999983
 30
0.0
 11
-0.3359999994845265
 21
-1.646057107255514
 31
0.0
210
0.0
220
0.0
230
1.0
 40
0.4082480000000002
 41
5.176036589257698
 42
6.28318530717958
  0
ELLIPSE
  5
4597
330
A
100
AcDbEntity
  8
0
  6
Continuous
 62
     7
100
AcDbEllipse
 10
156.63696
 20
-65.82970999999983
 30
0.0
 11
-0.3359999994845265
 21
-1.646057107255514
 31
0.0000000000000001
210
0.0
220
0.0000000000000001
230
1.0
 40
0.4082480000000002
 41
6.28318530717958
 42
9.424777960769645
  0
LINE
  5
4598
330
A
100
AcDbEntity
  8
0
  6
Continuous
 62
     7
100
AcDbLine
 10
153.059252
 20
-118.7762239999998
 30
0.0
 11
152.5225949999999
 21
-118.8492539999998
 31
0.0
  0
ELLIPSE
  5
4599
330
A
100
AcDbEntity
  8
0
  6
Continuous
 62
     7
100
AcDbEllipse
 10
156.63696
 20
-103.8051409999998
 30
0.0
 11
-0.3359999994845264
 21
-1.646057107255544
 31
0.0
210
0.0
220
0.0
230
1.0
 40
0.4082480000000002
 41
5.17603658925771
 42
6.28318530717958
  0
ELLIPSE
  5
459A
330
A
100
AcDbEntity
  8
0
  6
Continuous
 62
     7
100
AcDbEllipse
 10
156.63696
 20
-103.8051409999998
 30
0.0
 11
-0.3359999994845264
 21
-1.646057107255544
 31
0.0
210
0.0
220
0.0
230
1.0
 40
0.4082480000000002
 41
6.28318530717958
 42
9.424777960769636
  0
ELLIPSE
  5
459B
330
A
100
AcDbEntity
  8
0
  6
Continuous
 62
     7
100
AcDbEllipse
 10
155.3847619999999
 20
-110.1222079999998
 30
0.0
 11
0.4239999993496118
 21
2.077167302012932
 31
0.0
210
0.0
220
0.0
230
1.0
 40
0.4082480000000002
 41
3.972175112522409
 42
5.452602848247035
  0
ELLIPSE
  5
459C
330
A
100
AcDbEntity
  8
0
  6
Continuous
 62
     7
100
AcDbEllipse
 10
156.63696
 20
-110.3778119999998
 30
0.0
 11
-0.4239999993496114
 21
-2.077167302012918
 31
-0.0000000000000001
210
0.0000000000000001
220
-0.0000000000000001
230
1.0
 40
0.4082480000000003
 41
5.176036589257605
 42
6.283185307179584
  0
ELLIPSE
  5
459D
330
A
100
AcDbEntity
  8
0
  6
Continuous
 62
     7
100
AcDbEllipse
 10
156.63696
 20
-110.3778119999998
 30
0.0
 11
-0.4239999993496114
 21
-2.077167302012918
 31
-0.0000000000000001
210
0.0000000000000001
220
-0.0000000000000001
230
1.0
 40
0.4082480000000003
 41
6.28318530717958
 42
9.424777960769377
  0
ELLIPSE
  5
459E
330
A
100
AcDbEntity
  8
0
  6
Continuous
 62
     7
100
AcDbEllipse
 10
101.182475
 20
-47.93743999999981
 30
0.0
 11
3.035786556671915
 21
-3.718064009982783
 31
0.0
210
0.0
220
0.0
230
1.0
 40
0.816497
 41
2.356194489553239
 42
3.141592653589828
  0
LINE
  5
459F
330
A
100
AcDbEntity
  8
0
  6
Continuous
 62
     7
100
AcDbLine
 10
140.1794999999999
 20
-51.51589399999983
 30
0.0
 11
101.182475
 21
-43.55565999999984
 31
0.0
  0
ELLIPSE
  5
45A0
330
A
100
AcDbEntity
  8
0
  6
Continuous
 62
     7
100
AcDbEllipse
 10
140.1794999999999
 20
-55.53252599999982
 30
0.0
 11
2.782804343615996
 21
-3.408225342484278
 31
0.0
210
0.0
220
0.0
230
1.0
 40
0.816497
 41
0.7853981627583329
 42
2.35619448955322
  0
LINE
  5
45A1
330
A
100
AcDbEntity
  8
0
  6
Continuous
 62
     9
100
AcDbLine
 10
140.5372710000001
 20
-51.22377599999984
 30
0.0
 11
140.1794999999999
 21
-51.51589399999983
 31
0.0
  0
ELLIPSE
  5
45A2
330
A
100
AcDbEntity
  8
0
  6
Continuous
 62
     7
100
AcDbEllipse
 10
140.5372710000001
 20
-55.24040799999983
 30
0.0
 11
2.782804343615996
 21
-3.40822534248425
 31
0.0
210
0.0
220
0.0
230
1.0
 40
0.816497
 41
0.7853981627583286
 42
2.356194489553212
  0
LINE
  5
45A3
330
A
100
AcDbEntity
  8
0
  6
Continuous
 62
     9
100
AcDbLine
 10
144.472751
 20
-56.04373399999983
 30
0.0
 11
144.11498
 21
-56.33585299999984
 31
0.0
  0
LINE
  5
45A4
330
A
100
AcDbEntity
  8
0
  6
Continuous
 62
     9
100
AcDbLine
 10
101.5402449999999
 20
-43.26354099999983
 30
0.0
 11
101.182475
 21
-43.55565999999984
 31
0.0
  0
LINE
  5
45A5
330
A
100
AcDbEntity
  8
0
  6
Continuous
 62
     7
100
AcDbLine
 10
140.5372710000001
 20
-51.22377599999984
 30
0.0
 11
101.5402449999999
 21
-43.26354099999983
 31
0.0
  0
ELLIPSE
  5
45A6
330
A
100
AcDbEntity
  8
0
  6
Continuous
 62
     7
100
AcDbEllipse
 10
140.5372710000001
 20
-55.24040799999983
 30
0.0
 11
2.782804343615996
 21
-3.40822534248425
 31
-0.0000000000000002
210
0.0
220
0.0
230
1.0
 40
0.816497
 41
0.0
 42
0.7853981627583286
  0
ELLIPSE
  5
45A7
330
A
100
AcDbEntity
  8
0
  6
Continuous
 62
     7
100
AcDbEllipse
 10
140.1794999999999
 20
-55.53252599999982
 30
0.0
 11
2.782804343615996
 21
-3.40822534248425
 31
-0.0000000000000002
210
0.0
220
0.0
230
1.0
 40
0.816497
 41
0.0
 42
0.7853981627583348
  0
ELLIPSE
  5
45A8
330
A
100
AcDbEntity
  8
0
  6
Continuous
 62
     7
100
AcDbEllipse
 10
101.5402449999999
 20
-47.64532199999982
 30
0.0
 11
3.035786556671915
 21
-3.718064009982783
 31
0.0
210
0.0
220
0.0
230
1.0
 40
0.816497
 41
2.35619448955324
 42
3.14159265358979
  0
ELLIPSE
  5
45A9
330
A
100
AcDbEntity
  8
0
  6
Continuous
 62
     9
100
AcDbEllipse
 10
134.2762810000001
 20
-61.08278199999984
 30
0.0
 11
1.770875491392098
 21
-2.168870672490051
 31
0.0
210
0.0
220
0.0
230
1.0
 40
0.8164970000000002
 41
0.7853981627583027
 42
2.356194489553212
  0
ELLIPSE
  5
45AA
330
A
100
AcDbEntity
  8
0
  6
Continuous
 62
     9
100
AcDbEllipse
 10
135.7073640000001
 20
-57.35826799999981
 30
0.0
 11
-0.6399999990183152
 21
-3.135346870962866
 31
0.0
210
0.0
220
0.0
230
1.0
 40
0.4082480000000002
 41
3.605240262462756
 42
5.176036589257638
  0
ELLIPSE
  5
45AB
330
A
100
AcDbEntity
  8
0
  6
Continuous
 62
     9
100
AcDbEllipse
 10
135.7073640000001
 20
-59.91430699999984
 30
0.0
 11
-3.794733195840116
 21
4.647580012478583
 31
0.0
210
-0.0000000000000001
220
0.0
230
1.0
 40
0.8164970000000002
 41
3.926990816348093
 42
5.497787143142985
  0
ELLIPSE
  5
45AC
330
A
100
AcDbEntity
  8
0
  6
Continuous
 62
     9
100
AcDbEllipse
 10
138.2117599999999
 20
-60.42551499999982
 30
0.0
 11
-3.200000000000091
 21
0.0
 31
0.0
210
0.0
220
0.0
230
1.0
 40
0.4082480000000002
 41
1.107148718433234
 42
2.6779450452281
  0
LINE
  5
45AD
330
A
100
AcDbEntity
  8
0
  6
Continuous
 62
     9
100
AcDbLine
 10
134.2762810000001
 20
-58.52674299999981
 30
0.0
 11
94.92148399999996
 21
-50.49347899999983
 31
0.0
  0
ELLIPSE
  5
45AE
330
A
100
AcDbEntity
  8
0
  6
Continuous
 62
     9
100
AcDbEllipse
 10
96.35256800000002
 20
-49.32500399999984
 30
0.0
 11
0.6399999990183149
 21
3.135346870962841
 31
0.0000000000000002
210
0.0
220
-0.0000000000000001
230
1.0
 40
0.4082480000000002
 41
0.4636476088729663
 42
2.03444393566785
  0
LINE
  5
45AF
330
A
100
AcDbEntity
  8
0
  6
Continuous
 62
     9
100
AcDbLine
 10
96.35256800000002
 20
-46.40381699999983
 30
0.0
 11
135.7073640000001
 21
-54.43708099999984
 31
0.0
  0
LINE
  5
45B0
330
A
100
AcDbEntity
  8
0
  6
Continuous
 62
     9
100
AcDbLine
 10
136.7806769999999
 20
-66.34091799999982
 30
0.0
 11
136.7806769999999
 21
-61.59398899999982
 31
0.0
  0
LINE
  5
45B1
330
A
100
AcDbEntity
  8
0
  6
Continuous
 62
     9
100
AcDbLine
 10
141.0739269999999
 20
-61.00975199999982
 30
0.0
 11
141.0739269999999
 21
-62.83549399999981
 31
0.0
  0
LINE
  5
45B2
330
A
100
AcDbEntity
  8
0
  6
Continuous
 62
     7
100
AcDbLine
 10
122.1120710000002
 20
-84.52530699999982
 30
0.0
 11
122.1120710000002
 21
-71.16087699999983
 31
0.0
  0
LINE
  5
45B3
330
A
100
AcDbEntity
  8
0
  6
Continuous
 62
     7
100
AcDbLine
 10
117.461049
 20
-83.57592099999981
 30
0.0
 11
122.1120710000002
 21
-84.52530699999982
 31
0.0
  0
LINE
  5
45B4
330
A
100
AcDbEntity
  8
0
  6
Continuous
 62
     7
100
AcDbLine
 10
117.461049
 20
-93.80007599999983
 30
0.0
 11
117.461049
 21
-83.57592099999981
 31
0.0
  0
LINE
  5
45B5
330
A
100
AcDbEntity
  8
0
  6
Continuous
 62
     7
100
AcDbLine
 10
122.1120710000002
 20
-94.74946199999994
 30
0.0
 11
117.461049
 21
-93.80007599999983
 31
0.0
  0
LINE
  5
45B6
330
A
100
AcDbEntity
  8
0
  6
Continuous
 62
     7
100
AcDbLine
 10
122.1120710000002
 20
-108.1138919999998
 30
0.0
 11
122.1120710000002
 21
-94.74946199999994
 31
0.0
  0
LINE
  5
45B7
330
A
100
AcDbEntity
  8
0
  6
Continuous
 62
     7
100
AcDbLine
 10
136.065135
 20
-110.9620489999998
 30
0.0
 11
122.1120710000002
 21
-108.1138919999998
 31
0.0
  0
ELLIPSE
  5
45B8
330
A
100
AcDbEntity
  8
0
  6
Continuous
 62
     9
100
AcDbEllipse
 10
134.2762810000001
 20
-123.1580049999998
 30
0.0
 11
1.770875491392095
 21
-2.168870672490036
 31
0.0
210
-0.0000000000000001
220
0.0
230
1.0
 40
0.8164969999999996
 41
5.497787143142923
 42
6.293390101523927
  0
LINE
  5
45B9
330
A
100
AcDbEntity
  8
0
  6
Continuous
 62
     9
100
AcDbLine
 10
94.92148399999996
 20
-117.6807789999998
 30
0.0
 11
134.2762810000001
 21
-125.7140429999998
 31
0.0
  0
ELLIPSE
  5
45BA
330
A
100
AcDbEntity
  8
0
  6
Continuous
 62
     9
100
AcDbEllipse
 10
94.92148399999996
 20
-115.1247409999998
 30
0.0
 11
1.770875491392095
 21
-2.168870672490036
 31
0.0
210
0.0
220
0.0
230
1.0
 40
0.8164969999999996
 41
3.926990816348078
 42
5.497787143142923
  0
LINE
  5
45BB
330
A
100
AcDbEntity
  8
0
  6
Continuous
 62
     9
100
AcDbLine
 10
92.41708800000015
 20
-52.53830999999983
 30
0.0
 11
92.41708800000015
 21
-114.6135329999998
 31
0.0
  0
ELLIPSE
  5
45BC
330
A
100
AcDbEntity
  8
0
  6
Continuous
 62
     9
100
AcDbEllipse
 10
94.92148399999996
 20
-53.04951699999981
 30
0.0
 11
1.770875491392098
 21
-2.168870672490025
 31
0.0
210
-0.0000000000000001
220
0.0
230
1.0
 40
0.816497
 41
2.356194489553208
 42
3.92699081634807
  0
LINE
  5
45BD
330
A
100
AcDbEntity
  8
0
  6
Continuous
 62
     7
100
AcDbLine
 10
122.1120710000002
 20
-71.16087699999983
 30
0.0
 11
136.065135
 21
-74.00903399999984
 31
0.0
  0
ELLIPSE
  5
45BE
330
A
100
AcDbEntity
  8
0
  6
Continuous
 62
     7
100
AcDbEllipse
 10
136.7806769999999
 20
-59.03795099999982
 30
0.0
 11
-3.794733195840116
 21
4.647580012478583
 31
0.0
210
-0.0000000000000001
220
0.0
230
1.0
 40
0.8164970000000002
 41
3.926990816348093
 42
5.497787143142985
  0
LINE
  5
45BF
330
A
100
AcDbEntity
  8
0
  6
Continuous
 62
     9
100
AcDbLine
 10
142.14724
 20
-60.13339599999984
 30
0.0
 11
141.0739269999999
 21
-61.00975199999982
 31
0.0
  0
LINE
  5
45C0
330
A
100
AcDbEntity
  8
0
  6
Continuous
 62
     9
100
AcDbLine
 10
135.7073640000001
 20
-54.43708099999984
 30
0.0
 11
136.7806769999999
 21
-53.56072499999982
 31
0.0
  0
LINE
  5
45C1
330
A
100
AcDbEntity
  8
0
  6
Continuous
 62
     9
100
AcDbLine
 10
97.42588000000024
 20
-45.52746099999985
 30
0.0
 11
96.35256800000002
 21
-46.40381699999983
 31
0.0
  0
LINE
  5
45C2
330
A
100
AcDbEntity
  8
0
  6
Continuous
 62
     7
100
AcDbLine
 10
97.42588000000024
 20
-45.52746099999985
 30
0.0
 11
136.7806769999999
 21
-53.56072499999982
 31
0.0
  0
LINE
  5
45C3
330
A
100
AcDbEntity
  8
0
  6
Continuous
 62
     7
100
AcDbLine
 10
142.14724
 20
-62.15847999999983
 30
0.0
 11
142.14724
 21
-60.13339599999984
 31
0.0
  0
LINE
  5
45C4
330
A
100
AcDbEntity
  8
0
  6
Continuous
 62
     7
100
AcDbLine
 10
142.14724
 20
-61.04626699999982
 30
0.0
 11
144.4228789999999
 21
-61.51077999999984
 31
0.0
  0
LINE
  5
45C5
330
A
100
AcDbEntity
  8
0
  6
Continuous
 62
     7
100
AcDbLine
 10
123.829371
 20
-72.42428999999981
 30
0.0
 11
124.437582
 21
-71.92768799999981
 31
0.0
  0
LINE
  5
45C6
330
A
100
AcDbEntity
  8
0
  6
Continuous
 62
     7
100
AcDbLine
 10
123.829371
 20
-83.12313699999984
 30
0.0
 11
123.829371
 21
-72.42428999999981
 31
0.0
  0
LINE
  5
45C7
330
A
100
AcDbEntity
  8
0
  6
Continuous
 62
     7
100
AcDbLine
 10
123.829371
 20
-83.12313699999984
 30
0.0
 11
122.1120710000002
 21
-84.52530699999982
 31
0.0
  0
LINE
  5
45C8
330
A
100
AcDbEntity
  8
0
  6
Continuous
 62
     7
100
AcDbLine
 10
124.437582
 20
-71.63556999999983
 30
0.0
 11
124.437582
 21
-71.92768799999981
 31
0.0
  0
ELLIPSE
  5
45C9
330
A
100
AcDbEntity
  8
0
  6
Continuous
 62
     9
100
AcDbEllipse
 10
96.35256800000002
 20
-51.88104299999984
 30
0.0
 11
-3.794733195840116
 21
4.647580012478612
 31
0.0
210
0.0
220
0.0
230
1.0
 40
0.816497
 41
5.497787143143026
 42
6.283196576867089
  0
ELLIPSE
  5
45CA
330
A
100
AcDbEntity
  8
0
  6
Continuous
 62
     9
100
AcDbEllipse
 10
93.8481720000002
 20
-51.36983499999985
 30
0.0
 11
-3.199999999999868
 21
0.0
 31
0.0
210
0.0
220
0.0
230
1.0
 40
0.4082480000000002
 41
0.000000559685371
 42
1.107148718433225
  0
ELLIPSE
  5
45CB
330
A
100
AcDbEntity
  8
0
  6
Continuous
 62
     7
100
AcDbEllipse
 10
97.42588000000024
 20
-51.00468699999985
 30
0.0
 11
-3.794733195840116
 21
4.647580012478612
 31
0.0
210
-0.0000000000000001
220
0.0
230
1.0
 40
0.816497
 41
5.497787143143026
 42
6.283185307179588
  0
ELLIPSE
  5
45CC
330
A
100
AcDbEntity
  8
0
  6
Continuous
 62
     9
100
AcDbEllipse
 10
93.8481720000002
 20
-113.4450579999998
 30
0.0
 11
-3.199999999999868
 21
0.0
 31
0.0
210
0.0
220
0.0
230
1.0
 40
0.4082480000000002
 41
6.283185307179584
 42
7.390334025612811
  0
LINE
  5
45CD
330
A
100
AcDbEntity
  8
0
  6
Continuous
 62
     7
100
AcDbLine
 10
119.1783500000001
 20
-92.39790599999983
 30
0.0
 11
117.461049
 21
-93.80007599999983
 31
0.0
  0
LINE
  5
45CE
330
A
100
AcDbEntity
  8
0
  6
Continuous
 62
     7
100
AcDbLine
 10
119.1783500000001
 20
-92.39790599999983
 30
0.0
 11
119.1783500000001
 21
-83.9264639999998
 31
0.0
  0
LINE
  5
45CF
330
A
100
AcDbEntity
  8
0
  6
Continuous
 62
     7
100
AcDbLine
 10
124.437582
 20
-106.2151199999998
 30
0.0
 11
122.1120710000002
 21
-108.1138919999998
 31
0.0
  0
LINE
  5
45D0
330
A
100
AcDbEntity
  8
0
  6
Continuous
 62
     7
100
AcDbLine
 10
124.834707
 20
-104.1052929999998
 30
0.0
 11
126.5842070000001
 21
-104.4624079999998
 31
0.0
  0
LINE
  5
45D1
330
A
100
AcDbEntity
  8
0
  6
Continuous
 62
     7
100
AcDbLine
 10
126.7284789999999
 20
-104.3446109999998
 30
0.0
 11
126.5842070000001
 21
-104.4624079999998
 31
0.0
  0
LINE
  5
45D2
330
A
100
AcDbEntity
  8
0
  6
Continuous
 62
     7
100
AcDbLine
 10
124.437582
 20
-103.5495369999998
 30
0.0
 11
123.829371
 21
-104.0461389999998
 31
0.0
  0
LINE
  5
45D3
330
A
100
AcDbEntity
  8
0
  6
Continuous
 62
     7
100
AcDbLine
 10
123.829371
 20
-93.34729199999982
 30
0.0
 11
122.1120710000002
 21
-94.74946199999994
 31
0.0
  0
LINE
  5
45D4
330
A
100
AcDbEntity
  8
0
  6
Continuous
 62
     7
100
AcDbLine
 10
123.829371
 20
-104.0461389999998
 30
0.0
 11
123.829371
 21
-93.34729199999982
 31
0.0
  0
LINE
  5
45D5
330
A
100
AcDbEntity
  8
0
  6
Continuous
 62
     7
100
AcDbLine
 10
124.437582
 20
-103.5495369999998
 30
0.0
 11
124.437582
 21
-106.2151199999998
 31
0.0
  0
LINE
  5
45D6
330
A
100
AcDbEntity
  8
0
  6
Continuous
 62
     7
100
AcDbLine
 10
123.829371
 20
-93.34729199999982
 30
0.0
 11
119.1783500000001
 21
-92.39790599999983
 31
0.0
  0
ELLIPSE
  5
45D7
330
A
100
AcDbEntity
  8
0
  6
Continuous
 62
     9
100
AcDbEllipse
 10
135.7073640000001
 20
-124.5455689999998
 30
0.0
 11
-0.6399999990183149
 21
-3.135346870962882
 31
-0.0000000000000001
210
-0.0000000000000001
220
0.0
230
1.0
 40
0.4082480000000002
 41
5.176036589257709
 42
6.283185076703727
  0
ELLIPSE
  5
45D8
330
A
100
AcDbEntity
  8
0
  6
Continuous
 62
     9
100
AcDbEllipse
 10
96.35256800000002
 20
-116.5123039999998
 30
0.0
 11
-0.6399999990183149
 21
-3.135346870962854
 31
0.0000000000000001
210
0.0
220
0.0
230
1.0
 40
0.4082480000000002
 41
5.176036589257702
 42
6.283185307179584
  0
LINE
  5
45D9
330
A
100
AcDbEntity
  8
0
  6
Continuous
 62
     7
100
AcDbLine
 10
123.829371
 20
-103.4253869999998
 30
0.0
 11
124.437582
 21
-103.5495369999998
 31
0.0
  0
LINE
  5
45DA
330
A
100
AcDbEntity
  8
0
  6
Continuous
 62
     7
100
AcDbLine
 10
126.5842070000001
 20
-101.7968249999998
 30
0.0
 11
126.7284789999999
 21
-101.6790279999998
 31
0.0
  0
LINE
  5
45DB
330
A
100
AcDbEntity
  8
0
  6
Continuous
 62
     7
100
AcDbLine
 10
126.5842070000001
 20
-104.4624079999998
 30
0.0
 11
126.5842070000001
 21
-101.7968249999998
 31
0.0
  0
LINE
  5
45DC
330
A
100
AcDbEntity
  8
0
  6
Continuous
 62
     7
100
AcDbLine
 10
124.9420380000001
 20
-101.4616189999998
 30
0.0
 11
126.5842070000001
 21
-101.7968249999998
 31
0.0
  0
LINE
  5
45DD
330
A
100
AcDbEntity
  8
0
  6
Continuous
 62
     7
100
AcDbLine
 10
126.623562
 20
-99.97911699999983
 30
0.0
 11
126.7284789999999
 21
-100.0005329999998
 31
0.0
  0
LINE
  5
45DE
330
A
100
AcDbEntity
  8
0
  6
Continuous
 62
     7
100
AcDbLine
 10
123.416524
 20
-83.46022599999983
 30
0.0
 11
123.416524
 21
-92.04727699999983
 31
0.0
  0
LINE
  5
45DF
330
A
100
AcDbEntity
  8
0
  6
Continuous
 62
     7
100
AcDbLine
 10
156.221653
 20
-67.44682699999984
 30
0.0
 11
156.63696
 21
-67.10772999999983
 31
0.0
  0
LINE
  5
45E0
330
A
100
AcDbEntity
  8
0
  6
Continuous
 62
     7
100
AcDbLine
 10
157.1378400000001
 20
-64.65393299999982
 30
0.0
 11
156.8886550000002
 21
-64.17919699999981
 31
0.0
  0
LINE
  5
45E1
330
A
100
AcDbEntity
  8
0
  6
Continuous
 62
     7
100
AcDbLine
 10
141.910818
 20
-117.1070049999998
 30
0.0
 11
142.326125
 21
-116.7679079999998
 31
0.0
  0
LINE
  5
45E2
330
A
100
AcDbEntity
  8
0
  6
Continuous
 62
     7
100
AcDbLine
 10
142.8270050000001
 20
-114.3141109999998
 30
0.0
 11
142.5778199999999
 21
-113.8393759999998
 31
0.0
  0
LINE
  5
45E3
330
A
100
AcDbEntity
  8
0
  6
Continuous
 62
     7
100
AcDbLine
 10
125.1954130000001
 20
-74.98836599999981
 30
0.0
 11
125.1071199999999
 21
-74.56142599999984
 31
0.0
  0
LINE
  5
45E4
330
A
100
AcDbEntity
  8
0
  6
Continuous
 62
     7
100
AcDbLine
 10
125.1954130000001
 20
-95.43667099999982
 30
0.0
 11
125.1954130000001
 21
-94.54374899999981
 31
0.0
  0
LINE
  5
45E5
330
A
100
AcDbEntity
  8
0
  6
Continuous
 62
     7
100
AcDbLine
 10
125.1954130000001
 20
-81.92618099999984
 30
0.0
 11
125.1954130000001
 21
-74.98836199999985
 31
0.0
  0
LINE
  5
45F3
330
A
100
AcDbEntity
  8
0
  6
Continuous
 62
     7
100
AcDbLine
 10
142.604534
 20
-59.23286999999982
 30
0.0
 11
142.9623039999999
 21
-58.94075199999983
 31
0.0
  0
LINE
  5
45F4
330
A
100
AcDbEntity
  8
0
  6
Continuous
 62
     7
100
AcDbLine
 10
142.9623039999999
 20
-58.94075199999983
 30
0.0
 11
143.3200750000001
 21
-58.6486329999999
 31
0.0
  0
LINE
  5
45F5
330
A
100
AcDbEntity
  8
0
  6
Continuous
 62
     7
100
AcDbLine
 10
98.504459
 20
-43.92725799999982
 30
0.0
 11
98.14668800000005
 21
-44.21937599999984
 31
0.0
  0
LINE
  5
45F6
330
A
100
AcDbEntity
  8
0
  6
Continuous
 62
     7
100
AcDbLine
 10
98.14668800000005
 20
-44.21937599999984
 30
0.0
 11
97.78891700000009
 21
-44.51149499999982
 31
0.0
  0
ARC
  5
45F7
330
A
100
AcDbEntity
  8
0
  6
Continuous
 62
     7
100
AcDbCircle
 10
141.036842
 20
-55.56280599999983
 30
0.0
 40
6.457849999999997
100
AcDbArc
 50
0.9166299999993775
 51
77.54641100000481
  0
LINE
  5
45F8
330
A
100
AcDbEntity
  8
0
  6
Continuous
 62
     7
100
AcDbLine
 10
142.4294689999999
 20
-49.25690399999982
 30
0.0
 11
103.0746730000001
 21
-41.22363899999982
 31
0.0
  0
LINE
  5
45F9
330
A
100
AcDbEntity
  8
0
  6
Continuous
 62
     7
100
AcDbLine
 10
147.4938650000001
 20
-60.11237699999984
 30
0.0
 11
147.4938650000001
 21
-55.45949699999983
 31
0.0
  0
LINE
  5
45FA
330
A
100
AcDbEntity
  8
0
  6
Continuous
 62
     7
100
AcDbLine
 10
98.63993900000014
 20
-42.26744499999983
 30
0.0
 11
97.56662699999992
 21
-43.14380099999982
 31
0.0
  0
ARC
  5
45FB
330
A
100
AcDbEntity
  8
0
  6
Continuous
 62
     7
100
AcDbCircle
 10
101.94893
 20
-46.38406199999983
 30
0.0
 40
5.281785
100
AcDbArc
 50
77.69375700000097
 51
128.616176999996
  0
LINE
  5
45FC
330
A
100
AcDbEntity
  8
0
  6
Continuous
 62
     7
100
AcDbLine
 10
98.65256599999998
 20
-42.25716899999983
 30
0.0
 11
98.63989300000003
 21
-42.26748299999982
 31
0.0
  0
LINE
  5
45FD
330
A
100
AcDbEntity
  8
0
  6
Continuous
 62
     7
100
AcDbLine
 10
126.7284789999999
 20
-72.10319699999982
 30
0.0
 11
126.7284789999999
 21
-83.35683199999982
 31
0.0
  0
LINE
  5
45FE
330
A
100
AcDbEntity
  8
0
  6
Continuous
 62
     7
100
AcDbLine
 10
126.7284789999999
 20
-95.32710299999981
 30
0.0
 11
126.7284789999999
 21
-105.3387639999998
 31
0.0
  0
LINE
  5
45FF
330
A
100
AcDbEntity
  8
0
  6
Continuous
 62
     7
100
AcDbLine
 10
142.9623039999999
 20
-58.94075199999983
 30
0.0
 11
143.3200750000001
 21
-58.6486329999999
 31
0.0
  0
LINE
  5
4600
330
A
100
AcDbEntity
  8
0
  6
Continuous
 62
     7
100
AcDbLine
 10
98.504459
 20
-43.92725799999982
 30
0.0
 11
98.14668800000005
 21
-44.21937599999984
 31
0.0
  0
ARC
  5
4601
330
A
100
AcDbEntity
  8
0
  6
Continuous
 62
     7
100
AcDbCircle
 10
95.93685900000014
 20
-51.3024849999999
 30
0.0
 40
5.289115999999999
100
AcDbArc
 50
129.7077949999971
 51
180.7296099999992
  0
LINE
  5
4602
330
A
100
AcDbEntity
  8
0
  6
Continuous
 62
     7
100
AcDbLine
 10
93.63114700000005
 20
-46.35710699999984
 30
0.0
 11
92.55783500000006
 21
-47.23346299999983
 31
0.0
  0
LINE
  5
4603
330
A
100
AcDbEntity
  8
0
  6
Continuous
 62
     7
100
AcDbLine
 10
90.64817200000016
 20
-51.36983499999985
 30
0.0
 11
90.64817200000016
 21
-113.4450579999998
 31
0.0
  0
LINE
  5
4604
330
A
100
AcDbEntity
  8
0
  6
Continuous
 62
     7
100
AcDbLine
 10
135.0673640000002
 20
-127.6809159999998
 30
0.0
 11
136.06484
 21
-127.7945709999998
 31
0.0
  0
LINE
  5
4605
330
A
100
AcDbEntity
  8
0
  6
Continuous
 62
     7
100
AcDbLine
 10
95.71256799999991
 20
-119.6476509999998
 30
0.0
 11
135.0673640000002
 21
-127.6809159999998
 31
0.0
  0
ARC
  5
4606
330
A
100
AcDbEntity
  8
0
  6
Continuous
 62
     7
100
AcDbCircle
 10
97.1051950000001
 20
-113.3417489999998
 30
0.0
 40
6.457849999999997
100
AcDbArc
 50
180.9166299999994
 51
257.5464110000047
  0
ARC
  5
4607
330
A
100
AcDbEntity
  8
0
  6
Continuous
 62
     7
100
AcDbCircle
 10
96.75430000000005
 20
61.00000000000017
 30
0.0
 40
2.1
100
AcDbArc
 50
90.00001899999409
 51
270.0000380000012
  0
ARC
  5
4608
330
A
100
AcDbEntity
  8
0
  6
Continuous
 62
     7
100
AcDbCircle
 10
96.75430000000005
 20
61.00000000000017
 30
0.0
 40
2.1
100
AcDbArc
 50
88.4976089999983
 51
90.00001899999409
  0
ARC
  5
4609
330
A
100
AcDbEntity
  8
0
  6
Continuous
 62
     7
100
AcDbCircle
 10
96.75430000000005
 20
61.00000000000017
 30
0.0
 40
2.1
100
AcDbArc
 50
1.4070029999999
 51
88.4976089999983
  0
ARC
  5
460A
330
A
100
AcDbEntity
  8
0
  6
Continuous
 62
     7
100
AcDbCircle
 10
96.75430000000005
 20
61.00000000000017
 30
0.0
 40
2.1
100
AcDbArc
 50
0.0000379999995905
 51
1.4070029999999
  0
ARC
  5
460B
330
A
100
AcDbEntity
  8
0
  6
Continuous
 62
     7
100
AcDbCircle
 10
136.7543
 20
9.00000000000017
 30
0.0
 40
2.1
100
AcDbArc
 50
90.00001899999409
 51
270.0000380000012
  0
ARC
  5
460C
330
A
100
AcDbEntity
  8
0
  6
Continuous
 62
     7
100
AcDbCircle
 10
136.7543
 20
9.00000000000017
 30
0.0
 40
2.1
100
AcDbArc
 50
88.49690200000338
 51
90.00001899999409
  0
ARC
  5
460D
330
A
100
AcDbEntity
  8
0
  6
Continuous
 62
     7
100
AcDbCircle
 10
136.7543
 20
9.00000000000017
 30
0.0
 40
2.1
100
AcDbArc
 50
1.407313999999979
 51
88.49690200000338
  0
ARC
  5
460E
330
A
100
AcDbEntity
  8
0
  6
Continuous
 62
     7
100
AcDbCircle
 10
136.7543
 20
9.00000000000017
 30
0.0
 40
2.1
100
AcDbArc
 50
0.0000379999995905
 51
1.407313999999979
  0
ARC
  5
460F
330
A
100
AcDbEntity
  8
0
  6
Continuous
 62
     9
100
AcDbCircle
 10
96.75430000000005
 20
61.00000000000017
 30
0.0
 40
2.5
100
AcDbArc
 50
90.0
 51
270.0000189999941
  0
ARC
  5
4610
330
A
100
AcDbEntity
  8
0
  6
Continuous
 62
     9
100
AcDbCircle
 10
96.75430000000005
 20
61.00000000000017
 30
0.0
 40
2.5
100
AcDbArc
 50
270.0000189999941
 51
271.4979149999964
  0
ARC
  5
4611
330
A
100
AcDbEntity
  8
0
  6
Continuous
 62
     9
100
AcDbCircle
 10
96.75430000000005
 20
61.00000000000017
 30
0.0
 40
2.5
100
AcDbArc
 50
271.4979149999964
 51
358.4205229999994
  0
ARC
  5
4612
330
A
100
AcDbEntity
  8
0
  6
Continuous
 62
     9
100
AcDbCircle
 10
96.75430000000005
 20
61.00000000000017
 30
0.0
 40
2.5
100
AcDbArc
 50
358.4205229999994
 51
0.0
  0
ARC
  5
4613
330
A
100
AcDbEntity
  8
0
  6
Continuous
 62
     9
100
AcDbCircle
 10
136.7543
 20
61.00000000000017
 30
0.0
 40
2.5
100
AcDbArc
 50
90.0
 51
0.0
  0
ARC
  5
4614
330
A
100
AcDbEntity
  8
0
  6
Continuous
 62
     9
100
AcDbCircle
 10
96.75430000000005
 20
9.00000000000017
 30
0.0
 40
2.5
100
AcDbArc
 50
90.0
 51
0.0
  0
ARC
  5
4615
330
A
100
AcDbEntity
  8
0
  6
Continuous
 62
     9
100
AcDbCircle
 10
136.7543
 20
9.00000000000017
 30
0.0
 40
2.5
100
AcDbArc
 50
90.0
 51
270.0000189999941
  0
ARC
  5
4616
330
A
100
AcDbEntity
  8
0
  6
Continuous
 62
     9
100
AcDbCircle
 10
136.7543
 20
9.00000000000017
 30
0.0
 40
2.5
100
AcDbArc
 50
270.0000189999941
 51
271.4985239999984
  0
ARC
  5
4617
330
A
100
AcDbEntity
  8
0
  6
Continuous
 62
     9
100
AcDbCircle
 10
136.7543
 20
9.00000000000017
 30
0.0
 40
2.5
100
AcDbArc
 50
271.4985239999984
 51
358.4208170000001
  0
ARC
  5
4618
330
A
100
AcDbEntity
  8
0
  6
Continuous
 62
     9
100
AcDbCircle
 10
136.7543
 20
9.00000000000017
 30
0.0
 40
2.5
100
AcDbArc
 50
358.4208170000001
 51
0.0
  0
LINE
  5
4619
330
A
100
AcDbEntity
  8
0
  6
Continuous
 62
     9
100
AcDbLine
 10
102.6728130000001
 20
41.00000000000017
 30
0.0
 11
102.6728130000001
 21
29.00000000000017
 31
0.0
  0
LINE
  5
461A
330
A
100
AcDbEntity
  8
0
  6
Continuous
 62
     7
100
AcDbLine
 10
104.2543
 20
41.00000000000017
 30
0.0
 11
102.6728130000001
 21
41.00000000000017
 31
0.0
  0
LINE
  5
461B
330
A
100
AcDbEntity
  8
0
  6
Continuous
 62
     7
100
AcDbLine
 10
104.2543
 20
29.00000000000017
 30
0.0
 11
102.6728130000001
 21
29.00000000000017
 31
0.0
  0
LINE
  5
461C
330
A
100
AcDbEntity
  8
0
  6
Continuous
 62
     9
100
AcDbLine
 10
130.835787
 20
29.00000000000017
 30
0.0
 11
130.835787
 21
41.00000000000017
 31
0.0
  0
LINE
  5
461D
330
A
100
AcDbEntity
  8
0
  6
Continuous
 62
     7
100
AcDbLine
 10
130.835787
 20
41.00000000000017
 30
0.0
 11
129.2543
 21
41.00000000000017
 31
0.0
  0
LINE
  5
461E
330
A
100
AcDbEntity
  8
0
  6
Continuous
 62
     7
100
AcDbLine
 10
130.835787
 20
29.00000000000017
 30
0.0
 11
129.2543
 21
29.00000000000017
 31
0.0
  0
LINE
  5
461F
330
A
100
AcDbEntity
  8
0
  6
Continuous
 62
     7
100
AcDbLine
 10
102.661145
 20
41.00000000000017
 30
0.0
 11
102.6728130000001
 21
41.00000000000017
 31
0.0
  0
LINE
  5
4620
330
A
100
AcDbEntity
  8
0
  6
Continuous
 62
     7
100
AcDbLine
 10
102.6728130000001
 20
29.00000000000017
 30
0.0
 11
102.661145
 21
29.00000000000017
 31
0.0
  0
LINE
  5
4621
330
A
100
AcDbEntity
  8
0
  6
Continuous
 62
     7
100
AcDbLine
 10
130.8474550000001
 20
29.00000000000017
 30
0.0
 11
130.835787
 21
29.00000000000017
 31
0.0
  0
LINE
  5
4622
330
A
100
AcDbEntity
  8
0
  6
Continuous
 62
     7
100
AcDbLine
 10
130.835787
 20
41.00000000000017
 30
0.0
 11
130.8474550000001
 21
41.00000000000017
 31
0.0
  0
CIRCLE
  5
4623
330
A
100
AcDbEntity
  8
0
  6
Continuous
 62
     7
100
AcDbCircle
 10
96.75430000000005
 20
61.00000000000017
 30
0.0
 40
1.75
  0
LINE
  5
4624
330
A
100
AcDbEntity
  8
0
  6
Continuous
 62
     7
100
AcDbLine
 10
96.03261300000008
 20
59.75000000000017
 30
0.0
 11
95.31092400000011
 21
60.99999900000018
 31
0.0
  0
LINE
  5
4625
330
A
100
AcDbEntity
  8
0
  6
Continuous
 62
     7
100
AcDbLine
 10
97.47598900000003
 20
59.75000000000017
 30
0.0
 11
96.03261300000008
 21
59.75000000000017
 31
0.0
  0
LINE
  5
4626
330
A
100
AcDbEntity
  8
0
  6
Continuous
 62
     7
100
AcDbLine
 10
98.197676
 20
61.00000100000016
 30
0.0
 11
97.47598900000003
 21
59.75000000000017
 31
0.0
  0
LINE
  5
4627
330
A
100
AcDbEntity
  8
0
  6
Continuous
 62
     7
100
AcDbLine
 10
97.47598700000004
 20
62.25000000000017
 30
0.0
 11
98.197676
 21
61.00000100000016
 31
0.0
  0
LINE
  5
4628
330
A
100
AcDbEntity
  8
0
  6
Continuous
 62
     7
100
AcDbLine
 10
96.03261100000009
 20
62.25000000000017
 30
0.0
 11
97.47598700000004
 21
62.25000000000017
 31
0.0
  0
LINE
  5
4629
330
A
100
AcDbEntity
  8
0
  6
Continuous
 62
     7
100
AcDbLine
 10
95.31092400000011
 20
60.99999900000018
 30
0.0
 11
96.03261100000009
 21
62.25000000000017
 31
0.0
  0
CIRCLE
  5
462A
330
A
100
AcDbEntity
  8
0
  6
Continuous
 62
     7
100
AcDbCircle
 10
136.7543
 20
9.00000000000017
 30
0.0
 40
1.75
  0
LINE
  5
462B
330
A
100
AcDbEntity
  8
0
  6
Continuous
 62
     7
100
AcDbLine
 10
136.0326130000001
 20
7.75000000000017
 30
0.0
 11
135.3109240000001
 21
8.999999000000201
 31
0.0
  0
LINE
  5
462C
330
A
100
AcDbEntity
  8
0
  6
Continuous
 62
     7
100
AcDbLine
 10
137.475989
 20
7.75000000000017
 30
0.0
 11
136.0326130000001
 21
7.75000000000017
 31
0.0
  0
LINE
  5
462D
330
A
100
AcDbEntity
  8
0
  6
Continuous
 62
     7
100
AcDbLine
 10
138.197676
 20
9.000001000000139
 30
0.0
 11
137.475989
 21
7.75000000000017
 31
0.0
  0
LINE
  5
462E
330
A
100
AcDbEntity
  8
0
  6
Continuous
 62
     7
100
AcDbLine
 10
137.475987
 20
10.25000000000017
 30
0.0
 11
138.197676
 21
9.000001000000139
 31
0.0
  0
LINE
  5
462F
330
A
100
AcDbEntity
  8
0
  6
Continuous
 62
     7
100
AcDbLine
 10
136.0326110000001
 20
10.25000000000017
 30
0.0
 11
137.475987
 21
10.25000000000017
 31
0.0
  0
LINE
  5
4630
330
A
100
AcDbEntity
  8
0
  6
Continuous
 62
     7
100
AcDbLine
 10
135.3109240000001
 20
8.999999000000201
 30
0.0
 11
136.0326110000001
 21
10.25000000000017
 31
0.0
  0
LINE
  5
4631
330
A
100
AcDbEntity
  8
0
  6
Continuous
 62
     7
100
AcDbLine
 10
104.2043000000001
 20
0.0201710000001754
 30
0.0
 11
104.2043000000001
 21
0.1566170000001534
 31
0.0
  0
LINE
  5
4632
330
A
100
AcDbEntity
  8
0
  6
Continuous
 62
     7
100
AcDbLine
 10
104.2043000000001
 20
0.1566170000001534
 30
0.0
 11
104.2043000000001
 21
9.979829000000165
 31
0.0
  0
LINE
  5
4633
330
A
100
AcDbEntity
  8
0
  6
Continuous
 62
     7
100
AcDbLine
 10
104.2043000000001
 20
60.02017100000017
 30
0.0
 11
104.2043000000001
 21
64.91851800000017
 31
0.0
  0
LINE
  5
4634
330
A
100
AcDbEntity
  8
0
  6
Continuous
 62
     7
100
AcDbLine
 10
104.2043000000001
 20
64.91851800000017
 30
0.0
 11
104.2043000000001
 21
69.97982900000017
 31
0.0
  0
LINE
  5
4635
330
A
100
AcDbEntity
  8
0
  6
Continuous
 62
     9
100
AcDbLine
 10
122.2543
 20
-7.499999999999829
 30
0.0
 11
121.7543
 21
-7.499999999999829
 31
0.0
  0
LINE
  5
4636
330
A
100
AcDbEntity
  8
0
  6
Continuous
 62
     9
100
AcDbLine
 10
121.7543
 20
-7.499999999999829
 30
0.0
 11
120.7543
 21
-7.499999999999829
 31
0.0
  0
LINE
  5
4637
330
A
100
AcDbEntity
  8
0
  6
Continuous
 62
     7
100
AcDbLine
 10
122.2543
 20
-13.49999999999983
 30
0.0
 11
121.7543
 21
-13.49999999999983
 31
0.0
  0
LINE
  5
4638
330
A
100
AcDbEntity
  8
0
  6
Continuous
 62
     7
100
AcDbLine
 10
121.7543
 20
-13.49999999999983
 30
0.0
 11
120.7543
 21
-13.49999999999983
 31
0.0
  0
LINE
  5
4639
330
A
100
AcDbEntity
  8
0
  6
Continuous
 62
     7
100
AcDbLine
 10
120.7543
 20
-13.49999999999983
 30
0.0
 11
120.7543
 21
-7.499999999999829
 31
0.0
  0
LINE
  5
463A
330
A
100
AcDbEntity
  8
0
  6
Continuous
 62
     9
100
AcDbLine
 10
122.2543
 20
77.50000000000017
 30
0.0
 11
121.7543
 21
77.50000000000017
 31
0.0
  0
LINE
  5
463B
330
A
100
AcDbEntity
  8
0
  6
Continuous
 62
     9
100
AcDbLine
 10
121.7543
 20
77.50000000000017
 30
0.0
 11
120.7543
 21
77.50000000000017
 31
0.0
  0
LINE
  5
463C
330
A
100
AcDbEntity
  8
0
  6
Continuous
 62
     7
100
AcDbLine
 10
120.7543
 20
-7.499999999999829
 30
0.0
 11
120.7543
 21
77.50000000000017
 31
0.0
  0
LINE
  5
463D
330
A
100
AcDbEntity
  8
0
  6
Continuous
 62
     7
100
AcDbLine
 10
122.2543
 20
83.50000000000017
 30
0.0
 11
121.7543
 21
83.50000000000017
 31
0.0
  0
LINE
  5
463E
330
A
100
AcDbEntity
  8
0
  6
Continuous
 62
     7
100
AcDbLine
 10
121.7543
 20
83.50000000000017
 30
0.0
 11
120.7543
 21
83.50000000000017
 31
0.0
  0
LINE
  5
463F
330
A
100
AcDbEntity
  8
0
  6
Continuous
 62
     7
100
AcDbLine
 10
120.7543
 20
77.50000000000017
 30
0.0
 11
120.7543
 21
83.50000000000017
 31
0.0
  0
LINE
  5
4640
330
A
100
AcDbEntity
  8
0
  6
Continuous
 62
     7
100
AcDbLine
 10
111.2543
 20
-13.49999999999983
 30
0.0
 11
111.7543
 21
-13.49999999999983
 31
0.0
  0
LINE
  5
4641
330
A
100
AcDbEntity
  8
0
  6
Continuous
 62
     7
100
AcDbLine
 10
111.7543
 20
-13.49999999999983
 30
0.0
 11
112.7543
 21
-13.49999999999983
 31
0.0
  0
LINE
  5
4642
330
A
100
AcDbEntity
  8
0
  6
Continuous
 62
     9
100
AcDbLine
 10
111.2543
 20
-7.499999999999829
 30
0.0
 11
111.7543
 21
-7.499999999999829
 31
0.0
  0
LINE
  5
4643
330
A
100
AcDbEntity
  8
0
  6
Continuous
 62
     9
100
AcDbLine
 10
111.7543
 20
-7.499999999999829
 30
0.0
 11
112.7543
 21
-7.499999999999829
 31
0.0
  0
LINE
  5
4644
330
A
100
AcDbEntity
  8
0
  6
Continuous
 62
     7
100
AcDbLine
 10
112.7543
 20
-7.499999999999829
 30
0.0
 11
112.7543
 21
-13.49999999999983
 31
0.0
  0
LINE
  5
4645
330
A
100
AcDbEntity
  8
0
  6
Continuous
 62
     9
100
AcDbLine
 10
111.2543
 20
77.50000000000017
 30
0.0
 11
111.7543
 21
77.50000000000017
 31
0.0
  0
LINE
  5
4646
330
A
100
AcDbEntity
  8
0
  6
Continuous
 62
     9
100
AcDbLine
 10
111.7543
 20
77.50000000000017
 30
0.0
 11
112.7543
 21
77.50000000000017
 31
0.0
  0
LINE
  5
4647
330
A
100
AcDbEntity
  8
0
  6
Continuous
 62
     7
100
AcDbLine
 10
112.7543
 20
77.50000000000017
 30
0.0
 11
112.7543
 21
-7.499999999999829
 31
0.0
  0
LINE
  5
4648
330
A
100
AcDbEntity
  8
0
  6
Continuous
 62
     7
100
AcDbLine
 10
111.2543
 20
83.50000000000017
 30
0.0
 11
111.7543
 21
83.50000000000017
 31
0.0
  0
LINE
  5
4649
330
A
100
AcDbEntity
  8
0
  6
Continuous
 62
     7
100
AcDbLine
 10
111.7543
 20
83.50000000000017
 30
0.0
 11
112.7543
 21
83.50000000000017
 31
0.0
  0
LINE
  5
464A
330
A
100
AcDbEntity
  8
0
  6
Continuous
 62
     7
100
AcDbLine
 10
112.7543
 20
83.50000000000017
 30
0.0
 11
112.7543
 21
77.50000000000017
 31
0.0
  0
LINE
  5
464B
330
A
100
AcDbEntity
  8
0
  6
Continuous
 62
     7
100
AcDbLine
 10
104.2543
 20
-10.99999999999983
 30
0.0
 11
104.2543
 21
-7.499999999999829
 31
0.0
  0
LINE
  5
464C
330
A
100
AcDbEntity
  8
0
  6
Continuous
 62
     9
100
AcDbLine
 10
104.2543
 20
-7.499999999999829
 30
0.0
 11
108.2543
 21
-7.499999999999829
 31
0.0
  0
LINE
  5
464D
330
A
100
AcDbEntity
  8
0
  6
Continuous
 62
     9
100
AcDbLine
 10
108.2543
 20
-7.499999999999829
 30
0.0
 11
108.2543
 21
-14.99999999999983
 31
0.0
  0
ARC
  5
464E
330
A
100
AcDbEntity
  8
0
  6
Continuous
 62
     7
100
AcDbCircle
 10
108.2543
 20
-10.99999999999983
 30
0.0
 40
4.0
100
AcDbArc
 50
180.0
 51
270.0
  0
LINE
  5
464F
330
A
100
AcDbEntity
  8
0
  6
Continuous
 62
     7
100
AcDbLine
 10
104.2543
 20
-7.499999999999829
 30
0.0
 11
104.2543
 21
77.50000000000017
 31
0.0
  0
LINE
  5
4650
330
A
100
AcDbEntity
  8
0
  6
Continuous
 62
     9
100
AcDbLine
 10
104.2543
 20
77.50000000000017
 30
0.0
 11
108.2543
 21
77.50000000000017
 31
0.0
  0
LINE
  5
4651
330
A
100
AcDbEntity
  8
0
  6
Continuous
 62
     9
100
AcDbLine
 10
108.2543
 20
77.50000000000017
 30
0.0
 11
108.2543
 21
-7.499999999999829
 31
0.0
  0
LINE
  5
4652
330
A
100
AcDbEntity
  8
0
  6
Continuous
 62
     7
100
AcDbLine
 10
104.2543
 20
77.50000000000017
 30
0.0
 11
104.2543
 21
81.00000000000017
 31
0.0
  0
ARC
  5
4653
330
A
100
AcDbEntity
  8
0
  6
Continuous
 62
     7
100
AcDbCircle
 10
108.2543
 20
81.00000000000017
 30
0.0
 40
4.0
100
AcDbArc
 50
90.0
 51
180.0
  0
LINE
  5
4654
330
A
100
AcDbEntity
  8
0
  6
Continuous
 62
     9
100
AcDbLine
 10
108.2543
 20
85.00000000000017
 30
0.0
 11
108.2543
 21
77.50000000000017
 31
0.0
  0
LINE
  5
4655
330
A
100
AcDbEntity
  8
0
  6
Continuous
 62
     7
100
AcDbLine
 10
111.2543
 20
-7.499999999999829
 30
0.0
 11
111.2543
 21
77.50000000000017
 31
0.0
  0
LINE
  5
4656
330
A
100
AcDbEntity
  8
0
  6
Continuous
 62
     9
100
AcDbLine
 10
108.2543
 20
-7.499999999999829
 30
0.0
 11
111.2543
 21
-7.499999999999829
 31
0.0
  0
LINE
  5
4657
330
A
100
AcDbEntity
  8
0
  6
Continuous
 62
     9
100
AcDbLine
 10
108.2543
 20
77.50000000000017
 30
0.0
 11
111.2543
 21
77.50000000000017
 31
0.0
  0
LINE
  5
4658
330
A
100
AcDbEntity
  8
0
  6
Continuous
 62
     7
100
AcDbLine
 10
111.2543
 20
-14.99999999999983
 30
0.0
 11
111.2543
 21
-7.499999999999829
 31
0.0
  0
LINE
  5
4659
330
A
100
AcDbEntity
  8
0
  6
Continuous
 62
     7
100
AcDbLine
 10
108.2543
 20
-14.99999999999983
 30
0.0
 11
111.2543
 21
-14.99999999999983
 31
0.0
  0
LINE
  5
465A
330
A
100
AcDbEntity
  8
0
  6
Continuous
 62
     7
100
AcDbLine
 10
111.2543
 20
77.50000000000017
 30
0.0
 11
111.2543
 21
85.00000000000017
 31
0.0
  0
LINE
  5
465B
330
A
100
AcDbEntity
  8
0
  6
Continuous
 62
     7
100
AcDbLine
 10
108.2543
 20
85.00000000000017
 30
0.0
 11
111.2543
 21
85.00000000000017
 31
0.0
  0
LINE
  5
465C
330
A
100
AcDbEntity
  8
0
  6
Continuous
 62
     7
100
AcDbLine
 10
112.7543
 20
77.50000000000017
 30
0.0
 11
120.7543
 21
77.50000000000017
 31
0.0
  0
LINE
  5
465D
330
A
100
AcDbEntity
  8
0
  6
Continuous
 62
     7
100
AcDbLine
 10
120.7543
 20
-7.499999999999829
 30
0.0
 11
112.7543
 21
-7.499999999999829
 31
0.0
  0
CIRCLE
  5
465E
330
A
100
AcDbEntity
  8
0
  6
Continuous
 62
     7
100
AcDbCircle
 10
96.75430000000005
 20
0.0000000000001705
 30
0.0
 40
5.0
  0
CIRCLE
  5
465F
330
A
100
AcDbEntity
  8
0
  6
Continuous
 62
     7
100
AcDbCircle
 10
96.75430000000005
 20
70.00000000000017
 30
0.0
 40
5.0
  0
CIRCLE
  5
4660
330
A
100
AcDbEntity
  8
0
  6
Continuous
 62
     7
100
AcDbCircle
 10
96.75430000000005
 20
9.00000000000017
 30
0.0
 40
2.1
  0
ARC
  5
4661
330
A
100
AcDbEntity
  8
0
  6
Continuous
 62
     7
100
AcDbCircle
 10
96.75430000000005
 20
61.00000000000017
 30
0.0
 40
2.1
100
AcDbArc
 50
88.49666100000439
 51
90.0
  0
ARC
  5
4662
330
A
100
AcDbEntity
  8
0
  6
Continuous
 62
     7
100
AcDbCircle
 10
96.75430000000005
 20
61.00000000000017
 30
0.0
 40
2.1
100
AcDbArc
 50
1.37077999999931
 51
88.49666100000439
  0
ARC
  5
4663
330
A
100
AcDbEntity
  8
0
  6
Continuous
 62
     7
100
AcDbCircle
 10
96.75430000000005
 20
61.00000000000017
 30
0.0
 40
2.1
100
AcDbArc
 50
270.0000189999941
 51
1.37077999999931
  0
ARC
  5
4664
330
A
100
AcDbEntity
  8
0
  6
Continuous
 62
     7
100
AcDbCircle
 10
96.75430000000005
 20
61.00000000000017
 30
0.0
 40
2.1
100
AcDbArc
 50
90.0
 51
270.0000189999941
  0
LINE
  5
4665
330
A
100
AcDbEntity
  8
0
  6
Continuous
 62
     7
100
AcDbLine
 10
89.25430000000005
 20
-7.499999999999829
 30
0.0
 11
89.25430000000005
 21
77.50000000000017
 31
0.0
  0
LINE
  5
4666
330
A
100
AcDbEntity
  8
0
  6
Continuous
 62
     7
100
AcDbLine
 10
104.2543
 20
77.50000000000017
 30
0.0
 11
89.25430000000005
 21
77.50000000000017
 31
0.0
  0
LINE
  5
4667
330
A
100
AcDbEntity
  8
0
  6
Continuous
 62
     7
100
AcDbLine
 10
104.2543
 20
-7.499999999999829
 30
0.0
 11
89.25430000000005
 21
-7.499999999999829
 31
0.0
  0
LINE
  5
4668
330
A
100
AcDbEntity
  8
0
  6
Continuous
 62
     7
100
AcDbLine
 10
144.2543
 20
-7.499999999999829
 30
0.0
 11
144.2543
 21
77.50000000000017
 31
0.0
  0
CIRCLE
  5
4669
330
A
100
AcDbEntity
  8
0
  6
Continuous
 62
     7
100
AcDbCircle
 10
136.7543
 20
70.00000000000017
 30
0.0
 40
5.0
  0
CIRCLE
  5
466A
330
A
100
AcDbEntity
  8
0
  6
Continuous
 62
     7
100
AcDbCircle
 10
136.7543
 20
0.0000000000001705
 30
0.0
 40
5.0
  0
ARC
  5
466B
330
A
100
AcDbEntity
  8
0
  6
Continuous
 62
     7
100
AcDbCircle
 10
136.7543
 20
9.00000000000017
 30
0.0
 40
2.1
100
AcDbArc
 50
88.49595400000223
 51
90.0
  0
ARC
  5
466C
330
A
100
AcDbEntity
  8
0
  6
Continuous
 62
     7
100
AcDbCircle
 10
136.7543
 20
9.00000000000017
 30
0.0
 40
2.1
100
AcDbArc
 50
1.371118000000161
 51
88.49595400000223
  0
ARC
  5
466D
330
A
100
AcDbEntity
  8
0
  6
Continuous
 62
     7
100
AcDbCircle
 10
136.7543
 20
9.00000000000017
 30
0.0
 40
2.1
100
AcDbArc
 50
270.0000189999941
 51
1.371118000000161
  0
ARC
  5
466E
330
A
100
AcDbEntity
  8
0
  6
Continuous
 62
     7
100
AcDbCircle
 10
136.7543
 20
9.00000000000017
 30
0.0
 40
2.1
100
AcDbArc
 50
90.0
 51
270.0000189999941
  0
CIRCLE
  5
466F
330
A
100
AcDbEntity
  8
0
  6
Continuous
 62
     7
100
AcDbCircle
 10
136.7543
 20
61.00000000000017
 30
0.0
 40
2.1
  0
LINE
  5
4670
330
A
100
AcDbEntity
  8
0
  6
Continuous
 62
     7
100
AcDbLine
 10
144.2543
 20
77.50000000000017
 30
0.0
 11
129.2543
 21
77.50000000000017
 31
0.0
  0
LINE
  5
4671
330
A
100
AcDbEntity
  8
0
  6
Continuous
 62
     7
100
AcDbLine
 10
144.2543
 20
-7.499999999999829
 30
0.0
 11
129.2543
 21
-7.499999999999829
 31
0.0
  0
CIRCLE
  5
4672
330
A
100
AcDbEntity
  8
0
  6
Continuous
 62
     7
100
AcDbCircle
 10
96.75430000000005
 20
70.00000000000017
 30
0.0
 40
2.649999999999999
  0
CIRCLE
  5
4673
330
A
100
AcDbEntity
  8
0
  6
Continuous
 62
     7
100
AcDbCircle
 10
96.75430000000005
 20
0.0000000000001705
 30
0.0
 40
2.649999999999999
  0
CIRCLE
  5
4674
330
A
100
AcDbEntity
  8
0
  6
Continuous
 62
     7
100
AcDbCircle
 10
136.7543
 20
70.00000000000017
 30
0.0
 40
2.649999999999999
  0
CIRCLE
  5
4675
330
A
100
AcDbEntity
  8
0
  6
Continuous
 62
     7
100
AcDbCircle
 10
136.7543
 20
0.0000000000001705
 30
0.0
 40
2.649999999999999
  0
LINE
  5
4676
330
A
100
AcDbEntity
  8
0
  6
Continuous
 62
     9
100
AcDbLine
 10
111.2543
 20
77.50000000000017
 30
0.0
 11
111.7543
 21
77.50000000000017
 31
0.0
  0
LINE
  5
4677
330
A
100
AcDbEntity
  8
0
  6
Continuous
 62
     7
100
AcDbLine
 10
111.2543
 20
83.50000000000017
 30
0.0
 11
111.7543
 21
83.50000000000017
 31
0.0
  0
LINE
  5
4678
330
A
100
AcDbEntity
  8
0
  6
Continuous
 62
     7
100
AcDbLine
 10
111.7543
 20
83.50000000000017
 30
0.0
 11
111.7543
 21
77.50000000000017
 31
0.0
  0
LINE
  5
4679
330
A
100
AcDbEntity
  8
0
  6
Continuous
 62
     7
100
AcDbLine
 10
111.2543
 20
-13.49999999999983
 30
0.0
 11
111.7543
 21
-13.49999999999983
 31
0.0
  0
LINE
  5
467A
330
A
100
AcDbEntity
  8
0
  6
Continuous
 62
     9
100
AcDbLine
 10
111.2543
 20
-7.499999999999829
 30
0.0
 11
111.7543
 21
-7.499999999999829
 31
0.0
  0
LINE
  5
467B
330
A
100
AcDbEntity
  8
0
  6
Continuous
 62
     7
100
AcDbLine
 10
111.7543
 20
-7.499999999999829
 30
0.0
 11
111.7543
 21
-13.49999999999983
 31
0.0
  0
LINE
  5
467C
330
A
100
AcDbEntity
  8
0
  6
Continuous
 62
     7
100
AcDbLine
 10
111.7543
 20
77.50000000000017
 30
0.0
 11
111.7543
 21
-7.499999999999829
 31
0.0
  0
LINE
  5
467D
330
A
100
AcDbEntity
  8
0
  6
Continuous
 62
     7
100
AcDbLine
 10
122.2543
 20
83.50000000000017
 30
0.0
 11
121.7543
 21
83.50000000000017
 31
0.0
  0
LINE
  5
467E
330
A
100
AcDbEntity
  8
0
  6
Continuous
 62
     9
100
AcDbLine
 10
122.2543
 20
77.50000000000017
 30
0.0
 11
121.7543
 21
77.50000000000017
 31
0.0
  0
LINE
  5
467F
330
A
100
AcDbEntity
  8
0
  6
Continuous
 62
     7
100
AcDbLine
 10
121.7543
 20
77.50000000000017
 30
0.0
 11
121.7543
 21
83.50000000000017
 31
0.0
  0
LINE
  5
4680
330
A
100
AcDbEntity
  8
0
  6
Continuous
 62
     9
100
AcDbLine
 10
122.2543
 20
-7.499999999999829
 30
0.0
 11
121.7543
 21
-7.499999999999829
 31
0.0
  0
LINE
  5
4681
330
A
100
AcDbEntity
  8
0
  6
Continuous
 62
     7
100
AcDbLine
 10
121.7543
 20
-7.499999999999829
 30
0.0
 11
121.7543
 21
77.50000000000017
 31
0.0
  0
LINE
  5
4682
330
A
100
AcDbEntity
  8
0
  6
Continuous
 62
     7
100
AcDbLine
 10
122.2543
 20
-13.49999999999983
 30
0.0
 11
121.7543
 21
-13.49999999999983
 31
0.0
  0
LINE
  5
4683
330
A
100
AcDbEntity
  8
0
  6
Continuous
 62
     7
100
AcDbLine
 10
121.7543
 20
-13.49999999999983
 30
0.0
 11
121.7543
 21
-7.499999999999829
 31
0.0
  0
LINE
  5
4684
330
A
100
AcDbEntity
  8
0
  6
Continuous
 62
     7
100
AcDbLine
 10
112.7543
 20
-5.999999999999829
 30
0.0
 11
120.7543
 21
-5.999999999999829
 31
0.0
  0
LINE
  5
4685
330
A
100
AcDbEntity
  8
0
  6
Continuous
 62
     9
100
AcDbLine
 10
112.7543
 20
1.00000000000017
 30
0.0
 11
120.7543
 21
1.00000000000017
 31
0.0
  0
LINE
  5
4686
330
A
100
AcDbEntity
  8
0
  6
Continuous
 62
     9
100
AcDbLine
 10
112.7543
 20
69.00000000000017
 30
0.0
 11
120.7543
 21
69.00000000000017
 31
0.0
  0
LINE
  5
4687
330
A
100
AcDbEntity
  8
0
  6
Continuous
 62
     7
100
AcDbLine
 10
112.7543
 20
76.00000000000017
 30
0.0
 11
120.7543
 21
76.00000000000017
 31
0.0
  0
LINE
  5
4688
330
A
100
AcDbEntity
  8
0
  6
Continuous
 62
     9
100
AcDbLine
 10
122.2543
 20
-7.499999999999829
 30
0.0
 11
125.2543
 21
-7.499999999999829
 31
0.0
  0
LINE
  5
4689
330
A
100
AcDbEntity
  8
0
  6
Continuous
 62
     9
100
AcDbLine
 10
125.2543
 20
-14.99999999999983
 30
0.0
 11
125.2543
 21
-7.499999999999829
 31
0.0
  0
LINE
  5
468A
330
A
100
AcDbEntity
  8
0
  6
Continuous
 62
     7
100
AcDbLine
 10
125.2543
 20
-14.99999999999983
 30
0.0
 11
122.2543
 21
-14.99999999999983
 31
0.0
  0
LINE
  5
468B
330
A
100
AcDbEntity
  8
0
  6
Continuous
 62
     7
100
AcDbLine
 10
122.2543
 20
-14.99999999999983
 30
0.0
 11
122.2543
 21
-7.499999999999829
 31
0.0
  0
LINE
  5
468C
330
A
100
AcDbEntity
  8
0
  6
Continuous
 62
     7
100
AcDbLine
 10
122.2543
 20
85.00000000000017
 30
0.0
 11
125.2543
 21
85.00000000000017
 31
0.0
  0
LINE
  5
468D
330
A
100
AcDbEntity
  8
0
  6
Continuous
 62
     9
100
AcDbLine
 10
125.2543
 20
77.50000000000017
 30
0.0
 11
125.2543
 21
85.00000000000017
 31
0.0
  0
LINE
  5
468E
330
A
100
AcDbEntity
  8
0
  6
Continuous
 62
     9
100
AcDbLine
 10
125.2543
 20
77.50000000000017
 30
0.0
 11
122.2543
 21
77.50000000000017
 31
0.0
  0
LINE
  5
468F
330
A
100
AcDbEntity
  8
0
  6
Continuous
 62
     7
100
AcDbLine
 10
122.2543
 20
77.50000000000017
 30
0.0
 11
122.2543
 21
85.00000000000017
 31
0.0
  0
LINE
  5
4690
330
A
100
AcDbEntity
  8
0
  6
Continuous
 62
     9
100
AcDbLine
 10
125.2543
 20
-7.499999999999829
 30
0.0
 11
125.2543
 21
77.50000000000017
 31
0.0
  0
LINE
  5
4691
330
A
100
AcDbEntity
  8
0
  6
Continuous
 62
     7
100
AcDbLine
 10
122.2543
 20
-7.499999999999829
 30
0.0
 11
122.2543
 21
77.50000000000017
 31
0.0
  0
ARC
  5
4692
330
A
100
AcDbEntity
  8
0
  6
Continuous
 62
     7
100
AcDbCircle
 10
125.2543
 20
81.00000000000017
 30
0.0
 40
4.0
100
AcDbArc
 50
0.0
 51
90.0
  0
LINE
  5
4693
330
A
100
AcDbEntity
  8
0
  6
Continuous
 62
     7
100
AcDbLine
 10
129.2543
 20
81.00000000000017
 30
0.0
 11
129.2543
 21
77.50000000000017
 31
0.0
  0
LINE
  5
4694
330
A
100
AcDbEntity
  8
0
  6
Continuous
 62
     9
100
AcDbLine
 10
125.2543
 20
77.50000000000017
 30
0.0
 11
129.2543
 21
77.50000000000017
 31
0.0
  0
LINE
  5
4695
330
A
100
AcDbEntity
  8
0
  6
Continuous
 62
     9
100
AcDbLine
 10
125.2543
 20
-7.499999999999829
 30
0.0
 11
129.2543
 21
-7.499999999999829
 31
0.0
  0
LINE
  5
4696
330
A
100
AcDbEntity
  8
0
  6
Continuous
 62
     7
100
AcDbLine
 10
129.2543
 20
-7.499999999999829
 30
0.0
 11
129.2543
 21
-10.99999999999983
 31
0.0
  0
ARC
  5
4697
330
A
100
AcDbEntity
  8
0
  6
Continuous
 62
     7
100
AcDbCircle
 10
125.2543
 20
-10.99999999999983
 30
0.0
 40
4.0
100
AcDbArc
 50
270.0
 51
0.0
  0
LINE
  5
4698
330
A
100
AcDbEntity
  8
0
  6
Continuous
 62
     7
100
AcDbLine
 10
129.2543
 20
77.50000000000017
 30
0.0
 11
129.2543
 21
-7.499999999999829
 31
0.0
  0
LINE
  5
4699
330
A
100
AcDbEntity
  8
0
  6
Continuous
 62
     7
100
AcDbLine
 10
102.661145
 20
41.00000000000017
 30
0.0
 11
102.661145
 21
29.00000000000017
 31
0.0
  0
LINE
  5
469A
330
A
100
AcDbEntity
  8
0
  6
Continuous
 62
     7
100
AcDbLine
 10
130.8474550000001
 20
29.00000000000017
 30
0.0
 11
130.8474550000001
 21
41.00000000000017
 31
0.0
  0
LINE
  5
469B
330
A
100
AcDbEntity
  8
0
  6
Continuous
 62
     7
100
AcDbLine
 10
102.6610829999999
 20
41.00000000000017
 30
0.0
 11
102.6610829999999
 21
29.00000000000017
 31
0.0
  0
LINE
  5
469C
330
A
100
AcDbEntity
  8
0
  6
Continuous
 62
     7
100
AcDbLine
 10
130.8475170000001
 20
29.00000000000017
 30
0.0
 11
130.8475170000001
 21
41.00000000000017
 31
0.0
  0
ARC
  5
469D
330
A
100
AcDbEntity
  8
0
  6
Continuous
 62
     7
100
AcDbCircle
 10
104.7043000000001
 20
0.0201710000001754
 30
0.0
 40
0.5
100
AcDbArc
 50
180.0
 51
205.8419370000004
  0
ARC
  5
469E
330
A
100
AcDbEntity
  8
0
  6
Continuous
 62
     7
100
AcDbCircle
 10
104.7043000000001
 20
9.979829000000165
 30
0.0
 40
0.5
100
AcDbArc
 50
154.1580629999995
 51
180.0
  0
ARC
  5
469F
330
A
100
AcDbEntity
  8
0
  6
Continuous
 62
     7
100
AcDbCircle
 10
104.7043000000001
 20
60.02017100000017
 30
0.0
 40
0.5
100
AcDbArc
 50
180.0
 51
205.8419370000004
  0
ARC
  5
46A0
330
A
100
AcDbEntity
  8
0
  6
Continuous
 62
     7
100
AcDbCircle
 10
104.7043000000001
 20
69.97982900000017
 30
0.0
 40
0.5
100
AcDbArc
 50
154.1580629999995
 51
180.0
  0
ARC
  5
46A1
330
A
100
AcDbEntity
  8
0
  6
Continuous
 62
     9
100
AcDbCircle
 10
-53.24569999999994
 20
61.00000000000017
 30
0.0
 40
2.5
100
AcDbArc
 50
180.0
 51
90.0
  0
ARC
  5
46A2
330
A
100
AcDbEntity
  8
0
  6
Continuous
 62
     9
100
AcDbCircle
 10
-93.24569999999994
 20
61.00000000000017
 30
0.0
 40
2.5
100
AcDbArc
 50
180.0
 51
90.0
  0
ARC
  5
46A3
330
A
100
AcDbEntity
  8
0
  6
Continuous
 62
     9
100
AcDbCircle
 10
-53.24569999999994
 20
9.00000000000017
 30
0.0
 40
2.5
100
AcDbArc
 50
180.0
 51
90.0
  0
ARC
  5
46A4
330
A
100
AcDbEntity
  8
0
  6
Continuous
 62
     9
100
AcDbCircle
 10
-93.24569999999994
 20
9.00000000000017
 30
0.0
 40
2.5
100
AcDbArc
 50
180.0
 51
90.0
  0
CIRCLE
  5
46A5
330
A
100
AcDbEntity
  8
0
  6
Continuous
 62
     7
100
AcDbCircle
 10
-53.24569999999994
 20
61.00000000000017
 30
0.0
 40
1.75
  0
CIRCLE
  5
46A6
330
A
100
AcDbEntity
  8
0
  6
Continuous
 62
     7
100
AcDbCircle
 10
-93.24569999999994
 20
9.00000000000017
 30
0.0
 40
1.75
  0
LINE
  5
46A7
330
A
100
AcDbEntity
  8
0
  6
Continuous
 62
     7
100
AcDbLine
 10
-67.36172399999986
 20
33.49999900000018
 30
0.0
 11
-68.2277509999999
 21
34.99999900000017
 31
0.0
  0
LINE
  5
46A8
330
A
100
AcDbEntity
  8
0
  6
Continuous
 62
     7
100
AcDbLine
 10
-65.62967400000002
 20
33.50000100000017
 30
0.0
 11
-67.36172399999986
 21
33.49999900000018
 31
0.0
  0
LINE
  5
46A9
330
A
100
AcDbEntity
  8
0
  6
Continuous
 62
     7
100
AcDbLine
 10
-64.76364899999999
 20
35.00000100000017
 30
0.0
 11
-65.62967400000002
 21
33.50000100000017
 31
0.0
  0
LINE
  5
46AA
330
A
100
AcDbEntity
  8
0
  6
Continuous
 62
     7
100
AcDbLine
 10
-65.62967600000002
 20
36.50000100000017
 30
0.0
 11
-64.76364899999999
 21
35.00000100000017
 31
0.0
  0
LINE
  5
46AB
330
A
100
AcDbEntity
  8
0
  6
Continuous
 62
     7
100
AcDbLine
 10
-67.36172599999986
 20
36.49999900000017
 30
0.0
 11
-65.62967600000002
 21
36.50000100000017
 31
0.0
  0
LINE
  5
46AC
330
A
100
AcDbEntity
  8
0
  6
Continuous
 62
     7
100
AcDbLine
 10
-68.2277509999999
 20
34.99999900000017
 30
0.0
 11
-67.36172599999986
 21
36.49999900000017
 31
0.0
  0
ARC
  5
46AD
330
A
100
AcDbEntity
  8
0
  6
Continuous
 62
     7
100
AcDbCircle
 10
-66.49569999999994
 20
35.00000000000017
 30
0.0
 40
3.5
100
AcDbArc
 50
38.21321099999908
 51
90.00003800000122
  0
ARC
  5
46AE
330
A
100
AcDbEntity
  8
0
  6
Continuous
 62
     7
100
AcDbCircle
 10
-66.49569999999994
 20
35.00000000000017
 30
0.0
 40
3.5
100
AcDbArc
 50
37.01646800000304
 51
38.21321099999908
  0
ARC
  5
46AF
330
A
100
AcDbEntity
  8
0
  6
Continuous
 62
     7
100
AcDbCircle
 10
-66.49569999999994
 20
35.00000000000017
 30
0.0
 40
3.5
100
AcDbArc
 50
23.36873000000242
 51
37.01646800000304
  0
ARC
  5
46B0
330
A
100
AcDbEntity
  8
0
  6
Continuous
 62
     7
100
AcDbCircle
 10
-66.49569999999994
 20
35.00000000000017
 30
0.0
 40
3.5
100
AcDbArc
 50
336.504612
 51
23.36873000000242
  0
ARC
  5
46B1
330
A
100
AcDbEntity
  8
0
  6
Continuous
 62
     7
100
AcDbCircle
 10
-66.49569999999994
 20
35.00000000000017
 30
0.0
 40
3.5
100
AcDbArc
 50
323.2261669999969
 51
336.504612
  0
ARC
  5
46B2
330
A
100
AcDbEntity
  8
0
  6
Continuous
 62
     7
100
AcDbCircle
 10
-66.49569999999994
 20
35.00000000000017
 30
0.0
 40
3.5
100
AcDbArc
 50
321.7867890000009
 51
323.2261669999969
  0
ARC
  5
46B3
330
A
100
AcDbEntity
  8
0
  6
Continuous
 62
     7
100
AcDbCircle
 10
-66.49569999999994
 20
35.00000000000017
 30
0.0
 40
3.5
100
AcDbArc
 50
90.00003800000122
 51
321.7867890000009
  0
LINE
  5
46B4
330
A
100
AcDbEntity
  8
0
  6
Continuous
 62
     7
100
AcDbLine
 10
-80.86172399999986
 20
33.49999900000018
 30
0.0
 11
-81.7277509999999
 21
34.99999900000017
 31
0.0
  0
LINE
  5
46B5
330
A
100
AcDbEntity
  8
0
  6
Continuous
 62
     7
100
AcDbLine
 10
-79.12967400000002
 20
33.50000100000017
 30
0.0
 11
-80.86172399999986
 21
33.49999900000018
 31
0.0
  0
LINE
  5
46B6
330
A
100
AcDbEntity
  8
0
  6
Continuous
 62
     7
100
AcDbLine
 10
-78.26364899999998
 20
35.00000100000017
 30
0.0
 11
-79.12967400000002
 21
33.50000100000017
 31
0.0
  0
LINE
  5
46B7
330
A
100
AcDbEntity
  8
0
  6
Continuous
 62
     7
100
AcDbLine
 10
-79.12967600000001
 20
36.50000100000017
 30
0.0
 11
-78.26364899999998
 21
35.00000100000017
 31
0.0
  0
LINE
  5
46B8
330
A
100
AcDbEntity
  8
0
  6
Continuous
 62
     7
100
AcDbLine
 10
-80.86172599999986
 20
36.49999900000017
 30
0.0
 11
-79.12967600000001
 21
36.50000100000017
 31
0.0
  0
LINE
  5
46B9
330
A
100
AcDbEntity
  8
0
  6
Continuous
 62
     7
100
AcDbLine
 10
-81.7277509999999
 20
34.99999900000017
 30
0.0
 11
-80.86172599999986
 21
36.49999900000017
 31
0.0
  0
ARC
  5
46BA
330
A
100
AcDbEntity
  8
0
  6
Continuous
 62
     7
100
AcDbCircle
 10
-79.99569999999994
 20
35.00000000000017
 30
0.0
 40
3.5
100
AcDbArc
 50
218.2132109999991
 51
90.00003800000122
  0
ARC
  5
46BB
330
A
100
AcDbEntity
  8
0
  6
Continuous
 62
     7
100
AcDbCircle
 10
-79.99569999999994
 20
35.00000000000017
 30
0.0
 40
3.5
100
AcDbArc
 50
217.0164719999982
 51
218.2132109999991
  0
ARC
  5
46BC
330
A
100
AcDbEntity
  8
0
  6
Continuous
 62
     7
100
AcDbCircle
 10
-79.99569999999994
 20
35.00000000000017
 30
0.0
 40
3.5
100
AcDbArc
 50
203.3687259999972
 51
217.0164719999982
  0
ARC
  5
46BD
330
A
100
AcDbEntity
  8
0
  6
Continuous
 62
     7
100
AcDbCircle
 10
-79.99569999999994
 20
35.00000000000017
 30
0.0
 40
3.5
100
AcDbArc
 50
143.2261650000003
 51
156.5046189999987
  0
ARC
  5
46BE
330
A
100
AcDbEntity
  8
0
  6
Continuous
 62
     7
100
AcDbCircle
 10
-79.99569999999994
 20
35.00000000000017
 30
0.0
 40
3.5
100
AcDbArc
 50
141.7867890000009
 51
143.2261650000003
  0
ARC
  5
46BF
330
A
100
AcDbEntity
  8
0
  6
Continuous
 62
     7
100
AcDbCircle
 10
-79.99569999999994
 20
35.00000000000017
 30
0.0
 40
3.5
100
AcDbArc
 50
90.00003800000122
 51
141.7867890000009
  0
LINE
  5
46C0
330
A
100
AcDbEntity
  8
0
  6
Continuous
 62
     9
100
AcDbLine
 10
-78.74569999999994
 20
78.00000000000017
 30
0.0
 11
-78.24569999999994
 21
78.00000000000017
 31
0.0
  0
LINE
  5
46C1
330
A
100
AcDbEntity
  8
0
  6
Continuous
 62
     9
100
AcDbLine
 10
-78.24569999999994
 20
78.00000000000017
 30
0.0
 11
-77.24569999999994
 21
78.00000000000017
 31
0.0
  0
LINE
  5
46C2
330
A
100
AcDbEntity
  8
0
  6
Continuous
 62
     7
100
AcDbLine
 10
-78.74569999999994
 20
83.50000000000017
 30
0.0
 11
-78.24569999999994
 21
83.50000000000017
 31
0.0
  0
LINE
  5
46C3
330
A
100
AcDbEntity
  8
0
  6
Continuous
 62
     7
100
AcDbLine
 10
-78.24569999999994
 20
83.50000000000017
 30
0.0
 11
-77.24569999999994
 21
83.50000000000017
 31
0.0
  0
LINE
  5
46C4
330
A
100
AcDbEntity
  8
0
  6
Continuous
 62
     7
100
AcDbLine
 10
-77.24569999999994
 20
83.50000000000017
 30
0.0
 11
-77.24569999999994
 21
78.00000000000017
 31
0.0
  0
LINE
  5
46C5
330
A
100
AcDbEntity
  8
0
  6
Continuous
 62
     7
100
AcDbLine
 10
-77.24569999999994
 20
78.00000000000017
 30
0.0
 11
-77.24569999999994
 21
77.50000000000017
 31
0.0
  0
LINE
  5
46C6
330
A
100
AcDbEntity
  8
0
  6
Continuous
 62
     9
100
AcDbLine
 10
-78.74569999999994
 20
-7.999999999999829
 30
0.0
 11
-78.24569999999994
 21
-7.999999999999829
 31
0.0
  0
LINE
  5
46C7
330
A
100
AcDbEntity
  8
0
  6
Continuous
 62
     9
100
AcDbLine
 10
-78.24569999999994
 20
-7.999999999999829
 30
0.0
 11
-77.24569999999994
 21
-7.999999999999829
 31
0.0
  0
LINE
  5
46C8
330
A
100
AcDbEntity
  8
0
  6
Continuous
 62
     7
100
AcDbLine
 10
-77.24569999999994
 20
-7.499999999999829
 30
0.0
 11
-77.24569999999994
 21
-7.999999999999829
 31
0.0
  0
LINE
  5
46C9
330
A
100
AcDbEntity
  8
0
  6
Continuous
 62
     7
100
AcDbLine
 10
-78.74569999999994
 20
-13.49999999999983
 30
0.0
 11
-78.24569999999994
 21
-13.49999999999983
 31
0.0
  0
LINE
  5
46CA
330
A
100
AcDbEntity
  8
0
  6
Continuous
 62
     7
100
AcDbLine
 10
-78.24569999999994
 20
-13.49999999999983
 30
0.0
 11
-77.24569999999994
 21
-13.49999999999983
 31
0.0
  0
LINE
  5
46CB
330
A
100
AcDbEntity
  8
0
  6
Continuous
 62
     7
100
AcDbLine
 10
-77.24569999999994
 20
-7.999999999999829
 30
0.0
 11
-77.24569999999994
 21
-13.49999999999983
 31
0.0
  0
LINE
  5
46CC
330
A
100
AcDbEntity
  8
0
  6
Continuous
 62
     7
100
AcDbLine
 10
-67.74569999999994
 20
83.50000000000017
 30
0.0
 11
-68.24569999999994
 21
83.50000000000017
 31
0.0
  0
LINE
  5
46CD
330
A
100
AcDbEntity
  8
0
  6
Continuous
 62
     7
100
AcDbLine
 10
-68.24569999999994
 20
83.50000000000017
 30
0.0
 11
-69.24569999999994
 21
83.50000000000017
 31
0.0
  0
LINE
  5
46CE
330
A
100
AcDbEntity
  8
0
  6
Continuous
 62
     9
100
AcDbLine
 10
-67.74569999999994
 20
78.00000000000017
 30
0.0
 11
-68.24569999999994
 21
78.00000000000017
 31
0.0
  0
LINE
  5
46CF
330
A
100
AcDbEntity
  8
0
  6
Continuous
 62
     9
100
AcDbLine
 10
-68.24569999999994
 20
78.00000000000017
 30
0.0
 11
-69.24569999999994
 21
78.00000000000017
 31
0.0
  0
LINE
  5
46D0
330
A
100
AcDbEntity
  8
0
  6
Continuous
 62
     7
100
AcDbLine
 10
-69.24569999999994
 20
78.00000000000017
 30
0.0
 11
-69.24569999999994
 21
83.50000000000017
 31
0.0
  0
LINE
  5
46D1
330
A
100
AcDbEntity
  8
0
  6
Continuous
 62
     7
100
AcDbLine
 10
-69.24569999999994
 20
77.50000000000017
 30
0.0
 11
-69.24569999999994
 21
78.00000000000017
 31
0.0
  0
LINE
  5
46D2
330
A
100
AcDbEntity
  8
0
  6
Continuous
 62
     9
100
AcDbLine
 10
-67.74569999999994
 20
-7.999999999999829
 30
0.0
 11
-68.24569999999994
 21
-7.999999999999829
 31
0.0
  0
LINE
  5
46D3
330
A
100
AcDbEntity
  8
0
  6
Continuous
 62
     9
100
AcDbLine
 10
-68.24569999999994
 20
-7.999999999999829
 30
0.0
 11
-69.24569999999994
 21
-7.999999999999829
 31
0.0
  0
LINE
  5
46D4
330
A
100
AcDbEntity
  8
0
  6
Continuous
 62
     7
100
AcDbLine
 10
-69.24569999999994
 20
-7.999999999999829
 30
0.0
 11
-69.24569999999994
 21
-7.499999999999829
 31
0.0
  0
LINE
  5
46D5
330
A
100
AcDbEntity
  8
0
  6
Continuous
 62
     7
100
AcDbLine
 10
-67.74569999999994
 20
-13.49999999999983
 30
0.0
 11
-68.24569999999994
 21
-13.49999999999983
 31
0.0
  0
LINE
  5
46D6
330
A
100
AcDbEntity
  8
0
  6
Continuous
 62
     7
100
AcDbLine
 10
-68.24569999999994
 20
-13.49999999999983
 30
0.0
 11
-69.24569999999994
 21
-13.49999999999983
 31
0.0
  0
LINE
  5
46D7
330
A
100
AcDbEntity
  8
0
  6
Continuous
 62
     7
100
AcDbLine
 10
-69.24569999999994
 20
-13.49999999999983
 30
0.0
 11
-69.24569999999994
 21
-7.999999999999829
 31
0.0
  0
LINE
  5
46D8
330
A
100
AcDbEntity
  8
0
  6
Continuous
 62
     7
100
AcDbLine
 10
-64.74569999999994
 20
85.00000000000017
 30
0.0
 11
-67.74569999999994
 21
85.00000000000017
 31
0.0
  0
LINE
  5
46D9
330
A
100
AcDbEntity
  8
0
  6
Continuous
 62
     9
100
AcDbLine
 10
-64.74569999999994
 20
77.50000000000017
 30
0.0
 11
-64.74569999999994
 21
85.00000000000017
 31
0.0
  0
LINE
  5
46DA
330
A
100
AcDbEntity
  8
0
  6
Continuous
 62
     7
100
AcDbLine
 10
-67.74569999999994
 20
85.00000000000017
 30
0.0
 11
-67.74569999999994
 21
77.50000000000017
 31
0.0
  0
LINE
  5
46DB
330
A
100
AcDbEntity
  8
0
  6
Continuous
 62
     9
100
AcDbLine
 10
-64.74569999999994
 20
-14.99999999999983
 30
0.0
 11
-64.74569999999994
 21
-7.499999999999829
 31
0.0
  0
LINE
  5
46DC
330
A
100
AcDbEntity
  8
0
  6
Continuous
 62
     7
100
AcDbLine
 10
-64.74569999999994
 20
-14.99999999999983
 30
0.0
 11
-67.74569999999994
 21
-14.99999999999983
 31
0.0
  0
LINE
  5
46DD
330
A
100
AcDbEntity
  8
0
  6
Continuous
 62
     7
100
AcDbLine
 10
-67.74569999999994
 20
-7.499999999999829
 30
0.0
 11
-67.74569999999994
 21
-14.99999999999983
 31
0.0
  0
ARC
  5
46DE
330
A
100
AcDbEntity
  8
0
  6
Continuous
 62
     7
100
AcDbCircle
 10
-64.74569999999994
 20
81.00000000000017
 30
0.0
 40
4.0
100
AcDbArc
 50
0.0
 51
90.0
  0
LINE
  5
46DF
330
A
100
AcDbEntity
  8
0
  6
Continuous
 62
     7
100
AcDbLine
 10
-60.74569999999994
 20
81.00000000000017
 30
0.0
 11
-60.74569999999994
 21
77.50000000000017
 31
0.0
  0
LINE
  5
46E0
330
A
100
AcDbEntity
  8
0
  6
Continuous
 62
     7
100
AcDbLine
 10
-60.74569999999994
 20
-7.499999999999829
 30
0.0
 11
-60.74569999999994
 21
-10.99999999999983
 31
0.0
  0
ARC
  5
46E1
330
A
100
AcDbEntity
  8
0
  6
Continuous
 62
     7
100
AcDbCircle
 10
-64.74569999999994
 20
-10.99999999999983
 30
0.0
 40
4.0
100
AcDbArc
 50
270.0
 51
0.0
  0
LINE
  5
46E2
330
A
100
AcDbEntity
  8
0
  6
Continuous
 62
     7
100
AcDbLine
 10
-83.24569999999994
 20
-7.499999999999829
 30
0.0
 11
-100.7456999999999
 21
-7.499999999999829
 31
0.0
  0
LINE
  5
46E3
330
A
100
AcDbEntity
  8
0
  6
Continuous
 62
     7
100
AcDbLine
 10
-100.7456999999999
 20
-7.499999999999829
 30
0.0
 11
-100.7456999999999
 21
77.50000000000017
 31
0.0
  0
LINE
  5
46E4
330
A
100
AcDbEntity
  8
0
  6
Continuous
 62
     7
100
AcDbLine
 10
-83.24569999999994
 20
77.50000000000017
 30
0.0
 11
-100.7456999999999
 21
77.50000000000017
 31
0.0
  0
LINE
  5
46E5
330
A
100
AcDbEntity
  8
0
  6
Continuous
 62
     7
100
AcDbLine
 10
-83.24569999999994
 20
36.29903800000017
 30
0.0
 11
-83.24569999999994
 21
77.50000000000017
 31
0.0
  0
ARC
  5
46E6
330
A
100
AcDbEntity
  8
0
  6
Continuous
 62
     7
100
AcDbCircle
 10
-79.99569999999994
 20
35.00000000000017
 30
0.0
 40
3.5
100
AcDbArc
 50
158.2132110000008
 51
201.7867889999991
  0
LINE
  5
46E7
330
A
100
AcDbEntity
  8
0
  6
Continuous
 62
     7
100
AcDbLine
 10
-83.24569999999994
 20
-7.499999999999829
 30
0.0
 11
-83.24569999999994
 21
33.70096200000018
 31
0.0
  0
CIRCLE
  5
46E8
330
A
100
AcDbEntity
  8
0
  6
Continuous
 62
     7
100
AcDbCircle
 10
-93.24569999999994
 20
0.0000000000001705
 30
0.0
 40
2.649999999999999
  0
CIRCLE
  5
46E9
330
A
100
AcDbEntity
  8
0
  6
Continuous
 62
     7
100
AcDbCircle
 10
-93.24569999999994
 20
70.00000000000017
 30
0.0
 40
2.649999999999999
  0
CIRCLE
  5
46EA
330
A
100
AcDbEntity
  8
0
  6
Continuous
 62
     7
100
AcDbCircle
 10
-93.24569999999994
 20
9.00000000000017
 30
0.0
 40
2.1
  0
CIRCLE
  5
46EB
330
A
100
AcDbEntity
  8
0
  6
Continuous
 62
     7
100
AcDbCircle
 10
-93.24569999999994
 20
61.00000000000017
 30
0.0
 40
2.1
  0
LINE
  5
46EC
330
A
100
AcDbEntity
  8
0
  6
Continuous
 62
     7
100
AcDbLine
 10
-82.74569999999995
 20
37.1650640000002
 30
0.0
 11
-82.74569999999995
 21
77.50000000000017
 31
0.0
  0
ARC
  5
46ED
330
A
100
AcDbEntity
  8
0
  6
Continuous
 62
     7
100
AcDbCircle
 10
-79.99569999999994
 20
35.00000000000017
 30
0.0
 40
3.5
100
AcDbArc
 50
156.5045540000017
 51
158.2132110000008
  0
ARC
  5
46EE
330
A
100
AcDbEntity
  8
0
  6
Continuous
 62
     7
100
AcDbCircle
 10
-79.99569999999994
 20
35.00000000000017
 30
0.0
 40
3.5
100
AcDbArc
 50
143.226392000003
 51
156.5045540000017
  0
ARC
  5
46EF
330
A
100
AcDbEntity
  8
0
  6
Continuous
 62
     7
100
AcDbCircle
 10
-79.99569999999994
 20
35.00000000000017
 30
0.0
 40
3.5
100
AcDbArc
 50
141.7867890000009
 51
143.226392000003
  0
LINE
  5
46F0
330
A
100
AcDbEntity
  8
0
  6
Continuous
 62
     7
100
AcDbLine
 10
-82.74569999999995
 20
77.50000000000017
 30
0.0
 11
-83.24569999999994
 21
77.50000000000017
 31
0.0
  0
LINE
  5
46F1
330
A
100
AcDbEntity
  8
0
  6
Continuous
 62
     7
100
AcDbLine
 10
-82.74569999999995
 20
-7.499999999999829
 30
0.0
 11
-82.74569999999995
 21
32.83493600000014
 31
0.0
  0
ARC
  5
46F2
330
A
100
AcDbEntity
  8
0
  6
Continuous
 62
     7
100
AcDbCircle
 10
-79.99569999999994
 20
35.00000000000017
 30
0.0
 40
3.5
100
AcDbArc
 50
217.0163229999964
 51
218.2132109999991
  0
ARC
  5
46F3
330
A
100
AcDbEntity
  8
0
  6
Continuous
 62
     7
100
AcDbCircle
 10
-79.99569999999994
 20
35.00000000000017
 30
0.0
 40
3.5
100
AcDbArc
 50
203.368877000001
 51
217.0163229999964
  0
ARC
  5
46F4
330
A
100
AcDbEntity
  8
0
  6
Continuous
 62
     7
100
AcDbCircle
 10
-79.99569999999994
 20
35.00000000000017
 30
0.0
 40
3.5
100
AcDbArc
 50
201.7867889999991
 51
203.368877000001
  0
LINE
  5
46F5
330
A
100
AcDbEntity
  8
0
  6
Continuous
 62
     7
100
AcDbLine
 10
-82.74569999999995
 20
-7.499999999999829
 30
0.0
 11
-83.24569999999994
 21
-7.499999999999829
 31
0.0
  0
LINE
  5
46F6
330
A
100
AcDbEntity
  8
0
  6
Continuous
 62
     7
100
AcDbLine
 10
-63.24569999999994
 20
36.29903800000017
 30
0.0
 11
-63.24569999999994
 21
77.50000000000017
 31
0.0
  0
LINE
  5
46F7
330
A
100
AcDbEntity
  8
0
  6
Continuous
 62
     7
100
AcDbLine
 10
-63.74569999999994
 20
37.1650640000002
 30
0.0
 11
-63.74569999999994
 21
77.50000000000017
 31
0.0
  0
ARC
  5
46F8
330
A
100
AcDbEntity
  8
0
  6
Continuous
 62
     7
100
AcDbCircle
 10
-66.49569999999994
 20
35.00000000000017
 30
0.0
 40
3.5
100
AcDbArc
 50
37.01631899999731
 51
38.21321099999908
  0
ARC
  5
46F9
330
A
100
AcDbEntity
  8
0
  6
Continuous
 62
     7
100
AcDbCircle
 10
-66.49569999999994
 20
35.00000000000017
 30
0.0
 40
3.5
100
AcDbArc
 50
23.36888100000173
 51
37.01631899999731
  0
ARC
  5
46FA
330
A
100
AcDbEntity
  8
0
  6
Continuous
 62
     7
100
AcDbCircle
 10
-66.49569999999994
 20
35.00000000000017
 30
0.0
 40
3.5
100
AcDbArc
 50
21.78678899999912
 51
23.36888100000173
  0
LINE
  5
46FB
330
A
100
AcDbEntity
  8
0
  6
Continuous
 62
     7
100
AcDbLine
 10
-63.24569999999994
 20
77.50000000000017
 30
0.0
 11
-63.74569999999994
 21
77.50000000000017
 31
0.0
  0
LINE
  5
46FC
330
A
100
AcDbEntity
  8
0
  6
Continuous
 62
     7
100
AcDbLine
 10
-63.74569999999994
 20
-7.499999999999829
 30
0.0
 11
-63.74569999999994
 21
32.83493600000014
 31
0.0
  0
LINE
  5
46FD
330
A
100
AcDbEntity
  8
0
  6
Continuous
 62
     7
100
AcDbLine
 10
-63.24569999999994
 20
-7.499999999999829
 30
0.0
 11
-63.24569999999994
 21
33.70096200000018
 31
0.0
  0
ARC
  5
46FE
330
A
100
AcDbEntity
  8
0
  6
Continuous
 62
     7
100
AcDbCircle
 10
-66.49569999999994
 20
35.00000000000017
 30
0.0
 40
3.5
100
AcDbArc
 50
336.5045470000008
 51
338.2132110000007
  0
ARC
  5
46FF
330
A
100
AcDbEntity
  8
0
  6
Continuous
 62
     7
100
AcDbCircle
 10
-66.49569999999994
 20
35.00000000000017
 30
0.0
 40
3.5
100
AcDbArc
 50
323.2263940000034
 51
336.5045470000008
  0
ARC
  5
4700
330
A
100
AcDbEntity
  8
0
  6
Continuous
 62
     7
100
AcDbCircle
 10
-66.49569999999994
 20
35.00000000000017
 30
0.0
 40
3.5
100
AcDbArc
 50
321.7867890000009
 51
323.2263940000034
  0
LINE
  5
4701
330
A
100
AcDbEntity
  8
0
  6
Continuous
 62
     7
100
AcDbLine
 10
-63.24569999999994
 20
-7.499999999999829
 30
0.0
 11
-63.74569999999994
 21
-7.499999999999829
 31
0.0
  0
LINE
  5
4702
330
A
100
AcDbEntity
  8
0
  6
Continuous
 62
     7
100
AcDbLine
 10
-45.74569999999994
 20
-7.499999999999829
 30
0.0
 11
-45.74569999999994
 21
77.50000000000017
 31
0.0
  0
CIRCLE
  5
4703
330
A
100
AcDbEntity
  8
0
  6
Continuous
 62
     7
100
AcDbCircle
 10
-53.24569999999994
 20
0.0000000000001705
 30
0.0
 40
2.649999999999999
  0
CIRCLE
  5
4704
330
A
100
AcDbEntity
  8
0
  6
Continuous
 62
     7
100
AcDbCircle
 10
-53.24569999999994
 20
70.00000000000017
 30
0.0
 40
2.649999999999999
  0
CIRCLE
  5
4705
330
A
100
AcDbEntity
  8
0
  6
Continuous
 62
     7
100
AcDbCircle
 10
-53.24569999999994
 20
9.00000000000017
 30
0.0
 40
2.1
  0
CIRCLE
  5
4706
330
A
100
AcDbEntity
  8
0
  6
Continuous
 62
     7
100
AcDbCircle
 10
-53.24569999999994
 20
61.00000000000017
 30
0.0
 40
2.1
  0
ARC
  5
4707
330
A
100
AcDbEntity
  8
0
  6
Continuous
 62
     7
100
AcDbCircle
 10
-66.49569999999994
 20
35.00000000000017
 30
0.0
 40
3.5
100
AcDbArc
 50
338.2132110000007
 51
21.78678899999912
  0
LINE
  5
4708
330
A
100
AcDbEntity
  8
0
  6
Continuous
 62
     7
100
AcDbLine
 10
-45.74569999999994
 20
77.50000000000017
 30
0.0
 11
-63.24569999999994
 21
77.50000000000017
 31
0.0
  0
LINE
  5
4709
330
A
100
AcDbEntity
  8
0
  6
Continuous
 62
     7
100
AcDbLine
 10
-45.74569999999994
 20
-7.499999999999829
 30
0.0
 11
-63.24569999999994
 21
-7.499999999999829
 31
0.0
  0
ARC
  5
470A
330
A
100
AcDbEntity
  8
0
  6
Continuous
 62
     7
100
AcDbCircle
 10
-66.49569999999994
 20
35.00000000000017
 30
0.0
 40
3.5
100
AcDbArc
 50
90.00003800000122
 51
321.7867890000009
  0
ARC
  5
470B
330
A
100
AcDbEntity
  8
0
  6
Continuous
 62
     7
100
AcDbCircle
 10
-66.49569999999994
 20
35.00000000000017
 30
0.0
 40
3.5
100
AcDbArc
 50
38.21321099999908
 51
90.00003800000122
  0
ARC
  5
470C
330
A
100
AcDbEntity
  8
0
  6
Continuous
 62
     7
100
AcDbCircle
 10
-79.99569999999994
 20
35.00000000000017
 30
0.0
 40
3.5
100
AcDbArc
 50
90.00003800000122
 51
141.7867890000009
  0
ARC
  5
470D
330
A
100
AcDbEntity
  8
0
  6
Continuous
 62
     7
100
AcDbCircle
 10
-79.99569999999994
 20
35.00000000000017
 30
0.0
 40
3.5
100
AcDbArc
 50
218.2132109999991
 51
90.00003800000122
  0
LINE
  5
470E
330
A
100
AcDbEntity
  8
0
  6
Continuous
 62
     7
100
AcDbLine
 10
-63.74569999999994
 20
77.50000000000017
 30
0.0
 11
-82.74569999999995
 21
77.50000000000017
 31
0.0
  0
LINE
  5
470F
330
A
100
AcDbEntity
  8
0
  6
Continuous
 62
     7
100
AcDbLine
 10
-63.74569999999994
 20
-7.499999999999829
 30
0.0
 11
-82.74569999999995
 21
-7.499999999999829
 31
0.0
  0
LINE
  5
4710
330
A
100
AcDbEntity
  8
0
  6
Continuous
 62
     9
100
AcDbLine
 10
-67.74569999999994
 20
-7.999999999999829
 30
0.0
 11
-68.24569999999994
 21
-7.999999999999829
 31
0.0
  0
LINE
  5
4711
330
A
100
AcDbEntity
  8
0
  6
Continuous
 62
     7
100
AcDbLine
 10
-67.74569999999994
 20
-13.49999999999983
 30
0.0
 11
-68.24569999999994
 21
-13.49999999999983
 31
0.0
  0
LINE
  5
4712
330
A
100
AcDbEntity
  8
0
  6
Continuous
 62
     7
100
AcDbLine
 10
-68.24569999999994
 20
-13.49999999999983
 30
0.0
 11
-68.24569999999994
 21
-7.999999999999829
 31
0.0
  0
LINE
  5
4713
330
A
100
AcDbEntity
  8
0
  6
Continuous
 62
     7
100
AcDbLine
 10
-67.74569999999994
 20
83.50000000000017
 30
0.0
 11
-68.24569999999994
 21
83.50000000000017
 31
0.0
  0
LINE
  5
4714
330
A
100
AcDbEntity
  8
0
  6
Continuous
 62
     9
100
AcDbLine
 10
-67.74569999999994
 20
78.00000000000017
 30
0.0
 11
-68.24569999999994
 21
78.00000000000017
 31
0.0
  0
LINE
  5
4715
330
A
100
AcDbEntity
  8
0
  6
Continuous
 62
     7
100
AcDbLine
 10
-68.24569999999994
 20
78.00000000000017
 30
0.0
 11
-68.24569999999994
 21
83.50000000000017
 31
0.0
  0
LINE
  5
4716
330
A
100
AcDbEntity
  8
0
  6
Continuous
 62
     7
100
AcDbLine
 10
-68.24569999999994
 20
-7.999999999999829
 30
0.0
 11
-68.24569999999994
 21
-7.499999999999829
 31
0.0
  0
LINE
  5
4717
330
A
100
AcDbEntity
  8
0
  6
Continuous
 62
     7
100
AcDbLine
 10
-68.24569999999994
 20
77.50000000000017
 30
0.0
 11
-68.24569999999994
 21
78.00000000000017
 31
0.0
  0
LINE
  5
4718
330
A
100
AcDbEntity
  8
0
  6
Continuous
 62
     9
100
AcDbLine
 10
-78.74569999999994
 20
78.00000000000017
 30
0.0
 11
-78.24569999999994
 21
78.00000000000017
 31
0.0
  0
LINE
  5
4719
330
A
100
AcDbEntity
  8
0
  6
Continuous
 62
     7
100
AcDbLine
 10
-78.24569999999994
 20
78.00000000000017
 30
0.0
 11
-78.24569999999994
 21
77.50000000000017
 31
0.0
  0
LINE
  5
471A
330
A
100
AcDbEntity
  8
0
  6
Continuous
 62
     9
100
AcDbLine
 10
-78.74569999999994
 20
-7.999999999999829
 30
0.0
 11
-78.24569999999994
 21
-7.999999999999829
 31
0.0
  0
LINE
  5
471B
330
A
100
AcDbEntity
  8
0
  6
Continuous
 62
     7
100
AcDbLine
 10
-78.24569999999994
 20
-7.499999999999829
 30
0.0
 11
-78.24569999999994
 21
-7.999999999999829
 31
0.0
  0
LINE
  5
471C
330
A
100
AcDbEntity
  8
0
  6
Continuous
 62
     7
100
AcDbLine
 10
-78.74569999999994
 20
-13.49999999999983
 30
0.0
 11
-78.24569999999994
 21
-13.49999999999983
 31
0.0
  0
LINE
  5
471D
330
A
100
AcDbEntity
  8
0
  6
Continuous
 62
     7
100
AcDbLine
 10
-78.24569999999994
 20
-7.999999999999829
 30
0.0
 11
-78.24569999999994
 21
-13.49999999999983
 31
0.0
  0
LINE
  5
471E
330
A
100
AcDbEntity
  8
0
  6
Continuous
 62
     7
100
AcDbLine
 10
-78.74569999999994
 20
83.50000000000017
 30
0.0
 11
-78.24569999999994
 21
83.50000000000017
 31
0.0
  0
LINE
  5
471F
330
A
100
AcDbEntity
  8
0
  6
Continuous
 62
     7
100
AcDbLine
 10
-78.24569999999994
 20
83.50000000000017
 30
0.0
 11
-78.24569999999994
 21
78.00000000000017
 31
0.0
  0
LINE
  5
4720
330
A
100
AcDbEntity
  8
0
  6
Continuous
 62
     9
100
AcDbLine
 10
-81.74569999999993
 20
-7.499999999999829
 30
0.0
 11
-81.74569999999993
 21
-14.99999999999983
 31
0.0
  0
ARC
  5
4721
330
A
100
AcDbEntity
  8
0
  6
Continuous
 62
     7
100
AcDbCircle
 10
-81.74569999999993
 20
-10.99999999999983
 30
0.0
 40
4.0
100
AcDbArc
 50
180.0
 51
270.0
  0
LINE
  5
4722
330
A
100
AcDbEntity
  8
0
  6
Continuous
 62
     7
100
AcDbLine
 10
-85.74569999999994
 20
-10.99999999999983
 30
0.0
 11
-85.74569999999994
 21
-7.499999999999829
 31
0.0
  0
LINE
  5
4723
330
A
100
AcDbEntity
  8
0
  6
Continuous
 62
     7
100
AcDbLine
 10
-85.74569999999994
 20
77.50000000000017
 30
0.0
 11
-85.74569999999994
 21
81.00000000000017
 31
0.0
  0
ARC
  5
4724
330
A
100
AcDbEntity
  8
0
  6
Continuous
 62
     7
100
AcDbCircle
 10
-81.74569999999993
 20
81.00000000000017
 30
0.0
 40
4.0
100
AcDbArc
 50
90.0
 51
180.0
  0
LINE
  5
4725
330
A
100
AcDbEntity
  8
0
  6
Continuous
 62
     9
100
AcDbLine
 10
-81.74569999999993
 20
85.00000000000017
 30
0.0
 11
-81.74569999999993
 21
77.50000000000017
 31
0.0
  0
LINE
  5
4726
330
A
100
AcDbEntity
  8
0
  6
Continuous
 62
     7
100
AcDbLine
 10
-78.74569999999994
 20
85.00000000000017
 30
0.0
 11
-78.74569999999994
 21
77.50000000000017
 31
0.0
  0
LINE
  5
4727
330
A
100
AcDbEntity
  8
0
  6
Continuous
 62
     7
100
AcDbLine
 10
-81.74569999999993
 20
85.00000000000017
 30
0.0
 11
-78.74569999999994
 21
85.00000000000017
 31
0.0
  0
LINE
  5
4728
330
A
100
AcDbEntity
  8
0
  6
Continuous
 62
     7
100
AcDbLine
 10
-78.74569999999994
 20
-7.499999999999829
 30
0.0
 11
-78.74569999999994
 21
-14.99999999999983
 31
0.0
  0
LINE
  5
4729
330
A
100
AcDbEntity
  8
0
  6
Continuous
 62
     7
100
AcDbLine
 10
-78.74569999999994
 20
-14.99999999999983
 30
0.0
 11
-81.74569999999993
 21
-14.99999999999983
 31
0.0
  0
ARC
  5
472A
330
A
100
AcDbEntity
  8
0
  6
Continuous
 62
     7
100
AcDbCircle
 10
40.00501600000006
 20
-59.9971379999998
 30
0.0
 40
14.25
100
AcDbArc
 50
278.7417930000017
 51
298.6704400000047
  0
ARC
  5
472B
330
A
100
AcDbEntity
  8
0
  6
Continuous
 62
     7
100
AcDbCircle
 10
42.01877600000011
 20
-73.09321699999981
 30
0.0
 40
1.0
100
AcDbArc
 50
250.3820969999948
 51
278.7417930000017
  0
ARC
  5
472C
330
A
100
AcDbEntity
  8
0
  6
Continuous
 62
     7
100
AcDbCircle
 10
40.00430000000005
 20
-78.74493199999983
 30
0.0
 40
5.0
100
AcDbArc
 50
70.38209699999481
 51
109.6161370000024
  0
ARC
  5
472D
330
A
100
AcDbEntity
  8
0
  6
Continuous
 62
     7
100
AcDbCircle
 10
37.98999900000012
 20
-73.09315499999982
 30
0.0
 40
1.0
100
AcDbArc
 50
261.2388040000033
 51
289.6161370000025
  0
ARC
  5
472E
330
A
100
AcDbEntity
  8
0
  6
Continuous
 62
     7
100
AcDbCircle
 10
40.00819200000001
 20
-59.99775899999983
 30
0.0
 40
14.25
100
AcDbArc
 50
241.3243589999992
 51
261.2388040000033
  0
ARC
  5
472F
330
A
100
AcDbEntity
  8
0
  6
Continuous
 62
     7
100
AcDbCircle
 10
40.00819200000001
 20
-60.00224099999982
 30
0.0
 40
14.25
100
AcDbArc
 50
98.76119599999672
 51
118.6756410000008
  0
ARC
  5
4730
330
A
100
AcDbEntity
  8
0
  6
Continuous
 62
     7
100
AcDbCircle
 10
37.98999900000012
 20
-46.90684499999983
 30
0.0
 40
1.0
100
AcDbArc
 50
70.38386299999753
 51
98.76119599999672
  0
ARC
  5
4731
330
A
100
AcDbEntity
  8
0
  6
Continuous
 62
     7
100
AcDbCircle
 10
40.00430000000005
 20
-41.25506799999982
 30
0.0
 40
5.0
100
AcDbArc
 50
250.3838629999975
 51
289.6179030000052
  0
ARC
  5
4732
330
A
100
AcDbEntity
  8
0
  6
Continuous
 62
     7
100
AcDbCircle
 10
42.01877600000011
 20
-46.90678299999984
 30
0.0
 40
1.0
100
AcDbArc
 50
81.25820699999824
 51
109.6179030000052
  0
ARC
  5
4733
330
A
100
AcDbEntity
  8
0
  6
Continuous
 62
     7
100
AcDbCircle
 10
40.00501600000006
 20
-60.00286199999994
 30
0.0
 40
14.25
100
AcDbArc
 50
61.32955999999528
 51
81.25820699999824
  0
LINE
  5
4734
330
A
100
AcDbEntity
  8
0
  6
Continuous
 62
     7
100
AcDbLine
 10
8.024471000000175
 20
-47.44999999999982
 30
0.0
 11
17.98412899999994
 21
-47.44999999999982
 31
0.0
  0
LINE
  5
4735
330
A
100
AcDbEntity
  8
0
  6
Continuous
 62
     9
100
AcDbLine
 10
-9.495699999999942
 20
-65.49999999999982
 30
0.0
 11
-9.495699999999942
 21
-64.99999999999983
 31
0.0
  0
LINE
  5
4736
330
A
100
AcDbEntity
  8
0
  6
Continuous
 62
     9
100
AcDbLine
 10
-9.495699999999942
 20
-64.99999999999983
 30
0.0
 11
-9.495699999999942
 21
-63.99999999999983
 31
0.0
  0
LINE
  5
4737
330
A
100
AcDbEntity
  8
0
  6
Continuous
 62
     7
100
AcDbLine
 10
-15.49569999999994
 20
-65.49999999999982
 30
0.0
 11
-15.49569999999994
 21
-64.99999999999983
 31
0.0
  0
LINE
  5
4738
330
A
100
AcDbEntity
  8
0
  6
Continuous
 62
     7
100
AcDbLine
 10
-15.49569999999994
 20
-64.99999999999983
 30
0.0
 11
-15.49569999999994
 21
-63.99999999999983
 31
0.0
  0
LINE
  5
4739
330
A
100
AcDbEntity
  8
0
  6
Continuous
 62
     7
100
AcDbLine
 10
-15.49569999999994
 20
-63.99999999999983
 30
0.0
 11
-9.495699999999942
 21
-63.99999999999983
 31
0.0
  0
LINE
  5
473A
330
A
100
AcDbEntity
  8
0
  6
Continuous
 62
     9
100
AcDbLine
 10
45.00430000000005
 20
-65.49999999999982
 30
0.0
 11
45.00430000000005
 21
-64.99999999999983
 31
0.0
  0
LINE
  5
473B
330
A
100
AcDbEntity
  8
0
  6
Continuous
 62
     9
100
AcDbLine
 10
45.00430000000005
 20
-64.99999999999983
 30
0.0
 11
45.00430000000005
 21
-63.99999999999983
 31
0.0
  0
LINE
  5
473C
330
A
100
AcDbEntity
  8
0
  6
Continuous
 62
     7
100
AcDbLine
 10
-9.495699999999942
 20
-63.99999999999983
 30
0.0
 11
45.00430000000005
 21
-63.99999999999983
 31
0.0
  0
LINE
  5
473D
330
A
100
AcDbEntity
  8
0
  6
Continuous
 62
     7
100
AcDbLine
 10
50.50430000000005
 20
-65.49999999999982
 30
0.0
 11
50.50430000000005
 21
-64.99999999999983
 31
0.0
  0
LINE
  5
473E
330
A
100
AcDbEntity
  8
0
  6
Continuous
 62
     7
100
AcDbLine
 10
50.50430000000005
 20
-64.99999999999983
 30
0.0
 11
50.50430000000005
 21
-63.99999999999983
 31
0.0
  0
LINE
  5
473F
330
A
100
AcDbEntity
  8
0
  6
Continuous
 62
     7
100
AcDbLine
 10
45.00430000000005
 20
-63.99999999999983
 30
0.0
 11
50.50430000000005
 21
-63.99999999999983
 31
0.0
  0
LINE
  5
4740
330
A
100
AcDbEntity
  8
0
  6
Continuous
 62
     7
100
AcDbLine
 10
-15.49569999999994
 20
-54.49999999999983
 30
0.0
 11
-15.49569999999994
 21
-54.99999999999983
 31
0.0
  0
LINE
  5
4741
330
A
100
AcDbEntity
  8
0
  6
Continuous
 62
     7
100
AcDbLine
 10
-15.49569999999994
 20
-54.99999999999983
 30
0.0
 11
-15.49569999999994
 21
-55.99999999999983
 31
0.0
  0
LINE
  5
4742
330
A
100
AcDbEntity
  8
0
  6
Continuous
 62
     9
100
AcDbLine
 10
-9.495699999999942
 20
-54.49999999999983
 30
0.0
 11
-9.495699999999942
 21
-54.99999999999983
 31
0.0
  0
LINE
  5
4743
330
A
100
AcDbEntity
  8
0
  6
Continuous
 62
     9
100
AcDbLine
 10
-9.495699999999942
 20
-54.99999999999983
 30
0.0
 11
-9.495699999999942
 21
-55.99999999999983
 31
0.0
  0
LINE
  5
4744
330
A
100
AcDbEntity
  8
0
  6
Continuous
 62
     7
100
AcDbLine
 10
-9.495699999999942
 20
-55.99999999999983
 30
0.0
 11
-15.49569999999994
 21
-55.99999999999983
 31
0.0
  0
LINE
  5
4745
330
A
100
AcDbEntity
  8
0
  6
Continuous
 62
     9
100
AcDbLine
 10
45.00430000000005
 20
-54.49999999999983
 30
0.0
 11
45.00430000000005
 21
-54.99999999999983
 31
0.0
  0
LINE
  5
4746
330
A
100
AcDbEntity
  8
0
  6
Continuous
 62
     9
100
AcDbLine
 10
45.00430000000005
 20
-54.99999999999983
 30
0.0
 11
45.00430000000005
 21
-55.99999999999983
 31
0.0
  0
LINE
  5
4747
330
A
100
AcDbEntity
  8
0
  6
Continuous
 62
     7
100
AcDbLine
 10
45.00430000000005
 20
-55.99999999999983
 30
0.0
 11
-9.495699999999942
 21
-55.99999999999983
 31
0.0
  0
LINE
  5
4748
330
A
100
AcDbEntity
  8
0
  6
Continuous
 62
     7
100
AcDbLine
 10
50.50430000000005
 20
-54.49999999999983
 30
0.0
 11
50.50430000000005
 21
-54.99999999999983
 31
0.0
  0
LINE
  5
4749
330
A
100
AcDbEntity
  8
0
  6
Continuous
 62
     7
100
AcDbLine
 10
50.50430000000005
 20
-54.99999999999983
 30
0.0
 11
50.50430000000005
 21
-55.99999999999983
 31
0.0
  0
LINE
  5
474A
330
A
100
AcDbEntity
  8
0
  6
Continuous
 62
     7
100
AcDbLine
 10
50.50430000000005
 20
-55.99999999999983
 30
0.0
 11
45.00430000000005
 21
-55.99999999999983
 31
0.0
  0
LINE
  5
474B
330
A
100
AcDbEntity
  8
0
  6
Continuous
 62
     9
100
AcDbLine
 10
-9.495699999999942
 20
-51.49999999999983
 30
0.0
 11
-9.495699999999942
 21
-54.49999999999983
 31
0.0
  0
LINE
  5
474C
330
A
100
AcDbEntity
  8
0
  6
Continuous
 62
     9
100
AcDbLine
 10
45.50430000000005
 20
-51.49999999999983
 30
0.0
 11
-9.495699999999942
 21
-51.49999999999983
 31
0.0
  0
LINE
  5
474D
330
A
100
AcDbEntity
  8
0
  6
Continuous
 62
     9
100
AcDbLine
 10
45.50430000000005
 20
-51.49999999999983
 30
0.0
 11
45.50430000000005
 21
-54.49999999999983
 31
0.0
  0
LINE
  5
474E
330
A
100
AcDbEntity
  8
0
  6
Continuous
 62
     7
100
AcDbLine
 10
-9.495699999999942
 20
-54.49999999999983
 30
0.0
 11
45.50430000000005
 21
-54.49999999999983
 31
0.0
  0
LINE
  5
474F
330
A
100
AcDbEntity
  8
0
  6
Continuous
 62
     7
100
AcDbLine
 10
-9.495699999999942
 20
-47.49999999999983
 30
0.0
 11
45.50430000000005
 21
-47.49999999999983
 31
0.0
  0
LINE
  5
4750
330
A
100
AcDbEntity
  8
0
  6
Continuous
 62
     9
100
AcDbLine
 10
45.50430000000005
 20
-51.49999999999983
 30
0.0
 11
45.50430000000005
 21
-47.49999999999983
 31
0.0
  0
LINE
  5
4751
330
A
100
AcDbEntity
  8
0
  6
Continuous
 62
     9
100
AcDbLine
 10
-9.495699999999942
 20
-47.49999999999983
 30
0.0
 11
-9.495699999999942
 21
-51.49999999999983
 31
0.0
  0
LINE
  5
4752
330
A
100
AcDbEntity
  8
0
  6
Continuous
 62
     7
100
AcDbLine
 10
-16.99569999999994
 20
-51.49999999999983
 30
0.0
 11
-16.99569999999994
 21
-54.49999999999983
 31
0.0
  0
LINE
  5
4753
330
A
100
AcDbEntity
  8
0
  6
Continuous
 62
     9
100
AcDbLine
 10
-9.495699999999942
 20
-51.49999999999983
 30
0.0
 11
-16.99569999999994
 21
-51.49999999999983
 31
0.0
  0
LINE
  5
4754
330
A
100
AcDbEntity
  8
0
  6
Continuous
 62
     7
100
AcDbLine
 10
-16.99569999999994
 20
-54.49999999999983
 30
0.0
 11
-9.495699999999942
 21
-54.49999999999983
 31
0.0
  0
LINE
  5
4755
330
A
100
AcDbEntity
  8
0
  6
Continuous
 62
     7
100
AcDbLine
 10
-12.99569999999994
 20
-47.49999999999983
 30
0.0
 11
-9.495699999999942
 21
-47.49999999999983
 31
0.0
  0
ARC
  5
4756
330
A
100
AcDbEntity
  8
0
  6
Continuous
 62
     7
100
AcDbCircle
 10
-12.99569999999994
 20
-51.49999999999983
 30
0.0
 40
4.0
100
AcDbArc
 50
90.0
 51
180.0
  0
LINE
  5
4757
330
A
100
AcDbEntity
  8
0
  6
Continuous
 62
     9
100
AcDbLine
 10
53.00430000000005
 20
-51.49999999999983
 30
0.0
 11
45.50430000000005
 21
-51.49999999999983
 31
0.0
  0
LINE
  5
4758
330
A
100
AcDbEntity
  8
0
  6
Continuous
 62
     7
100
AcDbLine
 10
53.00430000000005
 20
-51.49999999999983
 30
0.0
 11
53.00430000000005
 21
-54.49999999999983
 31
0.0
  0
LINE
  5
4759
330
A
100
AcDbEntity
  8
0
  6
Continuous
 62
     7
100
AcDbLine
 10
45.50430000000005
 20
-54.49999999999983
 30
0.0
 11
53.00430000000005
 21
-54.49999999999983
 31
0.0
  0
LINE
  5
475A
330
A
100
AcDbEntity
  8
0
  6
Continuous
 62
     7
100
AcDbLine
 10
45.50430000000005
 20
-47.49999999999983
 30
0.0
 11
49.00430000000006
 21
-47.49999999999983
 31
0.0
  0
ARC
  5
475B
330
A
100
AcDbEntity
  8
0
  6
Continuous
 62
     7
100
AcDbCircle
 10
49.00430000000006
 20
-51.49999999999983
 30
0.0
 40
4.0
100
AcDbArc
 50
0.0
 51
90.0
  0
LINE
  5
475C
330
A
100
AcDbEntity
  8
0
  6
Continuous
 62
     7
100
AcDbLine
 10
60.00430000000005
 20
-50.49999999999982
 30
0.0
 11
60.00430000000005
 21
-69.49999999999983
 31
0.0
  0
ARC
  5
475D
330
A
100
AcDbEntity
  8
0
  6
Continuous
 62
     7
100
AcDbCircle
 10
54.00430000000006
 20
-72.49999999999983
 30
0.0
 40
1.5
100
AcDbArc
 50
0.0
 51
30.49180600000282
  0
LINE
  5
475E
330
A
100
AcDbEntity
  8
0
  6
Continuous
 62
     7
100
AcDbLine
 10
60.00430000000005
 20
-69.49999999999983
 30
0.0
 11
60.50430000000005
 21
-69.99999999999983
 31
0.0
  0
LINE
  5
475F
330
A
100
AcDbEntity
  8
0
  6
Continuous
 62
     7
100
AcDbLine
 10
60.50430000000005
 20
-49.99999999999983
 30
0.0
 11
60.00430000000005
 21
-50.49999999999982
 31
0.0
  0
LINE
  5
4760
330
A
100
AcDbEntity
  8
0
  6
Continuous
 62
     7
100
AcDbLine
 10
55.50430000000005
 20
-47.49999999999983
 30
0.0
 11
55.50430000000005
 21
-32.49999999999983
 31
0.0
  0
LINE
  5
4761
330
A
100
AcDbEntity
  8
0
  6
Continuous
 62
     7
100
AcDbLine
 10
55.50430000000005
 20
-32.49999999999983
 30
0.0
 11
60.50430000000005
 21
-32.49999999999983
 31
0.0
  0
LINE
  5
4762
330
A
100
AcDbEntity
  8
0
  6
Continuous
 62
     7
100
AcDbLine
 10
60.50430000000005
 20
-69.99999999999983
 30
0.0
 11
60.50430000000005
 21
-87.49999999999984
 31
0.0
  0
ARC
  5
4763
330
A
100
AcDbEntity
  8
0
  6
Continuous
 62
     7
100
AcDbCircle
 10
54.00430000000006
 20
-47.49999999999983
 30
0.0
 40
1.5
100
AcDbArc
 50
329.5081939999972
 51
0.0
  0
LINE
  5
4764
330
A
100
AcDbEntity
  8
0
  6
Continuous
 62
     7
100
AcDbLine
 10
60.50430000000005
 20
-32.49999999999983
 30
0.0
 11
60.50430000000005
 21
-49.99999999999983
 31
0.0
  0
ARC
  5
4765
330
A
100
AcDbEntity
  8
0
  6
Continuous
 62
     7
100
AcDbCircle
 10
39.10429999999997
 20
-59.99999999999983
 30
0.0
 40
20.0
100
AcDbArc
 50
324.0595659999999
 51
35.94043400000008
  0
LINE
  5
4766
330
A
100
AcDbEntity
  8
0
  6
Continuous
 62
     7
100
AcDbLine
 10
60.50430000000005
 20
-87.49999999999984
 30
0.0
 11
55.50430000000005
 21
-87.49999999999984
 31
0.0
  0
LINE
  5
4767
330
A
100
AcDbEntity
  8
0
  6
Continuous
 62
     7
100
AcDbLine
 10
55.50430000000005
 20
-87.49999999999984
 30
0.0
 11
55.50430000000005
 21
-72.49999999999983
 31
0.0
  0
ARC
  5
4768
330
A
100
AcDbEntity
  8
0
  6
Continuous
 62
     9
100
AcDbCircle
 10
39.10429999999997
 20
-59.99999999999983
 30
0.0
 40
19.0
100
AcDbArc
 50
324.2727539999979
 51
35.72724600000217
  0
ARC
  5
4769
330
A
100
AcDbEntity
  8
0
  6
Continuous
 62
     7
100
AcDbCircle
 10
54.00430000000006
 20
-72.49999999999983
 30
0.0
 40
1.5
100
AcDbArc
 50
30.49180600000282
 51
69.54069699999521
  0
ARC
  5
476A
330
A
100
AcDbEntity
  8
0
  6
Continuous
 62
     7
100
AcDbCircle
 10
54.00430000000006
 20
-47.49999999999983
 30
0.0
 40
1.5
100
AcDbArc
 50
290.4593030000047
 51
329.5081939999972
  0
LINE
  5
476B
330
A
100
AcDbEntity
  8
0
  6
Continuous
 62
     7
100
AcDbLine
 10
54.00430000000006
 20
-70.99999999999983
 30
0.0
 11
52.12679900000011
 21
-70.99999999999983
 31
0.0
  0
LINE
  5
476C
330
A
100
AcDbEntity
  8
0
  6
Continuous
 62
     7
100
AcDbLine
 10
52.12679900000011
 20
-48.99999999999983
 30
0.0
 11
54.00430000000006
 21
-48.99999999999983
 31
0.0
  0
ARC
  5
476D
330
A
100
AcDbEntity
  8
0
  6
Continuous
 62
     7
100
AcDbCircle
 10
54.00430000000006
 20
-72.49999999999983
 30
0.0
 40
1.5
100
AcDbArc
 50
69.54069699999521
 51
90.0
  0
ARC
  5
476E
330
A
100
AcDbEntity
  8
0
  6
Continuous
 62
     7
100
AcDbCircle
 10
54.00430000000006
 20
-47.49999999999983
 30
0.0
 40
1.5
100
AcDbArc
 50
270.0
 51
290.4593030000047
  0
LINE
  5
476F
330
A
100
AcDbEntity
  8
0
  6
Continuous
 62
     9
100
AcDbLine
 10
-9.495699999999942
 20
-54.49999999999983
 30
0.0
 11
-9.495699999999942
 21
-54.99999999999983
 31
0.0
  0
LINE
  5
4770
330
A
100
AcDbEntity
  8
0
  6
Continuous
 62
     9
100
AcDbLine
 10
45.00430000000005
 20
-54.49999999999983
 30
0.0
 11
45.00430000000005
 21
-54.99999999999983
 31
0.0
  0
LINE
  5
4771
330
A
100
AcDbEntity
  8
0
  6
Continuous
 62
     7
100
AcDbLine
 10
45.00430000000005
 20
-54.99999999999983
 30
0.0
 11
-9.495699999999942
 21
-54.99999999999983
 31
0.0
  0
LINE
  5
4772
330
A
100
AcDbEntity
  8
0
  6
Continuous
 62
     7
100
AcDbLine
 10
50.50430000000005
 20
-54.49999999999983
 30
0.0
 11
50.50430000000005
 21
-54.99999999999983
 31
0.0
  0
LINE
  5
4773
330
A
100
AcDbEntity
  8
0
  6
Continuous
 62
     7
100
AcDbLine
 10
50.50430000000005
 20
-54.99999999999983
 30
0.0
 11
45.00430000000005
 21
-54.99999999999983
 31
0.0
  0
LINE
  5
4774
330
A
100
AcDbEntity
  8
0
  6
Continuous
 62
     7
100
AcDbLine
 10
-15.49569999999994
 20
-54.49999999999983
 30
0.0
 11
-15.49569999999994
 21
-54.99999999999983
 31
0.0
  0
LINE
  5
4775
330
A
100
AcDbEntity
  8
0
  6
Continuous
 62
     7
100
AcDbLine
 10
-9.495699999999942
 20
-54.99999999999983
 30
0.0
 11
-15.49569999999994
 21
-54.99999999999983
 31
0.0
  0
LINE
  5
4776
330
A
100
AcDbEntity
  8
0
  6
Continuous
 62
     9
100
AcDbLine
 10
45.00430000000005
 20
-65.49999999999982
 30
0.0
 11
45.00430000000005
 21
-64.99999999999983
 31
0.0
  0
LINE
  5
4777
330
A
100
AcDbEntity
  8
0
  6
Continuous
 62
     9
100
AcDbLine
 10
-9.495699999999942
 20
-65.49999999999982
 30
0.0
 11
-9.495699999999942
 21
-64.99999999999983
 31
0.0
  0
LINE
  5
4778
330
A
100
AcDbEntity
  8
0
  6
Continuous
 62
     7
100
AcDbLine
 10
-9.495699999999942
 20
-64.99999999999983
 30
0.0
 11
45.00430000000005
 21
-64.99999999999983
 31
0.0
  0
LINE
  5
4779
330
A
100
AcDbEntity
  8
0
  6
Continuous
 62
     7
100
AcDbLine
 10
-15.49569999999994
 20
-65.49999999999982
 30
0.0
 11
-15.49569999999994
 21
-64.99999999999983
 31
0.0
  0
LINE
  5
477A
330
A
100
AcDbEntity
  8
0
  6
Continuous
 62
     7
100
AcDbLine
 10
-15.49569999999994
 20
-64.99999999999983
 30
0.0
 11
-9.495699999999942
 21
-64.99999999999983
 31
0.0
  0
LINE
  5
477B
330
A
100
AcDbEntity
  8
0
  6
Continuous
 62
     7
100
AcDbLine
 10
50.50430000000005
 20
-65.49999999999982
 30
0.0
 11
50.50430000000005
 21
-64.99999999999983
 31
0.0
  0
LINE
  5
477C
330
A
100
AcDbEntity
  8
0
  6
Continuous
 62
     7
100
AcDbLine
 10
45.00430000000005
 20
-64.99999999999983
 30
0.0
 11
50.50430000000005
 21
-64.99999999999983
 31
0.0
  0
ARC
  5
477D
330
A
100
AcDbEntity
  8
0
  6
Continuous
 62
     7
100
AcDbCircle
 10
40.00430000000005
 20
-59.99999999999983
 30
0.0
 40
4.0
100
AcDbArc
 50
90.0
 51
218.2399819999991
  0
ARC
  5
477E
330
A
100
AcDbEntity
  8
0
  6
Continuous
 62
     7
100
AcDbCircle
 10
40.00430000000005
 20
-59.99999999999983
 30
0.0
 40
4.0
100
AcDbArc
 50
270.0
 51
90.0
  0
ARC
  5
477F
330
A
100
AcDbEntity
  8
0
  6
Continuous
 62
     7
100
AcDbCircle
 10
40.00430000000005
 20
-59.99999999999983
 30
0.0
 40
4.0
100
AcDbArc
 50
218.2399819999991
 51
270.0
  0
CIRCLE
  5
4780
330
A
100
AcDbEntity
  8
0
  6
Continuous
 62
     7
100
AcDbCircle
 10
40.00430000000005
 20
-59.99999999999983
 30
0.0
 40
2.908089
  0
LINE
  5
4781
330
A
100
AcDbEntity
  8
0
  6
Continuous
 62
     7
100
AcDbLine
 10
-5.170699999999897
 20
-55.99999999999983
 30
0.0
 11
-5.170699999999897
 21
-63.99999999999983
 31
0.0
  0
LINE
  5
4782
330
A
100
AcDbEntity
  8
0
  6
Continuous
 62
     9
100
AcDbLine
 10
1.829300000000102
 20
-55.99999999999983
 30
0.0
 11
1.829300000000102
 21
-63.99999999999983
 31
0.0
  0
LINE
  5
4783
330
A
100
AcDbEntity
  8
0
  6
Continuous
 62
     7
100
AcDbLine
 10
8.829300000000102
 20
-55.99999999999983
 30
0.0
 11
8.829300000000102
 21
-63.99999999999983
 31
0.0
  0
LINE
  5
4784
330
A
100
AcDbEntity
  8
0
  6
Continuous
 62
     7
100
AcDbLine
 10
49.00430000000006
 20
-72.49999999999983
 30
0.0
 11
45.50430000000005
 21
-72.49999999999983
 31
0.0
  0
LINE
  5
4785
330
A
100
AcDbEntity
  8
0
  6
Continuous
 62
     9
100
AcDbLine
 10
45.50430000000005
 20
-72.49999999999983
 30
0.0
 11
45.50430000000005
 21
-68.49999999999983
 31
0.0
  0
LINE
  5
4786
330
A
100
AcDbEntity
  8
0
  6
Continuous
 62
     9
100
AcDbLine
 10
45.50430000000005
 20
-68.49999999999983
 30
0.0
 11
53.00430000000005
 21
-68.49999999999983
 31
0.0
  0
ARC
  5
4787
330
A
100
AcDbEntity
  8
0
  6
Continuous
 62
     7
100
AcDbCircle
 10
49.00430000000006
 20
-68.49999999999983
 30
0.0
 40
4.0
100
AcDbArc
 50
270.0
 51
0.0
  0
LINE
  5
4788
330
A
100
AcDbEntity
  8
0
  6
Continuous
 62
     9
100
AcDbLine
 10
-16.99569999999994
 20
-68.49999999999983
 30
0.0
 11
-9.495699999999942
 21
-68.49999999999983
 31
0.0
  0
LINE
  5
4789
330
A
100
AcDbEntity
  8
0
  6
Continuous
 62
     9
100
AcDbLine
 10
-9.495699999999942
 20
-68.49999999999983
 30
0.0
 11
-9.495699999999942
 21
-72.49999999999983
 31
0.0
  0
LINE
  5
478A
330
A
100
AcDbEntity
  8
0
  6
Continuous
 62
     7
100
AcDbLine
 10
-9.495699999999942
 20
-72.49999999999983
 30
0.0
 11
-12.99569999999994
 21
-72.49999999999983
 31
0.0
  0
ARC
  5
478B
330
A
100
AcDbEntity
  8
0
  6
Continuous
 62
     7
100
AcDbCircle
 10
-12.99569999999994
 20
-68.49999999999983
 30
0.0
 40
4.0
100
AcDbArc
 50
180.0
 51
270.0
  0
LINE
  5
478C
330
A
100
AcDbEntity
  8
0
  6
Continuous
 62
     7
100
AcDbLine
 10
-16.99569999999994
 20
-65.49999999999982
 30
0.0
 11
-9.495699999999942
 21
-65.49999999999982
 31
0.0
  0
LINE
  5
478D
330
A
100
AcDbEntity
  8
0
  6
Continuous
 62
     9
100
AcDbLine
 10
-9.495699999999942
 20
-65.49999999999982
 30
0.0
 11
-9.495699999999942
 21
-68.49999999999983
 31
0.0
  0
LINE
  5
478E
330
A
100
AcDbEntity
  8
0
  6
Continuous
 62
     7
100
AcDbLine
 10
-16.99569999999994
 20
-68.49999999999983
 30
0.0
 11
-16.99569999999994
 21
-65.49999999999982
 31
0.0
  0
LINE
  5
478F
330
A
100
AcDbEntity
  8
0
  6
Continuous
 62
     7
100
AcDbLine
 10
45.50430000000005
 20
-65.49999999999982
 30
0.0
 11
53.00430000000005
 21
-65.49999999999982
 31
0.0
  0
LINE
  5
4790
330
A
100
AcDbEntity
  8
0
  6
Continuous
 62
     7
100
AcDbLine
 10
53.00430000000005
 20
-65.49999999999982
 30
0.0
 11
53.00430000000005
 21
-68.49999999999983
 31
0.0
  0
LINE
  5
4791
330
A
100
AcDbEntity
  8
0
  6
Continuous
 62
     9
100
AcDbLine
 10
45.50430000000005
 20
-68.49999999999983
 30
0.0
 11
45.50430000000005
 21
-65.49999999999982
 31
0.0
  0
LINE
  5
4792
330
A
100
AcDbEntity
  8
0
  6
Continuous
 62
     7
100
AcDbLine
 10
-9.495699999999942
 20
-65.49999999999982
 30
0.0
 11
45.50430000000005
 21
-65.49999999999982
 31
0.0
  0
LINE
  5
4793
330
A
100
AcDbEntity
  8
0
  6
Continuous
 62
     9
100
AcDbLine
 10
-9.495699999999942
 20
-68.49999999999983
 30
0.0
 11
45.50430000000005
 21
-68.49999999999983
 31
0.0
  0
LINE
  5
4794
330
A
100
AcDbEntity
  8
0
  6
Continuous
 62
     7
100
AcDbLine
 10
45.50430000000005
 20
-72.49999999999983
 30
0.0
 11
-9.495699999999942
 21
-72.49999999999983
 31
0.0
  0
ARC
  5
4795
330
A
100
AcDbEntity
  8
0
  6
Continuous
 62
     7
100
AcDbCircle
 10
40.00430000000005
 20
-59.99999999999983
 30
0.0
 40
4.009999999999998
100
AcDbArc
 50
274.0472100000055
 51
0.0
  0
ARC
  5
4796
330
A
100
AcDbEntity
  8
0
  6
Continuous
 62
     7
100
AcDbCircle
 10
40.00430000000005
 20
-59.99999999999983
 30
0.0
 40
4.009999999999998
100
AcDbArc
 50
94.04721000000547
 51
265.9527899999945
  0
ARC
  5
4797
330
A
100
AcDbEntity
  8
0
  6
Continuous
 62
     7
100
AcDbCircle
 10
40.00430000000005
 20
-59.99999999999983
 30
0.0
 40
4.009999999999998
100
AcDbArc
 50
0.0
 51
85.9527899999945
  0
LINE
  5
4798
330
A
100
AcDbEntity
  8
0
  6
Continuous
 62
     7
100
AcDbLine
 10
50.50430000000005
 20
-54.99999999999983
 30
0.0
 11
53.00430000000005
 21
-54.99999999999983
 31
0.0
  0
LINE
  5
4799
330
A
100
AcDbEntity
  8
0
  6
Continuous
 62
     7
100
AcDbLine
 10
8.879300000000057
 20
-55.99999999999983
 30
0.0
 11
8.879300000000057
 21
-63.99999999999983
 31
0.0
  0
LINE
  5
479A
330
A
100
AcDbEntity
  8
0
  6
Continuous
 62
     7
100
AcDbLine
 10
53.00430000000005
 20
-54.99999999999983
 30
0.0
 11
53.00430000000005
 21
-65.49999999999982
 31
0.0
  0
ARC
  5
479B
330
A
100
AcDbEntity
  8
0
  6
Continuous
 62
     7
100
AcDbCircle
 10
8.024471000000175
 20
-47.94999999999982
 30
0.0
 40
0.5
100
AcDbArc
 50
90.0
 51
115.8419330000019
  0
ARC
  5
479C
330
A
100
AcDbEntity
  8
0
  6
Continuous
 62
     7
100
AcDbCircle
 10
17.98412899999994
 20
-47.94999999999982
 30
0.0
 40
0.5
100
AcDbArc
 50
64.15806699999809
 51
90.0
  0
ARC
  5
479D
330
A
100
AcDbEntity
  8
0
  6
Continuous
 62
     7
100
AcDbCircle
 10
42.01877600000011
 20
119.4067830000002
 30
0.0
 40
1.0
100
AcDbArc
 50
250.3820969999948
 51
278.7417930000017
  0
ARC
  5
479E
330
A
100
AcDbEntity
  8
0
  6
Continuous
 62
     7
100
AcDbCircle
 10
40.00430000000005
 20
113.7550680000001
 30
0.0
 40
5.0
100
AcDbArc
 50
70.38209699999481
 51
109.6161370000024
  0
ARC
  5
479F
330
A
100
AcDbEntity
  8
0
  6
Continuous
 62
     7
100
AcDbCircle
 10
37.98999900000012
 20
119.4068450000003
 30
0.0
 40
1.0
100
AcDbArc
 50
261.2388040000033
 51
289.6161370000025
  0
ARC
  5
47A0
330
A
100
AcDbEntity
  8
0
  6
Continuous
 62
     7
100
AcDbCircle
 10
40.00819200000001
 20
132.5022410000002
 30
0.0
 40
14.25
100
AcDbArc
 50
241.3243589999992
 51
261.2388040000033
  0
ARC
  5
47A1
330
A
100
AcDbEntity
  8
0
  6
Continuous
 62
     7
100
AcDbCircle
 10
40.00819200000001
 20
132.4977590000001
 30
0.0
 40
14.25
100
AcDbArc
 50
98.76119599999672
 51
118.6756410000008
  0
ARC
  5
47A2
330
A
100
AcDbEntity
  8
0
  6
Continuous
 62
     7
100
AcDbCircle
 10
37.98999900000012
 20
145.5931550000001
 30
0.0
 40
1.0
100
AcDbArc
 50
70.38386299999753
 51
98.76119599999672
  0
ARC
  5
47A3
330
A
100
AcDbEntity
  8
0
  6
Continuous
 62
     7
100
AcDbCircle
 10
42.01877600000011
 20
145.5932170000001
 30
0.0
 40
1.0
100
AcDbArc
 50
81.25820699999824
 51
109.6179030000052
  0
ARC
  5
47A4
330
A
100
AcDbEntity
  8
0
  6
Continuous
 62
     7
100
AcDbCircle
 10
40.00501600000006
 20
132.4971380000002
 30
0.0
 40
14.25
100
AcDbArc
 50
61.32955999999528
 51
81.25820699999824
  0
ARC
  5
47A5
330
A
100
AcDbEntity
  8
0
  6
Continuous
 62
     7
100
AcDbCircle
 10
40.00430000000005
 20
151.2449320000001
 30
0.0
 40
5.0
100
AcDbArc
 50
250.3838629999975
 51
289.6179030000052
  0
ARC
  5
47A6
330
A
100
AcDbEntity
  8
0
  6
Continuous
 62
     7
100
AcDbCircle
 10
40.00501600000006
 20
132.5028620000001
 30
0.0
 40
14.25
100
AcDbArc
 50
278.7417930000017
 51
298.6704400000047
  0
LINE
  5
47A7
330
A
100
AcDbEntity
  8
0
  6
Continuous
 62
     7
100
AcDbLine
 10
17.98412899999994
 20
119.9500000000001
 30
0.0
 11
11.84656700000005
 21
119.9500000000001
 31
0.0
  0
LINE
  5
47A8
330
A
100
AcDbEntity
  8
0
  6
Continuous
 62
     7
100
AcDbLine
 10
11.84656700000005
 20
119.9500000000001
 30
0.0
 11
8.024471000000175
 21
119.9500000000001
 31
0.0
  0
LINE
  5
47A9
330
A
100
AcDbEntity
  8
0
  6
Continuous
 62
     9
100
AcDbLine
 10
45.00430000000005
 20
138.0000000000001
 30
0.0
 11
45.00430000000005
 21
137.5000000000001
 31
0.0
  0
LINE
  5
47AA
330
A
100
AcDbEntity
  8
0
  6
Continuous
 62
     9
100
AcDbLine
 10
45.00430000000005
 20
137.5000000000001
 30
0.0
 11
45.00430000000005
 21
136.5000000000001
 31
0.0
  0
LINE
  5
47AB
330
A
100
AcDbEntity
  8
0
  6
Continuous
 62
     7
100
AcDbLine
 10
50.50430000000005
 20
138.0000000000001
 30
0.0
 11
50.50430000000005
 21
137.5000000000001
 31
0.0
  0
LINE
  5
47AC
330
A
100
AcDbEntity
  8
0
  6
Continuous
 62
     7
100
AcDbLine
 10
50.50430000000005
 20
137.5000000000001
 30
0.0
 11
50.50430000000005
 21
136.5000000000001
 31
0.0
  0
LINE
  5
47AD
330
A
100
AcDbEntity
  8
0
  6
Continuous
 62
     7
100
AcDbLine
 10
50.50430000000005
 20
136.5000000000001
 30
0.0
 11
45.00430000000005
 21
136.5000000000001
 31
0.0
  0
LINE
  5
47AE
330
A
100
AcDbEntity
  8
0
  6
Continuous
 62
     9
100
AcDbLine
 10
-9.495699999999942
 20
138.0000000000001
 30
0.0
 11
-9.495699999999942
 21
137.5000000000001
 31
0.0
  0
LINE
  5
47AF
330
A
100
AcDbEntity
  8
0
  6
Continuous
 62
     9
100
AcDbLine
 10
-9.495699999999942
 20
137.5000000000001
 30
0.0
 11
-9.495699999999942
 21
136.5000000000001
 31
0.0
  0
LINE
  5
47B0
330
A
100
AcDbEntity
  8
0
  6
Continuous
 62
     7
100
AcDbLine
 10
45.00430000000005
 20
136.5000000000001
 30
0.0
 11
-9.495699999999942
 21
136.5000000000001
 31
0.0
  0
LINE
  5
47B1
330
A
100
AcDbEntity
  8
0
  6
Continuous
 62
     7
100
AcDbLine
 10
-15.49569999999994
 20
138.0000000000001
 30
0.0
 11
-15.49569999999994
 21
137.5000000000001
 31
0.0
  0
LINE
  5
47B2
330
A
100
AcDbEntity
  8
0
  6
Continuous
 62
     7
100
AcDbLine
 10
-15.49569999999994
 20
137.5000000000001
 30
0.0
 11
-15.49569999999994
 21
136.5000000000001
 31
0.0
  0
LINE
  5
47B3
330
A
100
AcDbEntity
  8
0
  6
Continuous
 62
     7
100
AcDbLine
 10
-9.495699999999942
 20
136.5000000000001
 30
0.0
 11
-15.49569999999994
 21
136.5000000000001
 31
0.0
  0
LINE
  5
47B4
330
A
100
AcDbEntity
  8
0
  6
Continuous
 62
     7
100
AcDbLine
 10
50.50430000000005
 20
127.0000000000002
 30
0.0
 11
50.50430000000005
 21
127.5000000000001
 31
0.0
  0
LINE
  5
47B5
330
A
100
AcDbEntity
  8
0
  6
Continuous
 62
     7
100
AcDbLine
 10
50.50430000000005
 20
127.5000000000001
 30
0.0
 11
50.50430000000005
 21
128.5000000000001
 31
0.0
  0
LINE
  5
47B6
330
A
100
AcDbEntity
  8
0
  6
Continuous
 62
     9
100
AcDbLine
 10
45.00430000000005
 20
127.0000000000002
 30
0.0
 11
45.00430000000005
 21
127.5000000000001
 31
0.0
  0
LINE
  5
47B7
330
A
100
AcDbEntity
  8
0
  6
Continuous
 62
     9
100
AcDbLine
 10
45.00430000000005
 20
127.5000000000001
 30
0.0
 11
45.00430000000005
 21
128.5000000000001
 31
0.0
  0
LINE
  5
47B8
330
A
100
AcDbEntity
  8
0
  6
Continuous
 62
     7
100
AcDbLine
 10
45.00430000000005
 20
128.5000000000001
 30
0.0
 11
50.50430000000005
 21
128.5000000000001
 31
0.0
  0
LINE
  5
47B9
330
A
100
AcDbEntity
  8
0
  6
Continuous
 62
     9
100
AcDbLine
 10
-9.495699999999942
 20
127.0000000000002
 30
0.0
 11
-9.495699999999942
 21
127.5000000000001
 31
0.0
  0
LINE
  5
47BA
330
A
100
AcDbEntity
  8
0
  6
Continuous
 62
     9
100
AcDbLine
 10
-9.495699999999942
 20
127.5000000000001
 30
0.0
 11
-9.495699999999942
 21
128.5000000000001
 31
0.0
  0
LINE
  5
47BB
330
A
100
AcDbEntity
  8
0
  6
Continuous
 62
     7
100
AcDbLine
 10
-9.495699999999942
 20
128.5000000000001
 30
0.0
 11
45.00430000000005
 21
128.5000000000001
 31
0.0
  0
LINE
  5
47BC
330
A
100
AcDbEntity
  8
0
  6
Continuous
 62
     7
100
AcDbLine
 10
-15.49569999999994
 20
127.0000000000002
 30
0.0
 11
-15.49569999999994
 21
127.5000000000001
 31
0.0
  0
LINE
  5
47BD
330
A
100
AcDbEntity
  8
0
  6
Continuous
 62
     7
100
AcDbLine
 10
-15.49569999999994
 20
127.5000000000001
 30
0.0
 11
-15.49569999999994
 21
128.5000000000001
 31
0.0
  0
LINE
  5
47BE
330
A
100
AcDbEntity
  8
0
  6
Continuous
 62
     7
100
AcDbLine
 10
-15.49569999999994
 20
128.5000000000001
 30
0.0
 11
-9.495699999999942
 21
128.5000000000001
 31
0.0
  0
LINE
  5
47BF
330
A
100
AcDbEntity
  8
0
  6
Continuous
 62
     7
100
AcDbLine
 10
53.00430000000005
 20
127.0000000000002
 30
0.0
 11
45.50430000000005
 21
127.0000000000002
 31
0.0
  0
LINE
  5
47C0
330
A
100
AcDbEntity
  8
0
  6
Continuous
 62
     7
100
AcDbLine
 10
53.00430000000005
 20
124.0000000000001
 30
0.0
 11
53.00430000000005
 21
127.0000000000002
 31
0.0
  0
LINE
  5
47C1
330
A
100
AcDbEntity
  8
0
  6
Continuous
 62
     9
100
AcDbLine
 10
45.50430000000005
 20
124.0000000000001
 30
0.0
 11
53.00430000000005
 21
124.0000000000001
 31
0.0
  0
LINE
  5
47C2
330
A
100
AcDbEntity
  8
0
  6
Continuous
 62
     9
100
AcDbLine
 10
45.50430000000005
 20
124.0000000000001
 30
0.0
 11
45.50430000000005
 21
127.0000000000002
 31
0.0
  0
LINE
  5
47C3
330
A
100
AcDbEntity
  8
0
  6
Continuous
 62
     9
100
AcDbLine
 10
-9.495699999999942
 20
124.0000000000001
 30
0.0
 11
-9.495699999999942
 21
127.0000000000002
 31
0.0
  0
LINE
  5
47C4
330
A
100
AcDbEntity
  8
0
  6
Continuous
 62
     9
100
AcDbLine
 10
-16.99569999999994
 20
124.0000000000001
 30
0.0
 11
-9.495699999999942
 21
124.0000000000001
 31
0.0
  0
LINE
  5
47C5
330
A
100
AcDbEntity
  8
0
  6
Continuous
 62
     7
100
AcDbLine
 10
-16.99569999999994
 20
124.0000000000001
 30
0.0
 11
-16.99569999999994
 21
127.0000000000002
 31
0.0
  0
LINE
  5
47C6
330
A
100
AcDbEntity
  8
0
  6
Continuous
 62
     7
100
AcDbLine
 10
-9.495699999999942
 20
127.0000000000002
 30
0.0
 11
-16.99569999999994
 21
127.0000000000002
 31
0.0
  0
LINE
  5
47C7
330
A
100
AcDbEntity
  8
0
  6
Continuous
 62
     9
100
AcDbLine
 10
-9.495699999999942
 20
124.0000000000001
 30
0.0
 11
45.50430000000005
 21
124.0000000000001
 31
0.0
  0
LINE
  5
47C8
330
A
100
AcDbEntity
  8
0
  6
Continuous
 62
     7
100
AcDbLine
 10
45.50430000000005
 20
127.0000000000002
 30
0.0
 11
-9.495699999999942
 21
127.0000000000002
 31
0.0
  0
LINE
  5
47C9
330
A
100
AcDbEntity
  8
0
  6
Continuous
 62
     7
100
AcDbLine
 10
49.00430000000006
 20
120.0000000000001
 30
0.0
 11
45.50430000000005
 21
120.0000000000001
 31
0.0
  0
LINE
  5
47CA
330
A
100
AcDbEntity
  8
0
  6
Continuous
 62
     9
100
AcDbLine
 10
45.50430000000005
 20
120.0000000000001
 30
0.0
 11
45.50430000000005
 21
124.0000000000001
 31
0.0
  0
ARC
  5
47CB
330
A
100
AcDbEntity
  8
0
  6
Continuous
 62
     7
100
AcDbCircle
 10
49.00430000000006
 20
124.0000000000001
 30
0.0
 40
4.0
100
AcDbArc
 50
270.0
 51
0.0
  0
LINE
  5
47CC
330
A
100
AcDbEntity
  8
0
  6
Continuous
 62
     7
100
AcDbLine
 10
-9.495699999999942
 20
120.0000000000001
 30
0.0
 11
-12.99569999999994
 21
120.0000000000001
 31
0.0
  0
ARC
  5
47CD
330
A
100
AcDbEntity
  8
0
  6
Continuous
 62
     7
100
AcDbCircle
 10
-12.99569999999994
 20
124.0000000000001
 30
0.0
 40
4.0
100
AcDbArc
 50
180.0
 51
270.0
  0
LINE
  5
47CE
330
A
100
AcDbEntity
  8
0
  6
Continuous
 62
     9
100
AcDbLine
 10
-9.495699999999942
 20
120.0000000000001
 30
0.0
 11
-9.495699999999942
 21
124.0000000000001
 31
0.0
  0
LINE
  5
47CF
330
A
100
AcDbEntity
  8
0
  6
Continuous
 62
     7
100
AcDbLine
 10
45.50430000000005
 20
120.0000000000001
 30
0.0
 11
-9.495699999999942
 21
120.0000000000001
 31
0.0
  0
LINE
  5
47D0
330
A
100
AcDbEntity
  8
0
  6
Continuous
 62
     7
100
AcDbLine
 10
55.50430000000005
 20
160.0000000000001
 30
0.0
 11
55.50430000000005
 21
145.0000000000001
 31
0.0
  0
LINE
  5
47D1
330
A
100
AcDbEntity
  8
0
  6
Continuous
 62
     7
100
AcDbLine
 10
60.50430000000005
 20
160.0000000000001
 30
0.0
 11
55.50430000000005
 21
160.0000000000001
 31
0.0
  0
LINE
  5
47D2
330
A
100
AcDbEntity
  8
0
  6
Continuous
 62
     7
100
AcDbLine
 10
60.50430000000005
 20
142.5000000000002
 30
0.0
 11
60.50430000000005
 21
160.0000000000001
 31
0.0
  0
LINE
  5
47D3
330
A
100
AcDbEntity
  8
0
  6
Continuous
 62
     7
100
AcDbLine
 10
60.00430000000005
 20
142.0000000000001
 30
0.0
 11
60.50430000000005
 21
142.5000000000002
 31
0.0
  0
LINE
  5
47D4
330
A
100
AcDbEntity
  8
0
  6
Continuous
 62
     7
100
AcDbLine
 10
60.00430000000005
 20
123.0000000000001
 30
0.0
 11
60.00430000000005
 21
142.0000000000001
 31
0.0
  0
LINE
  5
47D5
330
A
100
AcDbEntity
  8
0
  6
Continuous
 62
     7
100
AcDbLine
 10
60.50430000000005
 20
122.5000000000001
 30
0.0
 11
60.00430000000005
 21
123.0000000000001
 31
0.0
  0
LINE
  5
47D6
330
A
100
AcDbEntity
  8
0
  6
Continuous
 62
     7
100
AcDbLine
 10
60.50430000000005
 20
105.0000000000002
 30
0.0
 11
60.50430000000005
 21
122.5000000000001
 31
0.0
  0
LINE
  5
47D7
330
A
100
AcDbEntity
  8
0
  6
Continuous
 62
     7
100
AcDbLine
 10
55.50430000000005
 20
105.0000000000002
 30
0.0
 11
60.50430000000005
 21
105.0000000000002
 31
0.0
  0
ARC
  5
47D8
330
A
100
AcDbEntity
  8
0
  6
Continuous
 62
     7
100
AcDbCircle
 10
54.00430000000006
 20
145.0000000000001
 30
0.0
 40
1.5
100
AcDbArc
 50
329.5081939999972
 51
0.0
  0
ARC
  5
47D9
330
A
100
AcDbEntity
  8
0
  6
Continuous
 62
     7
100
AcDbCircle
 10
39.10429999999997
 20
132.5000000000001
 30
0.0
 40
20.0
100
AcDbArc
 50
324.0595659999999
 51
35.94043400000008
  0
LINE
  5
47DA
330
A
100
AcDbEntity
  8
0
  6
Continuous
 62
     7
100
AcDbLine
 10
55.50430000000005
 20
120.0000000000001
 30
0.0
 11
55.50430000000005
 21
105.0000000000002
 31
0.0
  0
ARC
  5
47DB
330
A
100
AcDbEntity
  8
0
  6
Continuous
 62
     7
100
AcDbCircle
 10
54.00430000000006
 20
120.0000000000001
 30
0.0
 40
1.5
100
AcDbArc
 50
0.0
 51
30.49180600000282
  0
ARC
  5
47DC
330
A
100
AcDbEntity
  8
0
  6
Continuous
 62
     9
100
AcDbCircle
 10
39.10429999999997
 20
132.5000000000001
 30
0.0
 40
19.0
100
AcDbArc
 50
324.2727539999979
 51
35.72724600000217
  0
ARC
  5
47DD
330
A
100
AcDbEntity
  8
0
  6
Continuous
 62
     7
100
AcDbCircle
 10
54.00430000000006
 20
145.0000000000001
 30
0.0
 40
1.5
100
AcDbArc
 50
290.4593030000047
 51
329.5081939999972
  0
ARC
  5
47DE
330
A
100
AcDbEntity
  8
0
  6
Continuous
 62
     7
100
AcDbCircle
 10
54.00430000000006
 20
120.0000000000001
 30
0.0
 40
1.5
100
AcDbArc
 50
30.49180600000282
 51
69.54069699999521
  0
LINE
  5
47DF
330
A
100
AcDbEntity
  8
0
  6
Continuous
 62
     7
100
AcDbLine
 10
52.12679900000011
 20
121.5000000000001
 30
0.0
 11
54.00430000000006
 21
121.5000000000001
 31
0.0
  0
LINE
  5
47E0
330
A
100
AcDbEntity
  8
0
  6
Continuous
 62
     7
100
AcDbLine
 10
54.00430000000006
 20
143.5000000000002
 30
0.0
 11
52.12679900000011
 21
143.5000000000002
 31
0.0
  0
ARC
  5
47E1
330
A
100
AcDbEntity
  8
0
  6
Continuous
 62
     7
100
AcDbCircle
 10
54.00430000000006
 20
145.0000000000001
 30
0.0
 40
1.5
100
AcDbArc
 50
270.0
 51
290.4593030000047
  0
ARC
  5
47E2
330
A
100
AcDbEntity
  8
0
  6
Continuous
 62
     7
100
AcDbCircle
 10
54.00430000000006
 20
120.0000000000001
 30
0.0
 40
1.5
100
AcDbArc
 50
69.54069699999521
 51
90.0
  0
LINE
  5
47E3
330
A
100
AcDbEntity
  8
0
  6
Continuous
 62
     9
100
AcDbLine
 10
45.00430000000005
 20
127.0000000000002
 30
0.0
 11
45.00430000000005
 21
127.5000000000001
 31
0.0
  0
LINE
  5
47E4
330
A
100
AcDbEntity
  8
0
  6
Continuous
 62
     9
100
AcDbLine
 10
-9.495699999999942
 20
127.0000000000002
 30
0.0
 11
-9.495699999999942
 21
127.5000000000001
 31
0.0
  0
LINE
  5
47E5
330
A
100
AcDbEntity
  8
0
  6
Continuous
 62
     7
100
AcDbLine
 10
-9.495699999999942
 20
127.5000000000001
 30
0.0
 11
45.00430000000005
 21
127.5000000000001
 31
0.0
  0
LINE
  5
47E6
330
A
100
AcDbEntity
  8
0
  6
Continuous
 62
     7
100
AcDbLine
 10
-15.49569999999994
 20
127.0000000000002
 30
0.0
 11
-15.49569999999994
 21
127.5000000000001
 31
0.0
  0
LINE
  5
47E7
330
A
100
AcDbEntity
  8
0
  6
Continuous
 62
     7
100
AcDbLine
 10
-15.49569999999994
 20
127.5000000000001
 30
0.0
 11
-9.495699999999942
 21
127.5000000000001
 31
0.0
  0
LINE
  5
47E8
330
A
100
AcDbEntity
  8
0
  6
Continuous
 62
     7
100
AcDbLine
 10
50.50430000000005
 20
127.0000000000002
 30
0.0
 11
50.50430000000005
 21
127.5000000000001
 31
0.0
  0
LINE
  5
47E9
330
A
100
AcDbEntity
  8
0
  6
Continuous
 62
     7
100
AcDbLine
 10
45.00430000000005
 20
127.5000000000001
 30
0.0
 11
50.50430000000005
 21
127.5000000000001
 31
0.0
  0
LINE
  5
47EA
330
A
100
AcDbEntity
  8
0
  6
Continuous
 62
     7
100
AcDbLine
 10
-15.49569999999994
 20
138.0000000000001
 30
0.0
 11
-15.49569999999994
 21
137.5000000000001
 31
0.0
  0
LINE
  5
47EB
330
A
100
AcDbEntity
  8
0
  6
Continuous
 62
     9
100
AcDbLine
 10
-9.495699999999942
 20
138.0000000000001
 30
0.0
 11
-9.495699999999942
 21
137.5000000000001
 31
0.0
  0
LINE
  5
47EC
330
A
100
AcDbEntity
  8
0
  6
Continuous
 62
     7
100
AcDbLine
 10
-9.495699999999942
 20
137.5000000000001
 30
0.0
 11
-15.49569999999994
 21
137.5000000000001
 31
0.0
  0
LINE
  5
47ED
330
A
100
AcDbEntity
  8
0
  6
Continuous
 62
     9
100
AcDbLine
 10
45.00430000000005
 20
138.0000000000001
 30
0.0
 11
45.00430000000005
 21
137.5000000000001
 31
0.0
  0
LINE
  5
47EE
330
A
100
AcDbEntity
  8
0
  6
Continuous
 62
     7
100
AcDbLine
 10
45.00430000000005
 20
137.5000000000001
 30
0.0
 11
-9.495699999999942
 21
137.5000000000001
 31
0.0
  0
LINE
  5
47EF
330
A
100
AcDbEntity
  8
0
  6
Continuous
 62
     7
100
AcDbLine
 10
50.50430000000005
 20
138.0000000000001
 30
0.0
 11
50.50430000000005
 21
137.5000000000001
 31
0.0
  0
LINE
  5
47F0
330
A
100
AcDbEntity
  8
0
  6
Continuous
 62
     7
100
AcDbLine
 10
50.50430000000005
 20
137.5000000000001
 30
0.0
 11
45.00430000000005
 21
137.5000000000001
 31
0.0
  0
ARC
  5
47F1
330
A
100
AcDbEntity
  8
0
  6
Continuous
 62
     7
100
AcDbCircle
 10
43.36058400000001
 20
130.6973600000002
 30
0.0
 40
0.1
100
AcDbArc
 50
116.7600180000008
 51
186.7600179999994
  0
LINE
  5
47F2
330
A
100
AcDbEntity
  8
0
  6
Continuous
 62
     7
100
AcDbLine
 10
43.26127900000005
 20
130.6855890000001
 30
0.0
 11
43.26561900000001
 21
130.6489740000001
 31
0.0
  0
ARC
  5
47F3
330
A
100
AcDbEntity
  8
0
  6
Continuous
 62
     7
100
AcDbCircle
 10
40.00430000000005
 20
132.5000000000001
 30
0.0
 40
3.75
100
AcDbArc
 50
313.0979620000045
 51
330.4220740000006
  0
LINE
  5
47F4
330
A
100
AcDbEntity
  8
0
  6
Continuous
 62
     7
100
AcDbLine
 10
42.56647900000007
 20
129.7618000000001
 30
0.0
 11
42.52986500000019
 21
129.7574600000002
 31
0.0
  0
ARC
  5
47F5
330
A
100
AcDbEntity
  8
0
  6
Continuous
 62
     7
100
AcDbCircle
 10
42.54163599999992
 20
129.6581550000001
 30
0.0
 40
0.1
100
AcDbArc
 50
96.76001799999996
 51
166.7600180000009
  0
LINE
  5
47F6
330
A
100
AcDbEntity
  8
0
  6
Continuous
 62
     7
100
AcDbLine
 10
42.44429399999989
 20
129.6810590000001
 30
0.0
 11
42.43585000000007
 21
129.6451680000002
 31
0.0
  0
ARC
  5
47F7
330
A
100
AcDbEntity
  8
0
  6
Continuous
 62
     7
100
AcDbCircle
 10
40.00430000000005
 20
132.5000000000001
 30
0.0
 40
3.75
100
AcDbArc
 50
293.0979620000024
 51
310.4220740000053
  0
LINE
  5
47F8
330
A
100
AcDbEntity
  8
0
  6
Continuous
 62
     7
100
AcDbLine
 10
41.47544200000015
 20
129.0506170000001
 30
0.0
 11
41.43955099999994
 21
129.0590620000001
 31
0.0
  0
ARC
  5
47F9
330
A
100
AcDbEntity
  8
0
  6
Continuous
 62
     7
100
AcDbCircle
 10
41.41664800000012
 20
128.9617200000002
 30
0.0
 40
0.1
100
AcDbArc
 50
76.76001799999498
 51
146.760018000002
  0
LINE
  5
47FA
330
A
100
AcDbEntity
  8
0
  6
Continuous
 62
     7
100
AcDbLine
 10
41.33301000000005
 20
129.0165340000001
 30
0.0
 11
41.31279900000004
 21
128.9856960000002
 31
0.0
  0
ARC
  5
47FB
330
A
100
AcDbEntity
  8
0
  6
Continuous
 62
     7
100
AcDbCircle
 10
40.00430000000005
 20
132.5000000000001
 30
0.0
 40
3.75
100
AcDbArc
 50
273.0979619999953
 51
290.4220740000031
  0
LINE
  5
47FC
330
A
100
AcDbEntity
  8
0
  6
Continuous
 62
     7
100
AcDbLine
 10
40.20696199999997
 20
128.7554800000001
 30
0.0
 11
40.17612400000007
 21
128.7756910000001
 31
0.0
  0
ARC
  5
47FD
330
A
100
AcDbEntity
  8
0
  6
Continuous
 62
     7
100
AcDbCircle
 10
40.12130999999999
 20
128.6920530000001
 30
0.0
 40
0.1
100
AcDbArc
 50
56.76001800000437
 51
126.7600179999968
  0
ARC
  5
47FE
330
A
100
AcDbEntity
  8
0
  6
Continuous
 62
     7
100
AcDbCircle
 10
40.00430000000005
 20
132.5000000000001
 30
0.0
 40
3.75
100
AcDbArc
 50
253.0979620000002
 51
270.4220740000065
  0
LINE
  5
47FF
330
A
100
AcDbEntity
  8
0
  6
Continuous
 62
     7
100
AcDbLine
 10
38.91403900000023
 20
128.9119880000002
 30
0.0
 11
38.89197300000001
 21
128.9415270000002
 31
0.0
  0
LINE
  5
4800
330
A
100
AcDbEntity
  8
0
  6
Continuous
 62
     7
100
AcDbLine
 10
38.78302200000007
 20
128.9774320000001
 30
0.0
 11
38.74771800000008
 21
128.9668000000001
 31
0.0
  0
ARC
  5
4801
330
A
100
AcDbEntity
  8
0
  6
Continuous
 62
     7
100
AcDbCircle
 10
40.00430000000005
 20
132.5000000000001
 30
0.0
 40
3.75
100
AcDbArc
 50
233.0979619999948
 51
250.4220740000004
  0
LINE
  5
4802
330
A
100
AcDbEntity
  8
0
  6
Continuous
 62
     7
100
AcDbLine
 10
37.75261799999999
 20
129.5012630000002
 30
0.0
 11
37.74198500000011
 21
129.5365670000001
 31
0.0
  0
ARC
  5
4803
330
A
100
AcDbEntity
  8
0
  6
Continuous
 62
     7
100
AcDbCircle
 10
37.64623300000017
 20
129.5077310000001
 30
0.0
 40
0.1
100
AcDbArc
 50
16.76001799999988
 51
86.76001799999827
  0
LINE
  5
4804
330
A
100
AcDbEntity
  8
0
  6
Continuous
 62
     7
100
AcDbLine
 10
37.65188499999999
 20
129.6075710000001
 30
0.0
 11
37.61507300000017
 21
129.6096550000001
 31
0.0
  0
ARC
  5
4805
330
A
100
AcDbEntity
  8
0
  6
Continuous
 62
     7
100
AcDbCircle
 10
40.00430000000005
 20
132.5000000000001
 30
0.0
 40
3.75
100
AcDbArc
 50
213.0979619999985
 51
230.4220739999959
  0
LINE
  5
4806
330
A
100
AcDbEntity
  8
0
  6
Continuous
 62
     7
100
AcDbLine
 10
36.86278200000015
 20
130.4522290000001
 30
0.0
 11
36.86486600000012
 21
130.4890410000002
 31
0.0
  0
ARC
  5
4807
330
A
100
AcDbEntity
  8
0
  6
Continuous
 62
     7
100
AcDbCircle
 10
36.76502600000004
 20
130.4946930000002
 30
0.0
 40
0.1
100
AcDbArc
 50
356.7600179999997
 51
66.76001799999442
  0
LINE
  5
4808
330
A
100
AcDbEntity
  8
0
  6
Continuous
 62
     7
100
AcDbLine
 10
36.804484
 20
130.5865790000002
 30
0.0
 11
36.77060500000016
 21
130.6011270000002
 31
0.0
  0
ARC
  5
4809
330
A
100
AcDbEntity
  8
0
  6
Continuous
 62
     7
100
AcDbCircle
 10
40.00430000000005
 20
132.5000000000001
 30
0.0
 40
3.75
100
AcDbArc
 50
193.097961999999
 51
210.4220740000027
  0
LINE
  5
480A
330
A
100
AcDbEntity
  8
0
  6
Continuous
 62
     7
100
AcDbLine
 10
36.35185999999999
 20
131.6501870000002
 30
0.0
 11
36.36640800000009
 21
131.6840660000002
 31
0.0
  0
LINE
  5
480B
330
A
100
AcDbEntity
  8
0
  6
Continuous
 62
     7
100
AcDbLine
 10
36.343028
 20
131.7963740000002
 30
0.0
 11
36.31616800000006
 21
131.8216320000001
 31
0.0
  0
ARC
  5
480C
330
A
100
AcDbEntity
  8
0
  6
Continuous
 62
     7
100
AcDbCircle
 10
40.00430000000005
 20
132.5000000000001
 30
0.0
 40
3.75
100
AcDbArc
 50
173.0979619999991
 51
190.4220739999985
  0
LINE
  5
480D
330
A
100
AcDbEntity
  8
0
  6
Continuous
 62
     7
100
AcDbLine
 10
36.28147600000011
 20
132.9506460000001
 30
0.0
 11
36.30673400000001
 21
132.9775050000002
 31
0.0
  0
ARC
  5
480E
330
A
100
AcDbEntity
  8
0
  6
Continuous
 62
     7
100
AcDbCircle
 10
36.2338850000001
 20
133.0460110000001
 30
0.0
 40
0.1
100
AcDbArc
 50
316.7600179999981
 51
26.76001799999712
  0
LINE
  5
480F
330
A
100
AcDbEntity
  8
0
  6
Continuous
 62
     7
100
AcDbLine
 10
36.32317499999999
 20
133.0910360000001
 30
0.0
 11
36.30657400000018
 21
133.1239580000002
 31
0.0
  0
ARC
  5
4810
330
A
100
AcDbEntity
  8
0
  6
Continuous
 62
     7
100
AcDbCircle
 10
40.00430000000005
 20
132.5000000000001
 30
0.0
 40
3.75
100
AcDbArc
 50
153.0979619999996
 51
170.4220739999989
  0
LINE
  5
4811
330
A
100
AcDbEntity
  8
0
  6
Continuous
 62
     7
100
AcDbLine
 10
36.66012000000001
 20
134.1967490000002
 30
0.0
 11
36.693041
 21
134.2133500000001
 31
0.0
  0
ARC
  5
4812
330
A
100
AcDbEntity
  8
0
  6
Continuous
 62
     7
100
AcDbCircle
 10
36.6480160000001
 20
134.3026400000001
 30
0.0
 40
0.1
100
AcDbArc
 50
296.7600180000008
 51
6.760017999999476
  0
LINE
  5
4813
330
A
100
AcDbEntity
  8
0
  6
Continuous
 62
     7
100
AcDbLine
 10
36.74732100000006
 20
134.3144110000002
 30
0.0
 11
36.7429810000001
 21
134.3510260000001
 31
0.0
  0
ARC
  5
4814
330
A
100
AcDbEntity
  8
0
  6
Continuous
 62
     7
100
AcDbCircle
 10
40.00430000000005
 20
132.5000000000001
 30
0.0
 40
3.75
100
AcDbArc
 50
133.0979620000045
 51
150.4220740000006
  0
LINE
  5
4815
330
A
100
AcDbEntity
  8
0
  6
Continuous
 62
     7
100
AcDbLine
 10
37.44212100000004
 20
135.2382000000001
 30
0.0
 11
37.47873499999992
 21
135.2425400000001
 31
0.0
  0
ARC
  5
4816
330
A
100
AcDbEntity
  8
0
  6
Continuous
 62
     7
100
AcDbCircle
 10
37.46696400000019
 20
135.3418450000002
 30
0.0
 40
0.1
100
AcDbArc
 50
276.7600179999999
 51
346.7600180000009
  0
LINE
  5
4817
330
A
100
AcDbEntity
  8
0
  6
Continuous
 62
     7
100
AcDbLine
 10
37.56430600000022
 20
135.3189420000001
 30
0.0
 11
37.57275000000004
 21
135.3548320000001
 31
0.0
  0
ARC
  5
4818
330
A
100
AcDbEntity
  8
0
  6
Continuous
 62
     7
100
AcDbCircle
 10
40.00430000000005
 20
132.5000000000001
 30
0.0
 40
3.75
100
AcDbArc
 50
113.0979620000023
 51
130.4220740000052
  0
LINE
  5
4819
330
A
100
AcDbEntity
  8
0
  6
Continuous
 62
     7
100
AcDbLine
 10
38.53315799999996
 20
135.9493830000002
 30
0.0
 11
38.56904900000018
 21
135.9409380000002
 31
0.0
  0
ARC
  5
481A
330
A
100
AcDbEntity
  8
0
  6
Continuous
 62
     7
100
AcDbCircle
 10
38.59195199999999
 20
136.0382800000001
 30
0.0
 40
0.1
100
AcDbArc
 50
256.7600179999949
 51
326.7600180000021
  0
LINE
  5
481B
330
A
100
AcDbEntity
  8
0
  6
Continuous
 62
     7
100
AcDbLine
 10
38.67559000000006
 20
135.9834660000002
 30
0.0
 11
38.69580100000007
 21
136.0143040000001
 31
0.0
  0
ARC
  5
481C
330
A
100
AcDbEntity
  8
0
  6
Continuous
 62
     7
100
AcDbCircle
 10
40.00430000000005
 20
132.5000000000001
 30
0.0
 40
3.75
100
AcDbArc
 50
93.09796199999537
 51
110.422074000003
  0
LINE
  5
481D
330
A
100
AcDbEntity
  8
0
  6
Continuous
 62
     7
100
AcDbLine
 10
39.80163800000014
 20
136.2445200000002
 30
0.0
 11
39.83247600000004
 21
136.2243090000001
 31
0.0
  0
ARC
  5
481E
330
A
100
AcDbEntity
  8
0
  6
Continuous
 62
     7
100
AcDbCircle
 10
39.88729000000012
 20
136.3079470000002
 30
0.0
 40
0.1
100
AcDbArc
 50
236.7600180000045
 51
306.7600179999968
  0
LINE
  5
481F
330
A
100
AcDbEntity
  8
0
  6
Continuous
 62
     7
100
AcDbLine
 10
39.94713699999989
 20
136.2278330000003
 30
0.0
 11
39.976676
 21
136.2498980000001
 31
0.0
  0
ARC
  5
4820
330
A
100
AcDbEntity
  8
0
  6
Continuous
 62
     7
100
AcDbCircle
 10
40.00430000000005
 20
132.5000000000001
 30
0.0
 40
3.75
100
AcDbArc
 50
73.09796200000019
 51
90.4220739999935
  0
LINE
  5
4821
330
A
100
AcDbEntity
  8
0
  6
Continuous
 62
     7
100
AcDbLine
 10
41.09456099999988
 20
136.0880120000001
 30
0.0
 11
41.1166270000001
 21
136.0584730000001
 31
0.0
  0
ARC
  5
4822
330
A
100
AcDbEntity
  8
0
  6
Continuous
 62
     7
100
AcDbCircle
 10
41.19674099999997
 20
136.1183200000003
 30
0.0
 40
0.1
100
AcDbArc
 50
216.7600179999994
 51
286.7600180000039
  0
LINE
  5
4823
330
A
100
AcDbEntity
  8
0
  6
Continuous
 62
     7
100
AcDbLine
 10
41.22557800000004
 20
136.0225680000003
 30
0.0
 11
41.26088200000004
 21
136.0332000000002
 31
0.0
  0
ARC
  5
4824
330
A
100
AcDbEntity
  8
0
  6
Continuous
 62
     7
100
AcDbCircle
 10
40.00430000000005
 20
132.5000000000001
 30
0.0
 40
3.75
100
AcDbArc
 50
53.09796199999478
 51
70.42207399999991
  0
LINE
  5
4825
330
A
100
AcDbEntity
  8
0
  6
Continuous
 62
     7
100
AcDbLine
 10
42.25598200000013
 20
135.4987370000001
 30
0.0
 11
42.266615
 21
135.4634330000002
 31
0.0
  0
ARC
  5
4826
330
A
100
AcDbEntity
  8
0
  6
Continuous
 62
     7
100
AcDbCircle
 10
42.36236699999994
 20
135.4922690000002
 30
0.0
 40
0.1
100
AcDbArc
 50
196.7600179999999
 51
266.7600179999983
  0
LINE
  5
4827
330
A
100
AcDbEntity
  8
0
  6
Continuous
 62
     7
100
AcDbLine
 10
42.35671500000012
 20
135.3924290000001
 30
0.0
 11
42.39352699999995
 21
135.3903450000002
 31
0.0
  0
ARC
  5
4828
330
A
100
AcDbEntity
  8
0
  6
Continuous
 62
     7
100
AcDbCircle
 10
40.00430000000005
 20
132.5000000000001
 30
0.0
 40
3.75
100
AcDbArc
 50
33.0979619999985
 51
50.42207399999596
  0
LINE
  5
4829
330
A
100
AcDbEntity
  8
0
  6
Continuous
 62
     7
100
AcDbLine
 10
43.14581799999996
 20
134.5477710000002
 30
0.0
 11
43.143734
 21
134.510959
 31
0.0
  0
ARC
  5
482A
330
A
100
AcDbEntity
  8
0
  6
Continuous
 62
     7
100
AcDbCircle
 10
43.24357400000008
 20
134.5053070000001
 30
0.0
 40
0.1
100
AcDbArc
 50
176.7600179999996
 51
246.7600179999944
  0
LINE
  5
482B
330
A
100
AcDbEntity
  8
0
  6
Continuous
 62
     7
100
AcDbLine
 10
43.20411600000011
 20
134.4134210000001
 30
0.0
 11
43.23799499999995
 21
134.3988730000001
 31
0.0
  0
ARC
  5
482C
330
A
100
AcDbEntity
  8
0
  6
Continuous
 62
     7
100
AcDbCircle
 10
40.00430000000005
 20
132.5000000000001
 30
0.0
 40
3.75
100
AcDbArc
 50
13.09796199999901
 51
30.42207400000276
  0
LINE
  5
482D
330
A
100
AcDbEntity
  8
0
  6
Continuous
 62
     7
100
AcDbLine
 10
43.65674000000012
 20
133.3498130000001
 30
0.0
 11
43.64219200000002
 21
133.3159340000001
 31
0.0
  0
ARC
  5
482E
330
A
100
AcDbEntity
  8
0
  6
Continuous
 62
     7
100
AcDbCircle
 10
43.73407799999995
 20
133.2764750000001
 30
0.0
 40
0.1
100
AcDbArc
 50
156.7600180000003
 51
226.7600179999992
  0
LINE
  5
482F
330
A
100
AcDbEntity
  8
0
  6
Continuous
 62
     7
100
AcDbLine
 10
43.66557200000011
 20
133.2036260000001
 30
0.0
 11
43.69243200000005
 21
133.1783680000002
 31
0.0
  0
ARC
  5
4830
330
A
100
AcDbEntity
  8
0
  6
Continuous
 62
     7
100
AcDbCircle
 10
40.00430000000005
 20
132.5000000000001
 30
0.0
 40
3.75
100
AcDbArc
 50
353.0979619999988
 51
10.4220739999987
  0
LINE
  5
4831
330
A
100
AcDbEntity
  8
0
  6
Continuous
 62
     7
100
AcDbLine
 10
43.727124
 20
132.0493540000001
 30
0.0
 11
43.7018660000001
 21
132.0224950000001
 31
0.0
  0
ARC
  5
4832
330
A
100
AcDbEntity
  8
0
  6
Continuous
 62
     7
100
AcDbCircle
 10
43.77471500000001
 20
131.9539890000002
 30
0.0
 40
0.1
100
AcDbArc
 50
136.7600179999981
 51
206.7600179999971
  0
LINE
  5
4833
330
A
100
AcDbEntity
  8
0
  6
Continuous
 62
     7
100
AcDbLine
 10
43.68542500000012
 20
131.9089640000002
 30
0.0
 11
43.70202599999993
 21
131.8760420000001
 31
0.0
  0
ARC
  5
4834
330
A
100
AcDbEntity
  8
0
  6
Continuous
 62
     7
100
AcDbCircle
 10
40.00430000000005
 20
132.5000000000001
 30
0.0
 40
3.75
100
AcDbArc
 50
333.0979619999997
 51
350.4220739999989
  0
LINE
  5
4835
330
A
100
AcDbEntity
  8
0
  6
Continuous
 62
     7
100
AcDbLine
 10
43.3484800000001
 20
130.8032510000001
 30
0.0
 11
43.31555900000012
 21
130.7866500000002
 31
0.0
  0
ARC
  5
4836
330
A
100
AcDbEntity
  8
0
  6
Continuous
 62
     7
100
AcDbCircle
 10
38.81185800000003
 20
128.8816800000001
 30
0.0
 40
0.1
100
AcDbArc
 50
36.76001799999946
 51
106.7600180000039
  0
LINE
  5
4837
330
A
100
AcDbEntity
  8
0
  6
Continuous
 62
     7
100
AcDbLine
 10
40.06146300000023
 20
128.7721680000002
 30
0.0
 11
40.03192400000012
 21
128.7501020000002
 31
0.0
  0
ARC
  5
4838
330
A
100
AcDbEntity
  8
0
  6
Continuous
 62
     7
100
AcDbCircle
 10
36.27452200000016
 20
131.7235250000001
 30
0.0
 40
0.1
100
AcDbArc
 50
336.7600180000004
 51
46.76001799999919
  0
LINE
  5
4839
330
A
100
AcDbEntity
  8
0
  6
Continuous
 62
     7
100
AcDbLine
 10
41.31279900000004
 20
128.9856960000002
 30
0.0
 11
41.01161300000012
 21
128.5261360000002
 31
0.0
  0
LINE
  5
483A
330
A
100
AcDbEntity
  8
0
  6
Continuous
 62
     7
100
AcDbLine
 10
40.59746600000017
 20
128.4995520000001
 30
0.0
 11
40.20696199999997
 21
128.7554800000001
 31
0.0
  0
LINE
  5
483B
330
A
100
AcDbEntity
  8
0
  6
Continuous
 62
     7
100
AcDbLine
 10
39.22234800000001
 20
128.4992620000001
 30
0.0
 11
38.91403900000023
 21
128.9119880000002
 31
0.0
  0
LINE
  5
483C
330
A
100
AcDbEntity
  8
0
  6
Continuous
 62
     7
100
AcDbLine
 10
40.03192400000012
 20
128.7501020000002
 30
0.0
 11
39.70051000000012
 21
128.5025320000001
 31
0.0
  0
LINE
  5
483D
330
A
100
AcDbEntity
  8
0
  6
Continuous
 62
     7
100
AcDbLine
 10
35.90501400000017
 20
132.5503140000002
 30
0.0
 11
36.28147600000011
 21
132.9506460000001
 31
0.0
  0
LINE
  5
483E
330
A
100
AcDbEntity
  8
0
  6
Continuous
 62
     7
100
AcDbLine
 10
36.31616800000006
 20
131.8216320000001
 30
0.0
 11
35.91620500000022
 21
132.1977480000001
 31
0.0
  0
LINE
  5
483F
330
A
100
AcDbEntity
  8
0
  6
Continuous
 62
     7
100
AcDbLine
 10
37.91108400000008
 20
128.9750710000002
 30
0.0
 11
37.75261799999999
 21
129.5012630000002
 31
0.0
  0
LINE
  5
4840
330
A
100
AcDbEntity
  8
0
  6
Continuous
 62
     7
100
AcDbLine
 10
38.74771800000008
 20
128.9668000000001
 30
0.0
 11
38.22201100000007
 21
128.8084800000001
 31
0.0
  0
LINE
  5
4841
330
A
100
AcDbEntity
  8
0
  6
Continuous
 62
     7
100
AcDbLine
 10
37.61507300000017
 20
129.6096550000001
 30
0.0
 11
37.06649000000016
 21
129.6407090000001
 31
0.0
  0
LINE
  5
4842
330
A
100
AcDbEntity
  8
0
  6
Continuous
 62
     7
100
AcDbLine
 10
36.83168000000023
 20
129.9028070000001
 30
0.0
 11
36.86278200000015
 21
130.4522290000001
 31
0.0
  0
LINE
  5
4843
330
A
100
AcDbEntity
  8
0
  6
Continuous
 62
     7
100
AcDbLine
 10
36.77060500000016
 20
130.6011270000002
 30
0.0
 11
36.26480000000015
 21
130.8183340000001
 31
0.0
  0
LINE
  5
4844
330
A
100
AcDbEntity
  8
0
  6
Continuous
 62
     7
100
AcDbLine
 10
36.1352310000002
 20
131.1457260000001
 30
0.0
 11
36.35185999999999
 21
131.6501870000002
 31
0.0
  0
LINE
  5
4845
330
A
100
AcDbEntity
  8
0
  6
Continuous
 62
     7
100
AcDbLine
 10
43.70202599999993
 20
131.8760420000001
 30
0.0
 11
43.94942300000002
 21
131.3854270000001
 31
0.0
  0
LINE
  5
4846
330
A
100
AcDbEntity
  8
0
  6
Continuous
 62
     7
100
AcDbLine
 10
43.83984499999996
 20
131.0510270000001
 30
0.0
 11
43.3484800000001
 21
130.8032510000001
 31
0.0
  0
LINE
  5
4847
330
A
100
AcDbEntity
  8
0
  6
Continuous
 62
     7
100
AcDbLine
 10
43.26561900000001
 20
130.6489740000001
 30
0.0
 11
43.33041600000001
 21
130.1023310000001
 31
0.0
  0
LINE
  5
4848
330
A
100
AcDbEntity
  8
0
  6
Continuous
 62
     7
100
AcDbLine
 10
43.11167
 20
129.8264250000001
 30
0.0
 11
42.56647900000007
 21
129.7618000000001
 31
0.0
  0
LINE
  5
4849
330
A
100
AcDbEntity
  8
0
  6
Continuous
 62
     7
100
AcDbLine
 10
36.7429810000001
 20
134.3510260000001
 30
0.0
 11
36.6781840000001
 21
134.8976690000001
 31
0.0
  0
LINE
  5
484A
330
A
100
AcDbEntity
  8
0
  6
Continuous
 62
     7
100
AcDbLine
 10
36.89693000000011
 20
135.1735750000002
 30
0.0
 11
37.44212100000004
 21
135.2382000000001
 31
0.0
  0
LINE
  5
484B
330
A
100
AcDbEntity
  8
0
  6
Continuous
 62
     7
100
AcDbLine
 10
36.16875500000015
 20
133.9489730000002
 30
0.0
 11
36.66012000000001
 21
134.1967490000002
 31
0.0
  0
LINE
  5
484C
330
A
100
AcDbEntity
  8
0
  6
Continuous
 62
     7
100
AcDbLine
 10
36.30657400000018
 20
133.1239580000002
 30
0.0
 11
36.05917700000009
 21
133.6145730000001
 31
0.0
  0
LINE
  5
484D
330
A
100
AcDbEntity
  8
0
  6
Continuous
 62
     7
100
AcDbLine
 10
42.43585000000007
 20
129.6451680000002
 30
0.0
 11
42.31010500000002
 21
129.1107320000001
 31
0.0
  0
LINE
  5
484E
330
A
100
AcDbEntity
  8
0
  6
Continuous
 62
     7
100
AcDbLine
 10
42.01036999999996
 20
128.9247570000001
 30
0.0
 11
41.47544200000015
 21
129.0506170000001
 31
0.0
  0
LINE
  5
484F
330
A
100
AcDbEntity
  8
0
  6
Continuous
 62
     7
100
AcDbLine
 10
37.99823000000015
 20
136.0752430000002
 30
0.0
 11
38.53315799999996
 21
135.9493830000002
 31
0.0
  0
LINE
  5
4850
330
A
100
AcDbEntity
  8
0
  6
Continuous
 62
     7
100
AcDbLine
 10
37.57275000000004
 20
135.3548320000001
 30
0.0
 11
37.6984950000001
 21
135.8892680000002
 31
0.0
  0
LINE
  5
4851
330
A
100
AcDbEntity
  8
0
  6
Continuous
 62
     7
100
AcDbLine
 10
41.26088200000004
 20
136.0332000000002
 30
0.0
 11
41.78674100000011
 21
136.1915660000002
 31
0.0
  0
LINE
  5
4852
330
A
100
AcDbEntity
  8
0
  6
Continuous
 62
     7
100
AcDbLine
 10
42.09747100000003
 20
136.0250810000001
 30
0.0
 11
42.25598200000013
 21
135.4987370000001
 31
0.0
  0
LINE
  5
4853
330
A
100
AcDbEntity
  8
0
  6
Continuous
 62
     7
100
AcDbLine
 10
43.69243200000005
 20
133.1783680000002
 30
0.0
 11
44.0923949999999
 21
132.8022520000001
 31
0.0
  0
LINE
  5
4854
330
A
100
AcDbEntity
  8
0
  6
Continuous
 62
     7
100
AcDbLine
 10
44.10358599999995
 20
132.4496860000001
 30
0.0
 11
43.727124
 21
132.0493540000001
 31
0.0
  0
LINE
  5
4855
330
A
100
AcDbEntity
  8
0
  6
Continuous
 62
     7
100
AcDbLine
 10
42.39352699999995
 20
135.3903450000002
 30
0.0
 11
42.94210999999996
 21
135.3592910000003
 31
0.0
  0
LINE
  5
4856
330
A
100
AcDbEntity
  8
0
  6
Continuous
 62
     7
100
AcDbLine
 10
43.17691999999988
 20
135.0971930000002
 30
0.0
 11
43.14581799999996
 21
134.5477710000002
 31
0.0
  0
LINE
  5
4857
330
A
100
AcDbEntity
  8
0
  6
Continuous
 62
     7
100
AcDbLine
 10
43.23799499999995
 20
134.3988730000001
 30
0.0
 11
43.74379999999996
 21
134.1816660000002
 31
0.0
  0
LINE
  5
4858
330
A
100
AcDbEntity
  8
0
  6
Continuous
 62
     7
100
AcDbLine
 10
43.87336899999991
 20
133.8542740000002
 30
0.0
 11
43.65674000000012
 21
133.3498130000001
 31
0.0
  0
LINE
  5
4859
330
A
100
AcDbEntity
  8
0
  6
Continuous
 62
     7
100
AcDbLine
 10
38.69580100000007
 20
136.0143040000001
 30
0.0
 11
38.99698699999999
 21
136.4738640000001
 31
0.0
  0
LINE
  5
485A
330
A
100
AcDbEntity
  8
0
  6
Continuous
 62
     7
100
AcDbLine
 10
39.41113399999995
 20
136.5004480000002
 30
0.0
 11
39.80163800000014
 21
136.2445200000002
 31
0.0
  0
LINE
  5
485B
330
A
100
AcDbEntity
  8
0
  6
Continuous
 62
     7
100
AcDbLine
 10
39.976676
 20
136.2498980000001
 30
0.0
 11
40.30808999999999
 21
136.4974680000002
 31
0.0
  0
LINE
  5
485C
330
A
100
AcDbEntity
  8
0
  6
Continuous
 62
     7
100
AcDbLine
 10
40.7862520000001
 20
136.5007380000001
 30
0.0
 11
41.09456099999988
 21
136.0880120000001
 31
0.0
  0
ARC
  5
485D
330
A
100
AcDbEntity
  8
0
  6
Continuous
 62
     7
100
AcDbCircle
 10
40.00430000000005
 20
132.5000000000001
 30
0.0
 40
4.0
100
AcDbArc
 50
225.8019959999987
 51
237.7180400000016
  0
ARC
  5
485E
330
A
100
AcDbEntity
  8
0
  6
Continuous
 62
     7
100
AcDbCircle
 10
40.00430000000005
 20
132.5000000000001
 30
0.0
 40
4.0
100
AcDbArc
 50
165.8019960000005
 51
177.7180400000007
  0
ARC
  5
485F
330
A
100
AcDbEntity
  8
0
  6
Continuous
 62
     7
100
AcDbCircle
 10
40.00430000000005
 20
132.5000000000001
 30
0.0
 40
4.0
100
AcDbArc
 50
245.8019960000012
 51
257.7180400000024
  0
ARC
  5
4860
330
A
100
AcDbEntity
  8
0
  6
Continuous
 62
     7
100
AcDbCircle
 10
40.00430000000005
 20
132.5000000000001
 30
0.0
 40
4.0
100
AcDbArc
 50
205.8019960000025
 51
217.718039999998
  0
ARC
  5
4861
330
A
100
AcDbEntity
  8
0
  6
Continuous
 62
     7
100
AcDbCircle
 10
40.00430000000005
 20
132.5000000000001
 30
0.0
 40
4.0
100
AcDbArc
 50
285.801996
 51
297.7180400000051
  0
ARC
  5
4862
330
A
100
AcDbEntity
  8
0
  6
Continuous
 62
     7
100
AcDbCircle
 10
40.00430000000005
 20
132.5000000000001
 30
0.0
 40
4.0
100
AcDbArc
 50
185.8019959999989
 51
197.7180400000025
  0
ARC
  5
4863
330
A
100
AcDbEntity
  8
0
  6
Continuous
 62
     7
100
AcDbCircle
 10
40.00430000000005
 20
132.5000000000001
 30
0.0
 40
4.0
100
AcDbArc
 50
265.8019960000041
 51
270.0
  0
ARC
  5
4864
330
A
100
AcDbEntity
  8
0
  6
Continuous
 62
     7
100
AcDbCircle
 10
40.00430000000005
 20
132.5000000000001
 30
0.0
 40
4.0
100
AcDbArc
 50
270.0
 51
277.7180399999957
  0
ARC
  5
4865
330
A
100
AcDbEntity
  8
0
  6
Continuous
 62
     7
100
AcDbCircle
 10
40.00430000000005
 20
132.5000000000001
 30
0.0
 40
4.0
100
AcDbArc
 50
325.8019960000004
 51
337.7180399999991
  0
ARC
  5
4866
330
A
100
AcDbEntity
  8
0
  6
Continuous
 62
     7
100
AcDbCircle
 10
40.00430000000005
 20
132.5000000000001
 30
0.0
 40
4.0
100
AcDbArc
 50
345.8019960000005
 51
357.7180400000007
  0
ARC
  5
4867
330
A
100
AcDbEntity
  8
0
  6
Continuous
 62
     7
100
AcDbCircle
 10
40.00430000000005
 20
132.5000000000001
 30
0.0
 40
4.0
100
AcDbArc
 50
5.801995999998847
 51
17.71804000000254
  0
ARC
  5
4868
330
A
100
AcDbEntity
  8
0
  6
Continuous
 62
     7
100
AcDbCircle
 10
40.00430000000005
 20
132.5000000000001
 30
0.0
 40
4.0
100
AcDbArc
 50
25.80199600000245
 51
37.71803999999795
  0
ARC
  5
4869
330
A
100
AcDbEntity
  8
0
  6
Continuous
 62
     7
100
AcDbCircle
 10
40.00430000000005
 20
132.5000000000001
 30
0.0
 40
4.0
100
AcDbArc
 50
45.80199599999867
 51
57.7180400000016
  0
ARC
  5
486A
330
A
100
AcDbEntity
  8
0
  6
Continuous
 62
     7
100
AcDbCircle
 10
40.00430000000005
 20
132.5000000000001
 30
0.0
 40
4.0
100
AcDbArc
 50
65.80199600000122
 51
77.71804000000244
  0
ARC
  5
486B
330
A
100
AcDbEntity
  8
0
  6
Continuous
 62
     7
100
AcDbCircle
 10
40.00430000000005
 20
132.5000000000001
 30
0.0
 40
4.0
100
AcDbArc
 50
85.80199600000415
 51
90.0
  0
ARC
  5
486C
330
A
100
AcDbEntity
  8
0
  6
Continuous
 62
     7
100
AcDbCircle
 10
40.00430000000005
 20
132.5000000000001
 30
0.0
 40
4.0
100
AcDbArc
 50
90.0
 51
97.71803999999567
  0
ARC
  5
486D
330
A
100
AcDbEntity
  8
0
  6
Continuous
 62
     7
100
AcDbCircle
 10
40.00430000000005
 20
132.5000000000001
 30
0.0
 40
4.0
100
AcDbArc
 50
105.8019959999999
 51
117.718040000005
  0
ARC
  5
486E
330
A
100
AcDbEntity
  8
0
  6
Continuous
 62
     7
100
AcDbCircle
 10
40.00430000000005
 20
132.5000000000001
 30
0.0
 40
4.0
100
AcDbArc
 50
125.8019959999952
 51
137.7180399999973
  0
ARC
  5
486F
330
A
100
AcDbEntity
  8
0
  6
Continuous
 62
     7
100
AcDbCircle
 10
40.00430000000005
 20
132.5000000000001
 30
0.0
 40
4.0
100
AcDbArc
 50
145.8019960000003
 51
157.7180399999991
  0
ARC
  5
4870
330
A
100
AcDbEntity
  8
0
  6
Continuous
 62
     7
100
AcDbCircle
 10
40.00430000000005
 20
132.5000000000001
 30
0.0
 40
4.0
100
AcDbArc
 50
305.8019959999953
 51
317.7180399999973
  0
LINE
  5
4871
330
A
100
AcDbEntity
  8
0
  6
Continuous
 62
     9
100
AcDbLine
 10
1.829300000000102
 20
128.5000000000001
 30
0.0
 11
1.829300000000102
 21
136.5000000000001
 31
0.0
  0
LINE
  5
4872
330
A
100
AcDbEntity
  8
0
  6
Continuous
 62
     7
100
AcDbLine
 10
-5.170699999999897
 20
128.5000000000001
 30
0.0
 11
-5.170699999999897
 21
136.5000000000001
 31
0.0
  0
LINE
  5
4873
330
A
100
AcDbEntity
  8
0
  6
Continuous
 62
     7
100
AcDbLine
 10
8.829300000000102
 20
128.5000000000001
 30
0.0
 11
8.829300000000102
 21
136.5000000000001
 31
0.0
  0
LINE
  5
4874
330
A
100
AcDbEntity
  8
0
  6
Continuous
 62
     9
100
AcDbLine
 10
45.50430000000005
 20
141.0000000000001
 30
0.0
 11
-9.495699999999942
 21
141.0000000000001
 31
0.0
  0
LINE
  5
4875
330
A
100
AcDbEntity
  8
0
  6
Continuous
 62
     9
100
AcDbLine
 10
-9.495699999999942
 20
141.0000000000001
 30
0.0
 11
-9.495699999999942
 21
145.0000000000001
 31
0.0
  0
LINE
  5
4876
330
A
100
AcDbEntity
  8
0
  6
Continuous
 62
     7
100
AcDbLine
 10
-9.495699999999942
 20
145.0000000000001
 30
0.0
 11
45.50430000000005
 21
145.0000000000001
 31
0.0
  0
LINE
  5
4877
330
A
100
AcDbEntity
  8
0
  6
Continuous
 62
     9
100
AcDbLine
 10
45.50430000000005
 20
141.0000000000001
 30
0.0
 11
45.50430000000005
 21
145.0000000000001
 31
0.0
  0
LINE
  5
4878
330
A
100
AcDbEntity
  8
0
  6
Continuous
 62
     7
100
AcDbLine
 10
-16.99569999999994
 20
138.0000000000001
 30
0.0
 11
-16.99569999999994
 21
141.0000000000001
 31
0.0
  0
LINE
  5
4879
330
A
100
AcDbEntity
  8
0
  6
Continuous
 62
     9
100
AcDbLine
 10
-9.495699999999942
 20
141.0000000000001
 30
0.0
 11
-16.99569999999994
 21
141.0000000000001
 31
0.0
  0
LINE
  5
487A
330
A
100
AcDbEntity
  8
0
  6
Continuous
 62
     9
100
AcDbLine
 10
-9.495699999999942
 20
141.0000000000001
 30
0.0
 11
-9.495699999999942
 21
138.0000000000001
 31
0.0
  0
LINE
  5
487B
330
A
100
AcDbEntity
  8
0
  6
Continuous
 62
     7
100
AcDbLine
 10
-9.495699999999942
 20
138.0000000000001
 30
0.0
 11
-16.99569999999994
 21
138.0000000000001
 31
0.0
  0
ARC
  5
487C
330
A
100
AcDbEntity
  8
0
  6
Continuous
 62
     7
100
AcDbCircle
 10
-12.99569999999994
 20
141.0000000000001
 30
0.0
 40
4.0
100
AcDbArc
 50
90.0
 51
180.0
  0
LINE
  5
487D
330
A
100
AcDbEntity
  8
0
  6
Continuous
 62
     7
100
AcDbLine
 10
-12.99569999999994
 20
145.0000000000001
 30
0.0
 11
-9.495699999999942
 21
145.0000000000001
 31
0.0
  0
LINE
  5
487E
330
A
100
AcDbEntity
  8
0
  6
Continuous
 62
     9
100
AcDbLine
 10
45.50430000000005
 20
138.0000000000001
 30
0.0
 11
45.50430000000005
 21
141.0000000000001
 31
0.0
  0
LINE
  5
487F
330
A
100
AcDbEntity
  8
0
  6
Continuous
 62
     7
100
AcDbLine
 10
-9.495699999999942
 20
138.0000000000001
 30
0.0
 11
45.50430000000005
 21
138.0000000000001
 31
0.0
  0
LINE
  5
4880
330
A
100
AcDbEntity
  8
0
  6
Continuous
 62
     9
100
AcDbLine
 10
53.00430000000005
 20
141.0000000000001
 30
0.0
 11
45.50430000000005
 21
141.0000000000001
 31
0.0
  0
LINE
  5
4881
330
A
100
AcDbEntity
  8
0
  6
Continuous
 62
     7
100
AcDbLine
 10
45.50430000000005
 20
145.0000000000001
 30
0.0
 11
49.00430000000006
 21
145.0000000000001
 31
0.0
  0
ARC
  5
4882
330
A
100
AcDbEntity
  8
0
  6
Continuous
 62
     7
100
AcDbCircle
 10
49.00430000000006
 20
141.0000000000001
 30
0.0
 40
4.0
100
AcDbArc
 50
0.0
 51
90.0
  0
LINE
  5
4883
330
A
100
AcDbEntity
  8
0
  6
Continuous
 62
     7
100
AcDbLine
 10
53.00430000000005
 20
141.0000000000001
 30
0.0
 11
53.00430000000005
 21
138.0000000000001
 31
0.0
  0
LINE
  5
4884
330
A
100
AcDbEntity
  8
0
  6
Continuous
 62
     7
100
AcDbLine
 10
53.00430000000005
 20
138.0000000000001
 30
0.0
 11
45.50430000000005
 21
138.0000000000001
 31
0.0
  0
LINE
  5
4885
330
A
100
AcDbEntity
  8
0
  6
Continuous
 62
     7
100
AcDbLine
 10
53.00430000000005
 20
127.5000000000001
 30
0.0
 11
50.50430000000005
 21
127.5000000000001
 31
0.0
  0
ARC
  5
4886
330
A
100
AcDbEntity
  8
0
  6
Continuous
 62
     7
100
AcDbCircle
 10
40.00430000000005
 20
132.5000000000001
 30
0.0
 40
4.099999999999996
100
AcDbArc
 50
282.6803829999951
 51
77.31961599999445
  0
ARC
  5
4887
330
A
100
AcDbEntity
  8
0
  6
Continuous
 62
     7
100
AcDbCircle
 10
40.00430000000005
 20
132.5000000000001
 30
0.0
 40
4.099999999999996
100
AcDbArc
 50
102.680382999995
 51
257.3196159999945
  0
LINE
  5
4888
330
A
100
AcDbEntity
  8
0
  6
Continuous
 62
     7
100
AcDbLine
 10
8.879300000000057
 20
136.5000000000001
 30
0.0
 11
8.879300000000057
 21
128.5000000000001
 31
0.0
  0
LINE
  5
4889
330
A
100
AcDbEntity
  8
0
  6
Continuous
 62
     7
100
AcDbLine
 10
53.00430000000005
 20
138.0000000000001
 30
0.0
 11
53.00430000000005
 21
127.5000000000001
 31
0.0
  0
ARC
  5
488A
330
A
100
AcDbEntity
  8
0
  6
Continuous
 62
     7
100
AcDbCircle
 10
40.00430000000005
 20
132.5000000000001
 30
0.0
 40
4.009999999999998
100
AcDbArc
 50
345.6531140000008
 51
357.8640440000007
  0
ARC
  5
488B
330
A
100
AcDbEntity
  8
0
  6
Continuous
 62
     7
100
AcDbCircle
 10
40.00430000000005
 20
132.5000000000001
 30
0.0
 40
4.009999999999998
100
AcDbArc
 50
325.659866999999
 51
337.8611049999994
  0
ARC
  5
488C
330
A
100
AcDbEntity
  8
0
  6
Continuous
 62
     7
100
AcDbCircle
 10
40.00430000000005
 20
132.5000000000001
 30
0.0
 40
4.009999999999998
100
AcDbArc
 50
305.6468909999963
 51
317.8788449999968
  0
ARC
  5
488D
330
A
100
AcDbEntity
  8
0
  6
Continuous
 62
     7
100
AcDbCircle
 10
40.00430000000005
 20
132.5000000000001
 30
0.0
 40
4.009999999999998
100
AcDbArc
 50
285.6531139999995
 51
297.8640439999996
  0
ARC
  5
488E
330
A
100
AcDbEntity
  8
0
  6
Continuous
 62
     7
100
AcDbCircle
 10
40.00430000000005
 20
132.5000000000001
 30
0.0
 40
4.009999999999998
100
AcDbArc
 50
274.0472100000055
 51
277.8611050000061
  0
ARC
  5
488F
330
A
100
AcDbEntity
  8
0
  6
Continuous
 62
     7
100
AcDbCircle
 10
40.00430000000005
 20
132.5000000000001
 30
0.0
 40
4.009999999999998
100
AcDbArc
 50
245.6468909999992
 51
257.8788450000004
  0
ARC
  5
4890
330
A
100
AcDbEntity
  8
0
  6
Continuous
 62
     7
100
AcDbCircle
 10
40.00430000000005
 20
132.5000000000001
 30
0.0
 40
4.009999999999998
100
AcDbArc
 50
225.6531139999959
 51
237.8640440000006
  0
ARC
  5
4891
330
A
100
AcDbEntity
  8
0
  6
Continuous
 62
     7
100
AcDbCircle
 10
40.00430000000005
 20
132.5000000000001
 30
0.0
 40
4.009999999999998
100
AcDbArc
 50
205.6598670000027
 51
217.8611050000038
  0
ARC
  5
4892
330
A
100
AcDbEntity
  8
0
  6
Continuous
 62
     7
100
AcDbCircle
 10
40.00430000000005
 20
132.5000000000001
 30
0.0
 40
4.009999999999998
100
AcDbArc
 50
185.646891
 51
197.8788450000008
  0
ARC
  5
4893
330
A
100
AcDbEntity
  8
0
  6
Continuous
 62
     7
100
AcDbCircle
 10
40.00430000000005
 20
132.5000000000001
 30
0.0
 40
4.009999999999998
100
AcDbArc
 50
165.6531140000007
 51
177.8640440000007
  0
ARC
  5
4894
330
A
100
AcDbEntity
  8
0
  6
Continuous
 62
     7
100
AcDbCircle
 10
40.00430000000005
 20
132.5000000000001
 30
0.0
 40
4.009999999999998
100
AcDbArc
 50
145.659866999999
 51
157.8611049999994
  0
ARC
  5
4895
330
A
100
AcDbEntity
  8
0
  6
Continuous
 62
     7
100
AcDbCircle
 10
40.00430000000005
 20
132.5000000000001
 30
0.0
 40
4.009999999999998
100
AcDbArc
 50
125.6468909999963
 51
137.8788449999967
  0
ARC
  5
4896
330
A
100
AcDbEntity
  8
0
  6
Continuous
 62
     7
100
AcDbCircle
 10
40.00430000000005
 20
132.5000000000001
 30
0.0
 40
4.009999999999998
100
AcDbArc
 50
105.6531139999994
 51
117.8640439999996
  0
ARC
  5
4897
330
A
100
AcDbEntity
  8
0
  6
Continuous
 62
     7
100
AcDbCircle
 10
40.00430000000005
 20
132.5000000000001
 30
0.0
 40
4.009999999999998
100
AcDbArc
 50
94.04721000000547
 51
97.8611050000061
  0
ARC
  5
4898
330
A
100
AcDbEntity
  8
0
  6
Continuous
 62
     7
100
AcDbCircle
 10
40.00430000000005
 20
132.5000000000001
 30
0.0
 40
4.009999999999998
100
AcDbArc
 50
65.64689099999923
 51
77.87884500000044
  0
ARC
  5
4899
330
A
100
AcDbEntity
  8
0
  6
Continuous
 62
     7
100
AcDbCircle
 10
40.00430000000005
 20
132.5000000000001
 30
0.0
 40
4.009999999999998
100
AcDbArc
 50
45.65311399999584
 51
57.86404400000056
  0
ARC
  5
489A
330
A
100
AcDbEntity
  8
0
  6
Continuous
 62
     7
100
AcDbCircle
 10
40.00430000000005
 20
132.5000000000001
 30
0.0
 40
4.009999999999998
100
AcDbArc
 50
25.6598670000027
 51
37.86110500000362
  0
ARC
  5
489B
330
A
100
AcDbEntity
  8
0
  6
Continuous
 62
     7
100
AcDbCircle
 10
40.00430000000005
 20
132.5000000000001
 30
0.0
 40
4.009999999999998
100
AcDbArc
 50
5.646890999999993
 51
17.87884500000081
  0
ARC
  5
489C
330
A
100
AcDbEntity
  8
0
  6
Continuous
 62
     7
100
AcDbCircle
 10
17.98412899999994
 20
120.4500000000001
 30
0.0
 40
0.5
100
AcDbArc
 50
270.0
 51
295.8419330000019
  0
ARC
  5
489D
330
A
100
AcDbEntity
  8
0
  6
Continuous
 62
     7
100
AcDbCircle
 10
8.024471000000175
 20
120.4500000000001
 30
0.0
 40
0.5
100
AcDbArc
 50
244.158066999998
 51
270.0
  0
LINE
  5
489E
330
A
100
AcDbEntity
  8
0
  6
Continuous
 62
     9
100
AcDbLine
 10
42.17075700000009
 20
41.00000000000017
 30
0.0
 11
42.17075700000009
 21
29.00000000000017
 31
0.0
  0
LINE
  5
489F
330
A
100
AcDbEntity
  8
0
  6
Continuous
 62
     9
100
AcDbLine
 10
41.68303000000014
 20
29.00000000000017
 30
0.0
 11
41.68303000000014
 21
41.00000000000017
 31
0.0
  0
LINE
  5
48A0
330
A
100
AcDbEntity
  8
0
  6
Continuous
 62
     7
100
AcDbLine
 10
42.17075700000009
 20
29.00000000000017
 30
0.0
 11
41.68303000000014
 21
29.00000000000017
 31
0.0
  0
LINE
  5
48A1
330
A
100
AcDbEntity
  8
0
  6
Continuous
 62
     7
100
AcDbLine
 10
41.68303000000014
 20
41.00000000000017
 30
0.0
 11
42.17075700000009
 21
41.00000000000017
 31
0.0
  0
LINE
  5
48A2
330
A
100
AcDbEntity
  8
0
  6
Continuous
 62
     9
100
AcDbLine
 10
38.32571600000006
 20
41.00000000000017
 30
0.0
 11
38.32571600000006
 21
29.00000000000017
 31
0.0
  0
LINE
  5
48A3
330
A
100
AcDbEntity
  8
0
  6
Continuous
 62
     9
100
AcDbLine
 10
37.83768200000009
 20
29.00000000000017
 30
0.0
 11
37.83768200000009
 21
41.00000000000017
 31
0.0
  0
LINE
  5
48A4
330
A
100
AcDbEntity
  8
0
  6
Continuous
 62
     7
100
AcDbLine
 10
38.32571600000006
 20
29.00000000000017
 30
0.0
 11
37.83768200000009
 21
29.00000000000017
 31
0.0
  0
LINE
  5
48A5
330
A
100
AcDbEntity
  8
0
  6
Continuous
 62
     7
100
AcDbLine
 10
37.83768200000009
 20
41.00000000000017
 30
0.0
 11
38.32571600000006
 21
41.00000000000017
 31
0.0
  0
LINE
  5
48A6
330
A
100
AcDbEntity
  8
0
  6
Continuous
 62
     7
100
AcDbLine
 10
48.50430000000006
 20
41.00000000000017
 30
0.0
 11
48.50430000000006
 21
29.00000000000017
 31
0.0
  0
LINE
  5
48A7
330
A
100
AcDbEntity
  8
0
  6
Continuous
 62
     7
100
AcDbLine
 10
48.50430000000006
 20
29.00000000000017
 30
0.0
 11
42.17075700000009
 21
29.00000000000017
 31
0.0
  0
LINE
  5
48A8
330
A
100
AcDbEntity
  8
0
  6
Continuous
 62
     7
100
AcDbLine
 10
48.50430000000006
 20
41.00000000000017
 30
0.0
 11
42.17075700000009
 21
41.00000000000017
 31
0.0
  0
LINE
  5
48A9
330
A
100
AcDbEntity
  8
0
  6
Continuous
 62
     9
100
AcDbLine
 10
26.65136300000018
 20
41.00000000000017
 30
0.0
 11
26.65136300000018
 21
29.00000000000017
 31
0.0
  0
LINE
  5
48AA
330
A
100
AcDbEntity
  8
0
  6
Continuous
 62
     7
100
AcDbLine
 10
37.83768200000009
 20
29.00000000000017
 30
0.0
 11
26.65136300000018
 21
29.00000000000017
 31
0.0
  0
LINE
  5
48AB
330
A
100
AcDbEntity
  8
0
  6
Continuous
 62
     7
100
AcDbLine
 10
37.83768200000009
 20
41.00000000000017
 30
0.0
 11
26.65136300000018
 21
41.00000000000017
 31
0.0
  0
LINE
  5
48AC
330
A
100
AcDbEntity
  8
0
  6
Continuous
 62
     7
100
AcDbLine
 10
38.32571600000006
 20
29.00000000000017
 30
0.0
 11
41.68303000000014
 21
29.00000000000017
 31
0.0
  0
LINE
  5
48AD
330
A
100
AcDbEntity
  8
0
  6
Continuous
 62
     7
100
AcDbLine
 10
38.32571600000006
 20
41.00000000000017
 30
0.0
 11
41.68303000000014
 21
41.00000000000017
 31
0.0
  0
LINE
  5
48AE
330
A
100
AcDbEntity
  8
0
  6
Continuous
 62
     7
100
AcDbLine
 10
26.58868499999994
 20
41.00000000000017
 30
0.0
 11
26.65136300000018
 21
41.00000000000017
 31
0.0
  0
LINE
  5
48AF
330
A
100
AcDbEntity
  8
0
  6
Continuous
 62
     7
100
AcDbLine
 10
26.65136300000018
 20
29.00000000000017
 30
0.0
 11
26.58868499999994
 21
29.00000000000017
 31
0.0
  0
LINE
  5
48B0
330
A
100
AcDbEntity
  8
0
  6
Continuous
 62
     7
100
AcDbLine
 10
26.58868499999994
 20
29.50000000000017
 30
0.0
 11
26.20929999999999
 21
29.50000000000017
 31
0.0
  0
LINE
  5
48B1
330
A
100
AcDbEntity
  8
0
  6
Continuous
 62
     7
100
AcDbLine
 10
26.20929999999999
 20
40.50000000000017
 30
0.0
 11
26.58868499999994
 21
40.50000000000017
 31
0.0
  0
LINE
  5
48B2
330
A
100
AcDbEntity
  8
0
  6
Continuous
 62
     9
100
AcDbLine
 10
48.25430000000006
 20
59.45000000000016
 30
0.0
 11
31.75430000000006
 21
59.45000000000016
 31
0.0
  0
LINE
  5
48B3
330
A
100
AcDbEntity
  8
0
  6
Continuous
 62
     7
100
AcDbLine
 10
47.65430000000015
 20
60.05000000000018
 30
0.0
 11
32.35429999999997
 21
60.05000000000018
 31
0.0
  0
LINE
  5
48B4
330
A
100
AcDbEntity
  8
0
  6
Continuous
 62
     7
100
AcDbLine
 10
26.20929999999999
 20
42.00000000000017
 30
0.0
 11
26.20929999999999
 21
28.00000000000017
 31
0.0
  0
LINE
  5
48B5
330
A
100
AcDbEntity
  8
0
  6
Continuous
 62
     7
100
AcDbLine
 10
35.30430000000001
 20
28.95000000000016
 30
0.0
 11
44.7043000000001
 21
28.95000000000016
 31
0.0
  0
LINE
  5
48B6
330
A
100
AcDbEntity
  8
0
  6
Continuous
 62
     7
100
AcDbLine
 10
44.7043000000001
 20
41.05000000000018
 30
0.0
 11
44.26309600000013
 21
41.05000000000018
 31
0.0
  0
LINE
  5
48B7
330
A
100
AcDbEntity
  8
0
  6
Continuous
 62
     7
100
AcDbLine
 10
44.26309600000013
 20
41.05000000000018
 30
0.0
 11
35.30430000000001
 21
41.05000000000018
 31
0.0
  0
LINE
  5
48B8
330
A
100
AcDbEntity
  8
0
  6
Continuous
 62
     7
100
AcDbLine
 10
60.50430000000005
 20
-7.499999999999829
 30
0.0
 11
60.50430000000005
 21
77.50000000000017
 31
0.0
  0
LINE
  5
48B9
330
A
100
AcDbEntity
  8
0
  6
Continuous
 62
     7
100
AcDbLine
 10
55.50430000000005
 20
-7.499999999999829
 30
0.0
 11
55.50430000000005
 21
77.50000000000017
 31
0.0
  0
LINE
  5
48BA
330
A
100
AcDbEntity
  8
0
  6
Continuous
 62
     7
100
AcDbLine
 10
60.50430000000005
 20
77.50000000000017
 30
0.0
 11
55.50430000000005
 21
77.50000000000017
 31
0.0
  0
LINE
  5
48BB
330
A
100
AcDbEntity
  8
0
  6
Continuous
 62
     7
100
AcDbLine
 10
60.50430000000005
 20
-7.499999999999829
 30
0.0
 11
55.50430000000005
 21
-7.499999999999829
 31
0.0
  0
LINE
  5
48BC
330
A
100
AcDbEntity
  8
0
  6
Continuous
 62
     9
100
AcDbLine
 10
54.00430000000006
 20
11.00000000000017
 30
0.0
 11
54.00430000000006
 21
59.00000000000017
 31
0.0
  0
LINE
  5
48BD
330
A
100
AcDbEntity
  8
0
  6
Continuous
 62
     7
100
AcDbLine
 10
54.00430000000006
 20
59.00000000000017
 30
0.0
 11
54.52861300000018
 21
59.00000000000017
 31
0.0
  0
LINE
  5
48CA
330
A
100
AcDbEntity
  8
0
  6
Continuous
 62
     7
100
AcDbLine
 10
55.29685300000005
 20
77.50000000000017
 30
0.0
 11
55.29685300000005
 21
60.00000000000017
 31
0.0
  0
LINE
  5
48CB
330
A
100
AcDbEntity
  8
0
  6
Continuous
 62
     7
100
AcDbLine
 10
55.29685300000005
 20
-7.499999999999829
 30
0.0
 11
55.29685300000005
 21
10.00000000000017
 31
0.0
  0
LINE
  5
48D7
330
A
100
AcDbEntity
  8
0
  6
Continuous
 62
     7
100
AcDbLine
 10
54.00430000000006
 20
11.00000000000017
 30
0.0
 11
54.52861300000018
 21
11.00000000000017
 31
0.0
  0
LINE
  5
48D8
330
A
100
AcDbEntity
  8
0
  6
Continuous
 62
     7
100
AcDbLine
 10
55.29685300000005
 20
77.50000000000017
 30
0.0
 11
55.50430000000005
 21
77.50000000000017
 31
0.0
  0
LINE
  5
48D9
330
A
100
AcDbEntity
  8
0
  6
Continuous
 62
     7
100
AcDbLine
 10
55.29685300000005
 20
-7.499999999999829
 30
0.0
 11
55.50430000000005
 21
-7.499999999999829
 31
0.0
  0
LINE
  5
48DA
330
A
100
AcDbEntity
  8
0
  6
Continuous
 62
     7
100
AcDbLine
 10
30.00430000000006
 20
28.90000000000015
 30
0.0
 11
41.00430000000005
 21
28.90000000000015
 31
0.0
  0
LINE
  5
48DB
330
A
100
AcDbEntity
  8
0
  6
Continuous
 62
     9
100
AcDbLine
 10
41.00430000000005
 20
11.00000000000017
 30
0.0
 11
41.00430000000005
 21
28.90000000000015
 31
0.0
  0
LINE
  5
48DC
330
A
100
AcDbEntity
  8
0
  6
Continuous
 62
     7
100
AcDbLine
 10
41.00430000000005
 20
11.00000000000017
 30
0.0
 11
30.00430000000006
 21
11.00000000000017
 31
0.0
  0
LINE
  5
48DD
330
A
100
AcDbEntity
  8
0
  6
Continuous
 62
     9
100
AcDbLine
 10
41.00430000000005
 20
41.10000000000019
 30
0.0
 11
41.00430000000005
 21
59.00000000000017
 31
0.0
  0
LINE
  5
48DE
330
A
100
AcDbEntity
  8
0
  6
Continuous
 62
     7
100
AcDbLine
 10
41.00430000000005
 20
41.10000000000019
 30
0.0
 11
30.00430000000006
 21
41.10000000000019
 31
0.0
  0
LINE
  5
48DF
330
A
100
AcDbEntity
  8
0
  6
Continuous
 62
     7
100
AcDbLine
 10
41.00430000000005
 20
59.00000000000017
 30
0.0
 11
30.00430000000006
 21
59.00000000000017
 31
0.0
  0
ARC
  5
48E0
330
A
100
AcDbEntity
  8
0
  6
Continuous
 62
     7
100
AcDbCircle
 10
46.80430000000001
 20
29.1000000000002
 30
0.0
 40
0.2
100
AcDbArc
 50
270.0
 51
330.0000000000028
  0
ARC
  5
48E1
330
A
100
AcDbEntity
  8
0
  6
Continuous
 62
     7
100
AcDbCircle
 10
46.80430000000001
 20
40.90000000000014
 30
0.0
 40
0.2
100
AcDbArc
 50
29.99999999999721
 51
90.0
  0
LINE
  5
48E2
330
A
100
AcDbEntity
  8
0
  6
Continuous
 62
     7
100
AcDbLine
 10
41.00430000000005
 20
28.90000000000015
 30
0.0
 11
46.80430000000001
 21
28.90000000000015
 31
0.0
  0
LINE
  5
48E3
330
A
100
AcDbEntity
  8
0
  6
Continuous
 62
     7
100
AcDbLine
 10
46.80430000000001
 20
41.10000000000019
 30
0.0
 11
41.00430000000005
 21
41.10000000000019
 31
0.0
  0
LINE
  5
48E4
330
A
100
AcDbEntity
  8
0
  6
Continuous
 62
     7
100
AcDbLine
 10
54.00430000000006
 20
11.00000000000017
 30
0.0
 11
41.00430000000005
 21
11.00000000000017
 31
0.0
  0
LINE
  5
48E5
330
A
100
AcDbEntity
  8
0
  6
Continuous
 62
     7
100
AcDbLine
 10
54.00430000000006
 20
59.00000000000017
 30
0.0
 11
41.00430000000005
 21
59.00000000000017
 31
0.0
  0
ARC
  5
48E6
330
A
100
AcDbEntity
  8
0
  6
Continuous
 62
     7
100
AcDbCircle
 10
-9.495699999999942
 20
77.50000000000017
 30
0.0
 40
7.5
100
AcDbArc
 50
90.0
 51
180.0
  0
LINE
  5
48E7
330
A
100
AcDbEntity
  8
0
  6
Continuous
 62
     9
100
AcDbLine
 10
-9.495699999999942
 20
85.00000000000017
 30
0.0
 11
-9.495699999999942
 21
81.00000000000017
 31
0.0
  0
ARC
  5
48E8
330
A
100
AcDbEntity
  8
0
  6
Continuous
 62
     9
100
AcDbCircle
 10
-9.495699999999942
 20
77.50000000000017
 30
0.0
 40
3.5
100
AcDbArc
 50
90.0
 51
180.0
  0
LINE
  5
48E9
330
A
100
AcDbEntity
  8
0
  6
Continuous
 62
     9
100
AcDbLine
 10
-16.99569999999994
 20
77.50000000000017
 30
0.0
 11
-12.99569999999994
 21
77.50000000000017
 31
0.0
  0
LINE
  5
48EA
330
A
100
AcDbEntity
  8
0
  6
Continuous
 62
     7
100
AcDbLine
 10
-16.99569999999994
 20
-7.499999999999829
 30
0.0
 11
-16.99569999999994
 21
77.50000000000017
 31
0.0
  0
LINE
  5
48EB
330
A
100
AcDbEntity
  8
0
  6
Continuous
 62
     9
100
AcDbLine
 10
-12.99569999999994
 20
77.50000000000017
 30
0.0
 11
-12.99569999999994
 21
-7.499999999999829
 31
0.0
  0
LINE
  5
48EC
330
A
100
AcDbEntity
  8
0
  6
Continuous
 62
     9
100
AcDbLine
 10
-16.99569999999994
 20
-7.499999999999829
 30
0.0
 11
-12.99569999999994
 21
-7.499999999999829
 31
0.0
  0
ARC
  5
48ED
330
A
100
AcDbEntity
  8
0
  6
Continuous
 62
     7
100
AcDbCircle
 10
-9.495699999999942
 20
-7.499999999999829
 30
0.0
 40
7.5
100
AcDbArc
 50
180.0
 51
270.0
  0
ARC
  5
48EE
330
A
100
AcDbEntity
  8
0
  6
Continuous
 62
     9
100
AcDbCircle
 10
-9.495699999999942
 20
-7.499999999999829
 30
0.0
 40
3.5
100
AcDbArc
 50
180.0
 51
270.0
  0
LINE
  5
48EF
330
A
100
AcDbEntity
  8
0
  6
Continuous
 62
     9
100
AcDbLine
 10
-9.495699999999942
 20
-14.99999999999983
 30
0.0
 11
-9.495699999999942
 21
-10.99999999999983
 31
0.0
  0
LINE
  5
48F0
330
A
100
AcDbEntity
  8
0
  6
Continuous
 62
     7
100
AcDbLine
 10
28.50430000000006
 20
42.00000000000017
 30
0.0
 11
28.50430000000006
 21
60.30000000000018
 31
0.0
  0
LINE
  5
48F1
330
A
100
AcDbEntity
  8
0
  6
Continuous
 62
     7
100
AcDbLine
 10
22.00430000000006
 20
42.00000000000017
 30
0.0
 11
28.50430000000006
 21
42.00000000000017
 31
0.0
  0
LINE
  5
48F2
330
A
100
AcDbEntity
  8
0
  6
Continuous
 62
     7
100
AcDbLine
 10
22.00430000000006
 20
28.00000000000017
 30
0.0
 11
22.00430000000006
 21
42.00000000000017
 31
0.0
  0
LINE
  5
48F3
330
A
100
AcDbEntity
  8
0
  6
Continuous
 62
     7
100
AcDbLine
 10
28.50430000000006
 20
28.00000000000017
 30
0.0
 11
22.00430000000006
 21
28.00000000000017
 31
0.0
  0
LINE
  5
48F4
330
A
100
AcDbEntity
  8
0
  6
Continuous
 62
     7
100
AcDbLine
 10
28.50430000000006
 20
9.700000000000159
 30
0.0
 11
28.50430000000006
 21
28.00000000000017
 31
0.0
  0
LINE
  5
48F5
330
A
100
AcDbEntity
  8
0
  6
Continuous
 62
     7
100
AcDbLine
 10
49.00430000000006
 20
9.700000000000159
 30
0.0
 11
28.50430000000006
 21
9.700000000000159
 31
0.0
  0
LINE
  5
48F6
330
A
100
AcDbEntity
  8
0
  6
Continuous
 62
     9
100
AcDbLine
 10
49.00430000000006
 20
-7.499999999999829
 30
0.0
 11
49.00430000000006
 21
9.700000000000159
 31
0.0
  0
ARC
  5
48F7
330
A
100
AcDbEntity
  8
0
  6
Continuous
 62
     9
100
AcDbCircle
 10
45.50430000000005
 20
-7.499999999999829
 30
0.0
 40
3.5
100
AcDbArc
 50
270.0
 51
0.0
  0
LINE
  5
48F8
330
A
100
AcDbEntity
  8
0
  6
Continuous
 62
     9
100
AcDbLine
 10
-9.495699999999942
 20
-10.99999999999983
 30
0.0
 11
45.50430000000005
 21
-10.99999999999983
 31
0.0
  0
LINE
  5
48F9
330
A
100
AcDbEntity
  8
0
  6
Continuous
 62
     9
100
AcDbLine
 10
45.50430000000005
 20
81.00000000000017
 30
0.0
 11
-9.495699999999942
 21
81.00000000000017
 31
0.0
  0
ARC
  5
48FA
330
A
100
AcDbEntity
  8
0
  6
Continuous
 62
     9
100
AcDbCircle
 10
45.50430000000005
 20
77.50000000000017
 30
0.0
 40
3.5
100
AcDbArc
 50
0.0
 51
90.0
  0
LINE
  5
48FB
330
A
100
AcDbEntity
  8
0
  6
Continuous
 62
     9
100
AcDbLine
 10
49.00430000000006
 20
60.30000000000018
 30
0.0
 11
49.00430000000006
 21
77.50000000000017
 31
0.0
  0
LINE
  5
48FC
330
A
100
AcDbEntity
  8
0
  6
Continuous
 62
     7
100
AcDbLine
 10
28.50430000000006
 20
60.30000000000018
 30
0.0
 11
49.00430000000006
 21
60.30000000000018
 31
0.0
  0
LINE
  5
48FD
330
A
100
AcDbEntity
  8
0
  6
Continuous
 62
     7
100
AcDbLine
 10
-9.495699999999942
 20
85.00000000000017
 30
0.0
 11
45.50430000000005
 21
85.00000000000017
 31
0.0
  0
LINE
  5
48FE
330
A
100
AcDbEntity
  8
0
  6
Continuous
 62
     9
100
AcDbLine
 10
45.50430000000005
 20
81.00000000000017
 30
0.0
 11
45.50430000000005
 21
85.00000000000017
 31
0.0
  0
LINE
  5
48FF
330
A
100
AcDbEntity
  8
0
  6
Continuous
 62
     7
100
AcDbLine
 10
45.50430000000005
 20
-14.99999999999983
 30
0.0
 11
-9.495699999999942
 21
-14.99999999999983
 31
0.0
  0
LINE
  5
4900
330
A
100
AcDbEntity
  8
0
  6
Continuous
 62
     9
100
AcDbLine
 10
45.50430000000005
 20
-14.99999999999983
 30
0.0
 11
45.50430000000005
 21
-10.99999999999983
 31
0.0
  0
ARC
  5
4901
330
A
100
AcDbEntity
  8
0
  6
Continuous
 62
     7
100
AcDbCircle
 10
45.50430000000005
 20
77.50000000000017
 30
0.0
 40
7.5
100
AcDbArc
 50
0.0
 51
90.0
  0
LINE
  5
4902
330
A
100
AcDbEntity
  8
0
  6
Continuous
 62
     9
100
AcDbLine
 10
49.00430000000006
 20
77.50000000000017
 30
0.0
 11
53.00430000000005
 21
77.50000000000017
 31
0.0
  0
ARC
  5
4903
330
A
100
AcDbEntity
  8
0
  6
Continuous
 62
     7
100
AcDbCircle
 10
45.50430000000005
 20
-7.499999999999829
 30
0.0
 40
7.5
100
AcDbArc
 50
270.0
 51
0.0
  0
LINE
  5
4904
330
A
100
AcDbEntity
  8
0
  6
Continuous
 62
     9
100
AcDbLine
 10
53.00430000000005
 20
-7.499999999999829
 30
0.0
 11
49.00430000000006
 21
-7.499999999999829
 31
0.0
  0
LINE
  5
4905
330
A
100
AcDbEntity
  8
0
  6
Continuous
 62
     7
100
AcDbLine
 10
53.00430000000005
 20
77.50000000000017
 30
0.0
 11
53.00430000000005
 21
60.30000000000018
 31
0.0
  0
LINE
  5
4906
330
A
100
AcDbEntity
  8
0
  6
Continuous
 62
     7
100
AcDbLine
 10
53.00430000000005
 20
60.30000000000018
 30
0.0
 11
49.00430000000006
 21
60.30000000000018
 31
0.0
  0
LINE
  5
4907
330
A
100
AcDbEntity
  8
0
  6
Continuous
 62
     7
100
AcDbLine
 10
53.00430000000005
 20
9.700000000000159
 30
0.0
 11
53.00430000000005
 21
-7.499999999999829
 31
0.0
  0
LINE
  5
4908
330
A
100
AcDbEntity
  8
0
  6
Continuous
 62
     7
100
AcDbLine
 10
49.00430000000006
 20
9.700000000000159
 30
0.0
 11
53.00430000000005
 21
9.700000000000159
 31
0.0
  0
LINE
  5
4909
330
A
100
AcDbEntity
  8
0
  6
Continuous
 62
     9
100
AcDbLine
 10
31.75430000000006
 20
10.55000000000018
 30
0.0
 11
42.86743999999998
 21
10.55000000000018
 31
0.0
  0
LINE
  5
490A
330
A
100
AcDbEntity
  8
0
  6
Continuous
 62
     7
100
AcDbLine
 10
32.35429999999997
 20
9.950000000000159
 30
0.0
 11
42.65921099999991
 21
9.950000000000159
 31
0.0
  0
LINE
  5
490B
330
A
100
AcDbEntity
  8
0
  6
Continuous
 62
     7
100
AcDbLine
 10
42.65921099999991
 20
9.950000000000159
 30
0.0
 11
47.65430000000015
 21
9.950000000000159
 31
0.0
  0
LINE
  5
490C
330
A
100
AcDbEntity
  8
0
  6
Continuous
 62
     9
100
AcDbLine
 10
42.86743999999998
 20
10.55000000000018
 30
0.0
 11
48.25430000000006
 21
10.55000000000018
 31
0.0
  0
LINE
  5
490D
330
A
100
AcDbEntity
  8
0
  6
Continuous
 62
     7
100
AcDbLine
 10
48.25430000000006
 20
59.00000000000017
 30
0.0
 11
48.25430000000006
 21
59.45000000000016
 31
0.0
  0
LINE
  5
490E
330
A
100
AcDbEntity
  8
0
  6
Continuous
 62
     7
100
AcDbLine
 10
31.75430000000006
 20
59.45000000000016
 30
0.0
 11
31.75430000000006
 21
59.00000000000017
 31
0.0
  0
ARC
  5
490F
330
A
100
AcDbEntity
  8
0
  6
Continuous
 62
     7
100
AcDbCircle
 10
47.65430000000015
 20
59.45000000000016
 30
0.0
 40
0.6
100
AcDbArc
 50
0.0
 51
90.0
  0
ARC
  5
4910
330
A
100
AcDbEntity
  8
0
  6
Continuous
 62
     7
100
AcDbCircle
 10
32.35429999999997
 20
59.45000000000016
 30
0.0
 40
0.6
100
AcDbArc
 50
90.0
 51
180.0
  0
LINE
  5
4911
330
A
100
AcDbEntity
  8
0
  6
Continuous
 62
     7
100
AcDbLine
 10
44.75430000000005
 20
28.90000000000015
 30
0.0
 11
44.7043000000001
 21
28.95000000000016
 31
0.0
  0
LINE
  5
4912
330
A
100
AcDbEntity
  8
0
  6
Continuous
 62
     7
100
AcDbLine
 10
35.30430000000001
 20
28.95000000000016
 30
0.0
 11
35.25430000000006
 21
28.90000000000015
 31
0.0
  0
LINE
  5
4913
330
A
100
AcDbEntity
  8
0
  6
Continuous
 62
     7
100
AcDbLine
 10
35.25430000000006
 20
41.10000000000019
 30
0.0
 11
35.30430000000001
 21
41.05000000000018
 31
0.0
  0
LINE
  5
4914
330
A
100
AcDbEntity
  8
0
  6
Continuous
 62
     7
100
AcDbLine
 10
44.7043000000001
 20
41.05000000000018
 30
0.0
 11
44.75430000000005
 21
41.10000000000019
 31
0.0
  0
LINE
  5
4915
330
A
100
AcDbEntity
  8
0
  6
Continuous
 62
     7
100
AcDbLine
 10
30.00430000000006
 20
28.90000000000015
 30
0.0
 11
30.00430000000006
 21
11.00000000000017
 31
0.0
  0
LINE
  5
4916
330
A
100
AcDbEntity
  8
0
  6
Continuous
 62
     7
100
AcDbLine
 10
30.00430000000006
 20
59.00000000000017
 30
0.0
 11
30.00430000000006
 21
41.10000000000019
 31
0.0
  0
LINE
  5
4917
330
A
100
AcDbEntity
  8
0
  6
Continuous
 62
     7
100
AcDbLine
 10
44.00430000000006
 20
9.700000000000159
 30
0.0
 11
44.00430000000006
 21
9.950000000000159
 31
0.0
  0
LINE
  5
4918
330
A
100
AcDbEntity
  8
0
  6
Continuous
 62
     7
100
AcDbLine
 10
44.00430000000006
 20
28.95000000000016
 30
0.0
 11
44.00430000000006
 21
29.00000000000017
 31
0.0
  0
LINE
  5
4919
330
A
100
AcDbEntity
  8
0
  6
Continuous
 62
     7
100
AcDbLine
 10
44.00430000000006
 20
41.00000000000017
 30
0.0
 11
44.00430000000006
 21
41.05000000000018
 31
0.0
  0
LINE
  5
491A
330
A
100
AcDbEntity
  8
0
  6
Continuous
 62
     7
100
AcDbLine
 10
44.00430000000006
 20
60.05000000000018
 30
0.0
 11
44.00430000000006
 21
60.30000000000018
 31
0.0
  0
LINE
  5
491B
330
A
100
AcDbEntity
  8
0
  6
Continuous
 62
     7
100
AcDbLine
 10
36.00430000000006
 20
60.30000000000018
 30
0.0
 11
36.00430000000006
 21
60.05000000000018
 31
0.0
  0
LINE
  5
491C
330
A
100
AcDbEntity
  8
0
  6
Continuous
 62
     7
100
AcDbLine
 10
36.00430000000006
 20
41.05000000000018
 30
0.0
 11
36.00430000000006
 21
41.00000000000017
 31
0.0
  0
LINE
  5
491D
330
A
100
AcDbEntity
  8
0
  6
Continuous
 62
     7
100
AcDbLine
 10
36.00430000000006
 20
29.00000000000017
 30
0.0
 11
36.00430000000006
 21
28.95000000000016
 31
0.0
  0
LINE
  5
491E
330
A
100
AcDbEntity
  8
0
  6
Continuous
 62
     7
100
AcDbLine
 10
36.00430000000006
 20
9.950000000000159
 30
0.0
 11
36.00430000000006
 21
9.700000000000159
 31
0.0
  0
ARC
  5
491F
330
A
100
AcDbEntity
  8
0
  6
Continuous
 62
     7
100
AcDbCircle
 10
32.35429999999997
 20
10.55000000000018
 30
0.0
 40
0.6
100
AcDbArc
 50
180.0
 51
270.0
  0
ARC
  5
4920
330
A
100
AcDbEntity
  8
0
  6
Continuous
 62
     7
100
AcDbCircle
 10
47.65430000000015
 20
10.55000000000018
 30
0.0
 40
0.6
100
AcDbArc
 50
270.0
 51
0.0
  0
LINE
  5
4921
330
A
100
AcDbEntity
  8
0
  6
Continuous
 62
     7
100
AcDbLine
 10
31.75430000000006
 20
11.00000000000017
 30
0.0
 11
31.75430000000006
 21
10.55000000000018
 31
0.0
  0
LINE
  5
4922
330
A
100
AcDbEntity
  8
0
  6
Continuous
 62
     7
100
AcDbLine
 10
48.25430000000006
 20
10.55000000000018
 30
0.0
 11
48.25430000000006
 21
11.00000000000017
 31
0.0
  0
ARC
  5
7082
330
A
100
AcDbEntity
  8
0
  6
Continuous
 62
     7
100
AcDbCircle
 10
123.2692926219072
 20
-94.34842460760691
 30
0.0
 40
2.48359628078496
100
AcDbArc
 50
283.9699743382437
 51
302.7774943782694
  0
LINE
  5
7083
330
A
100
AcDbEntity
  8
0
  6
Continuous
 62
     7
100
AcDbLine
 10
124.613857
 20
-96.43658099999985
 30
0.0
 11
124.7600179999999
 21
-96.32542599999982
 31
0.0
  0
LINE
  5
7084
330
A
100
AcDbEntity
  8
0
  6
Continuous
 62
     7
100
AcDbLine
 10
124.7600179999999
 20
-96.32542599999982
 30
0.0
 11
124.8760019999999
 21
-96.21445599999985
 31
0.0
  0
LINE
  5
7085
330
A
100
AcDbEntity
  8
0
  6
Continuous
 62
     7
100
AcDbLine
 10
124.8760019999999
 20
-96.21445599999985
 30
0.0
 11
124.9681890000001
 21
-96.10404799999983
 31
0.0
  0
LINE
  5
7086
330
A
100
AcDbEntity
  8
0
  6
Continuous
 62
     7
100
AcDbLine
 10
124.9681890000001
 20
-96.10404799999983
 30
0.0
 11
125.0415460000001
 21
-95.99342199999984
 31
0.0
  0
LINE
  5
7087
330
A
100
AcDbEntity
  8
0
  6
Continuous
 62
     7
100
AcDbLine
 10
125.0415460000001
 20
-95.99342199999984
 30
0.0
 11
125.1018970000002
 21
-95.87562499999984
 31
0.0
  0
LINE
  5
7088
330
A
100
AcDbEntity
  8
0
  6
Continuous
 62
     7
100
AcDbLine
 10
125.1018970000002
 20
-95.87562499999984
 30
0.0
 11
125.148181
 21
-95.75132699999983
 31
0.0
  0
LINE
  5
7089
330
A
100
AcDbEntity
  8
0
  6
Continuous
 62
     7
100
AcDbLine
 10
125.148181
 20
-95.75132699999983
 30
0.0
 11
125.1782250000001
 21
-95.62754999999985
 31
0.0
  0
LINE
  5
708A
330
A
100
AcDbEntity
  8
0
  6
Continuous
 62
     7
100
AcDbLine
 10
125.1782250000001
 20
-95.62754999999985
 30
0.0
 11
125.193256
 21
-95.50447699999983
 31
0.0
  0
LINE
  5
708B
330
A
100
AcDbEntity
  8
0
  6
Continuous
 62
     7
100
AcDbLine
 10
125.193256
 20
-95.50447699999983
 30
0.0
 11
125.1954130000001
 21
-95.43664399999983
 31
0.0
  0
LINE
  5
708C
330
A
100
AcDbEntity
  8
0
  6
Continuous
 62
     7
100
AcDbLine
 10
54.52861300000018
 20
11.00000000000017
 30
0.0
 11
54.65974000000006
 21
10.99025500000016
 31
0.0
  0
LINE
  5
708D
330
A
100
AcDbEntity
  8
0
  6
Continuous
 62
     7
100
AcDbLine
 10
54.65974000000006
 20
10.99025500000016
 30
0.0
 11
54.78605900000002
 21
10.95936500000016
 31
0.0
  0
LINE
  5
708E
330
A
100
AcDbEntity
  8
0
  6
Continuous
 62
     7
100
AcDbLine
 10
54.78605900000002
 20
10.95936500000016
 30
0.0
 11
54.89769200000001
 21
10.90901800000017
 31
0.0
  0
LINE
  5
708F
330
A
100
AcDbEntity
  8
0
  6
Continuous
 62
     7
100
AcDbLine
 10
54.89769200000001
 20
10.90901800000017
 30
0.0
 11
54.99731100000008
 21
10.83862600000014
 31
0.0
  0
LINE
  5
7090
330
A
100
AcDbEntity
  8
0
  6
Continuous
 62
     7
100
AcDbLine
 10
54.99731100000008
 20
10.83862600000014
 30
0.0
 11
55.08194900000012
 21
10.75074100000017
 31
0.0
  0
LINE
  5
7091
330
A
100
AcDbEntity
  8
0
  6
Continuous
 62
     7
100
AcDbLine
 10
55.08194900000012
 20
10.75074100000017
 30
0.0
 11
55.15298600000005
 21
10.64493900000019
 31
0.0
  0
LINE
  5
7092
330
A
100
AcDbEntity
  8
0
  6
Continuous
 62
     7
100
AcDbLine
 10
55.15298600000005
 20
10.64493900000019
 30
0.0
 11
55.19959900000003
 21
10.54845300000013
 31
0.0
  0
ARC
  5
7093
330
A
100
AcDbEntity
  8
0
  6
Continuous
 62
     7
100
AcDbCircle
 10
53.85597427290509
 20
10.02734654954508
 30
0.0
 40
1.441138209876551
100
AcDbArc
 50
358.912709476474
 51
21.19810089023005
  0
ARC
  5
7094
330
A
100
AcDbEntity
  8
0
  6
Continuous
 62
     7
100
AcDbCircle
 10
53.82276559359297
 20
59.98019500430155
 30
0.0
 40
1.474220444703994
100
AcDbArc
 50
338.1949371676735
 51
0.7697470255313496
  0
LINE
  5
7095
330
A
100
AcDbEntity
  8
0
  6
Continuous
 62
     7
100
AcDbLine
 10
55.19151000000011
 20
59.43259600000016
 30
0.0
 11
55.14175399999999
 21
59.33562500000016
 31
0.0
  0
LINE
  5
7096
330
A
100
AcDbEntity
  8
0
  6
Continuous
 62
     7
100
AcDbLine
 10
55.14175399999999
 20
59.33562500000016
 30
0.0
 11
55.07999500000005
 21
59.24683900000019
 31
0.0
  0
LINE
  5
7097
330
A
100
AcDbEntity
  8
0
  6
Continuous
 62
     7
100
AcDbLine
 10
55.07999500000005
 20
59.24683900000019
 30
0.0
 11
55.00520600000005
 21
59.16829300000017
 31
0.0
  0
LINE
  5
7098
330
A
100
AcDbEntity
  8
0
  6
Continuous
 62
     7
100
AcDbLine
 10
55.00520600000005
 20
59.16829300000017
 30
0.0
 11
54.9231850000001
 21
59.10632900000019
 31
0.0
  0
LINE
  5
7099
330
A
100
AcDbEntity
  8
0
  6
Continuous
 62
     7
100
AcDbLine
 10
54.9231850000001
 20
59.10632900000019
 30
0.0
 11
54.82854700000007
 21
59.0568600000002
 31
0.0
  0
LINE
  5
709A
330
A
100
AcDbEntity
  8
0
  6
Continuous
 62
     7
100
AcDbLine
 10
54.82854700000007
 20
59.0568600000002
 30
0.0
 11
54.72269499999993
 21
59.02216000000016
 31
0.0
  0
LINE
  5
709B
330
A
100
AcDbEntity
  8
0
  6
Continuous
 62
     7
100
AcDbLine
 10
54.72269499999993
 20
59.02216000000016
 30
0.0
 11
54.60895400000004
 21
59.00356200000016
 31
0.0
  0
LINE
  5
709C
330
A
100
AcDbEntity
  8
0
  6
Continuous
 62
     7
100
AcDbLine
 10
54.60895400000004
 20
59.00356200000016
 30
0.0
 11
54.52861300000018
 21
59.00000000000017
 31
0.0
  0
LINE
  5
733A
330
A
100
AcDbEntity
  8
0
  6
CENTER
 62
     1
100
AcDbLine
 10
-84.64570000000003
 20
35.00000000000017
 30
0.0
 11
-75.34569999999985
 21
35.00000000000017
 31
0.0
  0
LINE
  5
733B
330
A
100
AcDbEntity
  8
0
  6
CENTER
 62
     1
100
AcDbLine
 10
-79.99569999999994
 20
30.3500000000002
 30
0.0
 11
-79.99569999999994
 21
39.65000000000015
 31
0.0
  0
LINE
  5
733C
330
A
100
AcDbEntity
  8
0
  6
CENTER
 62
     1
100
AcDbLine
 10
-71.14570000000004
 20
35.00000100000017
 30
0.0
 11
-61.84569999999985
 21
35.00000100000017
 31
0.0
  0
LINE
  5
7345
330
A
100
AcDbEntity
  8
0
  6
CENTER
 62
     1
100
AcDbLine
 10
-66.49569999999994
 20
30.35000100000019
 30
0.0
 11
-66.49569999999994
 21
39.65000100000015
 31
0.0
  0
LINE
  5
7BE3
330
A
100
AcDbEntity
  8
0
  6
CENTER
 62
     1
100
AcDbLine
 10
53.0
 20
73.49999999999994
 30
0.0
 11
12.35920709430775
 21
73.49999999999994
 31
0.0
  0
LINE
  5
7BE4
330
A
100
AcDbEntity
  8
0
  6
CENTER
 62
     1
100
AcDbLine
 10
-10.0
 20
0.0000000000001705
 30
0.0
 11
-10.0
 21
70.00000000000017
 31
0.0
  0
LINE
  5
7BE5
330
A
100
AcDbEntity
  8
0
  6
CENTER
 62
     1
100
AcDbLine
 10
-15.0
 20
70.00000000000017
 30
0.0
 11
15.0
 21
70.00000000000017
 31
0.0
  0
LINE
  5
7BE6
330
A
100
AcDbEntity
  8
0
  6
CENTER
 62
     1
100
AcDbLine
 10
0.0
 20
55.00000000000017
 30
0.0
 11
0.0
 21
85.00000000000005
 31
0.0
  0
LINE
  5
7BE7
330
A
100
AcDbEntity
  8
0
  6
CENTER
 62
     1
100
AcDbLine
 10
-15.0
 20
0.0000000000001705
 30
0.0
 11
15.0
 21
0.0000000000001705
 31
0.0
  0
LINE
  5
7BE8
330
A
100
AcDbEntity
  8
0
  6
CENTER
 62
     1
100
AcDbLine
 10
0.0
 20
-14.99999999999994
 30
0.0
 11
0.0
 21
14.99999999999994
 31
0.0
  0
ARC
  5
7BE9
330
A
100
AcDbEntity
  8
0
  6
CENTER
 62
     1
100
AcDbCircle
 10
0.0
 20
70.00000000000017
 30
0.0
 40
10.0
100
AcDbArc
 50
34.51810784105827
 51
180.0
  0
ARC
  5
7BEA
330
A
100
AcDbEntity
  8
0
  6
CENTER
 62
     1
100
AcDbCircle
 10
12.35920709430775
 20
78.49999999999994
 30
0.0
 40
5.0
100
AcDbArc
 50
214.5181078410582
 51
270.0
  0
LINE
  5
7BEB
330
A
100
AcDbEntity
  8
0
  6
CENTER
 62
     1
100
AcDbLine
 10
53.0
 20
-3.499999999999715
 30
0.0
 11
12.35920709430775
 21
-3.499999999999715
 31
0.0
  0
ARC
  5
7BEC
330
A
100
AcDbEntity
  8
0
  6
CENTER
 62
     1
100
AcDbCircle
 10
12.35920709430775
 20
-8.499999999999715
 30
0.0
 40
5.0
100
AcDbArc
 50
90.0
 51
145.4818921589432
  0
ARC
  5
7BED
330
A
100
AcDbEntity
  8
0
  6
CENTER
 62
     1
100
AcDbCircle
 10
0.0
 20
0.0000000000001705
 30
0.0
 40
10.0
100
AcDbArc
 50
180.0
 51
325.4818921589432
  0
TEXT
  5
842B
330
A
100
AcDbEntity
  8
0
  6
Continuous
 62
     7
370
     0
100
AcDbText
 10
80.07540313616392
 20
143.3587256442168
 30
0.0
 40
10.0
  1
8700
100
AcDbText
  0
ENDSEC
  0
SECTION
  2
OBJECTS
  0
DICTIONARY
  5
19
330
0
100
AcDbDictionary
281
     1
  3
ACAD_COLOR
350
3988
  3
ACAD_GROUP
350
1A
  3
ACAD_LAYOUT
350
1E
  3
ACAD_MATERIAL
350
395E
  3
ACAD_MLEADERSTYLE
350
39AD
  3
ACAD_MLINESTYLE
350
1B
  3
ACAD_PLOTSETTINGS
350
22
  3
ACAD_PLOTSTYLENAME
350
1F
  3
ACAD_SCALELIST
350
398B
  3
ACAD_TABLESTYLE
350
3989
  3
ACAD_VISUALSTYLE
350
3977
  3
ACAD_WIPEOUT_VARS
350
23
  3
ACDB_RECOMPOSE_DATA
350
72EC
  3
AcDbVariableDictionary
350
72CB
  3
ASE_INDEX_DICTIONARY
350
72C6
  3
DWGPROPS
350
84AE
  0
DICTIONARY
  5
72C9
330
14
100
AcDbDictionary
280
     1
281
     1
  3
ADSK_XREC_LAYER_RECONCILED
360
72CA
  0
DICTIONARY
  5
39B7
330
A
100
AcDbDictionary
280
     1
281
     1
  3
ACAD_SORTENTS
360
39B8
  0
DICTIONARY
  5
3988
102
{ACAD_REACTORS
330
19
102
}
330
19
100
AcDbDictionary
281
     1
  0
DICTIONARY
  5
1A
102
{ACAD_REACTORS
330
19
102
}
330
19
100
AcDbDictionary
281
     1
  0
DICTIONARY
  5
1E
102
{ACAD_REACTORS
330
19
102
}
330
19
100
AcDbDictionary
281
     1
  3
Layout1
350
21
  3
Model
350
20
  0
DICTIONARY
  5
395E
102
{ACAD_REACTORS
330
19
102
}
330
19
100
AcDbDictionary
281
     1
  3
ByBlock
350
3967
  3
ByLayer
350
395F
  3
Global
350
396F
  0
DICTIONARY
  5
39AD
102
{ACAD_REACTORS
330
19
102
}
330
19
100
AcDbDictionary
281
     1
  3
Standard
350
39AE
  0
DICTIONARY
  5
1B
102
{ACAD_REACTORS
330
19
102
}
330
19
100
AcDbDictionary
281
     1
  3
Standard
350
1C
  0
DICTIONARY
  5
22
102
{ACAD_REACTORS
330
19
102
}
330
19
100
AcDbDictionary
281
     1
  0
ACDBDICTIONARYWDFLT
  5
1F
102
{ACAD_REACTORS
330
19
102
}
330
19
100
AcDbDictionary
281
     1
  3
Normal
350
1D
100
AcDbDictionaryWithDefault
340
1D
  0
DICTIONARY
  5
398B
102
{ACAD_REACTORS
330
19
102
}
330
19
100
AcDbDictionary
281
     1
  3
A0
350
398C
  3
A1
350
398D
  3
A2
350
398E
  3
A3
350
398F
  3
A4
350
3990
  3
A5
350
3991
  3
A6
350
3992
  3
A7
350
3993
  3
A8
350
3994
  3
A9
350
3995
  3
B0
350
3996
  3
B1
350
3997
  3
B2
350
3998
  3
B3
350
3999
  3
B4
350
399A
  3
B5
350
399B
  3
B6
350
399C
  3
B7
350
399D
  3
B8
350
399E
  3
B9
350
399F
  3
C0
350
39A0
  3
C1
350
39A1
  3
C2
350
39A2
  3
C3
350
39A3
  3
C4
350
39A4
  3
C5
350
39A5
  3
C6
350
39A6
  3
C7
350
39A7
  3
C8
350
39A8
  3
C9
350
39A9
  3
D0
350
39AA
  3
D1
350
39AB
  3
D2
350
39AC
  0
DICTIONARY
  5
3989
102
{ACAD_REACTORS
330
19
102
}
330
19
100
AcDbDictionary
281
     1
  3
Standard
350
398A
  0
DICTIONARY
  5
3977
102
{ACAD_REACTORS
330
19
102
}
330
19
100
AcDbDictionary
281
     1
  3
2dWireframe
350
397D
  3
3D Hidden
350
397F
  3
3dWireframe
350
397E
  3
Basic
350
397C
  3
Brighten
350
3983
  3
ColorChange
350
3987
  3
Conceptual
350
3980
  3
Dim
350
3982
  3
Facepattern
350
3986
  3
Flat
350
3978
  3
FlatWithEdges
350
3979
  3
Gouraud
350
397A
  3
GouraudWithEdges
350
397B
  3
Linepattern
350
3985
  3
Realistic
350
3981
  3
Thicken
350
3984
  0
WIPEOUTVARIABLES
  5
23
330
19
100
AcDbWipeoutVariables
 70
     1
  0
XRECORD
  5
72EC
102
{ACAD_REACTORS
330
19
102
}
330
19
100
AcDbXrecord
280
     1
 90
        1
330
398A
  0
DICTIONARY
  5
72CB
102
{ACAD_REACTORS
330
19
102
}
330
19
100
AcDbDictionary
281
     1
  3
CANNOSCALE
350
72CE
  3
CMLEADERSTYLE
350
72CD
  3
CTABLESTYLE
350
72CC
  3
DIMASSOC
350
72D1
  3
INDEXCTL
350
72D0
  3
SORTENTS
350
72CF
  0
DICTIONARY
  5
72C6
102
{ACAD_REACTORS
330
19
102
}
330
19
100
AcDbDictionary
281
     1
  3
ASEBlockHierarchyIndexRecord
350
72C8
1001
DCO15
1040
1687090590.691
  0
XRECORD
  5
84AE
102
{ACAD_REACTORS
330
19
102
}
330
19
100
AcDbXrecord
280
     1
  1
DWGPROPS COOKIE
  2

  3

  4

  6

  7

  8
renzo.ceresoli
  9

300
=
301
=
302
=
303
=
304
=
305
=
306
=
307
=
308
=
309
=
 40
0.0293230324074074
 41
2455329.702198484
 42
2455383.401302408
  1

 90
        0
  0
XRECORD
  5
72CA
102
{ACAD_REACTORS
330
72C9
102
}
330
72C9
100
AcDbXrecord
280
     1
290
     1
  0
SORTENTSTABLE
  5
39B8
102
{ACAD_REACTORS
330
39B7
102
}
330
39B7
100
AcDbSortentsTable
330
A
331
4758
  5
6162
331
45C1
  5
63D4
331
45F4
  5
6423
331
48B5
  5
5F92
331
48E8
  5
5FB0
331
47AB
  5
6039
331
47D6
  5
6064
331
4809
  5
6097
331
4647
  5
6270
331
4672
  5
629B
331
46A5
  5
61AB
331
4506
  5
62F3
331
4539
  5
6326
331
4593
  5
63A6
331
4854
  5
60EA
331
4887
  5
611D
331
46F0
  5
61F6
331
4723
  5
6229
331
2D9E
  5
6451
331
477D
  5
6187
331
47B0
  5
603E
331
4619
  5
6242
331
464C
  5
6275
331
44E0
  5
62CD
331
48DA
  5
5FA2
331
490D
  5
5FD5
331
47FB
  5
6089
331
482E
  5
60BC
331
4697
  5
62C0
331
46CA
  5
61D0
331
452B
  5
6318
331
455E
  5
6366
331
2DA3
  5
645A
331
4585
  5
6398
331
45B8
  5
63CB
331
45E3
  5
641E
331
4879
  5
610F
331
48AC
  5
5F89
331
4715
  5
621B
331
4748
  5
6152
331
476F
  5
6179
331
47A2
  5
5FF0
331
47CD
  5
605B
331
463E
  5
6267
331
4669
  5
6292
331
44FD
  5
62EA
331
4530
  5
631D
331
458A
  5
639D
331
48FF
  5
5FC7
331
4820
  5
60AE
331
484B
  5
60E1
331
46BC
  5
61C2
331
46E7
  5
61ED
331
471A
  5
6220
331
2D95
  5
6444
331
4774
  5
617E
331
45DD
  5
6418
331
4610
  5
6239
331
489E
  5
5F7B
331
4904
  5
5FCC
331
47C7
  5
6055
331
47F2
  5
6080
331
468E
  5
62B7
331
46C1
  5
61C7
331
4522
  5
630F
331
4555
  5
6349
331
457C
  5
638F
331
45AF
  5
63C2
331
4870
  5
6106
331
48A3
  5
5F80
331
470C
  5
6212
331
473F
  5
6149
331
4766
  5
6170
331
4799
  5
61A3
331
4602
  5
6431
331
4635
  5
625E
331
4660
  5
6289
331
44F4
  5
62E1
331
48F6
  5
5FBE
331
47E4
  5
6072
331
4817
  5
60A5
331
4842
  5
60D8
331
46B3
  5
61B9
331
46DE
  5
61E4
331
4547
  5
6334
331
2D8C
  5
643B
331
45A1
  5
63B4
331
45D4
  5
640F
331
4895
  5
612B
331
4731
  5
613B
331
478B
  5
6195
331
47BE
  5
604C
331
47E9
  5
6077
331
4627
  5
6250
331
465A
  5
6283
331
4685
  5
62AE
331
44EE
  5
62DB
331
4519
  5
6306
331
4573
  5
6386
331
491B
  5
5FE3
331
483C
  5
60D2
331
4867
  5
60FD
331
4703
  5
6209
331
475D
  5
6167
331
4790
  5
619A
331
45C6
  5
63D9
331
45F9
  5
6428
331
462C
  5
6255
331
48ED
  5
5FB5
331
4920
  5
5FE8
331
47DB
  5
6069
331
480E
  5
609C
331
4677
  5
62A0
331
46AA
  5
61B0
331
450B
  5
62F8
331
453E
  5
632B
331
4598
  5
63AB
331
45CB
  5
63F2
331
4859
  5
60EF
331
488C
  5
6122
331
46F5
  5
61FB
331
4728
  5
622E
331
4782
  5
618C
331
47B5
  5
6043
331
461E
  5
6247
331
4651
  5
627A
331
44E5
  5
62D2
331
4510
  5
62FD
331
456A
  5
637D
331
48DF
  5
5FA7
331
4912
  5
5FDA
331
4800
  5
608E
331
4833
  5
60C1
331
469C
  5
62C5
331
46CF
  5
61D5
331
46FA
  5
6200
331
4563
  5
6376
331
4754
  5
615E
331
45BD
  5
63D0
331
487E
  5
6114
331
48B1
  5
5F8E
331
48E4
  5
5FAC
331
474D
  5
6157
331
47A7
  5
6011
331
47D2
  5
6060
331
4643
  5
626C
331
466E
  5
6297
331
46A1
  5
61A7
331
4502
  5
62EF
331
4535
  5
6322
331
458F
  5
63A2
331
4825
  5
60B3
331
4850
  5
60E6
331
4883
  5
6119
331
46EC
  5
61F2
331
471F
  5
6225
331
2D9A
  5
644D
331
4779
  5
6183
331
4615
  5
623E
331
4648
  5
6271
331
4909
  5
5FD1
331
47F7
  5
6085
331
482A
  5
60B8
331
4693
  5
62BC
331
46C6
  5
61CC
331
4527
  5
6314
331
455A
  5
6358
331
4581
  5
6394
331
45B4
  5
63C7
331
4875
  5
610B
331
48A8
  5
5F85
331
4711
  5
6217
331
4744
  5
614E
331
476B
  5
6175
331
479E
  5
5FEC
331
47C9
  5
6057
331
4607
  5
6230
331
463A
  5
6263
331
4665
  5
628E
331
44F9
  5
62E6
331
48FB
  5
5FC3
331
481C
  5
60AA
331
4847
  5
60DD
331
46B8
  5
61BE
331
46E3
  5
61E9
331
454C
  5
6339
331
2D91
  5
6440
331
4770
  5
617A
331
45A6
  5
63B9
331
45D9
  5
6414
331
460C
  5
6235
331
489A
  5
6130
331
4900
  5
5FC8
331
4736
  5
6140
331
47C3
  5
6051
331
47EE
  5
607C
331
465F
  5
6288
331
468A
  5
62B3
331
451E
  5
630B
331
4551
  5
6345
331
4578
  5
638B
331
45AB
  5
63BE
331
486C
  5
6102
331
4708
  5
620E
331
473B
  5
6145
331
4762
  5
616C
331
4795
  5
619F
331
45FE
  5
642D
331
4631
  5
625A
331
44F0
  5
62DD
331
48F2
  5
5FBA
331
47E0
  5
606E
331
4813
  5
60A1
331
467C
  5
62A5
331
46AF
  5
61B5
331
46DA
  5
61E0
331
4543
  5
6330
331
459D
  5
63B0
331
45D0
  5
640B
331
485E
  5
60F4
331
4891
  5
6127
331
48BC
  5
5F99
331
472D
  5
6137
331
4787
  5
6191
331
47BA
  5
6048
331
4623
  5
624C
331
4656
  5
627F
331
4681
  5
62AA
331
44EA
  5
62D7
331
4515
  5
6302
331
456F
  5
6382
331
4917
  5
5FDF
331
4805
  5
6093
331
4838
  5
60CE
331
4863
  5
60F9
331
46D4
  5
61DA
331
46FF
  5
6205
331
4759
  5
6163
331
45C2
  5
63D5
331
45F5
  5
6424
331
4628
  5
6251
331
48B6
  5
5F93
331
48E9
  5
5FB1
331
47AC
  5
603A
331
47D7
  5
6065
331
480A
  5
6098
331
4673
  5
629C
331
46A6
  5
61AC
331
4507
  5
62F4
331
453A
  5
6327
331
4594
  5
63A7
331
4855
  5
60EB
331
4888
  5
611E
331
46F1
  5
61F7
331
4724
  5
622A
331
2D9F
  5
6452
331
477E
  5
6188
331
47B1
  5
603F
331
461A
  5
6243
331
464D
  5
6276
331
44E1
  5
62CE
331
48DB
  5
5FA3
331
490E
  5
5FD6
331
47FC
  5
608A
331
482F
  5
60BD
331
4698
  5
62C1
331
46CB
  5
61D1
331
452C
  5
6319
331
455F
  5
6367
331
2DA4
  5
645B
331
4750
  5
615A
331
4586
  5
6399
331
45B9
  5
63CC
331
45E4
  5
641F
331
487A
  5
6110
331
48AD
  5
5F8A
331
48E0
  5
5FA8
331
4716
  5
621C
331
4749
  5
6153
331
47A3
  5
600D
331
47CE
  5
605C
331
463F
  5
6268
331
466A
  5
6293
331
44FE
  5
62EB
331
4531
  5
631E
331
458B
  5
639E
331
4821
  5
60AF
331
484C
  5
60E2
331
46BD
  5
61C3
331
46E8
  5
61EE
331
471B
  5
6221
331
2D96
  5
6445
331
4775
  5
617F
331
45DE
  5
6419
331
4611
  5
623A
331
489F
  5
5F7C
331
4905
  5
5FCD
331
47F3
  5
6081
331
468F
  5
62B8
331
46C2
  5
61C8
331
4523
  5
6310
331
4556
  5
634A
331
457D
  5
6390
331
45B0
  5
63C3
331
4871
  5
6107
331
48A4
  5
5F81
331
470D
  5
6213
331
4740
  5
614A
331
4767
  5
6171
331
479A
  5
61A4
331
4603
  5
6432
331
4636
  5
625F
331
4661
  5
628A
331
44F5
  5
62E2
331
48F7
  5
5FBF
331
47E5
  5
6073
331
4818
  5
60A6
331
4843
  5
60D9
331
46B4
  5
61BA
331
46DF
  5
61E5
331
4548
  5
6335
331
2D8D
  5
643C
331
45A2
  5
63B5
331
45D5
  5
6410
331
4608
  5
6231
331
4896
  5
612C
331
4732
  5
613C
331
478C
  5
6196
331
47BF
  5
604D
331
47EA
  5
6078
331
465B
  5
6284
331
4686
  5
62AF
331
44EF
  5
62DC
331
451A
  5
6307
331
4574
  5
6387
331
491C
  5
5FE4
331
483D
  5
60D3
331
4868
  5
60FE
331
4704
  5
620A
331
475E
  5
6168
331
4791
  5
619B
331
45C7
  5
63DA
331
45FA
  5
6429
331
462D
  5
6256
331
48EE
  5
5FB6
331
4921
  5
5FE9
331
47DC
  5
606A
331
480F
  5
609D
331
4678
  5
62A1
331
46AB
  5
61B1
331
450C
  5
62F9
331
453F
  5
632C
331
4599
  5
63AC
331
45CC
  5
6407
331
485A
  5
60F0
331
488D
  5
6123
331
48B8
  5
5F95
331
46F6
  5
61FC
331
4729
  5
622F
331
4783
  5
618D
331
47B6
  5
6044
331
461F
  5
6248
331
4652
  5
627B
331
44E6
  5
62D3
331
4511
  5
62FE
331
456B
  5
637E
331
4913
  5
5FDB
331
4801
  5
608F
331
4834
  5
60CA
331
469D
  5
62C6
331
46D0
  5
61D6
331
46FB
  5
6201
331
4564
  5
6377
331
4755
  5
615F
331
45BE
  5
63D1
331
487F
  5
6115
331
48B2
  5
5F8F
331
48E5
  5
5FAD
331
474E
  5
6158
331
47A8
  5
6036
331
47D3
  5
6061
331
4644
  5
626D
331
466F
  5
6298
331
46A2
  5
61A8
331
4503
  5
62F0
331
4536
  5
6323
331
4590
  5
63A3
331
4826
  5
60B4
331
4851
  5
60E7
331
4884
  5
611A
331
46ED
  5
61F3
331
4720
  5
6226
331
2D9B
  5
644E
331
477A
  5
6184
331
4616
  5
623F
331
4649
  5
6272
331
44DD
  5
62CA
331
48D7
  5
5F9F
331
490A
  5
5FD2
331
47F8
  5
6086
331
482B
  5
60B9
331
4694
  5
62BD
331
46C7
  5
61CD
331
4528
  5
6315
331
455B
  5
6359
331
2DA0
  5
6453
331
4582
  5
6395
331
45B5
  5
63C8
331
45E0
  5
641B
331
4876
  5
610C
331
48A9
  5
5F86
331
4712
  5
6218
331
4745
  5
614F
331
476C
  5
6176
331
479F
  5
5FED
331
47CA
  5
6058
331
463B
  5
6264
331
4666
  5
628F
331
44FA
  5
62E7
331
48FC
  5
5FC4
331
481D
  5
60AB
331
4848
  5
60DE
331
46B9
  5
61BF
331
46E4
  5
61EA
331
454D
  5
633A
331
2D92
  5
6441
331
4771
  5
617B
331
45A7
  5
63BA
331
45DA
  5
6415
331
460D
  5
6236
331
489B
  5
6131
331
4901
  5
5FC9
331
4737
  5
6141
331
47C4
  5
6052
331
47EF
  5
607D
331
468B
  5
62B4
331
451F
  5
630C
331
4552
  5
6346
331
4579
  5
638C
331
45AC
  5
63BF
331
486D
  5
6103
331
48A0
  5
5F7D
331
4709
  5
620F
331
473C
  5
6146
331
4763
  5
616D
331
4796
  5
61A0
331
45FF
  5
642E
331
4632
  5
625B
331
44F1
  5
62DE
331
48F3
  5
5FBB
331
47E1
  5
606F
331
4814
  5
60A2
331
467D
  5
62A6
331
46B0
  5
61B6
331
46DB
  5
61E1
331
4544
  5
6331
331
459E
  5
63B1
331
45D1
  5
640C
331
485F
  5
60F5
331
4892
  5
6128
331
48BD
  5
5F9A
331
472E
  5
6138
331
4788
  5
6192
331
47BB
  5
6049
331
4624
  5
624D
331
4657
  5
6280
331
4682
  5
62AB
331
44EB
  5
62D8
331
4516
  5
6303
331
4570
  5
6383
331
4918
  5
5FE0
331
4806
  5
6094
331
4839
  5
60CF
331
4864
  5
60FA
331
46D5
  5
61DB
331
4700
  5
6206
331
475A
  5
6164
331
45C3
  5
63D6
331
45F6
  5
6425
331
4629
  5
6252
331
48B7
  5
5F94
331
48EA
  5
5FB2
331
47AD
  5
603B
331
47D8
  5
6066
331
480B
  5
6099
331
4674
  5
629D
331
46A7
  5
61AD
331
4508
  5
62F5
331
453B
  5
6328
331
4595
  5
63A8
331
45C8
  5
63DB
331
4856
  5
60EC
331
4889
  5
611F
331
46F2
  5
61F8
331
4725
  5
622B
331
477F
  5
6189
331
47B2
  5
6040
331
461B
  5
6244
331
464E
  5
6277
331
44E2
  5
62CF
331
48DC
  5
5FA4
331
490F
  5
5FD7
331
47FD
  5
608B
331
4830
  5
60BE
331
4699
  5
62C2
331
46CC
  5
61D2
331
452D
  5
631A
331
4560
  5
6368
331
2DA5
  5
645C
331
4751
  5
615B
331
4587
  5
639A
331
45BA
  5
63CD
331
45E5
  5
6420
331
487B
  5
6111
331
48AE
  5
5F8B
331
48E1
  5
5FA9
331
4717
  5
621D
331
474A
  5
6154
331
47A4
  5
600E
331
47CF
  5
605D
331
4640
  5
6269
331
466B
  5
6294
331
44FF
  5
62EC
331
4532
  5
631F
331
458C
  5
639F
331
4822
  5
60B0
331
484D
  5
60E3
331
4880
  5
6116
331
46BE
  5
61C4
331
46E9
  5
61EF
331
471C
  5
6222
331
2D97
  5
6446
331
4776
  5
6180
331
45DF
  5
641A
331
4612
  5
623B
331
4906
  5
5FCE
331
47F4
  5
6082
331
4690
  5
62B9
331
46C3
  5
61C9
331
4524
  5
6311
331
4557
  5
6355
331
457E
  5
6391
331
45B1
  5
63C4
331
4872
  5
6108
331
48A5
  5
5F82
331
470E
  5
6214
331
4741
  5
614B
331
4768
  5
6172
331
479B
  5
61A5
331
4604
  5
6433
331
4637
  5
6260
331
4662
  5
628B
331
44F6
  5
62E3
331
48F8
  5
5FC0
331
47E6
  5
6074
331
4819
  5
60A7
331
4844
  5
60DA
331
46B5
  5
61BB
331
46E0
  5
61E6
331
4549
  5
6336
331
2D8E
  5
643D
331
45A3
  5
63B6
331
45D6
  5
6411
331
4609
  5
6232
331
4897
  5
612D
331
48CA
  5
5F9C
331
4733
  5
613D
331
478D
  5
6197
331
47C0
  5
604E
331
47EB
  5
6079
331
465C
  5
6285
331
4687
  5
62B0
331
451B
  5
6308
331
4575
  5
6388
331
45A8
  5
63BB
331
491D
  5
5FE5
331
483E
  5
60D4
331
4869
  5
60FF
331
4705
  5
620B
331
4738
  5
6142
331
475F
  5
6169
331
4792
  5
619C
331
45FB
  5
642A
331
462E
  5
6257
331
48EF
  5
5FB7
331
4922
  5
5FEA
331
47DD
  5
606B
331
4810
  5
609E
331
4679
  5
62A2
331
46AC
  5
61B2
331
450D
  5
62FA
331
4540
  5
632D
331
459A
  5
63AD
331
45CD
  5
6408
331
485B
  5
60F1
331
488E
  5
6124
331
48B9
  5
5F96
331
46F7
  5
61FD
331
472A
  5
6134
331
4784
  5
618E
331
47B7
  5
6045
331
4620
  5
6249
331
4653
  5
627C
331
44E7
  5
62D4
331
4512
  5
62FF
331
456C
  5
637F
331
4914
  5
5FDC
331
4802
  5
6090
331
4835
  5
60CB
331
4860
  5
60F6
331
469E
  5
62C7
331
46D1
  5
61D7
331
46FC
  5
6202
331
4565
  5
6378
331
4756
  5
6160
331
45BF
  5
63D2
331
48B3
  5
5F90
331
48E6
  5
5FAE
331
474F
  5
6159
331
47A9
  5
6037
331
47D4
  5
6062
331
4645
  5
626E
331
4670
  5
6299
331
46A3
  5
61A9
331
4504
  5
62F1
331
4537
  5
6324
331
4591
  5
63A4
331
4827
  5
60B5
331
4852
  5
60E8
331
4885
  5
611B
331
46EE
  5
61F4
331
4721
  5
6227
331
2D9C
  5
644F
331
477B
  5
6185
331
4617
  5
6240
331
464A
  5
6273
331
44DE
  5
62CB
331
48D8
  5
5FA0
331
490B
  5
5FD3
331
47F9
  5
6087
331
482C
  5
60BA
331
4695
  5
62BE
331
46C8
  5
61CE
331
4529
  5
6316
331
455C
  5
635A
331
2DA1
  5
6454
331
4583
  5
6396
331
45B6
  5
63C9
331
45E1
  5
641C
331
4877
  5
610D
331
48AA
  5
5F87
331
4713
  5
6219
331
4746
  5
6150
331
476D
  5
6177
331
47A0
  5
5FEE
331
47CB
  5
6059
331
463C
  5
6265
331
4667
  5
6290
331
44FB
  5
62E8
331
4588
  5
639B
331
48FD
  5
5FC5
331
481E
  5
60AC
331
4849
  5
60DF
331
46BA
  5
61C0
331
46E5
  5
61EB
331
4718
  5
621E
331
454E
  5
633B
331
2D93
  5
6442
331
4772
  5
617C
331
45DB
  5
6416
331
460E
  5
6237
331
489C
  5
6132
331
4902
  5
5FCA
331
47C5
  5
6053
331
47F0
  5
607E
331
468C
  5
62B5
331
4520
  5
630D
331
4553
  5
6347
331
457A
  5
638D
331
45AD
  5
63C0
331
486E
  5
6104
331
48A1
  5
5F7E
331
470A
  5
6210
331
473D
  5
6147
331
4764
  5
616E
331
4797
  5
61A1
331
4600
  5
642F
331
4633
  5
625C
331
44F2
  5
62DF
331
48F4
  5
5FBC
331
47E2
  5
6070
331
4815
  5
60A3
331
4840
  5
60D6
331
467E
  5
62A7
331
46B1
  5
61B7
331
46DC
  5
61E2
331
4545
  5
6332
331
459F
  5
63B2
331
45D2
  5
640D
331
4893
  5
6129
331
472F
  5
6139
331
4789
  5
6193
331
47BC
  5
604A
331
4625
  5
624E
331
4658
  5
6281
331
4683
  5
62AC
331
44EC
  5
62D9
331
4517
  5
6304
331
4571
  5
6384
331
4919
  5
5FE1
331
4807
  5
6095
331
483A
  5
60D0
331
4865
  5
60FB
331
46D6
  5
61DC
331
4701
  5
6207
331
475B
  5
6165
331
45C4
  5
63D7
331
45F7
  5
6426
331
462A
  5
6253
331
48EB
  5
5FB3
331
47AE
  5
603C
331
47D9
  5
6067
331
480C
  5
609A
331
4675
  5
629E
331
46A8
  5
61AE
331
4509
  5
62F6
331
453C
  5
6329
331
4596
  5
63A9
331
45C9
  5
63DC
331
4857
  5
60ED
331
488A
  5
6120
331
46F3
  5
61F9
331
4726
  5
622C
331
4780
  5
618A
331
47B3
  5
6041
331
461C
  5
6245
331
464F
  5
6278
331
44E3
  5
62D0
331
4568
  5
637B
331
48DD
  5
5FA5
331
4910
  5
5FD8
331
47FE
  5
608C
331
4831
  5
60BF
331
469A
  5
62C3
331
46CD
  5
61D3
331
46F8
  5
61FE
331
452E
  5
631B
331
4561
  5
6374
331
2DA6
  5
645D
331
4752
  5
615C
331
45BB
  5
63CE
331
487C
  5
6112
331
48AF
  5
5F8C
331
48E2
  5
5FAA
331
474B
  5
6155
331
47A5
  5
600F
331
47D0
  5
605E
331
4641
  5
626A
331
466C
  5
6295
331
4500
  5
62ED
331
4533
  5
6320
331
458D
  5
63A0
331
4823
  5
60B1
331
484E
  5
60E4
331
4881
  5
6117
331
46BF
  5
61C5
331
46EA
  5
61F0
331
471D
  5
6223
331
2D98
  5
6447
331
4777
  5
6181
331
4613
  5
623C
331
4907
  5
5FCF
331
47F5
  5
6083
331
4828
  5
60B6
331
4691
  5
62BA
331
46C4
  5
61CA
331
4525
  5
6312
331
4558
  5
6356
331
457F
  5
6392
331
45B2
  5
63C5
331
4873
  5
6109
331
48A6
  5
5F83
331
470F
  5
6215
331
4742
  5
614C
331
4769
  5
6173
331
479C
  5
61A6
331
4605
  5
6434
331
4638
  5
6261
331
4663
  5
628C
331
44F7
  5
62E4
331
48F9
  5
5FC1
331
47E7
  5
6075
331
481A
  5
60A8
331
4845
  5
60DB
331
46B6
  5
61BC
331
46E1
  5
61E7
331
454A
  5
6337
331
2D8F
  5
643E
331
45A4
  5
63B7
331
45D7
  5
6412
331
460A
  5
6233
331
4898
  5
612E
331
48CB
  5
5F9D
331
4734
  5
613E
331
478E
  5
6198
331
47C1
  5
604F
331
47EC
  5
607A
331
465D
  5
6286
331
4688
  5
62B1
331
451C
  5
6309
331
4576
  5
6389
331
45A9
  5
63BC
331
491E
  5
5FE6
331
483F
  5
60D5
331
486A
  5
6100
331
4706
  5
620C
331
4739
  5
6143
331
4760
  5
616A
331
4793
  5
619D
331
45FC
  5
642B
331
462F
  5
6258
331
48F0
  5
5FB8
331
47DE
  5
606C
331
4811
  5
609F
331
467A
  5
62A3
331
46AD
  5
61B3
331
46D8
  5
61DE
331
450E
  5
62FB
331
4541
  5
632E
331
459B
  5
63AE
331
45CE
  5
6409
331
485C
  5
60F2
331
488F
  5
6125
331
48BA
  5
5F97
331
472B
  5
6135
331
4785
  5
618F
331
47B8
  5
6046
331
4621
  5
624A
331
4654
  5
627D
331
44E8
  5
62D5
331
4513
  5
6300
331
456D
  5
6380
331
4915
  5
5FDD
331
4803
  5
6091
331
4836
  5
60CC
331
4861
  5
60F7
331
469F
  5
62C8
331
46D2
  5
61D8
331
46FD
  5
6203
331
4566
  5
6379
331
4757
  5
6161
331
45C0
  5
63D3
331
45F3
  5
6422
331
48B4
  5
5F91
331
48E7
  5
5FAF
331
47AA
  5
6038
331
47D5
  5
6063
331
4808
  5
6096
331
4646
  5
626F
331
4671
  5
629A
331
46A4
  5
61AA
331
4505
  5
62F2
331
4538
  5
6325
331
4592
  5
63A5
331
4853
  5
60E9
331
4886
  5
611C
331
46EF
  5
61F5
331
4722
  5
6228
331
2D9D
  5
6450
331
477C
  5
6186
331
4618
  5
6241
331
464B
  5
6274
331
44DF
  5
62CC
331
48D9
  5
5FA1
331
490C
  5
5FD4
331
47FA
  5
6088
331
482D
  5
60BB
331
4696
  5
62BF
331
46C9
  5
61CF
331
452A
  5
6317
331
455D
  5
635B
331
2DA2
  5
6455
331
4584
  5
6397
331
45B7
  5
63CA
331
45E2
  5
641D
331
4878
  5
610E
331
48AB
  5
5F88
331
4714
  5
621A
331
4747
  5
6151
331
476E
  5
6178
331
47A1
  5
5FEF
331
47CC
  5
605A
331
463D
  5
6266
331
4668
  5
6291
331
44FC
  5
62E9
331
4589
  5
639C
331
48FE
  5
5FC6
331
481F
  5
60AD
331
484A
  5
60E0
331
46BB
  5
61C1
331
46E6
  5
61EC
331
4719
  5
621F
331
454F
  5
633C
331
2D94
  5
6443
331
4773
  5
617D
331
45DC
  5
6417
331
460F
  5
6238
331
489D
  5
6133
331
4903
  5
5FCB
331
47C6
  5
6054
331
47F1
  5
607F
331
468D
  5
62B6
331
46C0
  5
61C6
331
4521
  5
630E
331
4554
  5
6348
331
457B
  5
638E
331
45AE
  5
63C1
331
486F
  5
6105
331
48A2
  5
5F7F
331
470B
  5
6211
331
473E
  5
6148
331
4765
  5
616F
331
4798
  5
61A2
331
4601
  5
6430
331
4634
  5
625D
331
44F3
  5
62E0
331
48F5
  5
5FBD
331
47E3
  5
6071
331
4816
  5
60A4
331
4841
  5
60D7
331
467F
  5
62A8
331
46B2
  5
61B8
331
46DD
  5
61E3
331
4546
  5
6333
331
2D8B
  5
643A
331
45A0
  5
63B3
331
45D3
  5
640E
331
4894
  5
612A
331
4730
  5
613A
331
478A
  5
6194
331
47BD
  5
604B
331
47E8
  5
6076
331
4626
  5
624F
331
4659
  5
6282
331
4684
  5
62AD
331
44ED
  5
62DA
331
4518
  5
6305
331
4572
  5
6385
331
491A
  5
5FE2
331
483B
  5
60D1
331
4866
  5
60FC
331
46D7
  5
61DD
331
4702
  5
6208
331
475C
  5
6166
331
45C5
  5
63D8
331
45F8
  5
6427
331
462B
  5
6254
331
48EC
  5
5FB4
331
47AF
  5
603D
331
47DA
  5
6068
331
480D
  5
609B
331
4676
  5
629F
331
46A9
  5
61AF
331
450A
  5
62F7
331
453D
  5
632A
331
4597
  5
63AA
331
45CA
  5
63F1
331
4858
  5
60EE
331
488B
  5
6121
331
46F4
  5
61FA
331
4727
  5
622D
331
4781
  5
618B
331
47B4
  5
6042
331
461D
  5
6246
331
4650
  5
6279
331
44E4
  5
62D1
331
4569
  5
637C
331
48DE
  5
5FA6
331
4911
  5
5FD9
331
47FF
  5
608D
331
4832
  5
60C0
331
469B
  5
62C4
331
46CE
  5
61D4
331
46F9
  5
61FF
331
452F
  5
631C
331
4562
  5
6375
331
2DA7
  5
645E
331
4753
  5
615D
331
45BC
  5
63CF
331
487D
  5
6113
331
48B0
  5
5F8D
331
48E3
  5
5FAB
331
474C
  5
6156
331
47A6
  5
6010
331
47D1
  5
605F
331
4642
  5
626B
331
466D
  5
6296
331
46A0
  5
62C9
331
4501
  5
62EE
331
4534
  5
6321
331
458E
  5
63A1
331
4824
  5
60B2
331
484F
  5
60E5
331
4882
  5
6118
331
46EB
  5
61F1
331
471E
  5
6224
331
2D99
  5
644C
331
4778
  5
6182
331
4614
  5
623D
331
4908
  5
5FD0
331
47F6
  5
6084
331
4829
  5
60B7
331
4692
  5
62BB
331
46C5
  5
61CB
331
4526
  5
6313
331
4559
  5
6357
331
4580
  5
6393
331
45B3
  5
63C6
331
4874
  5
610A
331
48A7
  5
5F84
331
4710
  5
6216
331
4743
  5
614D
331
476A
  5
6174
331
479D
  5
5FEB
331
47C8
  5
6056
331
4606
  5
6435
331
4639
  5
6262
331
4664
  5
628D
331
44F8
  5
62E5
331
48FA
  5
5FC2
331
481B
  5
60A9
331
4846
  5
60DC
331
46B7
  5
61BD
331
46E2
  5
61E8
331
454B
  5
6338
331
2D90
  5
643F
331
45A5
  5
63B8
331
45D8
  5
6413
331
460B
  5
6234
331
4899
  5
612F
331
4735
  5
613F
331
478F
  5
6199
331
47C2
  5
6050
331
47ED
  5
607B
331
465E
  5
6287
331
4689
  5
62B2
331
451D
  5
630A
331
4550
  5
633D
331
4577
  5
638A
331
45AA
  5
63BD
331
491F
  5
5FE7
331
486B
  5
6101
331
4707
  5
620D
331
473A
  5
6144
331
4761
  5
616B
331
4794
  5
619E
331
45FD
  5
642C
331
4630
  5
6259
331
48F1
  5
5FB9
331
47DF
  5
606D
331
4812
  5
60A0
331
467B
  5
62A4
331
46AE
  5
61B4
331
46D9
  5
61DF
331
450F
  5
62FC
331
4542
  5
632F
331
459C
  5
63AF
331
45CF
  5
640A
331
485D
  5
60F3
331
4890
  5
6126
331
48BB
  5
5F98
331
472C
  5
6136
331
4786
  5
6190
331
47B9
  5
6047
331
4622
  5
624B
331
4655
  5
627E
331
4680
  5
62A9
331
44E9
  5
62D6
331
4514
  5
6301
331
456E
  5
6381
331
4916
  5
5FDE
331
4804
  5
6092
331
4837
  5
60CD
331
4862
  5
60F8
331
46D3
  5
61D9
331
46FE
  5
6204
331
4567
  5
637A
  0
LAYOUT
  5
21
102
{ACAD_XDICTIONARY
360
84B1
102
}
102
{ACAD_REACTORS
330
1E
102
}
330
1E
100
AcDbPlotSettings
  1

  2

  4

  6

 40
0.0
 41
0.0
 42
0.0
 43
0.0
 44
0.0
 45
0.0
 46
0.0
 47
0.0
 48
0.0
 49
0.0
140
0.0
141
0.0
142
1.0
143
1.0
 70
     0
 72
     0
 73
     0
 74
     0
  7

 75
     0
147
1.0
148
0.0
149
0.0
100
AcDbLayout
  1
Layout1
 70
     0
 71
     1
 10
0.0
 20
0.0
 11
12.0
 21
9.0
 12
0.0
 22
0.0
 32
0.0
 14
1.000000000000000E+20
 24
1.000000000000000E+20
 34
1.000000000000000E+20
 15
-1.000000000000000E+20
 25
-1.000000000000000E+20
 35
-1.000000000000000E+20
146
0.0
 13
0.0
 23
0.0
 33
0.0
 16
1.0
 26
0.0
 36
0.0
 17
0.0
 27
1.0
 37
0.0
 76
     0
330
B
  0
LAYOUT
  5
20
102
{ACAD_XDICTIONARY
360
84AF
102
}
102
{ACAD_REACTORS
330
1E
102
}
330
1E
100
AcDbPlotSettings
  1

  2

  4

  6

 40
0.0
 41
0.0
 42
0.0
 43
0.0
 44
0.0
 45
0.0
 46
0.0
 47
0.0
 48
0.0
 49
0.0
140
0.0
141
0.0
142
1.0
143
1.0
 70
  1024
 72
     0
 73
     0
 74
     0
  7

 75
     0
147
1.0
148
0.0
149
0.0
100
AcDbLayout
  1
Model
 70
     0
 71
     0
 10
0.0
 20
0.0
 11
0.0
 21
0.0
 12
0.0
 22
0.0
 32
0.0
 14
0.0
 24
0.0
 34
0.0
 15
0.0
 25
0.0
 35
0.0
146
0.0
 13
0.0
 23
0.0
 33
0.0
 16
0.0
 26
0.0
 36
0.0
 17
0.0
 27
0.0
 37
0.0
 76
     0
330
A
331
15
  0
MATERIAL
  5
3967
102
{ACAD_XDICTIONARY
360
3968
102
}
102
{ACAD_REACTORS
330
395E
102
}
330
395E
100
AcDbMaterial
  1
ByBlock
 72
     0
 43
0.0208333333333333
 43
0.0
 43
0.0
 43
0.0
 43
0.0
 43
0.0208333333333333
 43
0.0
 43
0.0
 43
0.0
 43
0.0
 43
1.0
 43
0.0
 43
0.0
 43
0.0
 43
0.0
 43
1.0
 77
     0
 47
0.0208333333333333
 47
0.0
 47
0.0
 47
0.0
 47
0.0
 47
0.0208333333333333
 47
0.0
 47
0.0
 47
0.0
 47
0.0
 47
1.0
 47
0.0
 47
0.0
 47
0.0
 47
0.0
 47
1.0
171
     0
 49
0.0208333333333333
 49
0.0
 49
0.0
 49
0.0
 49
0.0
 49
0.0208333333333333
 49
0.0
 49
0.0
 49
0.0
 49
0.0
 49
1.0
 49
0.0
 49
0.0
 49
0.0
 49
0.0
 49
1.0
175
     0
142
0.0208333333333333
142
0.0
142
0.0
142
0.0
142
0.0
142
0.0208333333333333
142
0.0
142
0.0
142
0.0
142
0.0
142
1.0
142
0.0
142
0.0
142
0.0
142
0.0
142
1.0
179
     0
144
0.0208333333333333
144
0.0
144
0.0
144
0.0
144
0.0
144
0.0208333333333333
144
0.0
144
0.0
144
0.0
144
0.0
144
1.0
144
0.0
144
0.0
144
0.0
144
0.0
144
1.0
147
0.0208333333333333
147
0.0
147
0.0
147
0.0
147
0.0
147
0.0208333333333333
147
0.0
147
0.0
147
0.0
147
0.0
147
1.0
147
0.0
147
0.0
147
0.0
147
0.0
147
1.0
  0
MATERIAL
  5
395F
102
{ACAD_XDICTIONARY
360
3960
102
}
102
{ACAD_REACTORS
330
395E
102
}
330
395E
100
AcDbMaterial
  1
ByLayer
 72
     0
 43
0.0208333333333333
 43
0.0
 43
0.0
 43
0.0
 43
0.0
 43
0.0208333333333333
 43
0.0
 43
0.0
 43
0.0
 43
0.0
 43
1.0
 43
0.0
 43
0.0
 43
0.0
 43
0.0
 43
1.0
 77
     0
 47
0.0208333333333333
 47
0.0
 47
0.0
 47
0.0
 47
0.0
 47
0.0208333333333333
 47
0.0
 47
0.0
 47
0.0
 47
0.0
 47
1.0
 47
0.0
 47
0.0
 47
0.0
 47
0.0
 47
1.0
171
     0
 49
0.0208333333333333
 49
0.0
 49
0.0
 49
0.0
 49
0.0
 49
0.0208333333333333
 49
0.0
 49
0.0
 49
0.0
 49
0.0
 49
1.0
 49
0.0
 49
0.0
 49
0.0
 49
0.0
 49
1.0
175
     0
142
0.0208333333333333
142
0.0
142
0.0
142
0.0
142
0.0
142
0.0208333333333333
142
0.0
142
0.0
142
0.0
142
0.0
142
1.0
142
0.0
142
0.0
142
0.0
142
0.0
142
1.0
179
     0
144
0.0208333333333333
144
0.0
144
0.0
144
0.0
144
0.0
144
0.0208333333333333
144
0.0
144
0.0
144
0.0
144
0.0
144
1.0
144
0.0
144
0.0
144
0.0
144
0.0
144
1.0
147
0.0208333333333333
147
0.0
147
0.0
147
0.0
147
0.0
147
0.0208333333333333
147
0.0
147
0.0
147
0.0
147
0.0
147
1.0
147
0.0
147
0.0
147
0.0
147
0.0
147
1.0
  0
MATERIAL
  5
396F
102
{ACAD_XDICTIONARY
360
3970
102
}
102
{ACAD_REACTORS
330
395E
102
}
330
395E
100
AcDbMaterial
  1
Global
 72
     0
 43
0.0208333333333333
 43
0.0
 43
0.0
 43
0.0
 43
0.0
 43
0.0208333333333333
 43
0.0
 43
0.0
 43
0.0
 43
0.0
 43
1.0
 43
0.0
 43
0.0
 43
0.0
 43
0.0
 43
1.0
 77
     0
 47
0.0208333333333333
 47
0.0
 47
0.0
 47
0.0
 47
0.0
 47
0.0208333333333333
 47
0.0
 47
0.0
 47
0.0
 47
0.0
 47
1.0
 47
0.0
 47
0.0
 47
0.0
 47
0.0
 47
1.0
171
     0
 49
0.0208333333333333
 49
0.0
 49
0.0
 49
0.0
 49
0.0
 49
0.0208333333333333
 49
0.0
 49
0.0
 49
0.0
 49
0.0
 49
1.0
 49
0.0
 49
0.0
 49
0.0
 49
0.0
 49
1.0
175
     0
142
0.0208333333333333
142
0.0
142
0.0
142
0.0
142
0.0
142
0.0208333333333333
142
0.0
142
0.0
142
0.0
142
0.0
142
1.0
142
0.0
142
0.0
142
0.0
142
0.0
142
1.0
179
     0
144
0.0208333333333333
144
0.0
144
0.0
144
0.0
144
0.0
144
0.0208333333333333
144
0.0
144
0.0
144
0.0
144
0.0
144
1.0
144
0.0
144
0.0
144
0.0
144
0.0
144
1.0
147
0.0208333333333333
147
0.0
147
0.0
147
0.0
147
0.0
147
0.0208333333333333
147
0.0
147
0.0
147
0.0
147
0.0
147
1.0
147
0.0
147
0.0
147
0.0
147
0.0
147
1.0
  0
MLEADERSTYLE
  5
39AE
102
{ACAD_REACTORS
330
39AD
102
}
330
39AD
100
AcDbMLeaderStyle
170
     2
171
     1
172
     0
 90
        2
 40
0.0
 41
0.0
173
     1
 91
-1056964608
340
11
 92
       -2
290
     1
 42
2.0
291
     1
 43
0.36
  3
Standard
 44
4.0
300

342
17
174
     1
178
     6
175
     1
176
     0
 93
-1056964608
 45
4.0
292
     0
297
     0
 46
4.0
 94
-1056964608
 47
1.0
 49
1.0
140
1.0
293
     1
141
0.0
294
     1
177
     0
142
1.0
295
     0
296
     0
143
0.125
1001
ACAD_MLEADERVER
1070
     2
  0
MLINESTYLE
  5
1C
102
{ACAD_REACTORS
330
1B
102
}
330
1B
100
AcDbMlineStyle
  2
STANDARD
 70
     0
  3

 62
     0
 51
90.0
 52
90.0
 71
     2
 49
0.5
 62
   256
  6
BYLAYER
 49
-0.5
 62
   256
  6
BYLAYER
  0
ACDBPLACEHOLDER
  5
1D
102
{ACAD_REACTORS
330
1F
102
}
330
1F
  0
SCALE
  5
398C
102
{ACAD_REACTORS
330
398B
102
}
330
398B
100
AcDbScale
 70
     0
300
1:1
140
1.0
141
1.0
290
     1
  0
SCALE
  5
398D
102
{ACAD_REACTORS
330
398B
102
}
330
398B
100
AcDbScale
 70
     0
300
1:2
140
1.0
141
2.0
290
     0
  0
SCALE
  5
398E
102
{ACAD_REACTORS
330
398B
102
}
330
398B
100
AcDbScale
 70
     0
300
1:4
140
1.0
141
4.0
290
     0
  0
SCALE
  5
398F
102
{ACAD_REACTORS
330
398B
102
}
330
398B
100
AcDbScale
 70
     0
300
1:5
140
1.0
141
5.0
290
     0
  0
SCALE
  5
3990
102
{ACAD_REACTORS
330
398B
102
}
330
398B
100
AcDbScale
 70
     0
300
1:8
140
1.0
141
8.0
290
     0
  0
SCALE
  5
3991
102
{ACAD_REACTORS
330
398B
102
}
330
398B
100
AcDbScale
 70
     0
300
1:10
140
1.0
141
10.0
290
     0
  0
SCALE
  5
3992
102
{ACAD_REACTORS
330
398B
102
}
330
398B
100
AcDbScale
 70
     0
300
1:16
140
1.0
141
16.0
290
     0
  0
SCALE
  5
3993
102
{ACAD_REACTORS
330
398B
102
}
330
398B
100
AcDbScale
 70
     0
300
1:20
140
1.0
141
20.0
290
     0
  0
SCALE
  5
3994
102
{ACAD_REACTORS
330
398B
102
}
330
398B
100
AcDbScale
 70
     0
300
1:30
140
1.0
141
30.0
290
     0
  0
SCALE
  5
3995
102
{ACAD_REACTORS
330
398B
102
}
330
398B
100
AcDbScale
 70
     0
300
1:40
140
1.0
141
40.0
290
     0
  0
SCALE
  5
3996
102
{ACAD_REACTORS
330
398B
102
}
330
398B
100
AcDbScale
 70
     0
300
1:50
140
1.0
141
50.0
290
     0
  0
SCALE
  5
3997
102
{ACAD_REACTORS
330
398B
102
}
330
398B
100
AcDbScale
 70
     0
300
1:100
140
1.0
141
100.0
290
     0
  0
SCALE
  5
3998
102
{ACAD_REACTORS
330
398B
102
}
330
398B
100
AcDbScale
 70
     0
300
2:1
140
2.0
141
1.0
290
     0
  0
SCALE
  5
3999
102
{ACAD_REACTORS
330
398B
102
}
330
398B
100
AcDbScale
 70
     0
300
4:1
140
4.0
141
1.0
290
     0
  0
SCALE
  5
399A
102
{ACAD_REACTORS
330
398B
102
}
330
398B
100
AcDbScale
 70
     0
300
8:1
140
8.0
141
1.0
290
     0
  0
SCALE
  5
399B
102
{ACAD_REACTORS
330
398B
102
}
330
398B
100
AcDbScale
 70
     0
300
10:1
140
10.0
141
1.0
290
     0
  0
SCALE
  5
399C
102
{ACAD_REACTORS
330
398B
102
}
330
398B
100
AcDbScale
 70
     0
300
100:1
140
100.0
141
1.0
290
     0
  0
SCALE
  5
399D
102
{ACAD_REACTORS
330
398B
102
}
330
398B
100
AcDbScale
 70
     0
300
1/128" = 1'-0"
140
0.0078125
141
12.0
290
     0
  0
SCALE
  5
399E
102
{ACAD_REACTORS
330
398B
102
}
330
398B
100
AcDbScale
 70
     0
300
1/64" = 1'-0"
140
0.015625
141
12.0
290
     0
  0
SCALE
  5
399F
102
{ACAD_REACTORS
330
398B
102
}
330
398B
100
AcDbScale
 70
     0
300
1/32" = 1'-0"
140
0.03125
141
12.0
290
     0
  0
SCALE
  5
39A0
102
{ACAD_REACTORS
330
398B
102
}
330
398B
100
AcDbScale
 70
     0
300
1/16" = 1'-0"
140
0.0625
141
12.0
290
     0
  0
SCALE
  5
39A1
102
{ACAD_REACTORS
330
398B
102
}
330
398B
100
AcDbScale
 70
     0
300
3/32" = 1'-0"
140
0.09375
141
12.0
290
     0
  0
SCALE
  5
39A2
102
{ACAD_REACTORS
330
398B
102
}
330
398B
100
AcDbScale
 70
     0
300
1/8" = 1'-0"
140
0.125
141
12.0
290
     0
  0
SCALE
  5
39A3
102
{ACAD_REACTORS
330
398B
102
}
330
398B
100
AcDbScale
 70
     0
300
3/16" = 1'-0"
140
0.1875
141
12.0
290
     0
  0
SCALE
  5
39A4
102
{ACAD_REACTORS
330
398B
102
}
330
398B
100
AcDbScale
 70
     0
300
1/4" = 1'-0"
140
0.25
141
12.0
290
     0
  0
SCALE
  5
39A5
102
{ACAD_REACTORS
330
398B
102
}
330
398B
100
AcDbScale
 70
     0
300
3/8" = 1'-0"
140
0.375
141
12.0
290
     0
  0
SCALE
  5
39A6
102
{ACAD_REACTORS
330
398B
102
}
330
398B
100
AcDbScale
 70
     0
300
1/2" = 1'-0"
140
0.5
141
12.0
290
     0
  0
SCALE
  5
39A7
102
{ACAD_REACTORS
330
398B
102
}
330
398B
100
AcDbScale
 70
     0
300
3/4" = 1'-0"
140
0.75
141
12.0
290
     0
  0
SCALE
  5
39A8
102
{ACAD_REACTORS
330
398B
102
}
330
398B
100
AcDbScale
 70
     0
300
1" = 1'-0"
140
1.0
141
12.0
290
     0
  0
SCALE
  5
39A9
102
{ACAD_REACTORS
330
398B
102
}
330
398B
100
AcDbScale
 70
     0
300
1-1/2" = 1'-0"
140
1.5
141
12.0
290
     0
  0
SCALE
  5
39AA
102
{ACAD_REACTORS
330
398B
102
}
330
398B
100
AcDbScale
 70
     0
300
3" = 1'-0"
140
3.0
141
12.0
290
     0
  0
SCALE
  5
39AB
102
{ACAD_REACTORS
330
398B
102
}
330
398B
100
AcDbScale
 70
     0
300
6" = 1'-0"
140
6.0
141
12.0
290
     0
  0
SCALE
  5
39AC
102
{ACAD_REACTORS
330
398B
102
}
330
398B
100
AcDbScale
 70
     0
300
1'-0" = 1'-0"
140
12.0
141
12.0
290
     0
  0
TABLESTYLE
  5
398A
102
{ACAD_XDICTIONARY
360
72EA
102
}
102
{ACAD_REACTORS
330
3989
102
}
330
3989
100
AcDbTableStyle
  3
Standard
 70
     0
 71
     0
 40
1.5
 41
1.5
280
     0
281
     0
  7
Standard
140
4.5
170
     2
 62
     0
 63
     7
283
     0
274
    -2
284
     1
 64
     0
275
    -2
285
     1
 65
     0
276
    -2
286
     1
 66
     0
277
    -2
287
     1
 67
     0
278
    -2
288
     1
 68
     0
279
    -2
289
     1
 69
     0
  7
Standard
140
6.0
170
     5
 62
     0
 63
     7
283
     0
274
    -2
284
     1
 64
     0
275
    -2
285
     1
 65
     0
276
    -2
286
     1
 66
     0
277
    -2
287
     1
 67
     0
278
    -2
288
     1
 68
     0
279
    -2
289
     1
 69
     0
  7
Standard
140
4.5
170
     5
 62
     0
 63
     7
283
     0
274
    -2
284
     1
 64
     0
275
    -2
285
     1
 65
     0
276
    -2
286
     1
 66
     0
277
    -2
287
     1
 67
     0
278
    -2
288
     1
 68
     0
279
    -2
289
     1
 69
     0
  0
VISUALSTYLE
  5
397D
102
{ACAD_REACTORS
330
3977
102
}
330
3977
100
AcDbVisualStyle
  2
2dWireframe
 70
     4
 71
     0
 72
     2
 73
     0
 90
        0
 40
-0.6
 41
-30.0
 62
     5
 63
     7
 74
     1
 91
        4
 64
     7
 65
   257
 75
     1
175
     1
 42
1.0
 92
        0
 66
   257
 43
1.0
 76
     1
 77
     6
 78
     2
 67
     7
 79
     5
170
     0
171
     0
290
     0
174
     0
 93
        1
 44
0.0
173
     0
291
     0
 45
0.0
1001
ACAD
1000
AcDbSavedByObjectVersion
1070
     0
1000
AcDbSavedByObjectVersion
1070
     0
1000
AcDbSavedByObjectVersion
1070
     0
1000
AcDbSavedByObjectVersion
1070
     0
1000
AcDbSavedByObjectVersion
1070
     0
1000
AcDbSavedByObjectVersion
1070
     0
  0
VISUALSTYLE
  5
397F
102
{ACAD_REACTORS
330
3977
102
}
330
3977
100
AcDbVisualStyle
  2
3D Hidden
 70
     6
 71
     1
 72
     2
 73
     2
 90
        0
 40
-0.6
 41
-30.0
 62
     5
 63
     7
 74
     2
 91
        2
 64
     7
 65
   257
 75
     2
175
     1
 42
40.0
 92
        0
 66
   257
 43
1.0
 76
     1
 77
     6
 78
     2
 67
     7
 79
     3
170
     0
171
     0
290
     0
174
     0
 93
        1
 44
0.0
173
     0
291
     0
 45
0.0
1001
ACAD
1000
AcDbSavedByObjectVersion
1070
     0
1000
AcDbSavedByObjectVersion
1070
     0
1000
AcDbSavedByObjectVersion
1070
     0
1000
AcDbSavedByObjectVersion
1070
     0
1000
AcDbSavedByObjectVersion
1070
     0
1000
AcDbSavedByObjectVersion
1070
     0
  0
VISUALSTYLE
  5
397E
102
{ACAD_REACTORS
330
3977
102
}
330
3977
100
AcDbVisualStyle
  2
3dWireframe
 70
     5
 71
     0
 72
     2
 73
     0
 90
        0
 40
-0.6
 41
-30.0
 62
     5
 63
     7
 74
     1
 91
        4
 64
     7
 65
   257
 75
     1
175
     1
 42
1.0
 92
        0
 66
   257
 43
1.0
 76
     1
 77
     6
 78
     2
 67
     7
 79
     5
170
     0
171
     0
290
     0
174
     0
 93
        1
 44
0.0
173
     0
291
     0
 45
0.0
1001
ACAD
1000
AcDbSavedByObjectVersion
1070
     0
1000
AcDbSavedByObjectVersion
1070
     0
1000
AcDbSavedByObjectVersion
1070
     0
1000
AcDbSavedByObjectVersion
1070
     0
1000
AcDbSavedByObjectVersion
1070
     0
1000
AcDbSavedByObjectVersion
1070
     0
  0
VISUALSTYLE
  5
397C
102
{ACAD_REACTORS
330
3977
102
}
330
3977
100
AcDbVisualStyle
  2
Basic
 70
     7
 71
     1
 72
     0
 73
     1
 90
        0
 40
-0.6
 41
-30.0
 62
     5
 63
     7
 74
     0
 91
        4
 64
     7
 65
   257
 75
     1
175
     1
 42
1.0
 92
        8
 66
     7
 43
1.0
 76
     1
 77
     6
 78
     2
 67
     7
 79
     5
170
     0
171
     0
290
     0
174
     0
 93
        1
 44
0.0
173
     0
291
     1
 45
0.0
1001
ACAD
1000
AcDbSavedByObjectVersion
1070
     0
1000
AcDbSavedByObjectVersion
1070
     0
1000
AcDbSavedByObjectVersion
1070
     0
1000
AcDbSavedByObjectVersion
1070
     0
1000
AcDbSavedByObjectVersion
1070
     0
1000
AcDbSavedByObjectVersion
1070
     0
  0
VISUALSTYLE
  5
3983
102
{ACAD_REACTORS
330
3977
102
}
330
3977
100
AcDbVisualStyle
  2
Brighten
 70
    12
 71
     2
 72
     2
 73
     0
 90
        0
 40
-0.6
 41
-30.0
 62
     5
 63
     7
 74
     1
 91
        4
 64
     7
 65
   257
 75
     1
175
     1
 42
1.0
 92
        8
 66
     7
 43
1.0
 76
     1
 77
     6
 78
     2
 67
     7
 79
     5
170
     0
171
     0
290
     0
174
     0
 93
        1
 44
50.0
173
     0
291
     1
 45
0.0
1001
ACAD
1000
AcDbSavedByObjectVersion
1070
     0
1000
AcDbSavedByObjectVersion
1070
     0
1000
AcDbSavedByObjectVersion
1070
     0
1000
AcDbSavedByObjectVersion
1070
     0
1000
AcDbSavedByObjectVersion
1070
     0
1000
AcDbSavedByObjectVersion
1070
     0
  0
VISUALSTYLE
  5
3987
102
{ACAD_REACTORS
330
3977
102
}
330
3977
100
AcDbVisualStyle
  2
ColorChange
 70
    16
 71
     2
 72
     2
 73
     3
 90
        0
 40
-0.6
 41
-30.0
 62
     5
 63
     8
 74
     1
 91
        4
 64
     7
 65
   257
 75
     1
175
     1
 42
1.0
 92
        8
 66
     8
 43
1.0
 76
     1
 77
     6
 78
     2
 67
     7
 79
     5
170
     0
171
     0
290
     0
174
     0
 93
        1
 44
0.0
173
     0
291
     1
 45
0.0
1001
ACAD
1000
AcDbSavedByObjectVersion
1070
     0
1000
AcDbSavedByObjectVersion
1070
     0
1000
AcDbSavedByObjectVersion
1070
     0
1000
AcDbSavedByObjectVersion
1070
     0
1000
AcDbSavedByObjectVersion
1070
     0
1000
AcDbSavedByObjectVersion
1070
     0
  0
VISUALSTYLE
  5
3980
102
{ACAD_REACTORS
330
3977
102
}
330
3977
100
AcDbVisualStyle
  2
Conceptual
 70
     9
 71
     3
 72
     2
 73
     0
 90
        0
 40
-0.6
 41
-30.0
 62
     5
 63
     7
 74
     2
 91
        2
 64
     7
 65
   257
 75
     1
175
     1
 42
40.0
 92
        8
 66
     7
 43
1.0
 76
     1
 77
     6
 78
     2
 67
     7
 79
     3
170
     0
171
     0
290
     0
174
     0
 93
        1
 44
0.0
173
     0
291
     0
 45
0.0
1001
ACAD
1000
AcDbSavedByObjectVersion
1070
     0
1000
AcDbSavedByObjectVersion
1070
     0
1000
AcDbSavedByObjectVersion
1070
     0
1000
AcDbSavedByObjectVersion
1070
     0
1000
AcDbSavedByObjectVersion
1070
     0
1000
AcDbSavedByObjectVersion
1070
     0
  0
VISUALSTYLE
  5
3982
102
{ACAD_REACTORS
330
3977
102
}
330
3977
100
AcDbVisualStyle
  2
Dim
 70
    11
 71
     2
 72
     2
 73
     0
 90
        0
 40
-0.6
 41
-30.0
 62
     5
 63
     7
 74
     1
 91
        4
 64
     7
 65
   257
 75
     1
175
     1
 42
1.0
 92
        8
 66
     7
 43
1.0
 76
     1
 77
     6
 78
     2
 67
     7
 79
     5
170
     0
171
     0
290
     0
174
     0
 93
        1
 44
-50.0
173
     0
291
     1
 45
0.0
1001
ACAD
1000
AcDbSavedByObjectVersion
1070
     0
1000
AcDbSavedByObjectVersion
1070
     0
1000
AcDbSavedByObjectVersion
1070
     0
1000
AcDbSavedByObjectVersion
1070
     0
1000
AcDbSavedByObjectVersion
1070
     0
1000
AcDbSavedByObjectVersion
1070
     0
  0
VISUALSTYLE
  5
3986
102
{ACAD_REACTORS
330
3977
102
}
330
3977
100
AcDbVisualStyle
  2
Facepattern
 70
    15
 71
     2
 72
     2
 73
     0
 90
        0
 40
-0.6
 41
-30.0
 62
     5
 63
     7
 74
     1
 91
        4
 64
     7
 65
   257
 75
     1
175
     1
 42
1.0
 92
        8
 66
     7
 43
1.0
 76
     1
 77
     6
 78
     2
 67
     7
 79
     5
170
     0
171
     0
290
     0
174
     0
 93
        1
 44
0.0
173
     0
291
     1
 45
0.0
1001
ACAD
1000
AcDbSavedByObjectVersion
1070
     0
1000
AcDbSavedByObjectVersion
1070
     0
1000
AcDbSavedByObjectVersion
1070
     0
1000
AcDbSavedByObjectVersion
1070
     0
1000
AcDbSavedByObjectVersion
1070
     0
1000
AcDbSavedByObjectVersion
1070
     0
  0
VISUALSTYLE
  5
3978
102
{ACAD_REACTORS
330
3977
102
}
330
3977
100
AcDbVisualStyle
  2
Flat
 70
     0
 71
     2
 72
     1
 73
     1
 90
        2
 40
-0.6
 41
30.0
 62
     5
 63
     7
 74
     0
 91
        4
 64
     7
 65
   257
 75
     1
175
     1
 42
1.0
 92
        8
 66
     7
 43
1.0
 76
     1
 77
     6
 78
     2
 67
     7
 79
     5
170
     0
171
     0
290
     0
174
     0
 93
       13
 44
0.0
173
     0
291
     1
 45
0.0
1001
ACAD
1000
AcDbSavedByObjectVersion
1070
     0
1000
AcDbSavedByObjectVersion
1070
     0
1000
AcDbSavedByObjectVersion
1070
     0
1000
AcDbSavedByObjectVersion
1070
     0
1000
AcDbSavedByObjectVersion
1070
     0
1000
AcDbSavedByObjectVersion
1070
     0
  0
VISUALSTYLE
  5
3979
102
{ACAD_REACTORS
330
3977
102
}
330
3977
100
AcDbVisualStyle
  2
FlatWithEdges
 70
     1
 71
     2
 72
     1
 73
     1
 90
        2
 40
-0.6
 41
30.0
 62
     5
 63
     7
 74
     1
 91
        4
 64
     7
 65
   257
 75
     1
175
     1
 42
1.0
 92
        0
 66
   257
 43
1.0
 76
     1
 77
     6
 78
     2
 67
     7
 79
     5
170
     0
171
     0
290
     0
174
     0
 93
       13
 44
0.0
173
     0
291
     1
 45
0.0
1001
ACAD
1000
AcDbSavedByObjectVersion
1070
     0
1000
AcDbSavedByObjectVersion
1070
     0
1000
AcDbSavedByObjectVersion
1070
     0
1000
AcDbSavedByObjectVersion
1070
     0
1000
AcDbSavedByObjectVersion
1070
     0
1000
AcDbSavedByObjectVersion
1070
     0
  0
VISUALSTYLE
  5
397A
102
{ACAD_REACTORS
330
3977
102
}
330
3977
100
AcDbVisualStyle
  2
Gouraud
 70
     2
 71
     2
 72
     2
 73
     1
 90
        2
 40
-0.6
 41
30.0
 62
     5
 63
     7
 74
     0
 91
        4
 64
     7
 65
   257
 75
     1
175
     1
 42
1.0
 92
        0
 66
     7
 43
1.0
 76
     1
 77
     6
 78
     2
 67
     7
 79
     5
170
     0
171
     0
290
     0
174
     0
 93
       13
 44
0.0
173
     0
291
     1
 45
0.0
1001
ACAD
1000
AcDbSavedByObjectVersion
1070
     0
1000
AcDbSavedByObjectVersion
1070
     0
1000
AcDbSavedByObjectVersion
1070
     0
1000
AcDbSavedByObjectVersion
1070
     0
1000
AcDbSavedByObjectVersion
1070
     0
1000
AcDbSavedByObjectVersion
1070
     0
  0
VISUALSTYLE
  5
397B
102
{ACAD_REACTORS
330
3977
102
}
330
3977
100
AcDbVisualStyle
  2
GouraudWithEdges
 70
     3
 71
     2
 72
     2
 73
     1
 90
        2
 40
-0.6
 41
30.0
 62
     5
 63
     7
 74
     1
 91
        4
 64
     7
 65
   257
 75
     1
175
     1
 42
1.0
 92
        0
 66
   257
 43
1.0
 76
     1
 77
     6
 78
     2
 67
     7
 79
     5
170
     0
171
     0
290
     0
174
     0
 93
       13
 44
0.0
173
     0
291
     1
 45
0.0
1001
ACAD
1000
AcDbSavedByObjectVersion
1070
     0
1000
AcDbSavedByObjectVersion
1070
     0
1000
AcDbSavedByObjectVersion
1070
     0
1000
AcDbSavedByObjectVersion
1070
     0
1000
AcDbSavedByObjectVersion
1070
     0
1000
AcDbSavedByObjectVersion
1070
     0
  0
VISUALSTYLE
  5
3985
102
{ACAD_REACTORS
330
3977
102
}
330
3977
100
AcDbVisualStyle
  2
Linepattern
 70
    14
 71
     2
 72
     2
 73
     0
 90
        0
 40
-0.6
 41
-30.0
 62
     5
 63
     7
 74
     1
 91
        4
 64
     7
 65
   257
 75
     7
175
     7
 42
1.0
 92
        8
 66
     7
 43
1.0
 76
     1
 77
     6
 78
     2
 67
     7
 79
     5
170
     0
171
     0
290
     0
174
     0
 93
        1
 44
0.0
173
     0
291
     1
 45
0.0
1001
ACAD
1000
AcDbSavedByObjectVersion
1070
     0
1000
AcDbSavedByObjectVersion
1070
     0
1000
AcDbSavedByObjectVersion
1070
     0
1000
AcDbSavedByObjectVersion
1070
     0
1000
AcDbSavedByObjectVersion
1070
     0
1000
AcDbSavedByObjectVersion
1070
     0
  0
VISUALSTYLE
  5
3981
102
{ACAD_REACTORS
330
3977
102
}
330
3977
100
AcDbVisualStyle
  2
Realistic
 70
     8
 71
     2
 72
     2
 73
     0
 90
        0
 40
-0.6
 41
-30.0
 62
     5
 63
     7
 74
     1
 91
        0
 64
     7
 65
   257
 75
     1
175
     1
 42
1.0
 92
        8
 66
     8
 43
1.0
 76
     1
 77
     6
 78
     2
 67
     7
 79
     5
170
     0
171
     0
290
     0
174
     0
 93
       13
 44
0.0
173
     0
291
     0
 45
0.0
1001
ACAD
1000
AcDbSavedByObjectVersion
1070
     0
1000
AcDbSavedByObjectVersion
1070
     0
1000
AcDbSavedByObjectVersion
1070
     0
1000
AcDbSavedByObjectVersion
1070
     0
1000
AcDbSavedByObjectVersion
1070
     0
1000
AcDbSavedByObjectVersion
1070
     0
  0
VISUALSTYLE
  5
3984
102
{ACAD_REACTORS
330
3977
102
}
330
3977
100
AcDbVisualStyle
  2
Thicken
 70
    13
 71
     2
 72
     2
 73
     0
 90
        0
 40
-0.6
 41
-30.0
 62
     5
 63
     7
 74
     1
 91
        4
 64
     7
 65
   257
 75
     1
175
     1
 42
1.0
 92
       12
 66
     7
 43
1.0
 76
     1
 77
     6
 78
     2
 67
     7
 79
     5
170
     0
171
     0
290
     0
174
     0
 93
        1
 44
0.0
173
     0
291
     1
 45
0.0
1001
ACAD
1000
AcDbSavedByObjectVersion
1070
     0
1000
AcDbSavedByObjectVersion
1070
     0
1000
AcDbSavedByObjectVersion
1070
     0
1000
AcDbSavedByObjectVersion
1070
     0
1000
AcDbSavedByObjectVersion
1070
     0
1000
AcDbSavedByObjectVersion
1070
     0
  0
DICTIONARYVAR
  5
72CE
102
{ACAD_REACTORS
330
72CB
102
}
330
72CB
100
DictionaryVariables
280
     0
  1
1:1
  0
DICTIONARYVAR
  5
72CD
102
{ACAD_REACTORS
330
72CB
102
}
330
72CB
100
DictionaryVariables
280
     0
  1
STANDARD
  0
DICTIONARYVAR
  5
72CC
102
{ACAD_REACTORS
330
72CB
102
}
330
72CB
100
DictionaryVariables
280
     0
  1
STANDARD
  0
DICTIONARYVAR
  5
72D1
102
{ACAD_REACTORS
330
72CB
102
}
330
72CB
100
DictionaryVariables
280
     0
  1
1
  0
DICTIONARYVAR
  5
72D0
102
{ACAD_REACTORS
330
72CB
102
}
330
72CB
100
DictionaryVariables
280
     0
  1
0
  0
DICTIONARYVAR
  5
72CF
102
{ACAD_REACTORS
330
72CB
102
}
330
72CB
100
DictionaryVariables
280
     0
  1
127
  0
XRECORD
  5
72C8
102
{ACAD_REACTORS
330
72C6
102
}
330
72C6
100
AcDbXrecord
280
     1
  0
DICTIONARY
  5
84B1
330
21
100
AcDbDictionary
280
     1
281
     1
  3
ACAD_XREC_ROUNDTRIP
360
84B2
  0
DICTIONARY
  5
84AF
330
20
100
AcDbDictionary
280
     1
281
     1
  3
ACAD_XREC_ROUNDTRIP
360
84B0
  0
DICTIONARY
  5
3968
330
3967
100
AcDbDictionary
280
     1
281
     1
  3
ACAD_XREC_ROUNDTRIP
360
72F3
  3
BUMPTILE
360
396A
  3
DIFFUSETILE
360
3969
  3
OPACITYTILE
360
396D
  3
REFLECTIONTILE
360
396C
  3
REFRACTIONTILE
360
396E
  3
SPECULARTILE
360
396B
  0
DICTIONARY
  5
3960
330
395F
100
AcDbDictionary
280
     1
281
     1
  3
ACAD_XREC_ROUNDTRIP
360
72F2
  3
BUMPTILE
360
3962
  3
DIFFUSETILE
360
3961
  3
OPACITYTILE
360
3965
  3
REFLECTIONTILE
360
3964
  3
REFRACTIONTILE
360
3966
  3
SPECULARTILE
360
3963
  0
DICTIONARY
  5
3970
330
396F
100
AcDbDictionary
280
     1
281
     1
  3
ACAD_XREC_ROUNDTRIP
360
72F4
  3
BUMPTILE
360
3972
  3
DIFFUSETILE
360
3971
  3
OPACITYTILE
360
3975
  3
REFLECTIONTILE
360
3974
  3
REFRACTIONTILE
360
3976
  3
SPECULARTILE
360
3973
  0
DICTIONARY
  5
72EA
330
398A
100
AcDbDictionary
280
     1
281
     1
  3
ACAD_ROUNDTRIP_2008_TABLESTYLE_CELLSTYLEMAP
360
84AD
  3
ACAD_XREC_ROUNDTRIP
360
84B3
  0
XRECORD
  5
84B2
102
{ACAD_REACTORS
330
84B1
102
}
330
84B1
100
AcDbXrecord
280
     1
102
SHADEPLOT
 70
     0
102
SHADEPLOTRESLEVEL
 70
     2
102
SHADEPLOTCUSTOMDPI
 70
   300
  0
XRECORD
  5
84B0
102
{ACAD_REACTORS
330
84AF
102
}
330
84AF
100
AcDbXrecord
280
     1
102
SHADEPLOT
 70
     0
102
SHADEPLOTRESLEVEL
 70
     2
102
SHADEPLOTCUSTOMDPI
 70
   300
  0
XRECORD
  5
72F3
102
{ACAD_REACTORS
330
3968
102
}
330
3968
100
AcDbXrecord
280
     1
102
MATERIAL
148
0.0
149
0.0
149
0.0
 93
        0
 94
      127
282
     0
 72
     0
 77
     0
171
     0
175
     0
179
     0
273
     0
  0
XRECORD
  5
396A
102
{ACAD_REACTORS
330
3968
102
}
330
3968
100
AcDbXrecord
280
     1
270
     1
271
     1
  0
XRECORD
  5
3969
102
{ACAD_REACTORS
330
3968
102
}
330
3968
100
AcDbXrecord
280
     1
270
     1
271
     1
  0
XRECORD
  5
396D
102
{ACAD_REACTORS
330
3968
102
}
330
3968
100
AcDbXrecord
280
     1
270
     1
271
     1
  0
XRECORD
  5
396C
102
{ACAD_REACTORS
330
3968
102
}
330
3968
100
AcDbXrecord
280
     1
270
     1
271
     1
  0
XRECORD
  5
396E
102
{ACAD_REACTORS
330
3968
102
}
330
3968
100
AcDbXrecord
280
     1
270
     1
271
     1
  0
XRECORD
  5
396B
102
{ACAD_REACTORS
330
3968
102
}
330
3968
100
AcDbXrecord
280
     1
270
     1
271
     1
  0
XRECORD
  5
72F2
102
{ACAD_REACTORS
330
3960
102
}
330
3960
100
AcDbXrecord
280
     1
102
MATERIAL
148
0.0
149
0.0
149
0.0
 93
        0
 94
      127
282
     0
 72
     0
 77
     0
171
     0
175
     0
179
     0
273
     0
  0
XRECORD
  5
3962
102
{ACAD_REACTORS
330
3960
102
}
330
3960
100
AcDbXrecord
280
     1
270
     1
271
     1
  0
XRECORD
  5
3961
102
{ACAD_REACTORS
330
3960
102
}
330
3960
100
AcDbXrecord
280
     1
270
     1
271
     1
  0
XRECORD
  5
3965
102
{ACAD_REACTORS
330
3960
102
}
330
3960
100
AcDbXrecord
280
     1
270
     1
271
     1
  0
XRECORD
  5
3964
102
{ACAD_REACTORS
330
3960
102
}
330
3960
100
AcDbXrecord
280
     1
270
     1
271
     1
  0
XRECORD
  5
3966
102
{ACAD_REACTORS
330
3960
102
}
330
3960
100
AcDbXrecord
280
     1
270
     1
271
     1
  0
XRECORD
  5
3963
102
{ACAD_REACTORS
330
3960
102
}
330
3960
100
AcDbXrecord
280
     1
270
     1
271
     1
  0
XRECORD
  5
72F4
102
{ACAD_REACTORS
330
3970
102
}
330
3970
100
AcDbXrecord
280
     1
102
MATERIAL
148
0.0
149
0.0
149
0.0
 93
        0
 94
      127
282
     0
 72
     0
 77
     0
171
     0
175
     0
179
     0
273
     0
  0
XRECORD
  5
3972
102
{ACAD_REACTORS
330
3970
102
}
330
3970
100
AcDbXrecord
280
     1
270
     1
271
     1
  0
XRECORD
  5
3971
102
{ACAD_REACTORS
330
3970
102
}
330
3970
100
AcDbXrecord
280
     1
270
     1
271
     1
  0
XRECORD
  5
3975
102
{ACAD_REACTORS
330
3970
102
}
330
3970
100
AcDbXrecord
280
     1
270
     1
271
     1
  0
XRECORD
  5
3974
102
{ACAD_REACTORS
330
3970
102
}
330
3970
100
AcDbXrecord
280
     1
270
     1
271
     1
  0
XRECORD
  5
3976
102
{ACAD_REACTORS
330
3970
102
}
330
3970
100
AcDbXrecord
280
     1
270
     1
271
     1
  0
XRECORD
  5
3973
102
{ACAD_REACTORS
330
3970
102
}
330
3970
100
AcDbXrecord
280
     1
270
     1
271
     1
  0
CELLSTYLEMAP
  5
84AD
102
{ACAD_REACTORS
330
72EA
102
}
330
72EA
100
AcDbCellStyleMap
 90
        3
300
CELLSTYLE
  1
TABLEFORMAT_BEGIN
 90
        5
170
     1
 91
        0
 92
    32768
 62
   257
 93
        1
300
CONTENTFORMAT
  1
CONTENTFORMAT_BEGIN
 90
        0
 91
        0
 92
      512
 93
        0
300

 40
0.0
140
1.0
 94
        5
 62
     0
340
17
144
6.0
309
CONTENTFORMAT_END
171
     1
301
MARGIN
  1
CELLMARGIN_BEGIN
 40
1.5
 40
1.5
 40
1.5
 40
1.5
 40
0.18
 40
0.18
309
CELLMARGIN_END
 94
        6
 95
        1
302
GRIDFORMAT
  1
GRIDFORMAT_BEGIN
 90
        0
 91
        1
 62
     0
 92
       -2
340
0
 93
        0
 40
1.125
309
GRIDFORMAT_END
 95
        2
302
GRIDFORMAT
  1
GRIDFORMAT_BEGIN
 90
        0
 91
        1
 62
     0
 92
       -2
340
0
 93
        0
 40
1.125
309
GRIDFORMAT_END
 95
        4
302
GRIDFORMAT
  1
GRIDFORMAT_BEGIN
 90
        0
 91
        1
 62
     0
 92
       -2
340
0
 93
        0
 40
1.125
309
GRIDFORMAT_END
 95
        8
302
GRIDFORMAT
  1
GRIDFORMAT_BEGIN
 90
        0
 91
        1
 62
     0
 92
       -2
340
0
 93
        0
 40
1.125
309
GRIDFORMAT_END
 95
       16
302
GRIDFORMAT
  1
GRIDFORMAT_BEGIN
 90
        0
 91
        1
 62
     0
 92
       -2
340
0
 93
        0
 40
1.125
309
GRIDFORMAT_END
 95
       32
302
GRIDFORMAT
  1
GRIDFORMAT_BEGIN
 90
        0
 91
        1
 62
     0
 92
       -2
340
0
 93
        0
 40
1.125
309
GRIDFORMAT_END
309
TABLEFORMAT_END
  1
CELLSTYLE_BEGIN
 90
        1
 91
        1
300
_TITLE
309
CELLSTYLE_END
300
CELLSTYLE
  1
TABLEFORMAT_BEGIN
 90
        5
170
     1
 91
        0
 92
        0
 62
   257
 93
        1
300
CONTENTFORMAT
  1
CONTENTFORMAT_BEGIN
 90
        0
 91
        0
 92
      512
 93
        0
300

 40
0.0
140
1.0
 94
        5
 62
     0
340
17
144
4.5
309
CONTENTFORMAT_END
171
     1
301
MARGIN
  1
CELLMARGIN_BEGIN
 40
1.5
 40
1.5
 40
1.5
 40
1.5
 40
0.18
 40
0.18
309
CELLMARGIN_END
 94
        6
 95
        1
302
GRIDFORMAT
  1
GRIDFORMAT_BEGIN
 90
        0
 91
        1
 62
     0
 92
       -2
340
0
 93
        0
 40
1.125
309
GRIDFORMAT_END
 95
        2
302
GRIDFORMAT
  1
GRIDFORMAT_BEGIN
 90
        0
 91
        1
 62
     0
 92
       -2
340
0
 93
        0
 40
1.125
309
GRIDFORMAT_END
 95
        4
302
GRIDFORMAT
  1
GRIDFORMAT_BEGIN
 90
        0
 91
        1
 62
     0
 92
       -2
340
0
 93
        0
 40
1.125
309
GRIDFORMAT_END
 95
        8
302
GRIDFORMAT
  1
GRIDFORMAT_BEGIN
 90
        0
 91
        1
 62
     0
 92
       -2
340
0
 93
        0
 40
1.125
309
GRIDFORMAT_END
 95
       16
302
GRIDFORMAT
  1
GRIDFORMAT_BEGIN
 90
        0
 91
        1
 62
     0
 92
       -2
340
0
 93
        0
 40
1.125
309
GRIDFORMAT_END
 95
       32
302
GRIDFORMAT
  1
GRIDFORMAT_BEGIN
 90
        0
 91
        1
 62
     0
 92
       -2
340
0
 93
        0
 40
1.125
309
GRIDFORMAT_END
309
TABLEFORMAT_END
  1
CELLSTYLE_BEGIN
 90
        2
 91
        1
300
_HEADER
309
CELLSTYLE_END
300
CELLSTYLE
  1
TABLEFORMAT_BEGIN
 90
        5
170
     1
 91
        0
 92
        0
 62
   257
 93
        1
300
CONTENTFORMAT
  1
CONTENTFORMAT_BEGIN
 90
        0
 91
        0
 92
      512
 93
        0
300

 40
0.0
140
1.0
 94
        2
 62
     0
340
17
144
4.5
309
CONTENTFORMAT_END
171
     1
301
MARGIN
  1
CELLMARGIN_BEGIN
 40
1.5
 40
1.5
 40
1.5
 40
1.5
 40
0.18
 40
0.18
309
CELLMARGIN_END
 94
        6
 95
        1
302
GRIDFORMAT
  1
GRIDFORMAT_BEGIN
 90
        0
 91
        1
 62
     0
 92
       -2
340
0
 93
        0
 40
1.125
309
GRIDFORMAT_END
 95
        2
302
GRIDFORMAT
  1
GRIDFORMAT_BEGIN
 90
        0
 91
        1
 62
     0
 92
       -2
340
0
 93
        0
 40
1.125
309
GRIDFORMAT_END
 95
        4
302
GRIDFORMAT
  1
GRIDFORMAT_BEGIN
 90
        0
 91
        1
 62
     0
 92
       -2
340
0
 93
        0
 40
1.125
309
GRIDFORMAT_END
 95
        8
302
GRIDFORMAT
  1
GRIDFORMAT_BEGIN
 90
        0
 91
        1
 62
     0
 92
       -2
340
0
 93
        0
 40
1.125
309
GRIDFORMAT_END
 95
       16
302
GRIDFORMAT
  1
GRIDFORMAT_BEGIN
 90
        0
 91
        1
 62
     0
 92
       -2
340
0
 93
        0
 40
1.125
309
GRIDFORMAT_END
 95
       32
302
GRIDFORMAT
  1
GRIDFORMAT_BEGIN
 90
        0
 91
        1
 62
     0
 92
       -2
340
0
 93
        0
 40
1.125
309
GRIDFORMAT_END
309
TABLEFORMAT_END
  1
CELLSTYLE_BEGIN
 90
        3
 91
        2
300
_DATA
309
CELLSTYLE_END
  0
XRECORD
  5
84B3
102
{ACAD_REACTORS
330
72EA
102
}
330
72EA
100
AcDbXrecord
280
     1
102
ACAD_ROUNDTRIP_PRE2007_TABLESTYLE
 90
      512
 91
        0
  1

 92
      512
 93
        0
  2

 94
      512
 95
        0
  3

  0
ENDSEC
  0
EOF
