  0
SECTION
  2
HEADER
  9
$ACADVER
  1
AC1015
  9
$ACADMAINTVER
 70
     6
  9
$DWGCODEPAGE
  3
ANSI_1252
  9
$INSBASE
 10
0.0
 20
0.0
 30
0.0
  9
$EXTMIN
 10
28.1275002106
 20
-9.8231611589
 30
0.0
  9
$EXTMAX
 10
261.7438541
 20
286.6873894397
 30
0.0
  9
$LIMMIN
 10
0.0
 20
0.0
  9
$LIMMAX
 10
420.0
 20
297.0
  9
$ORTHOMODE
 70
     0
  9
$REGENMODE
 70
     1
  9
$FILLMODE
 70
     1
  9
$QTEXTMODE
 70
     0
  9
$MIRRTEXT
 70
     1
  9
$LTSCALE
 40
1.0
  9
$ATTMODE
 70
     1
  9
$TEXTSIZE
 40
2.8
  9
$TRACEWID
 40
1.0
  9
$TEXTSTYLE
  7
Standard
  9
$CLAYER
  8
0
  9
$CELTYPE
  6
ByLayer
  9
$CECOLOR
 62
   256
  9
$CELTSCALE
 40
1.0
  9
$DISPSILH
 70
     0
  9
$DIMSCALE
 40
1.0
  9
$DIMASZ
 40
3.2
  9
$DIMEXO
 40
0.1
  9
$DIMDLI
 40
3.75
  9
$DIMRND
 40
0.0
  9
$DIMDLE
 40
0.0
  9
$DIMEXE
 40
1.0
  9
$DIMTP
 40
0.0
  9
$DIMTM
 40
0.0
  9
$DIMTXT
 40
3.2
  9
$DIMCEN
 40
2.5
  9
$DIMTSZ
 40
0.0
  9
$DIMTOL
 70
     0
  9
$DIMLIM
 70
     0
  9
$DIMTIH
 70
     1
  9
$DIMTOH
 70
     1
  9
$DIMSE1
 70
     0
  9
$DIMSE2
 70
     0
  9
$DIMTAD
 70
     1
  9
$DIMZIN
 70
     0
  9
$DIMBLK
  1

  9
$DIMASO
 70
     1
  9
$DIMSHO
 70
     1
  9
$DIMPOST
  1

  9
$DIMAPOST
  1

  9
$DIMALT
 70
     0
  9
$DIMALTD
 70
     3
  9
$DIMALTF
 40
0.0393700787
  9
$DIMLFAC
 40
1.0
  9
$DIMTOFL
 70
     1
  9
$DIMTVP
 40
0.0
  9
$DIMTIX
 70
     0
  9
$DIMSOXD
 70
     0
  9
$DIMSAH
 70
     0
  9
$DIMBLK1
  1

  9
$DIMBLK2
  1

  9
$DIMSTYLE
  2
ISO-25
  9
$DIMCLRD
 70
     0
  9
$DIMCLRE
 70
     0
  9
$DIMCLRT
 70
     0
  9
$DIMTFAC
 40
1.0
  9
$DIMGAP
 40
2.0
  9
$DIMJUST
 70
     0
  9
$DIMSD1
 70
     0
  9
$DIMSD2
 70
     0
  9
$DIMTOLJ
 70
     0
  9
$DIMTZIN
 70
     0
  9
$DIMALTZ
 70
     0
  9
$DIMALTTZ
 70
     0
  9
$DIMUPT
 70
     0
  9
$DIMDEC
 70
     2
  9
$DIMTDEC
 70
     2
  9
$DIMALTU
 70
     2
  9
$DIMALTTD
 70
     3
  9
$DIMTXSTY
  7
Standard
  9
$DIMAUNIT
 70
     0
  9
$DIMADEC
 70
     2
  9
$DIMALTRND
 40
0.0
  9
$DIMAZIN
 70
     0
  9
$DIMDSEP
 70
    44
  9
$DIMATFIT
 70
     3
  9
$DIMFRAC
 70
     0
  9
$DIMLDRBLK
  1

  9
$DIMLUNIT
 70
     2
  9
$DIMLWD
 70
    -2
  9
$DIMLWE
 70
    -2
  9
$DIMTMOVE
 70
     0
  9
$LUNITS
 70
     2
  9
$LUPREC
 70
     2
  9
$SKETCHINC
 40
1.0
  9
$FILLETRAD
 40
10.0
  9
$AUNITS
 70
     0
  9
$AUPREC
 70
     2
  9
$MENU
  1
.
  9
$ELEVATION
 40
0.0
  9
$PELEVATION
 40
0.0
  9
$THICKNESS
 40
0.0
  9
$LIMCHECK
 70
     0
  9
$CHAMFERA
 40
0.0
  9
$CHAMFERB
 40
0.0
  9
$CHAMFERC
 40
0.0
  9
$CHAMFERD
 40
0.0
  9
$SKPOLY
 70
     0
  9
$TDCREATE
 40
2457340.423854259
  9
$TDUCREATE
 40
2457340.382187593
  9
$TDUPDATE
 40
2457340.425151111
  9
$TDUUPDATE
 40
2457340.383484445
  9
$TDINDWG
 40
0.0011041435
  9
$TDUSRTIMER
 40
2457340.382380393
  9
$USRTIMER
 70
     1
  9
$ANGBASE
 50
0.0
  9
$ANGDIR
 70
     0
  9
$PDMODE
 70
     0
  9
$PDSIZE
 40
-1.0
  9
$PLINEWID
 40
0.0
  9
$SPLFRAME
 70
     0
  9
$SPLINETYPE
 70
     6
  9
$SPLINESEGS
 70
     8
  9
$HANDSEED
  5
2EA
  9
$SURFTAB1
 70
     6
  9
$SURFTAB2
 70
     6
  9
$SURFTYPE
 70
     6
  9
$SURFU
 70
     6
  9
$SURFV
 70
     6
  9
$UCSBASE
  2

  9
$UCSNAME
  2

  9
$UCSORG
 10
0.0
 20
0.0
 30
0.0
  9
$UCSXDIR
 10
1.0
 20
0.0
 30
0.0
  9
$UCSYDIR
 10
0.0
 20
1.0
 30
0.0
  9
$UCSORTHOREF
  2

  9
$UCSORTHOVIEW
 70
     0
  9
$UCSORGTOP
 10
0.0
 20
0.0
 30
0.0
  9
$UCSORGBOTTOM
 10
0.0
 20
0.0
 30
0.0
  9
$UCSORGLEFT
 10
0.0
 20
0.0
 30
0.0
  9
$UCSORGRIGHT
 10
0.0
 20
0.0
 30
0.0
  9
$UCSORGFRONT
 10
0.0
 20
0.0
 30
0.0
  9
$UCSORGBACK
 10
0.0
 20
0.0
 30
0.0
  9
$PUCSBASE
  2

  9
$PUCSNAME
  2

  9
$PUCSORG
 10
0.0
 20
0.0
 30
0.0
  9
$PUCSXDIR
 10
1.0
 20
0.0
 30
0.0
  9
$PUCSYDIR
 10
0.0
 20
1.0
 30
0.0
  9
$PUCSORTHOREF
  2

  9
$PUCSORTHOVIEW
 70
     0
  9
$PUCSORGTOP
 10
0.0
 20
0.0
 30
0.0
  9
$PUCSORGBOTTOM
 10
0.0
 20
0.0
 30
0.0
  9
$PUCSORGLEFT
 10
0.0
 20
0.0
 30
0.0
  9
$PUCSORGRIGHT
 10
0.0
 20
0.0
 30
0.0
  9
$PUCSORGFRONT
 10
0.0
 20
0.0
 30
0.0
  9
$PUCSORGBACK
 10
0.0
 20
0.0
 30
0.0
  9
$USERI1
 70
     0
  9
$USERI2
 70
     0
  9
$USERI3
 70
     0
  9
$USERI4
 70
     0
  9
$USERI5
 70
     0
  9
$USERR1
 40
0.0
  9
$USERR2
 40
0.0
  9
$USERR3
 40
0.0
  9
$USERR4
 40
0.0
  9
$USERR5
 40
0.0
  9
$WORLDVIEW
 70
     1
  9
$SHADEDGE
 70
     3
  9
$SHADEDIF
 70
    70
  9
$TILEMODE
 70
     1
  9
$MAXACTVP
 70
    64
  9
$PINSBASE
 10
0.0
 20
0.0
 30
0.0
  9
$PLIMCHECK
 70
     0
  9
$PEXTMIN
 10
1.000000000000000E+20
 20
1.000000000000000E+20
 30
1.000000000000000E+20
  9
$PEXTMAX
 10
-1.000000000000000E+20
 20
-1.000000000000000E+20
 30
-1.000000000000000E+20
  9
$PLIMMIN
 10
0.0
 20
0.0
  9
$PLIMMAX
 10
0.0
 20
0.0
  9
$UNITMODE
 70
     0
  9
$VISRETAIN
 70
     1
  9
$PLINEGEN
 70
     0
  9
$PSLTSCALE
 70
     1
  9
$TREEDEPTH
 70
  3020
  9
$CMLSTYLE
  2
Standard
  9
$CMLJUST
 70
     0
  9
$CMLSCALE
 40
20.0
  9
$PROXYGRAPHICS
 70
     1
  9
$MEASUREMENT
 70
     1
  9
$CELWEIGHT
370
    -1
  9
$ENDCAPS
280
     0
  9
$JOINSTYLE
280
     0
  9
$LWDISPLAY
290
     1
  9
$INSUNITS
 70
     4
  9
$HYPERLINKBASE
  1

  9
$STYLESHEET
  1

  9
$XEDIT
290
     1
  9
$CEPSNTYPE
380
     0
  9
$PSTYLEMODE
290
     1
  9
$FINGERPRINTGUID
  2
{DD0CC118-1F57-43D4-AF59-3BDB3DD85CC2}
  9
$VERSIONGUID
  2
{FAEB1C32-E019-11D5-929B-00C0DF256EC4}
  9
$EXTNAMES
290
     1
  9
$PSVPSCALE
 40
0.0
  9
$OLESTARTUP
290
     0
  0
ENDSEC
  0
SECTION
  2
CLASSES
  0
CLASS
  1
ACDBDICTIONARYWDFLT
  2
AcDbDictionaryWithDefault
  3
ObjectDBX Classes
 90
        0
280
     0
281
     0
  0
CLASS
  1
VISUALSTYLE
  2
AcDbVisualStyle
  3
ObjectDBX Classes
 90
     4095
280
     0
281
     0
  0
CLASS
  1
MATERIAL
  2
AcDbMaterial
  3
ObjectDBX Classes
 90
     1153
280
     0
281
     0
  0
CLASS
  1
SCALE
  2
AcDbScale
  3
ObjectDBX Classes
 90
     1153
280
     0
281
     0
  0
CLASS
  1
TABLESTYLE
  2
AcDbTableStyle
  3
ObjectDBX Classes
 90
     4095
280
     0
281
     0
  0
CLASS
  1
MLEADERSTYLE
  2
AcDbMLeaderStyle
  3
ACDB_MLEADERSTYLE_CLASS
 90
     4095
280
     0
281
     0
  0
CLASS
  1
SUN
  2
AcDbSun
  3
SCENEOE
 90
     1153
280
     0
281
     0
  0
CLASS
  1
ACDBPLACEHOLDER
  2
AcDbPlaceHolder
  3
ObjectDBX Classes
 90
        0
280
     0
281
     0
  0
CLASS
  1
LAYOUT
  2
AcDbLayout
  3
ObjectDBX Classes
 90
        0
280
     0
281
     0
  0
CLASS
  1
RASTERVARIABLES
  2
AcDbRasterVariables
  3
ISM
 90
        0
280
     0
281
     0
  0
ENDSEC
  0
SECTION
  2
TABLES
  0
TABLE
  2
VPORT
  5
8
330
0
100
AcDbSymbolTable
 70
     1
  0
VPORT
  5
29
330
8
100
AcDbSymbolTableRecord
100
AcDbViewportTableRecord
  2
*Active
 70
     0
 10
0.0
 20
0.0
 11
1.0
 21
1.0
 12
144.9356771553
 22
138.4321141404
 13
0.0
 23
0.0
 14
10.0
 24
10.0
 15
10.0
 25
10.0
 16
0.0
 26
0.0
 36
1.0
 17
0.0
 27
0.0
 37
0.0
 40
302.440761610572
 41
2.12981455064194
 42
50.0
 43
0.0
 44
0.0
 50
0.0
 51
0.0
 71
    16
 72
  2000
 73
     1
 74
     3
 75
     0
 76
     0
 77
     0
 78
     0
281
     0
 65
     1
110
0.0
120
0.0
130
0.0
111
1.0
121
0.0
131
0.0
112
0.0
122
1.0
132
0.0
 79
     0
146
0.0
  0
ENDTAB
  0
TABLE
  2
LTYPE
  5
5
330
0
100
AcDbSymbolTable
 70
     6
  0
LTYPE
  5
14
330
5
100
AcDbSymbolTableRecord
100
AcDbLinetypeTableRecord
  2
ByBlock
 70
     0
  3

 72
    65
 73
     0
 40
0.0
  0
LTYPE
  5
15
330
5
100
AcDbSymbolTableRecord
100
AcDbLinetypeTableRecord
  2
ByLayer
 70
     0
  3

 72
    65
 73
     0
 40
0.0
  0
LTYPE
  5
16
330
5
100
AcDbSymbolTableRecord
100
AcDbLinetypeTableRecord
  2
Continuous
 70
     0
  3
Solid line
 72
    65
 73
     0
 40
0.0
  0
LTYPE
  5
6E
330
5
100
AcDbSymbolTableRecord
100
AcDbLinetypeTableRecord
  2
HIDDEN
 70
     0
  3
Hidden __ __ __ __ __ __ __ __ __ __ __ __ __ __
 72
    65
 73
     2
 40
1.905
 49
1.27
 74
     0
 49
-0.635
 74
     0
  0
LTYPE
  5
6F
330
5
100
AcDbSymbolTableRecord
100
AcDbLinetypeTableRecord
  2
PHANTOM
 70
     0
  3
Phantom ______  __  __  ______  __  __  ______
 72
    65
 73
     6
 40
12.7
 49
6.35
 74
     0
 49
-1.27
 74
     0
 49
1.27
 74
     0
 49
-1.27
 74
     0
 49
1.27
 74
     0
 49
-1.27
 74
     0
  0
LTYPE
  5
70
330
5
100
AcDbSymbolTableRecord
100
AcDbLinetypeTableRecord
  2
CENTER
 70
     0
  3
Center ____ _ ____ _ ____ _ ____ _ ____ _ ____
 72
    65
 73
     4
 40
10.16
 49
6.35
 74
     0
 49
-1.27
 74
     0
 49
1.27
 74
     0
 49
-1.27
 74
     0
  0
LTYPE
  5
71
330
5
100
AcDbSymbolTableRecord
100
AcDbLinetypeTableRecord
  2
CENTERX2
 70
     0
  3
Center (2x) ________  __  ________  __  _____
 72
    65
 73
     4
 40
20.32
 49
12.7
 74
     0
 49
-2.54
 74
     0
 49
2.54
 74
     0
 49
-2.54
 74
     0
  0
LTYPE
  5
72
330
5
100
AcDbSymbolTableRecord
100
AcDbLinetypeTableRecord
  2
DOT2
 70
     0
  3
Dot (.5x) ........................................
 72
    65
 73
     2
 40
0.635
 49
0.0
 74
     0
 49
-0.635
 74
     0
  0
ENDTAB
  0
TABLE
  2
LAYER
  5
2
330
0
100
AcDbSymbolTable
 70
     5
  0
LAYER
  5
10
330
2
100
AcDbSymbolTableRecord
100
AcDbLayerTableRecord
  2
0
 70
     0
 62
     7
  6
Continuous
370
    -3
390
F
  0
LAYER
  5
73
330
2
100
AcDbSymbolTableRecord
100
AcDbLayerTableRecord
  2
QUOTE
 70
     0
 62
     3
  6
Continuous
370
    -3
390
F
  0
LAYER
  5
74
330
2
100
AcDbSymbolTableRecord
100
AcDbLayerTableRecord
  2
ASSI
 70
     0
 62
     1
  6
CENTERX2
370
    -3
390
F
  0
LAYER
  5
75
330
2
100
AcDbSymbolTableRecord
100
AcDbLayerTableRecord
  2
TRATTEGGIO
 70
     0
 62
     4
  6
Continuous
370
    -3
390
F
  0
LAYER
  5
2E8
330
2
100
AcDbSymbolTableRecord
100
AcDbLayerTableRecord
  2
Defpoints
 70
     0
 62
     7
  6
Continuous
290
     0
370
    -3
390
F
  0
ENDTAB
  0
TABLE
  2
STYLE
  5
3
330
0
100
AcDbSymbolTable
 70
     2
  0
STYLE
  5
11
330
3
100
AcDbSymbolTableRecord
100
AcDbTextStyleTableRecord
  2
Standard
 70
     0
 40
0.0
 41
1.0
 50
0.0
 71
     0
 42
2.8
  3
txt
  4

  0
STYLE
  5
76
330
3
100
AcDbSymbolTableRecord
100
AcDbTextStyleTableRecord
  2
SLDTEXTSTYLE0
 70
     0
 40
0.0
 41
0.75
 50
0.0
 71
     0
 42
2.8
  3
TXT
  4

  0
ENDTAB
  0
TABLE
  2
VIEW
  5
6
330
0
100
AcDbSymbolTable
 70
     0
  0
ENDTAB
  0
TABLE
  2
UCS
  5
7
330
0
100
AcDbSymbolTable
 70
     0
  0
ENDTAB
  0
TABLE
  2
APPID
  5
9
330
0
100
AcDbSymbolTable
 70
     1
  0
APPID
  5
12
330
9
100
AcDbSymbolTableRecord
100
AcDbRegAppTableRecord
  2
ACAD
 70
     0
  0
ENDTAB
  0
TABLE
  2
DIMSTYLE
  5
A
330
0
100
AcDbSymbolTable
 70
     1
100
AcDbDimStyleTable
  0
DIMSTYLE
105
27
330
A
100
AcDbSymbolTableRecord
100
AcDbDimStyleTableRecord
  2
ISO-25
 70
     0
 41
2.5
 42
0.625
 43
3.75
 44
1.25
 73
     0
 74
     0
 77
     1
 78
     8
140
2.5
141
2.5
143
0.0393700787
147
0.625
171
     3
172
     1
178
     0
271
     2
272
     2
274
     3
278
    44
283
     0
284
     8
340
11
  0
ENDTAB
  0
TABLE
  2
BLOCK_RECORD
  5
1
330
0
100
AcDbSymbolTable
 70
     9
  0
BLOCK_RECORD
  5
1F
330
1
100
AcDbSymbolTableRecord
100
AcDbBlockTableRecord
  2
*Model_Space
340
22
  0
BLOCK_RECORD
  5
1B
330
1
100
AcDbSymbolTableRecord
100
AcDbBlockTableRecord
  2
*Paper_Space
340
1E
  0
BLOCK_RECORD
  5
23
330
1
100
AcDbSymbolTableRecord
100
AcDbBlockTableRecord
  2
*Paper_Space0
340
26
  0
BLOCK_RECORD
  5
A9
330
1
100
AcDbSymbolTableRecord
100
AcDbBlockTableRecord
  2
SW_CENTERMARKSYMBOL_0
340
0
102
{BLKREFS
331
B4
102
}
  0
BLOCK_RECORD
  5
B5
330
1
100
AcDbSymbolTableRecord
100
AcDbBlockTableRecord
  2
SW_CENTERMARKSYMBOL_1
340
0
102
{BLKREFS
331
C0
102
}
  0
BLOCK_RECORD
  5
F8
330
1
100
AcDbSymbolTableRecord
100
AcDbBlockTableRecord
  2
SW_CENTERMARKSYMBOL_2
340
0
102
{BLKREFS
331
103
102
}
  0
BLOCK_RECORD
  5
13F
330
1
100
AcDbSymbolTableRecord
100
AcDbBlockTableRecord
  2
SW_CENTERMARKSYMBOL_3
340
0
102
{BLKREFS
331
14A
102
}
  0
BLOCK_RECORD
  5
1AE
330
1
100
AcDbSymbolTableRecord
100
AcDbBlockTableRecord
  2
SW_CENTERMARKSYMBOL_4
340
0
102
{BLKREFS
331
1B9
102
}
  0
BLOCK_RECORD
  5
1BA
330
1
100
AcDbSymbolTableRecord
100
AcDbBlockTableRecord
  2
SW_CENTERMARKSYMBOL_5
340
0
102
{BLKREFS
331
1C5
102
}
  0
BLOCK_RECORD
  5
1C6
330
1
100
AcDbSymbolTableRecord
100
AcDbBlockTableRecord
  2
SW_CENTERMARKSYMBOL_6
340
0
102
{BLKREFS
331
1D1
102
}
  0
BLOCK_RECORD
  5
1D2
330
1
100
AcDbSymbolTableRecord
100
AcDbBlockTableRecord
  2
SW_CENTERMARKSYMBOL_7
340
0
102
{BLKREFS
331
1DD
102
}
  0
ENDTAB
  0
ENDSEC
  0
SECTION
  2
BLOCKS
  0
BLOCK
  5
20
330
1F
100
AcDbEntity
  8
0
100
AcDbBlockBegin
  2
*Model_Space
 70
     0
 10
0.0
 20
0.0
 30
0.0
  3
*Model_Space
  1
*Model_Space
  0
ENDBLK
  5
21
330
1F
100
AcDbEntity
  8
0
100
AcDbBlockEnd
  0
BLOCK
  5
1C
330
1B
100
AcDbEntity
 67
     1
  8
0
100
AcDbBlockBegin
  2
*Paper_Space
 70
     0
 10
0.0
 20
0.0
 30
0.0
  3
*Paper_Space
  1
*Paper_Space
  0
ENDBLK
  5
1D
330
1B
100
AcDbEntity
 67
     1
  8
0
100
AcDbBlockEnd
  0
BLOCK
  5
24
330
23
100
AcDbEntity
  8
0
100
AcDbBlockBegin
  2
*Paper_Space0
 70
     0
 10
0.0
 20
0.0
 30
0.0
  3
*Paper_Space0
  1
*Paper_Space0
  0
ENDBLK
  5
25
330
23
100
AcDbEntity
  8
0
100
AcDbBlockEnd
  0
BLOCK
  5
AA
330
A9
100
AcDbEntity
  8
0
100
AcDbBlockBegin
  2
SW_CENTERMARKSYMBOL_0
 70
     0
 10
0.0
 20
0.0
 30
0.0
  3
SW_CENTERMARKSYMBOL_0
  1
SW_CENTERMARKSYMBOL_0
  0
LINE
  5
AC
330
A9
100
AcDbEntity
  8
ASSI
 62
     0
100
AcDbLine
 10
0.0
 20
0.0
 30
0.0
 11
0.0
 21
2.5
 31
0.0
  0
LINE
  5
AD
330
A9
100
AcDbEntity
  8
ASSI
 62
     0
100
AcDbLine
 10
0.0
 20
0.0
 30
0.0
 11
-2.5
 21
0.0
 31
0.0
  0
LINE
  5
AE
330
A9
100
AcDbEntity
  8
ASSI
 62
     0
100
AcDbLine
 10
0.0
 20
0.0
 30
0.0
 11
0.0
 21
-2.5
 31
0.0
  0
LINE
  5
AF
330
A9
100
AcDbEntity
  8
ASSI
 62
     0
100
AcDbLine
 10
0.0
 20
0.0
 30
0.0
 11
2.5
 21
0.0
 31
0.0
  0
LINE
  5
B0
330
A9
100
AcDbEntity
  8
ASSI
 62
     0
100
AcDbLine
 10
0.0
 20
5.0
 30
0.0
 11
0.0
 21
11.5
 31
0.0
  0
LINE
  5
B1
330
A9
100
AcDbEntity
  8
ASSI
 62
     0
100
AcDbLine
 10
-5.0
 20
0.0
 30
0.0
 11
-11.5
 21
0.0
 31
0.0
  0
LINE
  5
B2
330
A9
100
AcDbEntity
  8
ASSI
 62
     0
100
AcDbLine
 10
0.0
 20
-5.0
 30
0.0
 11
0.0
 21
-11.5
 31
0.0
  0
LINE
  5
B3
330
A9
100
AcDbEntity
  8
ASSI
 62
     0
100
AcDbLine
 10
5.0
 20
0.0
 30
0.0
 11
11.5
 21
0.0
 31
0.0
  0
ENDBLK
  5
AB
330
A9
100
AcDbEntity
  8
0
100
AcDbBlockEnd
  0
BLOCK
  5
B6
330
B5
100
AcDbEntity
  8
0
100
AcDbBlockBegin
  2
SW_CENTERMARKSYMBOL_1
 70
     0
 10
0.0
 20
0.0
 30
0.0
  3
SW_CENTERMARKSYMBOL_1
  1
SW_CENTERMARKSYMBOL_1
  0
LINE
  5
B8
330
B5
100
AcDbEntity
  8
ASSI
 62
     0
100
AcDbLine
 10
0.0
 20
0.0
 30
0.0
 11
0.0
 21
2.5
 31
0.0
  0
LINE
  5
B9
330
B5
100
AcDbEntity
  8
ASSI
 62
     0
100
AcDbLine
 10
0.0
 20
0.0
 30
0.0
 11
-2.5
 21
0.0
 31
0.0
  0
LINE
  5
BA
330
B5
100
AcDbEntity
  8
ASSI
 62
     0
100
AcDbLine
 10
0.0
 20
0.0
 30
0.0
 11
0.0
 21
-2.5
 31
0.0
  0
LINE
  5
BB
330
B5
100
AcDbEntity
  8
ASSI
 62
     0
100
AcDbLine
 10
0.0
 20
0.0
 30
0.0
 11
2.5
 21
0.0
 31
0.0
  0
LINE
  5
BC
330
B5
100
AcDbEntity
  8
ASSI
 62
     0
100
AcDbLine
 10
0.0
 20
5.0
 30
0.0
 11
0.0
 21
11.5
 31
0.0
  0
LINE
  5
BD
330
B5
100
AcDbEntity
  8
ASSI
 62
     0
100
AcDbLine
 10
-5.0
 20
0.0
 30
0.0
 11
-11.5
 21
0.0
 31
0.0
  0
LINE
  5
BE
330
B5
100
AcDbEntity
  8
ASSI
 62
     0
100
AcDbLine
 10
0.0
 20
-5.0
 30
0.0
 11
0.0
 21
-11.5
 31
0.0
  0
LINE
  5
BF
330
B5
100
AcDbEntity
  8
ASSI
 62
     0
100
AcDbLine
 10
5.0
 20
0.0
 30
0.0
 11
11.5
 21
0.0
 31
0.0
  0
ENDBLK
  5
B7
330
B5
100
AcDbEntity
  8
0
100
AcDbBlockEnd
  0
BLOCK
  5
F9
330
F8
100
AcDbEntity
  8
0
100
AcDbBlockBegin
  2
SW_CENTERMARKSYMBOL_2
 70
     0
 10
0.0
 20
0.0
 30
0.0
  3
SW_CENTERMARKSYMBOL_2
  1
SW_CENTERMARKSYMBOL_2
  0
LINE
  5
FB
330
F8
100
AcDbEntity
  8
ASSI
 62
     0
100
AcDbLine
 10
0.0
 20
0.0
 30
0.0
 11
0.0
 21
2.5
 31
0.0
  0
LINE
  5
FC
330
F8
100
AcDbEntity
  8
ASSI
 62
     0
100
AcDbLine
 10
0.0
 20
0.0
 30
0.0
 11
-2.5
 21
0.0
 31
0.0
  0
LINE
  5
FD
330
F8
100
AcDbEntity
  8
ASSI
 62
     0
100
AcDbLine
 10
0.0
 20
0.0
 30
0.0
 11
0.0
 21
-2.5
 31
0.0
  0
LINE
  5
FE
330
F8
100
AcDbEntity
  8
ASSI
 62
     0
100
AcDbLine
 10
0.0
 20
0.0
 30
0.0
 11
2.5
 21
0.0
 31
0.0
  0
LINE
  5
FF
330
F8
100
AcDbEntity
  8
ASSI
 62
     0
100
AcDbLine
 10
0.0
 20
5.0
 30
0.0
 11
0.0
 21
6.5
 31
0.0
  0
LINE
  5
100
330
F8
100
AcDbEntity
  8
ASSI
 62
     0
100
AcDbLine
 10
-5.0
 20
0.0
 30
0.0
 11
-6.5
 21
0.0
 31
0.0
  0
LINE
  5
101
330
F8
100
AcDbEntity
  8
ASSI
 62
     0
100
AcDbLine
 10
0.0
 20
-5.0
 30
0.0
 11
0.0
 21
-6.5
 31
0.0
  0
LINE
  5
102
330
F8
100
AcDbEntity
  8
ASSI
 62
     0
100
AcDbLine
 10
5.0
 20
0.0
 30
0.0
 11
6.5
 21
0.0
 31
0.0
  0
ENDBLK
  5
FA
330
F8
100
AcDbEntity
  8
0
100
AcDbBlockEnd
  0
BLOCK
  5
140
330
13F
100
AcDbEntity
  8
0
100
AcDbBlockBegin
  2
SW_CENTERMARKSYMBOL_3
 70
     0
 10
0.0
 20
0.0
 30
0.0
  3
SW_CENTERMARKSYMBOL_3
  1
SW_CENTERMARKSYMBOL_3
  0
LINE
  5
142
330
13F
100
AcDbEntity
  8
ASSI
 62
     0
100
AcDbLine
 10
0.0
 20
0.0
 30
0.0
 11
0.0
 21
2.5
 31
0.0
  0
LINE
  5
143
330
13F
100
AcDbEntity
  8
ASSI
 62
     0
100
AcDbLine
 10
0.0
 20
0.0
 30
0.0
 11
-2.5
 21
0.0
 31
0.0
  0
LINE
  5
144
330
13F
100
AcDbEntity
  8
ASSI
 62
     0
100
AcDbLine
 10
0.0
 20
0.0
 30
0.0
 11
0.0
 21
-2.5
 31
0.0
  0
LINE
  5
145
330
13F
100
AcDbEntity
  8
ASSI
 62
     0
100
AcDbLine
 10
0.0
 20
0.0
 30
0.0
 11
2.5
 21
0.0
 31
0.0
  0
LINE
  5
146
330
13F
100
AcDbEntity
  8
ASSI
 62
     0
100
AcDbLine
 10
0.0
 20
5.0
 30
0.0
 11
0.0
 21
6.5
 31
0.0
  0
LINE
  5
147
330
13F
100
AcDbEntity
  8
ASSI
 62
     0
100
AcDbLine
 10
-5.0
 20
0.0
 30
0.0
 11
-6.5
 21
0.0
 31
0.0
  0
LINE
  5
148
330
13F
100
AcDbEntity
  8
ASSI
 62
     0
100
AcDbLine
 10
0.0
 20
-5.0
 30
0.0
 11
0.0
 21
-6.5
 31
0.0
  0
LINE
  5
149
330
13F
100
AcDbEntity
  8
ASSI
 62
     0
100
AcDbLine
 10
5.0
 20
0.0
 30
0.0
 11
6.5
 21
0.0
 31
0.0
  0
ENDBLK
  5
141
330
13F
100
AcDbEntity
  8
0
100
AcDbBlockEnd
  0
BLOCK
  5
1AF
330
1AE
100
AcDbEntity
  8
0
100
AcDbBlockBegin
  2
SW_CENTERMARKSYMBOL_4
 70
     0
 10
0.0
 20
0.0
 30
0.0
  3
SW_CENTERMARKSYMBOL_4
  1
SW_CENTERMARKSYMBOL_4
  0
LINE
  5
1B1
330
1AE
100
AcDbEntity
  8
ASSI
 62
     0
100
AcDbLine
 10
0.0
 20
0.0
 30
0.0
 11
0.0
 21
2.5
 31
0.0
  0
LINE
  5
1B2
330
1AE
100
AcDbEntity
  8
ASSI
 62
     0
100
AcDbLine
 10
0.0
 20
0.0
 30
0.0
 11
-2.5
 21
0.0
 31
0.0
  0
LINE
  5
1B3
330
1AE
100
AcDbEntity
  8
ASSI
 62
     0
100
AcDbLine
 10
0.0
 20
0.0
 30
0.0
 11
0.0
 21
-2.5
 31
0.0
  0
LINE
  5
1B4
330
1AE
100
AcDbEntity
  8
ASSI
 62
     0
100
AcDbLine
 10
0.0
 20
0.0
 30
0.0
 11
2.5
 21
0.0
 31
0.0
  0
LINE
  5
1B5
330
1AE
100
AcDbEntity
  8
ASSI
 62
     0
100
AcDbLine
 10
0.0
 20
5.0
 30
0.0
 11
0.0
 21
5.7
 31
0.0
  0
LINE
  5
1B6
330
1AE
100
AcDbEntity
  8
ASSI
 62
     0
100
AcDbLine
 10
-5.0
 20
0.0
 30
0.0
 11
-5.7
 21
0.0
 31
0.0
  0
LINE
  5
1B7
330
1AE
100
AcDbEntity
  8
ASSI
 62
     0
100
AcDbLine
 10
0.0
 20
-5.0
 30
0.0
 11
0.0
 21
-5.7
 31
0.0
  0
LINE
  5
1B8
330
1AE
100
AcDbEntity
  8
ASSI
 62
     0
100
AcDbLine
 10
5.0
 20
0.0
 30
0.0
 11
5.7
 21
0.0
 31
0.0
  0
ENDBLK
  5
1B0
330
1AE
100
AcDbEntity
  8
0
100
AcDbBlockEnd
  0
BLOCK
  5
1BB
330
1BA
100
AcDbEntity
  8
0
100
AcDbBlockBegin
  2
SW_CENTERMARKSYMBOL_5
 70
     0
 10
0.0
 20
0.0
 30
0.0
  3
SW_CENTERMARKSYMBOL_5
  1
SW_CENTERMARKSYMBOL_5
  0
LINE
  5
1BD
330
1BA
100
AcDbEntity
  8
ASSI
 62
     0
100
AcDbLine
 10
0.0
 20
0.0
 30
0.0
 11
0.0
 21
2.5
 31
0.0
  0
LINE
  5
1BE
330
1BA
100
AcDbEntity
  8
ASSI
 62
     0
100
AcDbLine
 10
0.0
 20
0.0
 30
0.0
 11
-2.5
 21
0.0
 31
0.0
  0
LINE
  5
1BF
330
1BA
100
AcDbEntity
  8
ASSI
 62
     0
100
AcDbLine
 10
0.0
 20
0.0
 30
0.0
 11
0.0
 21
-2.5
 31
0.0
  0
LINE
  5
1C0
330
1BA
100
AcDbEntity
  8
ASSI
 62
     0
100
AcDbLine
 10
0.0
 20
0.0
 30
0.0
 11
2.5
 21
0.0
 31
0.0
  0
LINE
  5
1C1
330
1BA
100
AcDbEntity
  8
ASSI
 62
     0
100
AcDbLine
 10
0.0
 20
2.5
 30
0.0
 11
0.0
 21
4.0
 31
0.0
  0
LINE
  5
1C2
330
1BA
100
AcDbEntity
  8
ASSI
 62
     0
100
AcDbLine
 10
-2.5
 20
0.0
 30
0.0
 11
-4.0
 21
0.0
 31
0.0
  0
LINE
  5
1C3
330
1BA
100
AcDbEntity
  8
ASSI
 62
     0
100
AcDbLine
 10
0.0
 20
-2.5
 30
0.0
 11
0.0
 21
-4.0
 31
0.0
  0
LINE
  5
1C4
330
1BA
100
AcDbEntity
  8
ASSI
 62
     0
100
AcDbLine
 10
2.5
 20
0.0
 30
0.0
 11
4.0
 21
0.0
 31
0.0
  0
ENDBLK
  5
1BC
330
1BA
100
AcDbEntity
  8
0
100
AcDbBlockEnd
  0
BLOCK
  5
1C7
330
1C6
100
AcDbEntity
  8
0
100
AcDbBlockBegin
  2
SW_CENTERMARKSYMBOL_6
 70
     0
 10
0.0
 20
0.0
 30
0.0
  3
SW_CENTERMARKSYMBOL_6
  1
SW_CENTERMARKSYMBOL_6
  0
LINE
  5
1C9
330
1C6
100
AcDbEntity
  8
ASSI
 62
     0
100
AcDbLine
 10
0.0
 20
0.0
 30
0.0
 11
0.0
 21
2.5
 31
0.0
  0
LINE
  5
1CA
330
1C6
100
AcDbEntity
  8
ASSI
 62
     0
100
AcDbLine
 10
0.0
 20
0.0
 30
0.0
 11
-2.5
 21
0.0
 31
0.0
  0
LINE
  5
1CB
330
1C6
100
AcDbEntity
  8
ASSI
 62
     0
100
AcDbLine
 10
0.0
 20
0.0
 30
0.0
 11
0.0
 21
-2.5
 31
0.0
  0
LINE
  5
1CC
330
1C6
100
AcDbEntity
  8
ASSI
 62
     0
100
AcDbLine
 10
0.0
 20
0.0
 30
0.0
 11
2.5
 21
0.0
 31
0.0
  0
LINE
  5
1CD
330
1C6
100
AcDbEntity
  8
ASSI
 62
     0
100
AcDbLine
 10
0.0
 20
5.0
 30
0.0
 11
0.0
 21
5.7
 31
0.0
  0
LINE
  5
1CE
330
1C6
100
AcDbEntity
  8
ASSI
 62
     0
100
AcDbLine
 10
-5.0
 20
0.0
 30
0.0
 11
-5.7
 21
0.0
 31
0.0
  0
LINE
  5
1CF
330
1C6
100
AcDbEntity
  8
ASSI
 62
     0
100
AcDbLine
 10
0.0
 20
-5.0
 30
0.0
 11
0.0
 21
-5.7
 31
0.0
  0
LINE
  5
1D0
330
1C6
100
AcDbEntity
  8
ASSI
 62
     0
100
AcDbLine
 10
5.0
 20
0.0
 30
0.0
 11
5.7
 21
0.0
 31
0.0
  0
ENDBLK
  5
1C8
330
1C6
100
AcDbEntity
  8
0
100
AcDbBlockEnd
  0
BLOCK
  5
1D3
330
1D2
100
AcDbEntity
  8
0
100
AcDbBlockBegin
  2
SW_CENTERMARKSYMBOL_7
 70
     0
 10
0.0
 20
0.0
 30
0.0
  3
SW_CENTERMARKSYMBOL_7
  1
SW_CENTERMARKSYMBOL_7
  0
LINE
  5
1D5
330
1D2
100
AcDbEntity
  8
ASSI
 62
     0
100
AcDbLine
 10
0.0
 20
0.0
 30
0.0
 11
0.0
 21
2.5
 31
0.0
  0
LINE
  5
1D6
330
1D2
100
AcDbEntity
  8
ASSI
 62
     0
100
AcDbLine
 10
0.0
 20
0.0
 30
0.0
 11
-2.5
 21
0.0
 31
0.0
  0
LINE
  5
1D7
330
1D2
100
AcDbEntity
  8
ASSI
 62
     0
100
AcDbLine
 10
0.0
 20
0.0
 30
0.0
 11
0.0
 21
-2.5
 31
0.0
  0
LINE
  5
1D8
330
1D2
100
AcDbEntity
  8
ASSI
 62
     0
100
AcDbLine
 10
0.0
 20
0.0
 30
0.0
 11
2.5
 21
0.0
 31
0.0
  0
LINE
  5
1D9
330
1D2
100
AcDbEntity
  8
ASSI
 62
     0
100
AcDbLine
 10
0.0
 20
5.0
 30
0.0
 11
0.0
 21
5.7
 31
0.0
  0
LINE
  5
1DA
330
1D2
100
AcDbEntity
  8
ASSI
 62
     0
100
AcDbLine
 10
-5.0
 20
0.0
 30
0.0
 11
-5.7
 21
0.0
 31
0.0
  0
LINE
  5
1DB
330
1D2
100
AcDbEntity
  8
ASSI
 62
     0
100
AcDbLine
 10
0.0
 20
-5.0
 30
0.0
 11
0.0
 21
-5.7
 31
0.0
  0
LINE
  5
1DC
330
1D2
100
AcDbEntity
  8
ASSI
 62
     0
100
AcDbLine
 10
5.0
 20
0.0
 30
0.0
 11
5.7
 21
0.0
 31
0.0
  0
ENDBLK
  5
1D4
330
1D2
100
AcDbEntity
  8
0
100
AcDbBlockEnd
  0
ENDSEC
  0
SECTION
  2
ENTITIES
  0
MTEXT
  5
77
330
1F
100
AcDbEntity
  8
0
  6
Continuous
 62
     7
370
     0
100
AcDbMText
 10
195.6445354238
 20
266.3007688634
 30
0.0
 40
12.7
 41
0.0
 71
     1
 72
     1
  1
8674
  7
SLDTEXTSTYLE0
 73
     1
 44
1.0
  0
LINE
  5
78
330
1F
100
AcDbEntity
  8
0
100
AcDbLine
 10
144.1313406901
 20
171.3888194583
 30
0.0
 11
144.2713406901
 21
171.6688194584
 31
0.0
  0
LINE
  5
79
330
1F
100
AcDbEntity
  8
0
100
AcDbLine
 10
144.2713406901
 20
173.6688194584
 30
0.0
 11
144.1313406901
 21
173.9488194585
 31
0.0
  0
LINE
  5
7A
330
1F
100
AcDbEntity
  8
0
100
AcDbLine
 10
161.6309995086
 20
146.1688194584
 30
0.0
 11
162.1309995086
 21
146.2569829488
 31
0.0
  0
LINE
  5
7B
330
1F
100
AcDbEntity
  8
0
100
AcDbLine
 10
162.1309995086
 20
199.080655968
 30
0.0
 11
161.6309995086
 21
199.1688194584
 31
0.0
  0
LINE
  5
7C
330
1F
100
AcDbEntity
  8
0
100
AcDbLine
 10
144.2713406901
 20
171.6688194584
 30
0.0
 11
144.2713406901
 21
173.6688194584
 31
0.0
  0
LINE
  5
7D
330
1F
100
AcDbEntity
  8
0
100
AcDbLine
 10
160.1724513929
 20
146.1688194584
 30
0.0
 11
162.1309995086
 21
146.1688194584
 31
0.0
  0
LINE
  5
7E
330
1F
100
AcDbEntity
  8
0
100
AcDbLine
 10
162.1417359036
 20
199.1688194584
 30
0.0
 11
160.1724513929
 21
199.1688194584
 31
0.0
  0
LINE
  5
7F
330
1F
100
AcDbEntity
  8
0
100
AcDbLine
 10
101.1309995056
 20
122.6688194584
 30
0.0
 11
101.1309995056
 21
222.6688194584
 31
0.0
  0
LINE
  5
80
330
1F
100
AcDbEntity
  8
0
100
AcDbLine
 10
101.1313406901
 20
222.6688194584
 30
0.0
 11
101.1309995056
 21
222.6688194584
 31
0.0
  0
LINE
  5
81
330
1F
100
AcDbEntity
  8
0
100
AcDbLine
 10
101.1313406901
 20
122.6688194584
 30
0.0
 11
101.1309995056
 21
122.6688194584
 31
0.0
  0
LINE
  5
82
330
1F
100
AcDbEntity
  8
0
100
AcDbLine
 10
144.6309995056
 20
222.6688194584
 30
0.0
 11
144.1313406901
 21
222.6688194584
 31
0.0
  0
LINE
  5
83
330
1F
100
AcDbEntity
  8
0
100
AcDbLine
 10
144.6309995056
 20
122.6688194584
 30
0.0
 11
144.1313406901
 21
122.6688194584
 31
0.0
  0
LINE
  5
84
330
1F
100
AcDbEntity
  8
0
100
AcDbLine
 10
155.5536492394
 20
222.6688194584
 30
0.0
 11
146.8933952016
 21
222.6688194584
 31
0.0
  0
LINE
  5
85
330
1F
100
AcDbEntity
  8
0
100
AcDbLine
 10
155.5536492394
 20
122.6688194584
 30
0.0
 11
146.8933952016
 21
122.6688194584
 31
0.0
  0
LINE
  5
86
330
1F
100
AcDbEntity
  8
0
100
AcDbLine
 10
146.8933952016
 20
222.6688194584
 30
0.0
 11
144.6309995056
 21
222.6688194584
 31
0.0
  0
LINE
  5
87
330
1F
100
AcDbEntity
  8
0
100
AcDbLine
 10
146.8933952016
 20
122.6688194584
 30
0.0
 11
144.6309995056
 21
122.6688194584
 31
0.0
  0
LINE
  5
88
330
1F
100
AcDbEntity
  8
0
100
AcDbLine
 10
160.1724513929
 20
197.6688194584
 30
0.0
 11
162.1309995086
 21
197.6688194584
 31
0.0
  0
LINE
  5
89
330
1F
100
AcDbEntity
  8
0
100
AcDbLine
 10
162.1309995086
 20
147.6688194584
 30
0.0
 11
160.1724513929
 21
147.6688194584
 31
0.0
  0
LINE
  5
8A
330
1F
100
AcDbEntity
  8
0
100
AcDbLine
 10
160.1724513929
 20
122.6688194584
 30
0.0
 11
160.1724513929
 21
147.6688194584
 31
0.0
  0
LINE
  5
8B
330
1F
100
AcDbEntity
  8
0
100
AcDbLine
 10
160.1724513929
 20
222.6688194584
 30
0.0
 11
160.1724513929
 21
197.6688194584
 31
0.0
  0
LINE
  5
8C
330
1F
100
AcDbEntity
  8
0
100
AcDbLine
 10
160.1724513929
 20
222.6688194584
 30
0.0
 11
155.5536492394
 21
222.6688194584
 31
0.0
  0
LINE
  5
8D
330
1F
100
AcDbEntity
  8
0
100
AcDbLine
 10
160.1724513929
 20
122.6688194584
 30
0.0
 11
155.5536492394
 21
122.6688194584
 31
0.0
  0
LINE
  5
8E
330
1F
100
AcDbEntity
  8
0
100
AcDbLine
 10
144.1313406901
 20
122.6688194584
 30
0.0
 11
101.1313406901
 21
122.6688194584
 31
0.0
  0
LINE
  5
8F
330
1F
100
AcDbEntity
  8
0
100
AcDbLine
 10
101.1313406901
 20
122.6688194584
 30
0.0
 11
101.1313406901
 21
222.6688194584
 31
0.0
  0
LINE
  5
90
330
1F
100
AcDbEntity
  8
0
100
AcDbLine
 10
101.1313406901
 20
222.6688194584
 30
0.0
 11
144.1313406901
 21
222.6688194584
 31
0.0
  0
LINE
  5
91
330
1F
100
AcDbEntity
  8
0
100
AcDbLine
 10
144.1313406901
 20
222.6688194584
 30
0.0
 11
144.1313406901
 21
122.6688194584
 31
0.0
  0
LINE
  5
92
330
1F
100
AcDbEntity
  8
0
100
AcDbLine
 10
166.1309995086
 20
122.6688194584
 30
0.0
 11
166.1309995086
 21
222.6688194584
 31
0.0
  0
LINE
  5
93
330
1F
100
AcDbEntity
  8
0
100
AcDbLine
 10
162.1309995086
 20
122.6688194584
 30
0.0
 11
162.1309995086
 21
222.6688194584
 31
0.0
  0
LINE
  5
94
330
1F
100
AcDbEntity
  8
0
100
AcDbLine
 10
162.1309995086
 20
222.6688194584
 30
0.0
 11
166.1309995086
 21
222.6688194584
 31
0.0
  0
LINE
  5
95
330
1F
100
AcDbEntity
  8
0
100
AcDbLine
 10
162.1309995086
 20
122.6688194584
 30
0.0
 11
166.1309995086
 21
122.6688194584
 31
0.0
  0
SPLINE
  5
96
330
1F
100
AcDbEntity
  8
0
100
AcDbSpline
210
0.0
220
0.0
230
1.0
 70
     8
 71
     3
 72
    18
 73
    14
 74
     0
 42
0.000000001
 43
0.00000001
 40
0.0
 40
0.0
 40
0.0
 40
0.0
 40
0.1061734177886393
 40
0.2150289237128107
 40
0.304496019780553
 40
0.3964570712207487
 40
0.4859921511824322
 40
0.578426740226522
 40
0.6635575687421529
 40
0.7509537002911251
 40
0.8400126189224283
 40
0.9314313701106127
 40
1.0
 40
1.0
 40
1.0
 40
1.0
 10
162.1309995086009
 20
146.2688194584041
 30
0.0
 10
162.1298081233869
 20
146.2206048287191
 30
0.0
 10
162.1273952569122
 20
146.1229576007752
 30
0.0
 10
162.102594340602
 20
146.0045933867378
 30
0.0
 10
162.0584901091671
 20
145.9083553379708
 30
0.0
 10
161.9961594312
 20
145.8352325082163
 30
0.0
 10
161.9109167565491
 20
145.7785304130483
 30
0.0
 10
161.806954541227
 20
145.7390559002838
 30
0.0
 10
161.6863794230021
 20
145.7127978266419
 30
0.0
 10
161.5536568906892
 20
145.6964905027918
 30
0.0
 10
161.4070927899456
 20
145.6870939037009
 30
0.0
 10
161.2642561912944
 20
145.6828373426686
 30
0.0
 10
161.1709775783845
 20
145.6824000163642
 30
0.0
 10
161.1309995086009
 20
145.6822125836723
 30
0.0
  0
LINE
  5
97
330
1F
100
AcDbEntity
  8
0
100
AcDbLine
 10
161.1309995086
 20
145.6822125837
 30
0.0
 11
160.1724513929
 21
145.6822125837
 31
0.0
  0
LINE
  5
98
330
1F
100
AcDbEntity
  8
0
100
AcDbLine
 10
160.1724513929
 20
199.6554263331
 30
0.0
 11
161.1309995086
 21
199.6554263331
 31
0.0
  0
SPLINE
  5
99
330
1F
100
AcDbEntity
  8
0
100
AcDbSpline
210
0.0
220
0.0
230
1.0
 70
     8
 71
     3
 72
    18
 73
    14
 74
     0
 42
0.000000001
 43
0.00000001
 40
0.0
 40
0.0
 40
0.0
 40
0.0
 40
0.0931249569655085
 40
0.1889044589763145
 40
0.2820429949820891
 40
0.378011491387688
 40
0.4686608437452036
 40
0.5622573620915956
 40
0.6479179100896699
 40
0.7359911668609086
 40
0.823544989337098
 40
0.9130030692439419
 40
1.0
 40
1.0
 40
1.0
 40
1.0
 10
161.1309995086009
 20
199.6554263331359
 30
0.0
 10
161.1853278927783
 20
199.65509255931
 30
0.0
 10
161.295533302311
 20
199.65441549737
 30
0.0
 10
161.4555881785079
 20
199.6482340617668
 30
0.0
 10
161.6080005887455
 20
199.6358965975535
 30
0.0
 10
161.7442012892206
 20
199.6144413715881
 30
0.0
 10
161.8629087954263
 20
199.5802385921006
 30
0.0
 10
161.9571870243205
 20
199.5321988373191
 30
0.0
 10
162.0292384932935
 20
199.4682870430568
 30
0.0
 10
162.079625519168
 20
199.3901711083972
 30
0.0
 10
162.1117660056425
 20
199.2957111137003
 30
0.0
 10
162.1285710102513
 20
199.1890123152391
 30
0.0
 10
162.1301975714368
 20
199.1085094663317
 30
0.0
 10
162.1309995086009
 20
199.0688194584041
 30
0.0
  0
LINE
  5
9A
330
1F
100
AcDbEntity
  8
0
100
AcDbLine
 10
161.1309995086
 20
122.6688194584
 30
0.0
 11
162.1309995086
 21
122.6688194584
 31
0.0
  0
LINE
  5
9B
330
1F
100
AcDbEntity
  8
0
100
AcDbLine
 10
161.1309995086
 20
222.6688194584
 30
0.0
 11
162.1309995086
 21
222.6688194584
 31
0.0
  0
LINE
  5
9C
330
1F
100
AcDbEntity
  8
0
100
AcDbLine
 10
160.1724513929
 20
122.6688194584
 30
0.0
 11
161.1309995086
 21
122.6688194584
 31
0.0
  0
LINE
  5
9D
330
1F
100
AcDbEntity
  8
0
100
AcDbLine
 10
160.1724513929
 20
222.6688194584
 30
0.0
 11
161.1309995086
 21
222.6688194584
 31
0.0
  0
LINE
  5
9E
330
1F
100
AcDbEntity
  8
0
  6
Continuous
 62
     8
370
     0
100
AcDbLine
 10
162.1309995086
 20
146.3140508547
 30
0.0
 11
160.1724513929
 21
146.3140508547
 31
0.0
  0
LINE
  5
9F
330
1F
100
AcDbEntity
  8
0
  6
Continuous
 62
     8
370
     0
100
AcDbLine
 10
162.1309995086
 20
147.2988586078
 30
0.0
 11
160.1724513929
 21
147.2988586078
 31
0.0
  0
LINE
  5
A0
330
1F
100
AcDbEntity
  8
0
  6
Continuous
 62
     8
370
     0
100
AcDbLine
 10
160.1724513929
 20
198.0387803091
 30
0.0
 11
162.1309995086
 21
198.0387803091
 31
0.0
  0
LINE
  5
A1
330
1F
100
AcDbEntity
  8
0
  6
Continuous
 62
     8
370
     0
100
AcDbLine
 10
160.1724513929
 20
199.0235880621
 30
0.0
 11
162.119944891
 21
199.0235880621
 31
0.0
  0
LINE
  5
A2
330
1F
100
AcDbEntity
  8
0
  6
Continuous
 62
     8
370
     0
100
AcDbLine
 10
144.6309995056
 20
122.6688194584
 30
0.0
 11
144.6309995056
 21
222.6688194584
 31
0.0
  0
LINE
  5
A3
330
1F
100
AcDbEntity
  8
0
  6
Continuous
 62
     8
370
     0
100
AcDbLine
 10
155.5536492394
 20
122.6688194584
 30
0.0
 11
155.5536492394
 21
222.6688194584
 31
0.0
  0
LINE
  5
A4
330
1F
100
AcDbEntity
  8
0
  6
Continuous
 62
     8
370
     0
100
AcDbLine
 10
146.8933952016
 20
122.6688194584
 30
0.0
 11
146.8933952016
 21
222.6688194584
 31
0.0
  0
LINE
  5
A5
330
1F
100
AcDbEntity
  8
0
  6
Continuous
 62
     8
370
     0
100
AcDbLine
 10
161.1309995086
 20
122.6688194584
 30
0.0
 11
161.1309995086
 21
145.6822125837
 31
0.0
  0
LINE
  5
A6
330
1F
100
AcDbEntity
  8
0
  6
Continuous
 62
     8
370
     0
100
AcDbLine
 10
161.1309995086
 20
199.6554263331
 30
0.0
 11
161.1309995086
 21
222.6688194584
 31
0.0
  0
CIRCLE
  5
A7
330
1F
100
AcDbEntity
  8
0
  6
CENTER
 62
     1
370
     0
100
AcDbCircle
 10
126.1309995056
 20
197.6688194584
 30
0.0
 40
8.999999999999996
  0
CIRCLE
  5
A8
330
1F
100
AcDbEntity
  8
0
  6
CENTER
 62
     1
370
     0
100
AcDbCircle
 10
126.1309995056
 20
147.6688194584
 30
0.0
 40
9.00000000000002
  0
INSERT
  5
B4
330
1F
100
AcDbEntity
  8
ASSI
100
AcDbBlockReference
  2
SW_CENTERMARKSYMBOL_0
 10
126.1309995056
 20
197.6688194584
 30
0.0
  0
INSERT
  5
C0
330
1F
100
AcDbEntity
  8
ASSI
100
AcDbBlockReference
  2
SW_CENTERMARKSYMBOL_1
 10
126.1309995056
 20
147.6688194584
 30
0.0
  0
LINE
  5
C1
330
1F
100
AcDbEntity
  8
0
100
AcDbLine
 10
144.1313403356
 20
279.9624845149
 30
0.0
 11
144.2713404703
 21
280.2424847843
 31
0.0
  0
LINE
  5
C2
330
1F
100
AcDbEntity
  8
0
100
AcDbLine
 10
144.2713404703
 20
282.2424851122
 30
0.0
 11
144.1313403356
 21
282.5224835189
 31
0.0
  0
LINE
  5
C3
330
1F
100
AcDbEntity
  8
0
100
AcDbLine
 10
123.130997892
 20
278.5424839469
 30
0.0
 11
123.130997892
 21
277.0424846323
 31
0.0
  0
LINE
  5
C4
330
1F
100
AcDbEntity
  8
0
100
AcDbLine
 10
129.1309988755
 20
277.0424846323
 30
0.0
 11
129.1309988755
 21
278.5424839469
 31
0.0
  0
LINE
  5
C5
330
1F
100
AcDbEntity
  8
0
100
AcDbLine
 10
117.2537824768
 20
277.0424846323
 30
0.0
 11
117.2537824768
 21
270.5424844982
 31
0.0
  0
LINE
  5
C6
330
1F
100
AcDbEntity
  8
0
100
AcDbLine
 10
135.0119470316
 20
270.5424844982
 30
0.0
 11
135.0119470316
 21
277.0424846323
 31
0.0
  0
LINE
  5
C7
330
1F
100
AcDbEntity
  8
0
100
AcDbLine
 10
117.3119454342
 20
277.0424846323
 30
0.0
 11
117.3119454342
 21
270.5424844982
 31
0.0
  0
LINE
  5
C8
330
1F
100
AcDbEntity
  8
0
100
AcDbLine
 10
131.0310012359
 20
268.5424841704
 30
0.0
 11
131.0310012359
 21
270.5424844982
 31
0.0
  0
LINE
  5
C9
330
1F
100
AcDbEntity
  8
0
100
AcDbLine
 10
121.230999257
 20
270.5424844982
 30
0.0
 11
121.230999257
 21
268.5424841704
 31
0.0
  0
LINE
  5
CA
330
1F
100
AcDbEntity
  8
0
100
AcDbLine
 10
107.1309989947
 20
278.7424836071
 30
0.0
 11
107.1309989947
 21
278.5424839469
 31
0.0
  0
LINE
  5
CB
330
1F
100
AcDbEntity
  8
0
100
AcDbLine
 10
109.1310030478
 20
278.5424839469
 30
0.0
 11
107.1309989947
 21
278.5424839469
 31
0.0
  0
LINE
  5
CC
330
1F
100
AcDbEntity
  8
0
100
AcDbLine
 10
137.1310001868
 20
278.5424839469
 30
0.0
 11
109.1310030478
 21
278.5424839469
 31
0.0
  0
LINE
  5
CD
330
1F
100
AcDbEntity
  8
0
100
AcDbLine
 10
139.1310005146
 20
278.7424836071
 30
0.0
 11
139.1310005146
 21
278.5424839469
 31
0.0
  0
LINE
  5
CE
330
1F
100
AcDbEntity
  8
0
100
AcDbLine
 10
139.1310005146
 20
278.5424839469
 30
0.0
 11
137.1310001868
 21
278.5424839469
 31
0.0
  0
LINE
  5
CF
330
1F
100
AcDbEntity
  8
0
100
AcDbLine
 10
102.1309963125
 20
268.1424848499
 30
0.0
 11
102.1309963125
 21
268.5424841704
 31
0.0
  0
LINE
  5
D0
330
1F
100
AcDbEntity
  8
0
100
AcDbLine
 10
102.1309963125
 20
268.5424841704
 30
0.0
 11
106.1309969682
 21
268.5424841704
 31
0.0
  0
LINE
  5
D1
330
1F
100
AcDbEntity
  8
0
100
AcDbLine
 10
106.1309969682
 20
268.5424841704
 30
0.0
 11
141.1310008425
 21
268.5424841704
 31
0.0
  0
LINE
  5
D2
330
1F
100
AcDbEntity
  8
0
100
AcDbLine
 10
143.1310011703
 20
268.5424841704
 30
0.0
 11
143.1310011703
 21
268.1424848499
 31
0.0
  0
LINE
  5
D3
330
1F
100
AcDbEntity
  8
0
100
AcDbLine
 10
141.1310008425
 20
268.5424841704
 30
0.0
 11
143.1310011703
 21
268.5424841704
 31
0.0
  0
LINE
  5
D4
330
1F
100
AcDbEntity
  8
0
100
AcDbLine
 10
144.2713404703
 20
280.2424847843
 30
0.0
 11
144.2713404703
 21
282.2424851122
 31
0.0
  0
LINE
  5
D5
330
1F
100
AcDbEntity
  8
0
100
AcDbLine
 10
117.3119454342
 20
270.5424844982
 30
0.0
 11
117.2537824768
 21
270.5424844982
 31
0.0
  0
LINE
  5
D6
330
1F
100
AcDbEntity
  8
0
100
AcDbLine
 10
117.3119454342
 20
277.0424846323
 30
0.0
 11
117.2537824768
 21
277.0424846323
 31
0.0
  0
LINE
  5
D7
330
1F
100
AcDbEntity
  8
0
100
AcDbLine
 10
135.0119470316
 20
277.0424846323
 30
0.0
 11
117.3119454342
 21
277.0424846323
 31
0.0
  0
LINE
  5
D8
330
1F
100
AcDbEntity
  8
0
100
AcDbLine
 10
135.0119470316
 20
270.5424844982
 30
0.0
 11
117.3119454342
 21
270.5424844982
 31
0.0
  0
CIRCLE
  5
D9
330
1F
100
AcDbEntity
  8
0
100
AcDbCircle
 10
156.1309995086
 20
246.1424842984
 30
0.0
 40
3.711324865400683
  0
LINE
  5
DA
330
1F
100
AcDbEntity
  8
0
100
AcDbLine
 10
148.6309992778
 20
255.1424547794
 30
0.0
 11
148.6309992778
 21
254.1424825551
 31
0.0
  0
ARC
  5
DB
330
1F
100
AcDbEntity
  8
0
100
AcDbCircle
 10
144.6309995086
 20
255.1424529346
 30
0.0
 40
3.999999999999972
100
AcDbArc
 50
0.0
 51
90.0
  0
LINE
  5
DC
330
1F
100
AcDbEntity
  8
0
100
AcDbLine
 10
141.5578930336
 20
259.1424517097
 30
0.0
 11
144.6309986222
 21
259.1424517097
 31
0.0
  0
ARC
  5
DD
330
1F
100
AcDbEntity
  8
0
100
AcDbCircle
 10
141.5578936454
 20
429.1424842984
 30
0.0
 40
170.0000313637727
100
AcDbArc
 50
256.2429614573
 51
270.0
  0
LINE
  5
DE
330
1F
100
AcDbEntity
  8
0
100
AcDbLine
 10
101.1310017365
 20
268.1424848499
 30
0.0
 11
101.1310017365
 21
264.0192664923
 31
0.0
  0
LINE
  5
DF
330
1F
100
AcDbEntity
  8
0
100
AcDbLine
 10
144.1309994716
 20
268.1424848499
 30
0.0
 11
101.1310017365
 21
268.1424848499
 31
0.0
  0
LINE
  5
E0
330
1F
100
AcDbEntity
  8
0
100
AcDbLine
 10
144.1309994716
 20
267.6424838366
 30
0.0
 11
144.1309994716
 21
268.1424848499
 31
0.0
  0
ARC
  5
E1
330
1F
100
AcDbEntity
  8
0
100
AcDbCircle
 10
144.6309995056
 20
267.6424842984
 30
0.0
 40
0.5
100
AcDbArc
 50
180.0
 51
270.0
  0
LINE
  5
E2
330
1F
100
AcDbEntity
  8
0
100
AcDbLine
 10
146.8933953601
 20
267.1424828233
 30
0.0
 11
144.6309986222
 21
267.1424828233
 31
0.0
  0
ARC
  5
E3
330
1F
100
AcDbEntity
  8
0
100
AcDbCircle
 10
146.8933952016
 20
257.1424842984
 30
0.0
 40
10.00000000000003
100
AcDbArc
 50
30.0
 51
90.0
  0
LINE
  5
E4
330
1F
100
AcDbEntity
  8
0
100
AcDbLine
 10
160.1724515367
 20
254.1424825551
 30
0.0
 11
155.5536484975
 21
262.1424838664
 31
0.0
  0
LINE
  5
E5
330
1F
100
AcDbEntity
  8
0
100
AcDbLine
 10
160.1724515367
 20
254.1424825551
 30
0.0
 11
148.6309992778
 21
254.1424825551
 31
0.0
  0
LINE
  5
E6
330
1F
100
AcDbEntity
  8
0
100
AcDbLine
 10
160.4611261445
 20
253.6424852671
 30
0.0
 11
160.1724515367
 21
254.1424825551
 31
0.0
  0
LINE
  5
E7
330
1F
100
AcDbEntity
  8
0
100
AcDbLine
 10
148.6309992778
 20
254.1424825551
 30
0.0
 11
148.6309992778
 21
246.1424849691
 31
0.0
  0
LINE
  5
E8
330
1F
100
AcDbEntity
  8
0
100
AcDbLine
 10
144.1313403356
 20
284.7424845906
 30
0.0
 11
101.1313370127
 21
284.7424845906
 31
0.0
  0
LINE
  5
E9
330
1F
100
AcDbEntity
  8
0
100
AcDbLine
 10
144.1313403356
 20
284.7424845906
 30
0.0
 11
144.1313403356
 21
278.7424836071
 31
0.0
  0
LINE
  5
EA
330
1F
100
AcDbEntity
  8
0
100
AcDbLine
 10
101.1313370127
 20
284.7424845906
 30
0.0
 11
101.1313370127
 21
278.7424836071
 31
0.0
  0
LINE
  5
EB
330
1F
100
AcDbEntity
  8
0
100
AcDbLine
 10
144.1313403356
 20
278.7424836071
 30
0.0
 11
101.1313370127
 21
278.7424836071
 31
0.0
  0
CIRCLE
  5
EC
330
1F
100
AcDbEntity
  8
0
100
AcDbCircle
 10
156.1309995086
 20
246.1424842984
 30
0.0
 40
4.0
  0
LINE
  5
ED
330
1F
100
AcDbEntity
  8
0
100
AcDbLine
 10
156.1309995759
 20
253.6424852671
 30
0.0
 11
161.1309994641
 21
253.6424852671
 31
0.0
  0
ARC
  5
EE
330
1F
100
AcDbEntity
  8
0
100
AcDbCircle
 10
161.1309995086
 20
254.6424842984
 30
0.0
 40
1.0
100
AcDbArc
 50
270.0
 51
0.0
  0
LINE
  5
EF
330
1F
100
AcDbEntity
  8
0
100
AcDbLine
 10
162.130999628
 20
254.6424835684
 30
0.0
 11
162.130999628
 21
276.1424842986
 31
0.0
  0
LINE
  5
F0
330
1F
100
AcDbEntity
  8
0
100
AcDbLine
 10
162.130999628
 20
276.1424842986
 30
0.0
 11
166.1309993523
 21
276.1424842986
 31
0.0
  0
LINE
  5
F1
330
1F
100
AcDbEntity
  8
0
100
AcDbLine
 10
166.1309993523
 20
276.1424842986
 30
0.0
 11
166.1309993523
 21
248.6424825849
 31
0.0
  0
LINE
  5
F2
330
1F
100
AcDbEntity
  8
0
100
AcDbLine
 10
166.1309993523
 20
248.6424825849
 30
0.0
 11
162.672952998
 21
242.4746721747
 31
0.0
  0
ARC
  5
F3
330
1F
100
AcDbEntity
  8
0
100
AcDbCircle
 10
156.1309995086
 20
246.1424842984
 30
0.0
 40
7.50000000000002
100
AcDbArc
 50
90.0
 51
330.7223868096
  0
LINE
  5
F4
330
1F
100
AcDbEntity
  8
0
  6
Continuous
 62
     8
370
     0
100
AcDbLine
 10
109.1310030478
 20
278.7424836071
 30
0.0
 11
109.1310030478
 21
278.5424839469
 31
0.0
  0
LINE
  5
F5
330
1F
100
AcDbEntity
  8
0
  6
Continuous
 62
     8
370
     0
100
AcDbLine
 10
137.1310001868
 20
278.7424836071
 30
0.0
 11
137.1310001868
 21
278.5424839469
 31
0.0
  0
LINE
  5
F6
330
1F
100
AcDbEntity
  8
0
  6
Continuous
 62
     8
370
     0
100
AcDbLine
 10
106.1309969682
 20
268.5424841704
 30
0.0
 11
106.1309969682
 21
268.1424848499
 31
0.0
  0
LINE
  5
F7
330
1F
100
AcDbEntity
  8
0
  6
Continuous
 62
     8
370
     0
100
AcDbLine
 10
141.1310008425
 20
268.1424848499
 30
0.0
 11
141.1310008425
 21
268.5424841704
 31
0.0
  0
INSERT
  5
103
330
1F
100
AcDbEntity
  8
ASSI
100
AcDbBlockReference
  2
SW_CENTERMARKSYMBOL_2
 10
156.1309995086
 20
246.1424842984
 30
0.0
  0
LINE
  5
104
330
1F
100
AcDbEntity
  8
ASSI
100
AcDbLine
 10
126.1309995056
 20
263.8444780839
 30
0.0
 11
126.1309995056
 21
286.6873894397
 31
0.0
  0
LINE
  5
105
330
1F
100
AcDbEntity
  8
0
100
AcDbLine
 10
144.1313403356
 20
62.4166706568
 30
0.0
 11
144.2713404703
 21
62.6966690635
 31
0.0
  0
LINE
  5
106
330
1F
100
AcDbEntity
  8
0
100
AcDbLine
 10
144.2713404703
 20
64.6966693914
 30
0.0
 11
144.1313403356
 21
64.9766696608
 31
0.0
  0
LINE
  5
107
330
1F
100
AcDbEntity
  8
0
100
AcDbLine
 10
129.1309988755
 20
66.3966702288
 30
0.0
 11
129.1309988755
 21
67.8966695433
 31
0.0
  0
LINE
  5
108
330
1F
100
AcDbEntity
  8
0
100
AcDbLine
 10
123.130997892
 20
67.8966695433
 30
0.0
 11
123.130997892
 21
66.3966702288
 31
0.0
  0
LINE
  5
109
330
1F
100
AcDbEntity
  8
0
100
AcDbLine
 10
117.2537824768
 20
74.3966696775
 30
0.0
 11
117.2537824768
 21
67.8966695433
 31
0.0
  0
LINE
  5
10A
330
1F
100
AcDbEntity
  8
0
100
AcDbLine
 10
134.9537803489
 20
67.8966695433
 30
0.0
 11
134.9537803489
 21
74.3966696775
 31
0.0
  0
LINE
  5
10B
330
1F
100
AcDbEntity
  8
0
100
AcDbLine
 10
135.0119470316
 20
67.8966695433
 30
0.0
 11
135.0119470316
 21
74.3966696775
 31
0.0
  0
LINE
  5
10C
330
1F
100
AcDbEntity
  8
0
100
AcDbLine
 10
121.230999257
 20
76.3966700053
 30
0.0
 11
121.230999257
 21
74.3966696775
 31
0.0
  0
LINE
  5
10D
330
1F
100
AcDbEntity
  8
0
100
AcDbLine
 10
131.0310012359
 20
74.3966696775
 30
0.0
 11
131.0310012359
 21
76.3966700053
 31
0.0
  0
LINE
  5
10E
330
1F
100
AcDbEntity
  8
0
100
AcDbLine
 10
139.1310005146
 20
66.1966705685
 30
0.0
 11
139.1310005146
 21
66.3966702288
 31
0.0
  0
LINE
  5
10F
330
1F
100
AcDbEntity
  8
0
100
AcDbLine
 10
137.1310001868
 20
66.3966702288
 30
0.0
 11
139.1310005146
 21
66.3966702288
 31
0.0
  0
LINE
  5
110
330
1F
100
AcDbEntity
  8
0
100
AcDbLine
 10
109.1310030478
 20
66.3966702288
 30
0.0
 11
137.1310001868
 21
66.3966702288
 31
0.0
  0
LINE
  5
111
330
1F
100
AcDbEntity
  8
0
100
AcDbLine
 10
107.1309989947
 20
66.1966705685
 30
0.0
 11
107.1309989947
 21
66.3966702288
 31
0.0
  0
LINE
  5
112
330
1F
100
AcDbEntity
  8
0
100
AcDbLine
 10
107.1309989947
 20
66.3966702288
 30
0.0
 11
109.1310030478
 21
66.3966702288
 31
0.0
  0
LINE
  5
113
330
1F
100
AcDbEntity
  8
0
100
AcDbLine
 10
143.1310011703
 20
76.7966693258
 30
0.0
 11
143.1310011703
 21
76.3966700053
 31
0.0
  0
LINE
  5
114
330
1F
100
AcDbEntity
  8
0
100
AcDbLine
 10
143.1310011703
 20
76.3966700053
 30
0.0
 11
141.1310008425
 21
76.3966700053
 31
0.0
  0
LINE
  5
115
330
1F
100
AcDbEntity
  8
0
100
AcDbLine
 10
141.1310008425
 20
76.3966700053
 30
0.0
 11
106.1309969682
 21
76.3966700053
 31
0.0
  0
LINE
  5
116
330
1F
100
AcDbEntity
  8
0
100
AcDbLine
 10
102.1309963125
 20
76.3966700053
 30
0.0
 11
102.1309963125
 21
76.7966693258
 31
0.0
  0
LINE
  5
117
330
1F
100
AcDbEntity
  8
0
100
AcDbLine
 10
106.1309969682
 20
76.3966700053
 30
0.0
 11
102.1309963125
 21
76.3966700053
 31
0.0
  0
LINE
  5
118
330
1F
100
AcDbEntity
  8
0
100
AcDbLine
 10
144.2713404703
 20
64.1966702407
 30
0.0
 11
144.2713404703
 21
64.6966693914
 31
0.0
  0
LINE
  5
119
330
1F
100
AcDbEntity
  8
0
100
AcDbLine
 10
144.2713404703
 20
62.6966690635
 30
0.0
 11
144.2713404703
 21
64.1966702407
 31
0.0
  0
LINE
  5
11A
330
1F
100
AcDbEntity
  8
0
100
AcDbLine
 10
134.9523237604
 20
67.8966695433
 30
0.0
 11
134.9537803489
 21
67.8966695433
 31
0.0
  0
LINE
  5
11B
330
1F
100
AcDbEntity
  8
0
100
AcDbLine
 10
117.2537824768
 20
67.8966695433
 30
0.0
 11
134.9523237604
 21
67.8966695433
 31
0.0
  0
LINE
  5
11C
330
1F
100
AcDbEntity
  8
0
100
AcDbLine
 10
134.9523237604
 20
74.3966696775
 30
0.0
 11
134.9537803489
 21
74.3966696775
 31
0.0
  0
LINE
  5
11D
330
1F
100
AcDbEntity
  8
0
100
AcDbLine
 10
117.2537824768
 20
74.3966696775
 30
0.0
 11
134.9523237604
 21
74.3966696775
 31
0.0
  0
LINE
  5
11E
330
1F
100
AcDbEntity
  8
0
100
AcDbLine
 10
134.9523237604
 20
74.3966696775
 30
0.0
 11
135.0119470316
 21
74.3966696775
 31
0.0
  0
LINE
  5
11F
330
1F
100
AcDbEntity
  8
0
100
AcDbLine
 10
134.9523237604
 20
67.8966695433
 30
0.0
 11
135.0119470316
 21
67.8966695433
 31
0.0
  0
CIRCLE
  5
120
330
1F
100
AcDbEntity
  8
0
100
AcDbCircle
 10
156.1309995086
 20
98.7966698773
 30
0.0
 40
3.711324865400736
  0
ARC
  5
121
330
1F
100
AcDbEntity
  8
0
100
AcDbCircle
 10
146.8933952016
 20
87.7966698773
 30
0.0
 40
10.00000000000002
100
AcDbArc
 50
270.0
 51
330.0
  0
LINE
  5
122
330
1F
100
AcDbEntity
  8
0
100
AcDbLine
 10
146.8933953601
 20
77.7966713523
 30
0.0
 11
144.6309986222
 21
77.7966713523
 31
0.0
  0
ARC
  5
123
330
1F
100
AcDbEntity
  8
0
100
AcDbCircle
 10
144.6309995056
 20
77.2966698773
 30
0.0
 40
0.5
100
AcDbArc
 50
90.0
 51
180.0
  0
LINE
  5
124
330
1F
100
AcDbEntity
  8
0
100
AcDbLine
 10
144.1309994716
 20
77.2966703391
 30
0.0
 11
144.1309994716
 21
76.7966693258
 31
0.0
  0
LINE
  5
125
330
1F
100
AcDbEntity
  8
0
100
AcDbLine
 10
144.1309994716
 20
76.7966693258
 30
0.0
 11
101.1310017365
 21
76.7966693258
 31
0.0
  0
LINE
  5
126
330
1F
100
AcDbEntity
  8
0
100
AcDbLine
 10
101.1310017365
 20
76.7966693258
 30
0.0
 11
101.1310017365
 21
80.9198876833
 31
0.0
  0
ARC
  5
127
330
1F
100
AcDbEntity
  8
0
100
AcDbCircle
 10
141.5578936454
 20
-84.2033301227
 30
0.0
 40
170.0000313637728
100
AcDbArc
 50
90.0
 51
103.7570385427
  0
LINE
  5
128
330
1F
100
AcDbEntity
  8
0
100
AcDbLine
 10
141.5578930336
 20
85.796702466
 30
0.0
 11
144.6309986222
 21
85.796702466
 31
0.0
  0
ARC
  5
129
330
1F
100
AcDbEntity
  8
0
100
AcDbCircle
 10
144.6309995086
 20
89.7967012411
 30
0.0
 40
4.0
100
AcDbArc
 50
270.0
 51
0.0
  0
LINE
  5
12A
330
1F
100
AcDbEntity
  8
0
100
AcDbLine
 10
148.6309992778
 20
89.7966993963
 30
0.0
 11
148.6309992778
 21
90.7966716206
 31
0.0
  0
LINE
  5
12B
330
1F
100
AcDbEntity
  8
0
100
AcDbLine
 10
160.1724515367
 20
90.7966716206
 30
0.0
 11
148.6309992778
 21
90.7966716206
 31
0.0
  0
LINE
  5
12C
330
1F
100
AcDbEntity
  8
0
100
AcDbLine
 10
160.1724515367
 20
90.7966716206
 30
0.0
 11
155.5536484975
 21
82.7966703093
 31
0.0
  0
LINE
  5
12D
330
1F
100
AcDbEntity
  8
0
100
AcDbLine
 10
148.6309992778
 20
98.7966692066
 30
0.0
 11
148.6309992778
 21
90.7966716206
 31
0.0
  0
LINE
  5
12E
330
1F
100
AcDbEntity
  8
0
100
AcDbLine
 10
160.1724515367
 20
90.7966716206
 30
0.0
 11
160.4611261445
 21
91.2966689086
 31
0.0
  0
LINE
  5
12F
330
1F
100
AcDbEntity
  8
0
100
AcDbLine
 10
101.1313370127
 20
60.1966695851
 30
0.0
 11
144.1313403356
 21
60.1966695851
 31
0.0
  0
LINE
  5
130
330
1F
100
AcDbEntity
  8
0
100
AcDbLine
 10
101.1313370127
 20
60.1966695851
 30
0.0
 11
101.1313370127
 21
66.1966705685
 31
0.0
  0
LINE
  5
131
330
1F
100
AcDbEntity
  8
0
100
AcDbLine
 10
144.1313403356
 20
60.1966695851
 30
0.0
 11
144.1313403356
 21
66.1966705685
 31
0.0
  0
LINE
  5
132
330
1F
100
AcDbEntity
  8
0
100
AcDbLine
 10
101.1313370127
 20
66.1966705685
 30
0.0
 11
144.1313403356
 21
66.1966705685
 31
0.0
  0
LINE
  5
133
330
1F
100
AcDbEntity
  8
0
100
AcDbLine
 10
166.1309993523
 20
68.7966698771
 30
0.0
 11
166.1309993523
 21
96.2966715908
 31
0.0
  0
LINE
  5
134
330
1F
100
AcDbEntity
  8
0
100
AcDbLine
 10
162.130999628
 20
90.2966706073
 30
0.0
 11
162.130999628
 21
68.7966698771
 31
0.0
  0
ARC
  5
135
330
1F
100
AcDbEntity
  8
0
100
AcDbCircle
 10
161.1309995086
 20
90.2966698773
 30
0.0
 40
1.0
100
AcDbArc
 50
0.0
 51
90.0
  0
LINE
  5
136
330
1F
100
AcDbEntity
  8
0
100
AcDbLine
 10
156.1309995759
 20
91.2966689086
 30
0.0
 11
161.1309994641
 21
91.2966689086
 31
0.0
  0
ARC
  5
137
330
1F
100
AcDbEntity
  8
0
100
AcDbCircle
 10
156.1309995086
 20
98.7966698773
 30
0.0
 40
7.500000000000028
100
AcDbArc
 50
29.2776131904
 51
270.0
  0
CIRCLE
  5
138
330
1F
100
AcDbEntity
  8
0
100
AcDbCircle
 10
156.1309995086
 20
98.7966698773
 30
0.0
 40
4.000000000000028
  0
LINE
  5
139
330
1F
100
AcDbEntity
  8
0
100
AcDbLine
 10
166.1309993523
 20
96.2966715908
 30
0.0
 11
162.672952998
 21
102.464482001
 31
0.0
  0
LINE
  5
13A
330
1F
100
AcDbEntity
  8
0
100
AcDbLine
 10
162.130999628
 20
68.7966698771
 30
0.0
 11
166.1309993523
 21
68.7966698771
 31
0.0
  0
LINE
  5
13B
330
1F
100
AcDbEntity
  8
0
  6
Continuous
 62
     8
370
     0
100
AcDbLine
 10
137.1310001868
 20
66.1966705685
 30
0.0
 11
137.1310001868
 21
66.3966702288
 31
0.0
  0
LINE
  5
13C
330
1F
100
AcDbEntity
  8
0
  6
Continuous
 62
     8
370
     0
100
AcDbLine
 10
109.1310030478
 20
66.1966705685
 30
0.0
 11
109.1310030478
 21
66.3966702288
 31
0.0
  0
LINE
  5
13D
330
1F
100
AcDbEntity
  8
0
  6
Continuous
 62
     8
370
     0
100
AcDbLine
 10
141.1310008425
 20
76.3966700053
 30
0.0
 11
141.1310008425
 21
76.7966693258
 31
0.0
  0
LINE
  5
13E
330
1F
100
AcDbEntity
  8
0
  6
Continuous
 62
     8
370
     0
100
AcDbLine
 10
106.1309969682
 20
76.7966693258
 30
0.0
 11
106.1309969682
 21
76.3966700053
 31
0.0
  0
INSERT
  5
14A
330
1F
100
AcDbEntity
  8
ASSI
100
AcDbBlockReference
  2
SW_CENTERMARKSYMBOL_3
 10
156.1309995086
 20
98.7966698773
 30
0.0
  0
LINE
  5
14B
330
1F
100
AcDbEntity
  8
ASSI
100
AcDbLine
 10
126.1309995056
 20
57.6977996009
 30
0.0
 11
126.1309995056
 21
83.04876676
 31
0.0
  0
LINE
  5
14C
330
1F
100
AcDbEntity
  8
0
100
AcDbLine
 10
34.827500562
 20
144.6688207633
 30
0.0
 11
36.3274998766
 21
144.6688207633
 31
0.0
  0
LINE
  5
14D
330
1F
100
AcDbEntity
  8
0
100
AcDbLine
 10
36.3274998766
 20
150.6688180215
 30
0.0
 11
34.827500562
 21
150.6688180215
 31
0.0
  0
LINE
  5
14E
330
1F
100
AcDbEntity
  8
0
100
AcDbLine
 10
34.827500562
 20
194.6688177831
 30
0.0
 11
36.3274998766
 21
194.6688177831
 31
0.0
  0
LINE
  5
14F
330
1F
100
AcDbEntity
  8
0
100
AcDbLine
 10
36.3274998766
 20
200.6688224919
 30
0.0
 11
34.827500562
 21
200.6688224919
 31
0.0
  0
LINE
  5
150
330
1F
100
AcDbEntity
  8
0
100
AcDbLine
 10
37.2275002104
 20
208.0185743816
 30
0.0
 11
36.3274998766
 21
208.0185743816
 31
0.0
  0
LINE
  5
151
330
1F
100
AcDbEntity
  8
0
100
AcDbLine
 10
36.3274998766
 20
190.3185727842
 30
0.0
 11
37.2275002104
 21
190.3185727842
 31
0.0
  0
LINE
  5
152
330
1F
100
AcDbEntity
  8
0
100
AcDbLine
 10
37.2275002104
 20
158.0184991307
 30
0.0
 11
36.3274998766
 21
158.0184991307
 31
0.0
  0
LINE
  5
153
330
1F
100
AcDbEntity
  8
0
100
AcDbLine
 10
36.3274998766
 20
140.3185012586
 30
0.0
 11
37.2275002104
 21
140.3185012586
 31
0.0
  0
LINE
  5
154
330
1F
100
AcDbEntity
  8
0
100
AcDbLine
 10
60.0775014412
 20
147.6688193924
 30
0.0
 11
60.0775014412
 21
147.2988570876
 31
0.0
  0
LINE
  5
155
330
1F
100
AcDbEntity
  8
0
100
AcDbLine
 10
74.3775013637
 20
147.2988570876
 30
0.0
 11
74.3775013637
 21
147.6688193924
 31
0.0
  0
ARC
  5
156
330
1F
100
AcDbEntity
  8
0
100
AcDbCircle
 10
73.3775002106
 20
147.2988586078
 30
0.0
 40
0.999999999999998
100
AcDbArc
 50
280.0
 51
0.0
  0
ARC
  5
157
330
1F
100
AcDbEntity
  8
0
100
AcDbCircle
 10
61.0775002106
 20
147.2988586078
 30
0.0
 40
0.9999999999999992
100
AcDbArc
 50
180.0
 51
260.0
  0
LINE
  5
158
330
1F
100
AcDbEntity
  8
0
100
AcDbLine
 10
60.9038527858
 20
146.3140505202
 30
0.0
 11
61.7274995696
 21
146.1688200779
 31
0.0
  0
LINE
  5
159
330
1F
100
AcDbEntity
  8
0
100
AcDbLine
 10
72.72749951
 20
146.1688200779
 30
0.0
 11
73.5511500191
 21
146.3140505202
 31
0.0
  0
LINE
  5
15A
330
1F
100
AcDbEntity
  8
0
100
AcDbLine
 10
74.3775013637
 20
197.6688164122
 30
0.0
 11
74.3775013637
 21
198.0387824423
 31
0.0
  0
LINE
  5
15B
330
1F
100
AcDbEntity
  8
0
100
AcDbLine
 10
60.0775014412
 20
198.0387824423
 30
0.0
 11
60.0775014412
 21
197.6688164122
 31
0.0
  0
ARC
  5
15C
330
1F
100
AcDbEntity
  8
0
100
AcDbCircle
 10
61.0775002106
 20
198.0387803091
 30
0.0
 40
0.999999999999998
100
AcDbArc
 50
100.0
 51
180.0
  0
ARC
  5
15D
330
1F
100
AcDbEntity
  8
0
100
AcDbCircle
 10
73.3775002106
 20
198.0387803091
 30
0.0
 40
0.999999999999998
100
AcDbArc
 50
0.0
 51
80.0
  0
LINE
  5
15E
330
1F
100
AcDbEntity
  8
0
100
AcDbLine
 10
73.5511500191
 20
199.0235852845
 30
0.0
 11
72.72749951
 21
199.168819452
 31
0.0
  0
LINE
  5
15F
330
1F
100
AcDbEntity
  8
0
100
AcDbLine
 10
61.7274995696
 20
199.168819452
 30
0.0
 11
60.9038527858
 21
199.0235852845
 31
0.0
  0
LINE
  5
160
330
1F
100
AcDbEntity
  8
0
100
AcDbLine
 10
60.2275002551
 20
146.1688200779
 30
0.0
 11
60.2275002551
 21
145.6688190646
 31
0.0
  0
LINE
  5
161
330
1F
100
AcDbEntity
  8
0
100
AcDbLine
 10
74.2274988246
 20
145.6688190646
 30
0.0
 11
74.2274988246
 21
146.1688200779
 31
0.0
  0
LINE
  5
162
330
1F
100
AcDbEntity
  8
0
100
AcDbLine
 10
74.2274988246
 20
199.168819452
 30
0.0
 11
74.2274988246
 21
199.6688204653
 31
0.0
  0
LINE
  5
163
330
1F
100
AcDbEntity
  8
0
100
AcDbLine
 10
60.2275002551
 20
199.6688204653
 30
0.0
 11
60.2275002551
 21
199.168819452
 31
0.0
  0
LINE
  5
164
330
1F
100
AcDbEntity
  8
0
100
AcDbLine
 10
74.7274998379
 20
147.6688193924
 30
0.0
 11
74.7274998379
 21
197.6688164122
 31
0.0
  0
LINE
  5
165
330
1F
100
AcDbEntity
  8
0
100
AcDbLine
 10
74.7274998379
 20
122.6688190199
 30
0.0
 11
74.7274998379
 21
145.6688190646
 31
0.0
  0
LINE
  5
166
330
1F
100
AcDbEntity
  8
0
100
AcDbLine
 10
74.7274998379
 20
199.6688204653
 30
0.0
 11
74.7274998379
 21
222.6688223727
 31
0.0
  0
LINE
  5
167
330
1F
100
AcDbEntity
  8
0
100
AcDbLine
 10
34.6275009018
 20
126.4188191689
 30
0.0
 11
34.827500562
 21
126.4188191689
 31
0.0
  0
LINE
  5
168
330
1F
100
AcDbEntity
  8
0
100
AcDbLine
 10
34.827500562
 20
128.4188194967
 30
0.0
 11
34.827500562
 21
126.4188191689
 31
0.0
  0
LINE
  5
169
330
1F
100
AcDbEntity
  8
0
100
AcDbLine
 10
34.827500562
 20
216.9188218958
 30
0.0
 11
34.827500562
 21
128.4188194967
 31
0.0
  0
LINE
  5
16A
330
1F
100
AcDbEntity
  8
0
100
AcDbLine
 10
34.6275009018
 20
218.9188184984
 30
0.0
 11
34.827500562
 21
218.9188184984
 31
0.0
  0
LINE
  5
16B
330
1F
100
AcDbEntity
  8
0
100
AcDbLine
 10
34.827500562
 20
218.9188184984
 30
0.0
 11
34.827500562
 21
216.9188218958
 31
0.0
  0
CIRCLE
  5
16E
330
1F
100
AcDbEntity
  8
0
100
AcDbCircle
 10
32.1275002106
 20
172.6688194584
 30
0.0
 40
1.000000000033209
  0
LINE
  5
16F
330
1F
100
AcDbEntity
  8
0
100
AcDbLine
 10
32.1274995607
 20
173.5348435886
 30
0.0
 11
31.3774999034
 21
173.1018307454
 31
0.0
  0
LINE
  5
170
330
1F
100
AcDbEntity
  8
0
100
AcDbLine
 10
31.3774999034
 20
173.1018307454
 30
0.0
 11
31.3774999034
 21
172.2358050592
 31
0.0
  0
LINE
  5
171
330
1F
100
AcDbEntity
  8
0
100
AcDbLine
 10
31.3774999034
 20
172.2358050592
 30
0.0
 11
32.1274995607
 21
171.802792216
 31
0.0
  0
LINE
  5
172
330
1F
100
AcDbEntity
  8
0
100
AcDbLine
 10
32.1274995607
 20
171.802792216
 30
0.0
 11
32.8775010806
 21
172.2358050592
 31
0.0
  0
LINE
  5
173
330
1F
100
AcDbEntity
  8
0
100
AcDbLine
 10
32.8775010806
 20
173.1018307454
 30
0.0
 11
32.8775010806
 21
172.2358050592
 31
0.0
  0
LINE
  5
174
330
1F
100
AcDbEntity
  8
0
100
AcDbLine
 10
32.8775010806
 20
173.1018307454
 30
0.0
 11
32.1274995607
 21
173.5348435886
 31
0.0
  0
LINE
  5
175
330
1F
100
AcDbEntity
  8
0
100
AcDbLine
 10
36.3274998766
 20
199.3291559465
 30
0.0
 11
36.3274998766
 21
190.3185727842
 31
0.0
  0
LINE
  5
176
330
1F
100
AcDbEntity
  8
0
100
AcDbLine
 10
36.3274998766
 20
208.0185743816
 30
0.0
 11
36.3274998766
 21
199.3291559465
 31
0.0
  0
LINE
  5
177
330
1F
100
AcDbEntity
  8
0
100
AcDbLine
 10
36.3274998766
 20
148.9859181292
 30
0.0
 11
36.3274998766
 21
140.3185012586
 31
0.0
  0
LINE
  5
178
330
1F
100
AcDbEntity
  8
0
100
AcDbLine
 10
36.3274998766
 20
158.0184991307
 30
0.0
 11
36.3274998766
 21
148.9859181292
 31
0.0
  0
LINE
  5
179
330
1F
100
AcDbEntity
  8
0
100
AcDbLine
 10
60.2275002551
 20
146.1688200779
 30
0.0
 11
74.2274988246
 21
146.1688200779
 31
0.0
  0
LINE
  5
17A
330
1F
100
AcDbEntity
  8
0
100
AcDbLine
 10
66.4272438538
 20
199.168819452
 30
0.0
 11
60.2275002551
 21
199.168819452
 31
0.0
  0
LINE
  5
17B
330
1F
100
AcDbEntity
  8
0
100
AcDbLine
 10
74.2274988246
 20
199.168819452
 30
0.0
 11
66.4272438538
 21
199.168819452
 31
0.0
  0
LINE
  5
17C
330
1F
100
AcDbEntity
  8
0
100
AcDbLine
 10
74.7274998379
 20
147.6688193924
 30
0.0
 11
63.4774993908
 21
147.6688193924
 31
0.0
  0
LINE
  5
17D
330
1F
100
AcDbEntity
  8
0
100
AcDbLine
 10
63.4774993908
 20
197.6688164122
 30
0.0
 11
74.7274998379
 21
197.6688164122
 31
0.0
  0
LINE
  5
17E
330
1F
100
AcDbEntity
  8
0
100
AcDbLine
 10
59.2275019538
 20
145.8421679981
 30
0.0
 11
59.2275019538
 21
147.6688193924
 31
0.0
  0
LINE
  5
17F
330
1F
100
AcDbEntity
  8
0
100
AcDbLine
 10
59.2275019538
 20
199.4954678066
 30
0.0
 11
59.2275019538
 21
197.6688164122
 31
0.0
  0
LINE
  5
180
330
1F
100
AcDbEntity
  8
0
100
AcDbLine
 10
59.2275019538
 20
197.6688164122
 30
0.0
 11
63.4774993908
 21
197.6688164122
 31
0.0
  0
LINE
  5
181
330
1F
100
AcDbEntity
  8
0
100
AcDbLine
 10
63.4774993908
 20
147.6688193924
 30
0.0
 11
59.2275019538
 21
147.6688193924
 31
0.0
  0
LINE
  5
186
330
1F
100
AcDbEntity
  8
0
100
AcDbLine
 10
28.6274999183
 20
222.6688223727
 30
0.0
 11
28.6274999183
 21
122.6688190199
 31
0.0
  0
LINE
  5
187
330
1F
100
AcDbEntity
  8
0
100
AcDbLine
 10
28.6274999183
 20
222.6688223727
 30
0.0
 11
34.6275009018
 21
222.6688223727
 31
0.0
  0
LINE
  5
188
330
1F
100
AcDbEntity
  8
0
100
AcDbLine
 10
34.6275009018
 20
222.6688223727
 30
0.0
 11
34.6275009018
 21
122.6688190199
 31
0.0
  0
CIRCLE
  5
189
330
1F
100
AcDbEntity
  8
0
100
AcDbCircle
 10
32.1275002106
 20
172.6688194584
 30
0.0
 40
1.250000000000007
  0
LINE
  5
18A
330
1F
100
AcDbEntity
  8
0
100
AcDbLine
 10
28.6274999183
 20
122.6688190199
 30
0.0
 11
34.6275009018
 21
122.6688190199
 31
0.0
  0
LINE
  5
18B
330
1F
100
AcDbEntity
  8
0
100
AcDbLine
 10
64.727501924
 20
122.6688190199
 30
0.0
 11
64.727501924
 21
145.6688190646
 31
0.0
  0
LINE
  5
18C
330
1F
100
AcDbEntity
  8
0
100
AcDbLine
 10
70.8953123343
 20
145.6688190646
 30
0.0
 11
64.727501924
 21
145.6688190646
 31
0.0
  0
LINE
  5
18D
330
1F
100
AcDbEntity
  8
0
100
AcDbLine
 10
64.727501924
 20
122.6688190199
 30
0.0
 11
70.8953123343
 21
122.6688190199
 31
0.0
  0
ARC
  5
18E
330
1F
100
AcDbEntity
  8
0
100
AcDbCircle
 10
59.9275002106
 20
147.1688194584
 30
0.0
 40
1.5
100
AcDbArc
 50
180.0
 51
270.0
  0
LINE
  5
18F
330
1F
100
AcDbEntity
  8
0
100
AcDbLine
 10
64.727501924
 20
145.6688190646
 30
0.0
 11
59.9274989021
 21
145.6688190646
 31
0.0
  0
LINE
  5
190
330
1F
100
AcDbEntity
  8
0
100
AcDbLine
 10
37.2275002104
 20
122.6688190199
 30
0.0
 11
37.2275002104
 21
222.6688223727
 31
0.0
  0
LINE
  5
191
330
1F
100
AcDbEntity
  8
0
100
AcDbLine
 10
37.2275002104
 20
222.6688223727
 30
0.0
 11
64.727501924
 21
222.6688223727
 31
0.0
  0
LINE
  5
192
330
1F
100
AcDbEntity
  8
0
100
AcDbLine
 10
64.727501924
 20
199.6688204653
 30
0.0
 11
64.727501924
 21
222.6688223727
 31
0.0
  0
LINE
  5
193
330
1F
100
AcDbEntity
  8
0
100
AcDbLine
 10
64.727501924
 20
199.6688204653
 30
0.0
 11
59.9274989021
 21
199.6688204653
 31
0.0
  0
ARC
  5
194
330
1F
100
AcDbEntity
  8
0
100
AcDbCircle
 10
59.9275002106
 20
198.1688194584
 30
0.0
 40
1.5
100
AcDbArc
 50
90.0
 51
180.0
  0
LINE
  5
195
330
1F
100
AcDbEntity
  8
0
100
AcDbLine
 10
58.4274995875
 20
198.1688174255
 30
0.0
 11
58.4274995875
 21
147.1688183791
 31
0.0
  0
CIRCLE
  5
196
330
1F
100
AcDbEntity
  8
0
100
AcDbCircle
 10
53.2275002106
 20
172.6688194584
 30
0.0
 40
3.199999999999989
  0
CIRCLE
  5
197
330
1F
100
AcDbEntity
  8
0
100
AcDbCircle
 10
45.2275002106
 20
134.6688194584
 30
0.0
 40
3.199999999999989
  0
CIRCLE
  5
198
330
1F
100
AcDbEntity
  8
0
100
AcDbCircle
 10
45.2275002106
 20
210.6688194584
 30
0.0
 40
3.200000000000017
  0
LINE
  5
199
330
1F
100
AcDbEntity
  8
0
100
AcDbLine
 10
37.2275002104
 20
122.6688190199
 30
0.0
 11
64.727501924
 21
122.6688190199
 31
0.0
  0
LINE
  5
19A
330
1F
100
AcDbEntity
  8
0
100
AcDbLine
 10
64.727501924
 20
222.6688223727
 30
0.0
 11
70.8953123343
 21
222.6688223727
 31
0.0
  0
LINE
  5
19B
330
1F
100
AcDbEntity
  8
0
100
AcDbLine
 10
70.8953123343
 20
199.6688204653
 30
0.0
 11
64.727501924
 21
199.6688204653
 31
0.0
  0
LINE
  5
19C
330
1F
100
AcDbEntity
  8
0
100
AcDbLine
 10
74.7274998379
 20
145.6688190646
 30
0.0
 11
70.8953123343
 21
145.6688190646
 31
0.0
  0
LINE
  5
19D
330
1F
100
AcDbEntity
  8
0
100
AcDbLine
 10
70.8953123343
 20
122.6688190199
 30
0.0
 11
74.7274998379
 21
122.6688190199
 31
0.0
  0
LINE
  5
19E
330
1F
100
AcDbEntity
  8
0
100
AcDbLine
 10
70.8953123343
 20
222.6688223727
 30
0.0
 11
74.7274998379
 21
222.6688223727
 31
0.0
  0
LINE
  5
19F
330
1F
100
AcDbEntity
  8
0
100
AcDbLine
 10
74.7274998379
 20
199.6688204653
 30
0.0
 11
70.8953123343
 21
199.6688204653
 31
0.0
  0
LINE
  5
1A0
330
1F
100
AcDbEntity
  8
0
  6
Continuous
 62
     8
370
     0
100
AcDbLine
 10
34.6275009018
 20
128.4188194967
 30
0.0
 11
34.827500562
 21
128.4188194967
 31
0.0
  0
LINE
  5
1A1
330
1F
100
AcDbEntity
  8
0
  6
Continuous
 62
     8
370
     0
100
AcDbLine
 10
34.6275009018
 20
216.9188218958
 30
0.0
 11
34.827500562
 21
216.9188218958
 31
0.0
  0
LINE
  5
1A2
330
1F
100
AcDbEntity
  8
0
  6
Continuous
 62
     8
370
     0
100
AcDbLine
 10
74.2489006173
 20
147.2988570876
 30
0.0
 11
60.0775014412
 21
147.2988570876
 31
0.0
  0
LINE
  5
1A3
330
1F
100
AcDbEntity
  8
0
  6
Continuous
 62
     8
370
     0
100
AcDbLine
 10
74.3775013637
 20
147.2988570876
 30
0.0
 11
74.2489006173
 21
147.2988570876
 31
0.0
  0
LINE
  5
1A4
330
1F
100
AcDbEntity
  8
0
  6
Continuous
 62
     8
370
     0
100
AcDbLine
 10
73.437413181
 20
146.3140505202
 30
0.0
 11
60.9038527858
 21
146.3140505202
 31
0.0
  0
LINE
  5
1A5
330
1F
100
AcDbEntity
  8
0
  6
Continuous
 62
     8
370
     0
100
AcDbLine
 10
73.5511500191
 20
146.3140505202
 30
0.0
 11
73.437413181
 21
146.3140505202
 31
0.0
  0
LINE
  5
1A6
330
1F
100
AcDbEntity
  8
0
  6
Continuous
 62
     8
370
     0
100
AcDbLine
 10
60.0775014412
 20
198.0387824423
 30
0.0
 11
74.3775013637
 21
198.0387824423
 31
0.0
  0
LINE
  5
1A7
330
1F
100
AcDbEntity
  8
0
  6
Continuous
 62
     8
370
     0
100
AcDbLine
 10
60.9038527858
 20
199.0235852845
 30
0.0
 11
73.5511500191
 21
199.0235852845
 31
0.0
  0
LINE
  5
1A8
330
1F
100
AcDbEntity
  8
0
  6
Continuous
 62
     8
370
     0
100
AcDbLine
 10
63.4774993908
 20
147.6688193924
 30
0.0
 11
63.4774993908
 21
197.6688164122
 31
0.0
  0
LINE
  5
1AC
330
1F
100
AcDbEntity
  8
0
  6
Continuous
 62
     8
370
     0
100
AcDbLine
 10
70.8953123343
 20
122.6688190199
 30
0.0
 11
70.8953123343
 21
145.6688190646
 31
0.0
  0
LINE
  5
1AD
330
1F
100
AcDbEntity
  8
0
  6
Continuous
 62
     8
370
     0
100
AcDbLine
 10
70.8953123343
 20
199.6688204653
 30
0.0
 11
70.8953123343
 21
222.6688223727
 31
0.0
  0
INSERT
  5
1B9
330
1F
100
AcDbEntity
  8
ASSI
100
AcDbBlockReference
  2
SW_CENTERMARKSYMBOL_4
 10
45.2275002106
 20
210.6688194584
 30
0.0
  0
INSERT
  5
1C5
330
1F
100
AcDbEntity
  8
ASSI
100
AcDbBlockReference
  2
SW_CENTERMARKSYMBOL_5
 10
32.1275002106
 20
172.6688194584
 30
0.0
  0
INSERT
  5
1D1
330
1F
100
AcDbEntity
  8
ASSI
100
AcDbBlockReference
  2
SW_CENTERMARKSYMBOL_6
 10
53.2275002106
 20
172.6688194584
 30
0.0
  0
INSERT
  5
1DD
330
1F
100
AcDbEntity
  8
ASSI
100
AcDbBlockReference
  2
SW_CENTERMARKSYMBOL_7
 10
45.2275002106
 20
134.6688194584
 30
0.0
  0
LINE
  5
1DE
330
1F
100
AcDbEntity
  8
0
100
AcDbLine
 10
230.0311839506
 20
150.6688180215
 30
0.0
 11
228.531184636
 21
150.6688180215
 31
0.0
  0
LINE
  5
1DF
330
1F
100
AcDbEntity
  8
0
100
AcDbLine
 10
228.531184636
 20
144.6688207633
 30
0.0
 11
230.0311839506
 21
144.6688207633
 31
0.0
  0
LINE
  5
1E0
330
1F
100
AcDbEntity
  8
0
100
AcDbLine
 10
230.0311839506
 20
200.6688224919
 30
0.0
 11
228.531184636
 21
200.6688224919
 31
0.0
  0
LINE
  5
1E1
330
1F
100
AcDbEntity
  8
0
100
AcDbLine
 10
228.531184636
 20
194.6688177831
 30
0.0
 11
230.0311839506
 21
194.6688177831
 31
0.0
  0
LINE
  5
1E2
330
1F
100
AcDbEntity
  8
0
100
AcDbLine
 10
222.0311845019
 20
190.3185727842
 30
0.0
 11
228.531184636
 21
190.3185727842
 31
0.0
  0
LINE
  5
1E3
330
1F
100
AcDbEntity
  8
0
100
AcDbLine
 10
228.531184636
 20
208.0185743816
 30
0.0
 11
222.0311845019
 21
208.0185743816
 31
0.0
  0
LINE
  5
1E4
330
1F
100
AcDbEntity
  8
0
100
AcDbLine
 10
222.0311845019
 20
140.3185012586
 30
0.0
 11
228.531184636
 21
140.3185012586
 31
0.0
  0
LINE
  5
1E5
330
1F
100
AcDbEntity
  8
0
100
AcDbLine
 10
228.531184636
 20
158.0184991307
 30
0.0
 11
222.0311845019
 21
158.0184991307
 31
0.0
  0
LINE
  5
1E6
330
1F
100
AcDbEntity
  8
0
100
AcDbLine
 10
190.4811831489
 20
147.6688193924
 30
0.0
 11
190.4811831489
 21
147.2988570876
 31
0.0
  0
LINE
  5
1E7
330
1F
100
AcDbEntity
  8
0
100
AcDbLine
 10
204.7811830714
 20
147.2988570876
 30
0.0
 11
204.7811830714
 21
147.6688193924
 31
0.0
  0
ARC
  5
1E8
330
1F
100
AcDbEntity
  8
0
100
AcDbCircle
 10
203.7811843021
 20
147.2988586078
 30
0.0
 40
0.9999999999999931
100
AcDbArc
 50
280.0
 51
0.0
  0
ARC
  5
1E9
330
1F
100
AcDbEntity
  8
0
100
AcDbCircle
 10
191.4811843021
 20
147.2988586078
 30
0.0
 40
0.9999999999999931
100
AcDbArc
 50
180.0
 51
260.0
  0
LINE
  5
1EA
330
1F
100
AcDbEntity
  8
0
100
AcDbLine
 10
191.3075344935
 20
146.3140505202
 30
0.0
 11
192.1311850026
 21
146.1688200779
 31
0.0
  0
LINE
  5
1EB
330
1F
100
AcDbEntity
  8
0
100
AcDbLine
 10
203.131184943
 20
146.1688200779
 30
0.0
 11
203.9548317268
 21
146.3140505202
 31
0.0
  0
ARC
  5
1EC
330
1F
100
AcDbEntity
  8
0
100
AcDbCircle
 10
191.4811843021
 20
198.0387803091
 30
0.0
 40
1.0
100
AcDbArc
 50
100.0
 51
180.0
  0
ARC
  5
1ED
330
1F
100
AcDbEntity
  8
0
100
AcDbCircle
 10
203.7811843021
 20
198.0387803091
 30
0.0
 40
1.0
100
AcDbArc
 50
0.0
 51
80.0
  0
LINE
  5
1EE
330
1F
100
AcDbEntity
  8
0
100
AcDbLine
 10
204.7811830714
 20
197.6688164122
 30
0.0
 11
204.7811830714
 21
198.0387824423
 31
0.0
  0
LINE
  5
1EF
330
1F
100
AcDbEntity
  8
0
100
AcDbLine
 10
190.4811831489
 20
198.0387824423
 30
0.0
 11
190.4811831489
 21
197.6688164122
 31
0.0
  0
LINE
  5
1F0
330
1F
100
AcDbEntity
  8
0
100
AcDbLine
 10
203.9548317268
 20
199.0235852845
 30
0.0
 11
203.131184943
 21
199.168819452
 31
0.0
  0
LINE
  5
1F1
330
1F
100
AcDbEntity
  8
0
100
AcDbLine
 10
192.1311850026
 20
199.168819452
 30
0.0
 11
191.3075344935
 21
199.0235852845
 31
0.0
  0
LINE
  5
1F2
330
1F
100
AcDbEntity
  8
0
100
AcDbLine
 10
190.6311856881
 20
146.1688200779
 30
0.0
 11
190.6311856881
 21
145.6688190646
 31
0.0
  0
LINE
  5
1F3
330
1F
100
AcDbEntity
  8
0
100
AcDbLine
 10
204.6311842576
 20
145.6688190646
 30
0.0
 11
204.6311842576
 21
146.1688200779
 31
0.0
  0
LINE
  5
1F4
330
1F
100
AcDbEntity
  8
0
100
AcDbLine
 10
204.6311842576
 20
199.168819452
 30
0.0
 11
204.6311842576
 21
199.6688204653
 31
0.0
  0
LINE
  5
1F5
330
1F
100
AcDbEntity
  8
0
100
AcDbLine
 10
190.6311856881
 20
199.6688204653
 30
0.0
 11
190.6311856881
 21
199.168819452
 31
0.0
  0
LINE
  5
1F6
330
1F
100
AcDbEntity
  8
0
100
AcDbLine
 10
220.0311841741
 20
192.7688228733
 30
0.0
 11
222.0311845019
 21
192.7688228733
 31
0.0
  0
LINE
  5
1F7
330
1F
100
AcDbEntity
  8
0
100
AcDbLine
 10
222.0311845019
 20
202.5688174016
 30
0.0
 11
220.0311841741
 21
202.5688174016
 31
0.0
  0
LINE
  5
1F8
330
1F
100
AcDbEntity
  8
0
100
AcDbLine
 10
220.0311841741
 20
142.768818403
 30
0.0
 11
222.0311845019
 21
142.768818403
 31
0.0
  0
LINE
  5
1F9
330
1F
100
AcDbEntity
  8
0
100
AcDbLine
 10
222.0311845019
 20
152.5688203819
 30
0.0
 11
220.0311841741
 21
152.5688203819
 31
0.0
  0
LINE
  5
1FA
330
1F
100
AcDbEntity
  8
0
100
AcDbLine
 10
190.1311846748
 20
197.6688164122
 30
0.0
 11
190.1311846748
 21
147.6688193924
 31
0.0
  0
LINE
  5
1FB
330
1F
100
AcDbEntity
  8
0
100
AcDbLine
 10
190.1311846748
 20
222.6688223727
 30
0.0
 11
190.1311846748
 21
199.6688204653
 31
0.0
  0
LINE
  5
1FC
330
1F
100
AcDbEntity
  8
0
100
AcDbLine
 10
190.1311846748
 20
145.6688190646
 30
0.0
 11
190.1311846748
 21
122.6688190199
 31
0.0
  0
LINE
  5
1FD
330
1F
100
AcDbEntity
  8
0
100
AcDbLine
 10
230.2311836108
 20
218.9188184984
 30
0.0
 11
230.0311839506
 21
218.9188184984
 31
0.0
  0
LINE
  5
1FE
330
1F
100
AcDbEntity
  8
0
100
AcDbLine
 10
230.0311839506
 20
216.9188218958
 30
0.0
 11
230.0311839506
 21
218.9188184984
 31
0.0
  0
LINE
  5
1FF
330
1F
100
AcDbEntity
  8
0
100
AcDbLine
 10
230.0311839506
 20
128.4188194967
 30
0.0
 11
230.0311839506
 21
216.9188218958
 31
0.0
  0
LINE
  5
200
330
1F
100
AcDbEntity
  8
0
100
AcDbLine
 10
230.2311836108
 20
126.4188191689
 30
0.0
 11
230.0311839506
 21
126.4188191689
 31
0.0
  0
LINE
  5
201
330
1F
100
AcDbEntity
  8
0
100
AcDbLine
 10
230.0311839506
 20
126.4188191689
 30
0.0
 11
230.0311839506
 21
128.4188194967
 31
0.0
  0
LINE
  5
202
330
1F
100
AcDbEntity
  8
0
100
AcDbLine
 10
219.6311848536
 20
221.6688203461
 30
0.0
 11
220.0311841741
 21
221.6688203461
 31
0.0
  0
LINE
  5
203
330
1F
100
AcDbEntity
  8
0
100
AcDbLine
 10
220.0311841741
 20
221.6688203461
 30
0.0
 11
220.0311841741
 21
217.6688196904
 31
0.0
  0
LINE
  5
204
330
1F
100
AcDbEntity
  8
0
100
AcDbLine
 10
220.0311841741
 20
217.6688196904
 30
0.0
 11
220.0311841741
 21
127.6688198395
 31
0.0
  0
LINE
  5
205
330
1F
100
AcDbEntity
  8
0
100
AcDbLine
 10
220.0311841741
 20
123.6688191838
 30
0.0
 11
219.6311848536
 21
123.6688191838
 31
0.0
  0
LINE
  5
206
330
1F
100
AcDbEntity
  8
0
100
AcDbLine
 10
220.0311841741
 20
127.6688198395
 30
0.0
 11
220.0311841741
 21
123.6688191838
 31
0.0
  0
CIRCLE
  5
207
330
1F
100
AcDbEntity
  8
0
100
AcDbCircle
 10
197.6311843021
 20
134.6688194584
 30
0.0
 40
1.000000000033178
  0
LINE
  5
208
330
1F
100
AcDbEntity
  8
0
100
AcDbLine
 10
198.3811827674
 20
134.2358062811
 30
0.0
 11
198.3811827674
 21
135.1018319673
 31
0.0
  0
LINE
  5
209
330
1F
100
AcDbEntity
  8
0
100
AcDbLine
 10
198.3811827674
 20
135.1018319673
 30
0.0
 11
197.6311849728
 21
135.5348448105
 31
0.0
  0
LINE
  5
20A
330
1F
100
AcDbEntity
  8
0
100
AcDbLine
 10
197.6311849728
 20
135.5348448105
 30
0.0
 11
196.8811834529
 21
135.1018319673
 31
0.0
  0
LINE
  5
20B
330
1F
100
AcDbEntity
  8
0
100
AcDbLine
 10
196.8811834529
 20
135.1018319673
 30
0.0
 11
196.8811834529
 21
134.2358062811
 31
0.0
  0
LINE
  5
20C
330
1F
100
AcDbEntity
  8
0
100
AcDbLine
 10
197.6311849728
 20
133.8027934379
 30
0.0
 11
196.8811834529
 21
134.2358062811
 31
0.0
  0
LINE
  5
20D
330
1F
100
AcDbEntity
  8
0
100
AcDbLine
 10
197.6311849728
 20
133.8027934379
 30
0.0
 11
198.3811827674
 21
134.2358062811
 31
0.0
  0
LINE
  5
20E
330
1F
100
AcDbEntity
  8
0
100
AcDbLine
 10
222.0311845019
 20
190.3185727842
 30
0.0
 11
222.0311845019
 21
208.0185743816
 31
0.0
  0
LINE
  5
20F
330
1F
100
AcDbEntity
  8
0
100
AcDbLine
 10
228.531184636
 20
190.3185727842
 30
0.0
 11
228.531184636
 21
208.0185743816
 31
0.0
  0
LINE
  5
210
330
1F
100
AcDbEntity
  8
0
100
AcDbLine
 10
222.0311845019
 20
140.3185012586
 30
0.0
 11
222.0311845019
 21
158.0184991307
 31
0.0
  0
LINE
  5
211
330
1F
100
AcDbEntity
  8
0
100
AcDbLine
 10
228.531184636
 20
140.3185012586
 30
0.0
 11
228.531184636
 21
158.0184991307
 31
0.0
  0
LINE
  5
212
330
1F
100
AcDbEntity
  8
0
100
AcDbLine
 10
198.0686048344
 20
146.1688200779
 30
0.0
 11
204.6311842576
 21
146.1688200779
 31
0.0
  0
LINE
  5
213
330
1F
100
AcDbEntity
  8
0
100
AcDbLine
 10
190.6311856881
 20
146.1688200779
 30
0.0
 11
198.0686048344
 21
146.1688200779
 31
0.0
  0
LINE
  5
214
330
1F
100
AcDbEntity
  8
0
100
AcDbLine
 10
204.6311842576
 20
199.168819452
 30
0.0
 11
190.6311856881
 21
199.168819452
 31
0.0
  0
LINE
  5
215
330
1F
100
AcDbEntity
  8
0
100
AcDbLine
 10
219.6311848536
 20
122.6688190199
 30
0.0
 11
215.507966496
 21
122.6688190199
 31
0.0
  0
LINE
  5
216
330
1F
100
AcDbEntity
  8
0
100
AcDbLine
 10
215.507966496
 20
122.6688190199
 30
0.0
 11
215.507966496
 21
222.6688223727
 31
0.0
  0
LINE
  5
217
330
1F
100
AcDbEntity
  8
0
100
AcDbLine
 10
219.6311848536
 20
122.6688190199
 30
0.0
 11
219.6311848536
 21
222.6688223727
 31
0.0
  0
LINE
  5
218
330
1F
100
AcDbEntity
  8
0
100
AcDbLine
 10
219.6311848536
 20
222.6688223727
 30
0.0
 11
215.507966496
 21
222.6688223727
 31
0.0
  0
LINE
  5
219
330
1F
100
AcDbEntity
  8
0
100
AcDbLine
 10
215.507966496
 20
122.6688190199
 30
0.0
 11
210.6311517134
 21
122.6688190199
 31
0.0
  0
LINE
  5
21A
330
1F
100
AcDbEntity
  8
0
100
AcDbLine
 10
210.6311517134
 20
122.6688190199
 30
0.0
 11
210.6311517134
 21
222.6688223727
 31
0.0
  0
LINE
  5
21B
330
1F
100
AcDbEntity
  8
0
100
AcDbLine
 10
215.507966496
 20
222.6688223727
 30
0.0
 11
210.6311517134
 21
222.6688223727
 31
0.0
  0
LINE
  5
21C
330
1F
100
AcDbEntity
  8
0
100
AcDbLine
 10
210.6311517134
 20
122.6688190199
 30
0.0
 11
206.6311547831
 21
122.6688190199
 31
0.0
  0
LINE
  5
21D
330
1F
100
AcDbEntity
  8
0
100
AcDbLine
 10
210.6311517134
 20
222.6688223727
 30
0.0
 11
206.6311547831
 21
222.6688223727
 31
0.0
  0
LINE
  5
21E
330
1F
100
AcDbEntity
  8
0
100
AcDbLine
 10
205.6311825588
 20
147.6688193924
 30
0.0
 11
205.6311825588
 21
122.6688190199
 31
0.0
  0
LINE
  5
21F
330
1F
100
AcDbEntity
  8
0
100
AcDbLine
 10
205.6311825588
 20
147.6688193924
 30
0.0
 11
197.6311849728
 21
147.6688193924
 31
0.0
  0
LINE
  5
220
330
1F
100
AcDbEntity
  8
0
100
AcDbLine
 10
197.6311849728
 20
197.6688164122
 30
0.0
 11
205.6311825588
 21
197.6688164122
 31
0.0
  0
LINE
  5
221
330
1F
100
AcDbEntity
  8
0
100
AcDbLine
 10
205.6311825588
 20
197.6688164122
 30
0.0
 11
205.6311825588
 21
222.6688223727
 31
0.0
  0
LINE
  5
222
330
1F
100
AcDbEntity
  8
0
100
AcDbLine
 10
206.6311547831
 20
122.6688190199
 30
0.0
 11
205.6311825588
 21
122.6688190199
 31
0.0
  0
LINE
  5
223
330
1F
100
AcDbEntity
  8
0
100
AcDbLine
 10
206.6311547831
 20
222.6688223727
 30
0.0
 11
205.6311825588
 21
222.6688223727
 31
0.0
  0
LINE
  5
224
330
1F
100
AcDbEntity
  8
0
100
AcDbLine
 10
197.6311849728
 20
147.6688193924
 30
0.0
 11
190.1311846748
 21
147.6688193924
 31
0.0
  0
LINE
  5
225
330
1F
100
AcDbEntity
  8
0
100
AcDbLine
 10
190.1311846748
 20
197.6688164122
 30
0.0
 11
197.6311849728
 21
197.6688164122
 31
0.0
  0
LINE
  5
226
330
1F
100
AcDbEntity
  8
0
100
AcDbLine
 10
236.2311845943
 20
222.6688223727
 30
0.0
 11
230.2311836108
 21
222.6688223727
 31
0.0
  0
LINE
  5
227
330
1F
100
AcDbEntity
  8
0
100
AcDbLine
 10
236.2311845943
 20
122.6688190199
 30
0.0
 11
230.2311836108
 21
122.6688190199
 31
0.0
  0
LINE
  5
228
330
1F
100
AcDbEntity
  8
0
100
AcDbLine
 10
230.2311836108
 20
122.6688190199
 30
0.0
 11
230.2311836108
 21
222.6688223727
 31
0.0
  0
LINE
  5
229
330
1F
100
AcDbEntity
  8
0
100
AcDbLine
 10
236.2311845943
 20
122.6688190199
 30
0.0
 11
236.2311845943
 21
222.6688223727
 31
0.0
  0
LINE
  5
22A
330
1F
100
AcDbEntity
  8
0
100
AcDbLine
 10
190.1311846748
 20
222.6688223727
 30
0.0
 11
205.1311852708
 21
222.6688223727
 31
0.0
  0
LINE
  5
22B
330
1F
100
AcDbEntity
  8
0
100
AcDbLine
 10
205.1311852708
 20
199.6554243214
 30
0.0
 11
205.1311852708
 21
222.6688223727
 31
0.0
  0
SPLINE
  5
22C
330
1F
100
AcDbEntity
  8
0
100
AcDbSpline
210
0.0
220
0.0
230
1.0
 70
     8
 71
     3
 72
     9
 73
     5
 74
     0
 42
0.000000001
 43
0.00000001
 40
0.0
 40
0.0
 40
0.0
 40
0.0
 40
0.4966476415592097
 40
1.0
 40
1.0
 40
1.0
 40
1.0
 10
204.9311856105818
 20
199.6688204653059
 30
0.0
 10
204.9890985482659
 20
199.6662132233371
 30
0.0
 10
205.1057062452286
 20
199.6609635417708
 30
0.0
 10
205.1226543848072
 20
199.6572789628714
 30
0.0
 10
205.1311852708353
 20
199.6554243213926
 30
0.0
  0
LINE
  5
22D
330
1F
100
AcDbEntity
  8
0
100
AcDbLine
 10
204.9311856106
 20
199.6688204653
 30
0.0
 11
190.1311846748
 21
199.6688204653
 31
0.0
  0
LINE
  5
22E
330
1F
100
AcDbEntity
  8
0
100
AcDbLine
 10
190.1311846748
 20
122.6688190199
 30
0.0
 11
205.1311852708
 21
122.6688190199
 31
0.0
  0
LINE
  5
22F
330
1F
100
AcDbEntity
  8
0
100
AcDbLine
 10
204.9311856106
 20
145.6688190646
 30
0.0
 11
190.1311846748
 21
145.6688190646
 31
0.0
  0
SPLINE
  5
230
330
1F
100
AcDbEntity
  8
0
100
AcDbSpline
210
0.0
220
0.0
230
1.0
 70
     8
 71
     3
 72
     9
 73
     5
 74
     0
 42
0.000000001
 43
0.00000001
 40
0.0
 40
0.0
 40
0.0
 40
0.0
 40
0.4966407905510367
 40
1.0
 40
1.0
 40
1.0
 40
1.0
 10
205.1311852708353
 20
145.6822114832197
 30
0.0
 10
205.1228801212935
 20
145.6804068625196
 30
0.0
 10
205.1061574724498
 20
145.6767732087109
 30
0.0
 10
204.9897702106642
 20
145.6714822948267
 30
0.0
 10
204.9311856105818
 20
145.6688190645967
 30
0.0
  0
LINE
  5
231
330
1F
100
AcDbEntity
  8
0
100
AcDbLine
 10
205.1311852708
 20
122.6688190199
 30
0.0
 11
205.1311852708
 21
145.6822114832
 31
0.0
  0
SPLINE
  5
232
330
1F
100
AcDbEntity
  8
0
100
AcDbSpline
210
0.0
220
0.0
230
1.0
 70
    11
 71
     3
 72
    26
 73
    22
 74
     0
 42
0.000000001
 43
0.00000001
 40
0.0
 40
0.0
 40
0.0
 40
0.0
 40
0.0531851829746421
 40
0.106352371487802
 40
0.1599725132925528
 40
0.2139165362193945
 40
0.2673598681972474
 40
0.3202574500948621
 40
0.3734149903678404
 40
0.4272290309018156
 40
0.4810811617861065
 40
0.5342999244180946
 40
0.5872029374176931
 40
0.6405777231511873
 40
0.69450040083692
 40
0.7481919067986443
 40
0.8012158899144757
 40
0.8541847248574186
 40
0.9077874087226163
 40
0.9617333002804475
 40
1.0
 40
1.0
 40
1.0
 40
1.0
 10
197.6311849728121
 20
135.9188179321085
 30
0.0
 10
197.4917006789014
 20
135.9051921666571
 30
0.0
 10
197.2127792836366
 20
135.8779452458411
 30
0.0
 10
196.8408372004602
 20
135.6657746289171
 30
0.0
 10
196.555499672195
 20
135.3518147753149
 30
0.0
 10
196.3901673435643
 20
134.9568000819849
 30
0.0
 10
196.3650858102573
 20
134.5310768240304
 30
0.0
 10
196.4806443305857
 20
134.1232936318777
 30
0.0
 10
196.7230247552425
 20
133.7758471755895
 30
0.0
 10
197.0683826809532
 20
133.5258208836884
 30
0.0
 10
197.4784700382644
 20
133.4040990460735
 30
0.0
 10
197.9036774960065
 20
133.4248700697994
 30
0.0
 10
198.2964268382047
 20
133.5830323312177
 30
0.0
 10
198.616584600145
 20
133.8616350991243
 30
0.0
 10
198.828264326595
 20
134.2326284951611
 30
0.0
 10
198.904841788411
 20
134.6531566050408
 30
0.0
 10
198.8387949340648
 20
135.0725703851098
 30
0.0
 10
198.6398000004154
 20
135.4466089802716
 30
0.0
 10
198.3280148516265
 20
135.7339168419418
 30
0.0
 10
197.9724675700987
 20
135.8945252425584
 30
0.0
 10
197.7312756352466
 20
135.9116934217797
 30
0.0
 10
197.6311849728121
 20
135.9188179321085
 30
0.0
  0
SPLINE
  5
233
330
1F
100
AcDbEntity
  8
0
100
AcDbSpline
210
0.0
220
0.0
230
1.0
 70
     8
 71
     3
 72
    12
 73
     8
 74
     0
 42
0.000000001
 43
0.00000001
 40
0.0
 40
0.0
 40
0.0
 40
0.0
 40
0.0106079822424746
 40
0.308648385671543
 40
0.5914319019475898
 40
0.8872461919290358
 40
1.0
 40
1.0
 40
1.0
 40
1.0
 10
205.631182558824
 20
145.8433228380476
 30
0.0
 10
205.6282123844183
 20
145.8413718177705
 30
0.0
 10
205.5417926002859
 20
145.7846052013518
 30
0.0
 10
205.3816360752642
 20
145.7372821406577
 30
0.0
 10
205.208845842581
 20
145.6915411649119
 30
0.0
 10
205.1379607919689
 20
145.6832539839496
 30
0.0
 10
205.1326507105195
 20
145.6824369598893
 30
0.0
 10
205.1311852708353
 20
145.6822114832197
 30
0.0
  0
LINE
  5
234
330
1F
100
AcDbEntity
  8
0
100
AcDbLine
 10
205.1311852708
 20
122.6688190199
 30
0.0
 11
205.6311825588
 21
122.6688190199
 31
0.0
  0
SPLINE
  5
235
330
1F
100
AcDbEntity
  8
0
100
AcDbSpline
210
0.0
220
0.0
230
1.0
 70
     8
 71
     3
 72
    11
 73
     7
 74
     0
 42
0.000000001
 43
0.00000001
 40
0.0
 40
0.0
 40
0.0
 40
0.0
 40
0.3100461131936838
 40
0.6203434285715119
 40
0.9225862346304835
 40
1.0
 40
1.0
 40
1.0
 40
1.0
 10
205.1311852708353
 20
199.6554243213926
 30
0.0
 10
205.1417590723801
 20
199.6544703480838
 30
0.0
 10
205.1629152424601
 20
199.6525616285483
 30
0.0
 10
205.3277173713306
 20
199.6174353098048
 30
0.0
 10
205.5022687742618
 20
199.5677494214753
 30
0.0
 10
205.6093484981389
 20
199.5029262567487
 30
0.0
 10
205.631182558824
 20
199.4897085077558
 30
0.0
  0
LINE
  5
236
330
1F
100
AcDbEntity
  8
0
100
AcDbLine
 10
205.1311852708
 20
222.6688223727
 30
0.0
 11
205.6311825588
 21
222.6688223727
 31
0.0
  0
LINE
  5
237
330
1F
100
AcDbEntity
  8
0
100
AcDbLine
 10
227.6311843023
 20
122.6688190199
 30
0.0
 11
227.6311843023
 21
140.3185012586
 31
0.0
  0
LINE
  5
238
330
1F
100
AcDbEntity
  8
0
100
AcDbLine
 10
227.6311843023
 20
158.0184991307
 30
0.0
 11
227.6311843023
 21
190.3185727842
 31
0.0
  0
LINE
  5
239
330
1F
100
AcDbEntity
  8
0
100
AcDbLine
 10
227.6311843023
 20
208.0185743816
 30
0.0
 11
227.6311843023
 21
222.6688223727
 31
0.0
  0
ARC
  5
23A
330
1F
100
AcDbEntity
  8
0
100
AcDbCircle
 10
219.6311843021
 20
134.6688194584
 30
0.0
 40
4.999999999999991
100
AcDbArc
 50
274.5885657358
 51
85.4114342642
  0
ARC
  5
23B
330
1F
100
AcDbEntity
  8
0
100
AcDbCircle
 10
219.6311843021
 20
210.6688194584
 30
0.0
 40
4.999999999999991
100
AcDbArc
 50
274.5885657358
 51
298.6854020141
  0
ARC
  5
23C
330
1F
100
AcDbEntity
  8
0
100
AcDbCircle
 10
219.6311843021
 20
210.6688194584
 30
0.0
 40
5.00000000000002
100
AcDbArc
 50
327.9912080011999
 51
85.4114342642
  0
LINE
  5
23D
330
1F
100
AcDbEntity
  8
0
100
AcDbLine
 10
219.6311848536
 20
122.6688190199
 30
0.0
 11
227.6311843023
 21
122.6688190199
 31
0.0
  0
LINE
  5
23E
330
1F
100
AcDbEntity
  8
0
100
AcDbLine
 10
219.6311848536
 20
222.6688223727
 30
0.0
 11
227.6311843023
 21
222.6688223727
 31
0.0
  0
ARC
  5
23F
330
1F
100
AcDbEntity
  8
0
100
AcDbCircle
 10
219.6311843021
 20
210.6688194584
 30
0.0
 40
3.200000000000001
100
AcDbArc
 50
277.1807557815
 51
82.81924421850002
  0
ARC
  5
240
330
1F
100
AcDbEntity
  8
0
100
AcDbCircle
 10
219.6311843021
 20
134.6688194584
 30
0.0
 40
3.200000000000001
100
AcDbArc
 50
277.1807557815
 51
82.81924421850002
  0
LINE
  5
241
330
1F
100
AcDbEntity
  8
0
  6
Continuous
 62
     8
370
     0
100
AcDbLine
 10
230.2311836108
 20
216.9188218958
 30
0.0
 11
230.0311839506
 21
216.9188218958
 31
0.0
  0
LINE
  5
242
330
1F
100
AcDbEntity
  8
0
  6
Continuous
 62
     8
370
     0
100
AcDbLine
 10
230.2311836108
 20
128.4188194967
 30
0.0
 11
230.0311839506
 21
128.4188194967
 31
0.0
  0
LINE
  5
243
330
1F
100
AcDbEntity
  8
0
  6
Continuous
 62
     8
370
     0
100
AcDbLine
 10
220.0311841741
 20
217.6688196904
 30
0.0
 11
219.6311848536
 21
217.6688196904
 31
0.0
  0
LINE
  5
244
330
1F
100
AcDbEntity
  8
0
  6
Continuous
 62
     8
370
     0
100
AcDbLine
 10
219.6311848536
 20
127.6688198395
 30
0.0
 11
220.0311841741
 21
127.6688198395
 31
0.0
  0
LINE
  5
245
330
1F
100
AcDbEntity
  8
0
  6
Continuous
 62
     8
370
     0
100
AcDbLine
 10
204.7811830714
 20
147.2988570876
 30
0.0
 11
190.4811831489
 21
147.2988570876
 31
0.0
  0
LINE
  5
246
330
1F
100
AcDbEntity
  8
0
  6
Continuous
 62
     8
370
     0
100
AcDbLine
 10
203.9548317268
 20
146.3140505202
 30
0.0
 11
191.3075344935
 21
146.3140505202
 31
0.0
  0
LINE
  5
247
330
1F
100
AcDbEntity
  8
0
  6
Continuous
 62
     8
370
     0
100
AcDbLine
 10
198.4936865345
 20
199.0235852845
 30
0.0
 11
203.9548317268
 21
199.0235852845
 31
0.0
  0
LINE
  5
248
330
1F
100
AcDbEntity
  8
0
  6
Continuous
 62
     8
370
     0
100
AcDbLine
 10
191.3075344935
 20
199.0235852845
 30
0.0
 11
198.4936865345
 21
199.0235852845
 31
0.0
  0
LINE
  5
249
330
1F
100
AcDbEntity
  8
0
  6
Continuous
 62
     8
370
     0
100
AcDbLine
 10
198.6063951924
 20
198.0387824423
 30
0.0
 11
204.7811830714
 21
198.0387824423
 31
0.0
  0
LINE
  5
24A
330
1F
100
AcDbEntity
  8
0
  6
Continuous
 62
     8
370
     0
100
AcDbLine
 10
190.4811831489
 20
198.0387824423
 30
0.0
 11
198.6063951924
 21
198.0387824423
 31
0.0
  0
LINE
  5
24B
330
1F
100
AcDbEntity
  8
0
  6
Continuous
 62
     8
370
     0
100
AcDbLine
 10
206.6311547831
 20
122.6688190199
 30
0.0
 11
206.6311547831
 21
222.6688223727
 31
0.0
  0
LINE
  5
24C
330
1F
100
AcDbEntity
  8
0
  6
Continuous
 62
     8
370
     0
100
AcDbLine
 10
197.6311849728
 20
147.6688193924
 30
0.0
 11
197.6311849728
 21
197.6688164122
 31
0.0
  0
LINE
  5
24D
330
1F
100
AcDbEntity
  8
0
100
AcDbLine
 10
201.3323276608
 20
98.9702884153
 30
0.0
 11
201.0494854288
 21
98.8070070703
 31
0.0
  0
LINE
  5
24E
330
1F
100
AcDbEntity
  8
0
100
AcDbLine
 10
228.7979800374
 20
4.2018156713
 30
0.0
 11
229.0808222694
 21
4.3650970163
 31
0.0
  0
SPLINE
  5
24F
330
1F
100
AcDbEntity
  8
0
100
AcDbSpline
210
0.0
220
0.0
230
1.0
 70
     8
 71
     3
 72
    17
 73
    13
 74
     0
 42
0.000000001
 43
0.00000001
 40
0.0
 40
0.0
 40
0.0
 40
0.0
 40
0.051033200931503
 40
0.1668943192648277
 40
0.283117698854474
 40
0.399884278661852
 40
0.5173430980123017
 40
0.635535736255614
 40
0.7542070353279616
 40
0.8722957391828441
 40
0.9882793291166463
 40
1.0
 40
1.0
 40
1.0
 40
1.0
 10
255.0923826892194
 20
22.10620909911855
 30
0.0
 10
255.2275199611964
 20
22.114064612163
 30
0.0
 10
255.6694605528554
 20
22.13975456454889
 30
0.0
 10
256.400274934564
 20
22.26046165227636
 30
0.0
 10
257.267762235698
 20
22.46440495597984
 30
0.0
 10
258.087989948128
 20
22.74273676091848
 30
0.0
 10
258.8494378607569
 20
23.08837749212037
 30
0.0
 10
259.537576391435
 20
23.50136033733706
 30
0.0
 10
260.1425320710298
 20
23.97659970144102
 30
0.0
 10
260.6319401685283
 20
24.51377579094457
 30
0.0
 10
260.9299881589542
 20
24.91619295900956
 30
0.0
 10
261.0237782827963
 20
25.14737718490007
 30
0.0
 10
261.0323863211392
 20
25.16859522576845
 30
0.0
  0
LINE
  5
250
330
1F
100
AcDbEntity
  8
0
100
AcDbLine
 10
261.3938548161
 20
67.745560235
 30
0.0
 11
261.3938548161
 21
68.0476525976
 31
0.0
  0
LINE
  5
251
330
1F
100
AcDbEntity
  8
0
100
AcDbLine
 10
261.2438548408
 20
25.2854398026
 30
0.0
 11
261.2438548408
 21
25.3641264189
 31
0.0
  0
LINE
  5
252
330
1F
100
AcDbEntity
  8
0
100
AcDbLine
 10
257.8954556555
 20
88.5300563373
 30
0.0
 11
257.6319258997
 21
88.8703053354
 31
0.0
  0
LINE
  5
253
330
1F
100
AcDbEntity
  8
0
100
AcDbLine
 10
250.8557834525
 20
88.8703045751
 30
0.0
 11
250.5922510626
 21
88.530055577
 31
0.0
  0
LINE
  5
254
330
1F
100
AcDbEntity
  8
0
100
AcDbLine
 10
261.7438541
 20
26.9185213139
 30
0.0
 11
261.7438541
 21
67.7455594747
 31
0.0
  0
LINE
  5
255
330
1F
100
AcDbEntity
  8
0
100
AcDbLine
 10
246.7438539352
 20
88.1590846388
 30
0.0
 11
246.7438539352
 21
85.957477648
 31
0.0
  0
LINE
  5
256
330
1F
100
AcDbEntity
  8
0
100
AcDbLine
 10
261.7438541
 20
69.378644408
 30
0.0
 11
261.7438541
 21
88.1590846388
 31
0.0
  0
LINE
  5
257
330
1F
100
AcDbEntity
  8
0
100
AcDbLine
 10
261.7438541
 20
6.5050007126
 30
0.0
 11
261.7438541
 21
25.2854394224
 31
0.0
  0
LINE
  5
258
330
1F
100
AcDbEntity
  8
0
100
AcDbLine
 10
200.2208941922
 20
96.9756282142
 30
0.0
 11
200.2208941922
 21
92.7309677036
 31
0.0
  0
ARC
  5
259
330
1F
100
AcDbEntity
  8
0
100
AcDbCircle
 10
201.945193076
 20
97.2553350882
 30
0.0
 40
1.746837879233621
100
AcDbArc
 50
50.796784148
 51
189.2139676068
  0
LINE
  5
25A
330
1F
100
AcDbEntity
  8
0
100
AcDbLine
 10
227.7980618616
 20
84.3218319674
 30
0.0
 11
203.0493217805
 21
98.6089755058
 31
0.0
  0
ARC
  5
25B
330
1F
100
AcDbEntity
  8
0
100
AcDbCircle
 10
226.1418294643
 20
81.7326124906
 30
0.0
 40
3.07362379824553
100
AcDbArc
 50
2.6055521687
 51
57.3943863579
  0
LINE
  5
25C
330
1F
100
AcDbEntity
  8
0
100
AcDbLine
 10
229.2122756558
 20
5.1175050994
 30
0.0
 11
229.2122756558
 21
81.8723387885
 31
0.0
  0
ARC
  5
25D
330
1F
100
AcDbEntity
  8
0
100
AcDbCircle
 10
228.3501259579
 20
4.9776521055
 30
0.0
 40
0.8734191212750158
100
AcDbArc
 50
230.796815533
 51
9.213936221799997
  0
LINE
  5
25E
330
1F
100
AcDbEntity
  8
0
100
AcDbLine
 10
222.7071334933
 20
7.2397618437
 30
0.0
 11
227.7980618616
 21
4.3008314535
 31
0.0
  0
ARC
  5
25F
330
1F
100
AcDbEntity
  8
0
100
AcDbCircle
 10
226.4246716963
 20
81.8958938356
 30
0.0
 40
3.073623798245501
100
AcDbArc
 50
2.6055521687
 51
57.3943863579
  0
LINE
  5
260
330
1F
100
AcDbEntity
  8
0
100
AcDbLine
 10
229.4951178878
 20
5.2807864443
 30
0.0
 11
229.4951178878
 21
82.0356201334
 31
0.0
  0
LINE
  5
261
330
1F
100
AcDbEntity
  8
0
100
AcDbLine
 10
228.0809040936
 20
84.4851133124
 30
0.0
 11
203.3321640125
 21
98.7722568508
 31
0.0
  0
ARC
  5
262
330
1F
100
AcDbEntity
  8
0
100
AcDbCircle
 10
202.1604836742
 20
97.1367197743
 30
0.0
 40
2.011918572831828
100
AcDbArc
 50
54.3826148108
 51
114.3069566764
  0
ARC
  5
263
330
1F
100
AcDbEntity
  8
0
100
AcDbCircle
 10
228.5437078802
 20
5.1596766082
 30
0.0
 40
0.9590873760960562
100
AcDbArc
 50
304.0576335033
 51
7.2544562836
  0
LWPOLYLINE
  5
264
330
1F
100
AcDbEntity
  8
0
100
AcDbPolyline
 90
       18
 70
   128
 43
0.0
 10
221.3919147437
 20
38.7564867475
 10
221.589254191
 20
38.6751701847
 10
221.7121925968
 20
38.4817736962
 10
221.7441267371
 20
38.2024055311
 10
221.6807431453
 20
37.8748010232
 10
221.5306015829
 20
37.5432023398
 10
221.3139812695
 20
37.2523935193
 10
221.0601360693
 20
37.041656569
 10
220.8033511264
 20
36.9394470747
 10
220.5783040775
 20
36.959572549
 10
220.41539202
 20
37.0993099639
 10
220.3366142918
 20
37.3397848476
 10
220.352611655
 20
37.6485328013
 10
220.4612227665
 20
37.9838433986
 10
220.6477805231
 20
38.3004309298
 10
220.8870876948
 20
38.5555513795
 10
221.1468255512
 20
38.7147359974
 10
221.3919147437
 20
38.7564867475
  0
LINE
  5
265
330
1F
100
AcDbEntity
  8
0
100
AcDbLine
 10
221.0383606366
 20
38.5523843059
 30
0.0
 11
220.5080307931
 21
37.8926587454
 31
0.0
  0
LINE
  5
266
330
1F
100
AcDbEntity
  8
0
100
AcDbLine
 10
220.5080307931
 20
37.8926587454
 30
0.0
 11
220.5080307931
 21
37.1855134284
 31
0.0
  0
LINE
  5
267
330
1F
100
AcDbEntity
  8
0
100
AcDbLine
 10
220.5080307931
 20
37.1855134284
 30
0.0
 11
221.0383606366
 21
37.1380936719
 31
0.0
  0
LINE
  5
268
330
1F
100
AcDbEntity
  8
0
100
AcDbLine
 10
221.0383606366
 20
37.1380936719
 30
0.0
 11
221.5686917972
 21
37.7978199928
 31
0.0
  0
LINE
  5
269
330
1F
100
AcDbEntity
  8
0
100
AcDbLine
 10
221.5686917972
 20
38.5049653098
 30
0.0
 11
221.5686917972
 21
37.7978199928
 31
0.0
  0
LINE
  5
26A
330
1F
100
AcDbEntity
  8
0
100
AcDbLine
 10
221.5686917972
 20
38.5049653098
 30
0.0
 11
221.0383606366
 21
38.5523843059
 31
0.0
  0
LINE
  5
26B
330
1F
100
AcDbEntity
  8
0
100
AcDbLine
 10
220.5080307931
 20
37.444246574
 30
0.0
 11
221.0383606366
 21
37.1380936719
 31
0.0
  0
LINE
  5
26C
330
1F
100
AcDbEntity
  8
0
100
AcDbLine
 10
220.7921558698
 20
38.2461046417
 30
0.0
 11
221.5686917972
 21
37.7978199928
 31
0.0
  0
LWPOLYLINE
  5
26D
330
1F
100
AcDbEntity
  8
0
100
AcDbPolyline
 90
       12
 70
   128
 43
0.0
 10
255.0923833478
 20
21.6824965544
 10
255.7687908755
 20
21.7497512271
 10
256.7047656967
 20
21.9106519498
 10
257.5928393075
 20
22.145184691
 10
258.4157288658
 20
22.4487858943
 10
259.1574185692
 20
22.8155462027
 10
259.8034704879
 20
23.23832603
 10
260.3413110316
 20
23.7088973644
 10
260.7604732938
 20
24.2181019191
 10
261.0527946154
 20
24.75602601
 10
261.2125891232
 20
25.3122020459
 10
261.2138219185
 20
25.3197841495
  0
LWPOLYLINE
  5
26E
330
1F
100
AcDbEntity
  8
0
100
AcDbPolyline
 90
       12
 70
   128
 43
0.0
 10
255.0923833478
 20
21.2742253211
 10
255.7687908755
 20
21.3414799938
 10
256.7047656967
 20
21.5023807164
 10
257.5928393075
 20
21.7369134577
 10
258.4157288658
 20
22.040514661
 10
259.1574185692
 20
22.4072749693
 10
259.8034704879
 20
22.8300547966
 10
260.3413110316
 20
23.3006261311
 10
260.7604732938
 20
23.8098306858
 10
261.0527946154
 20
24.3477547767
 10
261.2125891232
 20
24.9039308126
 10
261.2438548408
 20
25.2854398026
  0
LWPOLYLINE
  5
26F
330
1F
100
AcDbEntity
  8
0
100
AcDbPolyline
 90
       34
 70
   128
 43
0.0
 10
257.3713141547
 20
86.8422199937
 10
257.6929650731
 20
87.2047486337
 10
257.8899554917
 20
87.5958664117
 10
257.955165886
 20
88.0014382398
 10
257.8862426178
 20
88.4068070574
 10
257.685669717
 20
88.7973180846
 10
257.3607017099
 20
89.1588594239
 10
256.9230843964
 20
89.4783638841
 10
256.3886320642
 20
89.7442841922
 10
255.7766637751
 20
89.9470096593
 10
255.1092921366
 20
90.0792098542
 10
254.4106435851
 20
90.1361113667
 10
253.7059654002
 20
90.1156544377
 10
253.0207300833
 20
90.0185811584
 10
252.3797015421
 20
89.8483966928
 10
251.8060447383
 20
89.6112537068
 10
251.3204998726
 20
89.3157235052
 10
250.9406118877
 20
88.9724865742
 10
250.6801114367
 20
88.5939478497
 10
250.548415706
 20
88.1937919184
 10
250.550280704
 20
87.786478153
 10
250.6856418935
 20
87.3867274825
 10
250.9496062886
 20
87.0089916763
 10
251.3326315795
 20
86.6669180645
 10
251.8208791119
 20
86.3728750866
 10
252.3966985759
 20
86.1374869636
 10
253.0392773308
 20
85.9692618925
 10
253.7253924632
 20
85.8742795462
 10
254.4302484551
 20
85.8559751378
 10
255.1283675368
 20
85.9150086417
 10
255.7945142826
 20
86.0492450253
 10
256.4046195492
 20
86.2538352245
 10
256.9366286813
 20
86.5213834191
 10
257.3713141547
 20
86.8422199937
  0
ARC
  5
270
330
1F
100
AcDbEntity
  8
0
100
AcDbCircle
 10
251.8925356644
 20
87.4959770386
 30
0.0
 40
1.661342369647165
100
AcDbArc
 50
141.5057903888
 51
166.8727506485
  0
ARC
  5
271
330
1F
100
AcDbEntity
  8
0
100
AcDbCircle
 10
256.6140939785
 20
87.505123457
 30
0.0
 40
1.640845866107928
100
AcDbArc
 50
12.9662893736
 51
38.65554206820001
  0
LINE
  5
272
330
1F
100
AcDbEntity
  8
0
100
AcDbLine
 10
251.4447395624
 20
83.2437160947
 30
0.0
 11
242.5218974357
 21
81.8634972462
 31
0.0
  0
ARC
  5
273
330
1F
100
AcDbEntity
  8
0
100
AcDbCircle
 10
239.9039948515
 20
96.908929919
 30
0.0
 40
15.27149168390315
100
AcDbArc
 50
242.5432861341
 51
279.8706328627
  0
LINE
  5
274
330
1F
100
AcDbEntity
  8
0
100
AcDbLine
 10
232.8626405471
 20
83.3576278483
 30
0.0
 11
231.262884472
 21
84.2811473728
 31
0.0
  0
ARC
  5
275
330
1F
100
AcDbEntity
  8
0
100
AcDbCircle
 10
230.9093317571
 20
83.5987870986
 30
0.0
 40
0.7685148443413717
100
AcDbArc
 50
62.6098792617
 51
117.3902439566
  0
LINE
  5
276
330
1F
100
AcDbEntity
  8
0
100
AcDbLine
 10
230.5557775749
 20
84.2811466125
 30
0.0
 11
230.2022234678
 21
84.0770441709
 31
0.0
  0
LINE
  5
277
330
1F
100
AcDbEntity
  8
0
100
AcDbLine
 10
230.2022234678
 20
84.0770441709
 30
0.0
 11
199.7966334783
 21
101.6298176505
 31
0.0
  0
LINE
  5
278
330
1F
100
AcDbEntity
  8
0
100
AcDbLine
 10
199.7966334783
 20
101.6298176505
 30
0.0
 11
202.7121891393
 21
103.3129321075
 31
0.0
  0
ARC
  5
279
330
1F
100
AcDbEntity
  8
0
100
AcDbCircle
 10
140.9627967922
 20
-75.6129028179
 30
0.0
 40
189.2813827585009
100
AcDbArc
 50
60.2990074276
 51
70.9598485548
  0
LINE
  5
27A
330
1F
100
AcDbEntity
  8
0
100
AcDbLine
 10
234.7467469211
 20
88.8012466863
 30
0.0
 11
236.9197607221
 21
87.5467925208
 31
0.0
  0
ARC
  5
27B
330
1F
100
AcDbEntity
  8
0
100
AcDbCircle
 10
239.7481884608
 20
93.0056221534
 30
0.0
 40
6.148074855588711
100
AcDbArc
 50
242.6096041009
 51
297.3903650945
  0
LINE
  5
27C
330
1F
100
AcDbEntity
  8
0
100
AcDbLine
 10
242.5766132647
 20
87.5467910002
 30
0.0
 11
243.2837004054
 21
87.9549837179
 31
0.0
  0
LINE
  5
27D
330
1F
100
AcDbEntity
  8
0
100
AcDbLine
 10
251.4447395624
 20
83.2437160947
 30
0.0
 11
243.2837004054
 21
87.9549837179
 31
0.0
  0
LINE
  5
27E
330
1F
100
AcDbEntity
  8
0
100
AcDbLine
 10
256.1849969315
 20
22.7363928213
 30
0.0
 11
255.0923833478
 21
22.5673838403
 31
0.0
  0
LINE
  5
27F
330
1F
100
AcDbEntity
  8
0
100
AcDbLine
 10
251.4447395624
 20
83.2437160947
 30
0.0
 11
251.4447395624
 21
81.6447364012
 31
0.0
  0
ARC
  5
280
330
1F
100
AcDbEntity
  8
0
100
AcDbCircle
 10
239.1498730568
 20
13.104020005
 30
0.0
 40
13.01922223284008
100
AcDbArc
 50
241.1237655988
 51
261.7125572741
  0
LINE
  5
281
330
1F
100
AcDbEntity
  8
0
100
AcDbLine
 10
232.8626405471
 20
1.7035439221
 30
0.0
 11
231.262884472
 21
2.6270634466
 31
0.0
  0
ARC
  5
282
330
1F
100
AcDbEntity
  8
0
100
AcDbCircle
 10
230.9093317571
 20
1.9447031724
 30
0.0
 40
0.7685148443413726
100
AcDbArc
 50
62.6098792617
 51
117.3902439566
  0
LINE
  5
283
330
1F
100
AcDbEntity
  8
0
100
AcDbLine
 10
230.2022234678
 20
2.4229602447
 30
0.0
 11
230.2022234678
 21
84.0770441709
 31
0.0
  0
LINE
  5
284
330
1F
100
AcDbEntity
  8
0
100
AcDbLine
 10
230.2022234678
 20
2.4229602447
 30
0.0
 11
222.7071334933
 21
6.7497835879
 31
0.0
  0
LINE
  5
285
330
1F
100
AcDbEntity
  8
0
100
AcDbLine
 10
199.7966334783
 20
92.9758898738
 30
0.0
 11
199.7966334783
 21
101.6298176505
 31
0.0
  0
LINE
  5
286
330
1F
100
AcDbEntity
  8
0
100
AcDbLine
 10
230.5557775749
 20
2.6270626863
 30
0.0
 11
230.2022234678
 21
2.4229602447
 31
0.0
  0
ARC
  5
287
330
1F
100
AcDbEntity
  8
0
100
AcDbCircle
 10
258.472985768
 20
67.7881054817
 30
0.0
 40
3.230377380940899
100
AcDbArc
 50
294.8452480708
 51
13.8628623167
  0
LWPOLYLINE
  5
288
330
1F
100
AcDbEntity
  8
0
100
AcDbPolyline
 90
       11
 70
   128
 43
0.0
 10
261.7438541
 20
26.9185213139
 10
261.7153160737
 20
26.5411675782
 10
261.5581168898
 20
25.9609294645
 10
261.2663454529
 20
25.3983114538
 10
260.8453636321
 20
24.8636640451
 10
260.3029224965
 20
24.3668252687
 10
259.6489957027
 20
23.9169340228
 10
258.895620127
 20
23.5222696422
 10
258.0566568143
 20
23.1900948878
 10
257.1475387552
 20
22.9265187058
 10
256.1849969315
 20
22.7363928213
  0
LINE
  5
289
330
1F
100
AcDbEntity
  8
0
100
AcDbLine
 10
218.4644921107
 20
-4.3533661197
 30
0.0
 11
222.7071334933
 21
-1.9041413828
 31
0.0
  0
LINE
  5
28A
330
1F
100
AcDbEntity
  8
0
100
AcDbLine
 10
218.4644921107
 20
77.3007178065
 30
0.0
 11
218.4644921107
 21
-4.3533661197
 31
0.0
  0
LINE
  5
28B
330
1F
100
AcDbEntity
  8
0
100
AcDbLine
 10
218.4644921107
 20
77.3007178065
 30
0.0
 11
222.7071334933
 21
79.7499425435
 31
0.0
  0
LINE
  5
28C
330
1F
100
AcDbEntity
  8
0
100
AcDbLine
 10
222.7071334933
 20
79.7499425435
 30
0.0
 11
222.7071334933
 21
-1.9041413828
 31
0.0
  0
LINE
  5
28D
330
1F
100
AcDbEntity
  8
0
100
AcDbLine
 10
188.05889817
 20
94.8534935672
 30
0.0
 11
218.4644921107
 21
77.3007178065
 31
0.0
  0
LINE
  5
28E
330
1F
100
AcDbEntity
  8
0
100
AcDbLine
 10
188.05889817
 20
94.8534935672
 30
0.0
 11
192.3015395525
 21
97.3027183041
 31
0.0
  0
LINE
  5
28F
330
1F
100
AcDbEntity
  8
0
100
AcDbLine
 10
192.3015395525
 20
97.3027183041
 30
0.0
 11
222.7071334933
 21
79.7499425435
 31
0.0
  0
LINE
  5
290
330
1F
100
AcDbEntity
  8
0
100
AcDbLine
 10
218.4644921107
 20
-4.3533661197
 30
0.0
 11
188.05889817
 21
13.1994096409
 31
0.0
  0
LINE
  5
291
330
1F
100
AcDbEntity
  8
0
100
AcDbLine
 10
188.05889817
 20
13.1994096409
 30
0.0
 11
188.05889817
 21
94.8534935672
 31
0.0
  0
LINE
  5
292
330
1F
100
AcDbEntity
  8
0
100
AcDbLine
 10
240.10171871
 20
-9.8231611589
 30
0.0
 11
240.10171871
 21
71.8309227673
 31
0.0
  0
LINE
  5
293
330
1F
100
AcDbEntity
  8
0
100
AcDbLine
 10
237.2732917801
 20
-8.1903450478
 30
0.0
 11
240.10171871
 21
-9.8231611589
 31
0.0
  0
LINE
  5
294
330
1F
100
AcDbEntity
  8
0
100
AcDbLine
 10
237.2732917801
 20
-8.1903450478
 30
0.0
 11
237.2732917801
 21
73.4637388784
 31
0.0
  0
LINE
  5
295
330
1F
100
AcDbEntity
  8
0
100
AcDbLine
 10
237.2732917801
 20
73.4637388784
 30
0.0
 11
240.10171871
 21
71.8309227673
 31
0.0
  0
LINE
  5
296
330
1F
100
AcDbEntity
  8
0
100
AcDbLine
 10
259.5471564043
 20
83.0565350044
 30
0.0
 11
261.4632489437
 21
86.9858487773
 31
0.0
  0
LINE
  5
297
330
1F
100
AcDbEntity
  8
0
100
AcDbLine
 10
240.10171871
 20
71.8309227673
 30
0.0
 11
259.5471564043
 21
83.0565350044
 31
0.0
  0
LINE
  5
298
330
1F
100
AcDbEntity
  8
0
100
AcDbLine
 10
252.4760880919
 20
82.2401263786
 30
0.0
 11
237.2732917801
 21
73.4637388784
 31
0.0
  0
ARC
  5
299
330
1F
100
AcDbEntity
  8
0
100
AcDbCircle
 10
252.3211611723
 20
82.6483298713
 30
0.0
 40
0.4366147522576448
100
AcDbArc
 50
290.7834338763
 51
69.2167509913
  0
LINE
  5
29A
330
1F
100
AcDbEntity
  8
0
100
AcDbLine
 10
248.940552948
 20
85.0975540978
 30
0.0
 11
252.4760867749
 21
83.0565338639
 31
0.0
  0
LWPOLYLINE
  5
29B
330
1F
100
AcDbEntity
  8
0
100
AcDbPolyline
 90
       32
 70
   128
 43
0.0
 10
261.4632489437
 20
86.9858487773
 10
261.6716433776
 20
87.5597198097
 10
261.7438126117
 20
88.1445830674
 10
261.6784329714
 20
88.7297124439
 10
261.4767003738
 20
89.3043749895
 10
261.14231979
 20
89.8580346825
 10
260.681420294
 20
90.3805352906
 10
260.1024569385
 20
90.8622938774
 10
259.4160480953
 20
91.2944768209
 10
258.6347785499
 20
91.6691560631
 10
257.772980865
 20
91.9794596574
 10
256.8464574745
 20
92.2196987451
 10
255.8722014611
 20
92.3854648789
 10
254.8680830883
 20
92.473719743
 10
253.8525165779
 20
92.482844575
 10
252.8441268855
 20
92.4126713399
 10
251.8614098922
 20
92.2644872921
 10
250.9223846928
 20
92.0410106447
 10
250.0442774946
 20
91.7463388662
 10
249.2431870766
 20
91.3858772087
 10
248.5338134693
 20
90.9662368224
 10
247.9291589755
 20
90.4951123411
 10
247.440317436
 20
89.981145021
 10
247.0762490073
 20
89.4337607884
 10
246.8436379161
 20
88.862999924
 10
246.7467488969
 20
88.2793292585
 10
246.787352117
 20
87.693451328
 10
246.9647113239
 20
87.1161165699
 10
247.2755680393
 20
86.5579073867
 10
247.7142219019
 20
86.0290640281
 10
248.2726320833
 20
85.5392861426
 10
248.940552948
 20
85.0975540978
  0
LWPOLYLINE
  5
29C
330
1F
100
AcDbEntity
  8
0
100
AcDbPolyline
 90
       35
 70
   128
 43
0.0
 10
257.0722809474
 20
86.5262685277
 10
257.5438449132
 20
86.854100224
 10
257.9030289173
 20
87.2263695707
 10
258.1376051052
 20
87.6304032325
 10
258.2395859907
 20
88.0524394479
 10
258.2054970927
 20
88.4781093249
 10
258.0364961328
 20
88.8929124326
 10
257.7383453751
 20
89.2827285096
 10
257.3211916736
 20
89.6342789905
 10
256.7992424675
 20
89.9355938536
 10
256.1902731901
 20
90.1764115595
 10
255.5150187737
 20
90.3485303282
 10
254.7964808611
 20
90.4460925058
 10
254.0591191122
 20
90.4657716076
 10
253.3280517317
 20
90.4068992956
 10
252.6281690679
 20
90.2714813448
 10
251.9833091148
 20
90.064129213
 10
251.4154264292
 20
89.7919011301
 10
250.9438650976
 20
89.4640709545
 10
250.5846791178
 20
89.0917997069
 10
250.3501029299
 20
88.6877660451
 10
250.2481220445
 20
88.2657298297
 10
250.2822135766
 20
87.8400614734
 10
250.4512119024
 20
87.425256845
 10
250.7493652942
 20
87.0354422886
 10
251.1665189957
 20
86.6838918077
 10
251.6884682019
 20
86.3825769447
 10
252.2974374793
 20
86.1417592388
 10
252.9726892614
 20
85.9696389494
 10
253.6912298083
 20
85.8720782925
 10
254.428588923
 20
85.85239767
 10
255.1596563034
 20
85.911269982
 10
255.8595389673
 20
86.0466879328
 10
256.504400896
 20
86.2540419654
 10
257.0722809474
 20
86.5262685277
  0
ARC
  5
29D
330
1F
100
AcDbEntity
  8
0
100
AcDbCircle
 10
255.7389938719
 20
18.7311242068
 30
0.0
 40
0.6550639124762979
100
AcDbArc
 50
170.786058765
 51
309.2031894802
  0
LINE
  5
29E
330
1F
100
AcDbEntity
  8
0
100
AcDbLine
 10
259.5471564043
 20
20.182889788
 30
0.0
 11
256.1530417178
 21
18.2235090861
 31
0.0
  0
LINE
  5
29F
330
1F
100
AcDbEntity
  8
0
100
AcDbLine
 10
259.5471564043
 20
1.4024510781
 30
0.0
 11
259.5471564043
 21
20.182889788
 31
0.0
  0
LINE
  5
2A0
330
1F
100
AcDbEntity
  8
0
100
AcDbLine
 10
240.10171871
 20
-9.8231611589
 30
0.0
 11
259.5471564043
 21
1.4024510781
 31
0.0
  0
LINE
  5
2A1
330
1F
100
AcDbEntity
  8
0
100
AcDbLine
 10
259.5471564043
 20
64.2760947736
 30
0.0
 11
259.5471564043
 21
83.0565350044
 31
0.0
  0
LINE
  5
2A2
330
1F
100
AcDbEntity
  8
0
100
AcDbLine
 10
259.5471564043
 20
64.2760947736
 30
0.0
 11
256.1530417178
 21
62.3167140716
 31
0.0
  0
ARC
  5
2A3
330
1F
100
AcDbEntity
  8
0
100
AcDbCircle
 10
257.3952046345
 20
60.3748068387
 30
0.0
 40
2.305205503405925
100
AcDbArc
 50
122.6054741156
 51
177.3946078976
  0
LINE
  5
2A4
330
1F
100
AcDbEntity
  8
0
100
AcDbLine
 10
255.0923820307
 20
60.4795945676
 30
0.0
 11
255.0923820307
 21
18.8360139401
 31
0.0
  0
LWPOLYLINE
  5
2A5
330
1F
100
AcDbEntity
  8
0
100
AcDbPolyline
 90
       31
 70
   128
 43
0.0
 10
251.4154277463
 20
40.1480759707
 10
251.8858787719
 20
40.3625599293
 10
252.3357674038
 20
40.4534766813
 10
252.7454321372
 20
40.4168432459
 10
253.0969710981
 20
40.2542734843
 10
253.375019126
 20
39.9728609152
 10
253.5674221237
 20
39.5849048849
 10
253.6657744289
 20
39.1073690674
 10
253.6657744289
 20
38.5611194471
 10
253.5674221237
 20
37.9700223914
 10
253.375019126
 20
37.3599286721
 10
253.0969710981
 20
36.7574886832
 10
252.7454321372
 20
36.189034593
 10
252.3357674038
 20
35.6794123244
 10
251.8858787719
 20
35.2508987183
 10
251.4154277463
 20
34.9222114845
 10
250.9449767207
 20
34.7077275259
 10
250.4950880888
 20
34.6168107739
 10
250.0854207213
 20
34.6534426886
 10
249.7338817604
 20
34.8160185339
 10
249.4558363666
 20
35.0974326237
 10
249.2634307348
 20
35.4853810496
 10
249.1650810638
 20
35.9629244715
 10
249.1650810638
 20
36.5091740918
 10
249.2634307348
 20
37.1002635432
 10
249.4558363666
 20
37.7103648668
 10
249.7338817604
 20
38.312803335
 10
250.0854207213
 20
38.8812513415
 10
250.4950880888
 20
39.3908751308
 10
250.9449767207
 20
39.8193887369
 10
251.4154277463
 20
40.1480759707
  0
LWPOLYLINE
  5
2A6
330
1F
100
AcDbEntity
  8
0
100
AcDbPolyline
 90
       31
 70
   128
 43
0.0
 10
245.7585725696
 20
5.8538931342
 10
246.2290235952
 20
6.0683770928
 10
246.6789122271
 20
6.1592938448
 10
247.0885795946
 20
6.1226619301
 10
247.4401185555
 20
5.9600891267
 10
247.7181639493
 20
5.6786750369
 10
247.910566947
 20
5.2907220484
 10
248.0089192521
 20
4.8131847099
 10
248.0089192521
 20
4.2669335687
 10
247.910566947
 20
3.6758410758
 10
247.7181639493
 20
3.0657443147
 10
247.4401185555
 20
2.4633058464
 10
247.0885795946
 20
1.8948532772
 10
246.6789122271
 20
1.3852310088
 10
246.2290235952
 20
0.9567143609
 10
245.7585725696
 20
0.628030169
 10
245.2881228611
 20
0.4135439288
 10
244.8382329121
 20
0.3226294583
 10
244.4285668616
 20
0.3592606124
 10
244.0770279007
 20
0.5218349368
 10
243.7989811899
 20
0.8032482663
 10
243.6065781922
 20
1.1912012547
 10
243.5082272041
 20
1.6687393535
 10
243.5082272041
 20
2.2149904947
 10
243.6065781922
 20
2.8060822273
 10
243.7989811899
 20
3.4161789884
 10
244.0770279007
 20
4.018618217
 10
244.4285668616
 20
4.5870692653
 10
244.8382329121
 20
5.0966922943
 10
245.2881228611
 20
5.5252066607
 10
245.7585725696
 20
5.8538931342
  0
LWPOLYLINE
  5
2A7
330
1F
100
AcDbEntity
  8
0
100
AcDbPolyline
 90
       31
 70
   128
 43
0.0
 10
245.7585725696
 20
67.9109958839
 10
246.2290235952
 20
68.1254798425
 10
246.6789122271
 20
68.2163965945
 10
247.0885795946
 20
68.1797646798
 10
247.4401185555
 20
68.0171888345
 10
247.7181639493
 20
67.7357747447
 10
247.910566947
 20
67.3478247981
 10
248.0089192521
 20
66.8702889806
 10
248.0089192521
 20
66.3240332766
 10
247.910566947
 20
65.7329423046
 10
247.7181639493
 20
65.1228485854
 10
247.4401185555
 20
64.5204040334
 10
247.0885795946
 20
63.9519560269
 10
246.6789122271
 20
63.4423322376
 10
246.2290235952
 20
63.0138186315
 10
245.7585725696
 20
62.6851313977
 10
245.2881228611
 20
62.4706481994
 10
244.8382329121
 20
62.3797306871
 10
244.4285668616
 20
62.4163633622
 10
244.0770279007
 20
62.5789331237
 10
243.7989811899
 20
62.8603525369
 10
243.6065781922
 20
63.2483024835
 10
243.5082272041
 20
63.7258390614
 10
243.5082272041
 20
64.2720947654
 10
243.6065781922
 20
64.863184977
 10
243.7989811899
 20
65.4732786963
 10
244.0770279007
 20
66.0757179249
 10
244.4285668616
 20
66.6441720151
 10
244.8382329121
 20
67.153795044
 10
245.2881228611
 20
67.5823094104
 10
245.7585725696
 20
67.9109958839
  0
ARC
  5
2A8
330
1F
100
AcDbEntity
  8
0
100
AcDbCircle
 10
242.0462883696
 20
67.4411203099
 30
0.0
 40
4.393316567656273
100
AcDbArc
 50
290.4688161151
 51
9.5365434936
  0
ARC
  5
2A9
330
1F
100
AcDbEntity
  8
0
100
AcDbCircle
 10
238.4368350414
 20
69.5248176411
 30
0.0
 40
8.081507490080744
100
AcDbArc
 50
310.0655559172999
 51
349.9397881669
  0
ARC
  5
2AA
330
1F
100
AcDbEntity
  8
0
100
AcDbCircle
 10
259.1188323557
 20
69.386301706
 30
0.0
 40
2.625032912561851
100
AcDbArc
 50
333.2653992869
 51
359.8328662929
  0
LINE
  5
2AB
330
1F
100
AcDbEntity
  8
0
100
AcDbLine
 10
261.4632489437
 20
68.2054085465
 30
0.0
 11
259.5471564043
 21
64.2760947736
 31
0.0
  0
ARC
  5
2AC
330
1F
100
AcDbEntity
  8
0
100
AcDbCircle
 10
247.7031418026
 20
39.6782014033
 30
0.0
 40
4.393318120476243
100
AcDbArc
 50
290.468832829
 51
9.5365267797
  0
ARC
  5
2AD
330
1F
100
AcDbEntity
  8
0
100
AcDbCircle
 10
244.0937192819
 20
41.7618779083
 30
0.0
 40
8.081473082976434
100
AcDbArc
 50
310.065467434
 51
349.9398766501999
  0
ARC
  5
2AE
330
1F
100
AcDbEntity
  8
0
100
AcDbCircle
 10
242.0462838829
 20
5.3840201502
 30
0.0
 40
4.393320563158614
100
AcDbArc
 50
290.4688591209999
 51
9.5365004877
  0
ARC
  5
2AF
330
1F
100
AcDbEntity
  8
0
100
AcDbCircle
 10
238.4368213803
 20
7.467720807
 30
0.0
 40
8.081521974502273
100
AcDbArc
 50
310.0655961041
 51
349.9397637901999
  0
LINE
  5
2B0
330
1F
100
AcDbEntity
  8
0
100
AcDbLine
 10
261.4632489437
 20
24.1122035609
 30
0.0
 11
259.5471564043
 21
20.182889788
 31
0.0
  0
ARC
  5
2B1
330
1F
100
AcDbEntity
  8
0
100
AcDbCircle
 10
259.1551105126
 20
25.2818323207
 30
0.0
 40
2.587573081586961
100
AcDbArc
 50
333.1267904535001
 51
18.478955628
  0
ARC
  5
2B2
330
1F
100
AcDbEntity
  8
0
100
AcDbCircle
 10
259.1152356506
 20
6.5135182417
 30
0.0
 40
2.628632248985018
100
AcDbArc
 50
333.2839208102
 51
359.8143447697
  0
LINE
  5
2B3
330
1F
100
AcDbEntity
  8
0
100
AcDbLine
 10
259.5471564043
 20
1.4024510781
 30
0.0
 11
261.4632489437
 21
5.3317648511
 31
0.0
  0
LINE
  5
2B4
330
1F
100
AcDbEntity
  8
0
  6
Continuous
 62
     8
370
     0
100
AcDbLine
 10
229.4951178878
 20
82.0356201334
 30
0.0
 11
229.2122756558
 21
81.8723387885
 31
0.0
  0
LINE
  5
2B5
330
1F
100
AcDbEntity
  8
0
  6
Continuous
 62
     8
370
     0
100
AcDbLine
 10
227.7980618616
 20
84.3218319674
 30
0.0
 11
228.0809040936
 21
84.4851133124
 31
0.0
  0
LINE
  5
2B6
330
1F
100
AcDbEntity
  8
0
  6
Continuous
 62
     8
370
     0
100
AcDbLine
 10
229.2122756558
 20
5.1175050994
 30
0.0
 11
229.4951178878
 21
5.2807864443
 31
0.0
  0
LINE
  5
2B7
330
1F
100
AcDbEntity
  8
0
  6
Continuous
 62
     8
370
     0
100
AcDbLine
 10
203.3321640125
 20
98.7722568508
 30
0.0
 11
203.0493217805
 21
98.6089755058
 31
0.0
  0
ARC
  5
2B8
330
1F
100
AcDbEntity
  8
0
  6
Continuous
 62
     8
370
     0
100
AcDbCircle
 10
254.7168593273
 20
31.8655293871
 30
0.0
 40
9.355074611907048
100
AcDbArc
 50
272.3005400526
 51
302.0830302505
  0
ARC
  5
2B9
330
1F
100
AcDbEntity
  8
0
  6
Continuous
 62
     8
370
     0
100
AcDbCircle
 10
258.3650195596
 20
68.1905995374
 30
0.0
 40
3.032112094760209
100
AcDbArc
 50
310.3931802434
 51
357.3357481879
  0
LINE
  5
2BA
330
1F
100
AcDbEntity
  8
0
  6
Continuous
 62
     8
370
     0
100
AcDbLine
 10
256.1849969315
 20
22.7363928213
 30
0.0
 11
256.1849969315
 21
62.3351617388
 31
0.0
  0
LINE
  5
2BB
330
1F
100
AcDbEntity
  8
0
  6
Continuous
 62
     8
370
     0
100
AcDbLine
 10
242.5218974357
 20
76.493692344
 30
0.0
 11
242.5218974357
 21
81.8634972462
 31
0.0
  0
LINE
  5
2BC
330
1F
100
AcDbEntity
  8
0
  6
Continuous
 62
     8
370
     0
100
AcDbLine
 10
232.8626405471
 20
1.7035439221
 30
0.0
 11
232.8626405471
 21
83.3576278483
 31
0.0
  0
LINE
  5
2BD
330
1F
100
AcDbEntity
  8
0
  6
Continuous
 62
     8
370
     0
100
AcDbLine
 10
231.262884472
 20
2.6270634466
 30
0.0
 11
231.262884472
 21
84.2811473728
 31
0.0
  0
LINE
  5
2BE
330
1F
100
AcDbEntity
  8
0
  6
Continuous
 62
     8
370
     0
100
AcDbLine
 10
230.5557775749
 20
2.6270626863
 30
0.0
 11
230.5557775749
 21
84.2811466125
 31
0.0
  0
LINE
  5
2BF
330
1F
100
AcDbEntity
  8
0
  6
Continuous
 62
     8
370
     0
100
AcDbLine
 10
252.4760867749
 20
82.2401252387
 30
0.0
 11
252.4760867749
 21
83.0565338639
 31
0.0
  0
LINE
  5
2C0
330
1F
100
AcDbEntity
  8
0
  6
Continuous
 62
     8
370
     0
100
AcDbLine
 10
248.940552948
 20
84.6893497852
 30
0.0
 11
248.940552948
 21
85.0975540978
 31
0.0
  0
LINE
  5
2C1
330
1F
100
AcDbEntity
  8
0
  6
Continuous
 62
     8
370
     0
100
AcDbLine
 10
261.4632489437
 20
68.2054085465
 30
0.0
 11
261.4632489437
 21
86.9858487773
 31
0.0
  0
LINE
  5
2C2
330
1F
100
AcDbEntity
  8
0
  6
Continuous
 62
     8
370
     0
100
AcDbLine
 10
255.0923813721
 20
18.8358152703
 30
0.0
 11
256.1530417178
 21
18.2235090861
 31
0.0
  0
LINE
  5
2C3
330
1F
100
AcDbEntity
  8
0
  6
Continuous
 62
     8
370
     0
100
AcDbLine
 10
261.4632489437
 20
5.3317648511
 30
0.0
 11
261.4632489437
 21
24.1122035609
 31
0.0
  0
ENDSEC
  0
SECTION
  2
OBJECTS
  0
DICTIONARY
  5
C
330
0
100
AcDbDictionary
281
     1
  3
ACAD_GROUP
350
D
  3
ACAD_IMAGE_VARS
350
2E7
  3
ACAD_LAYOUT
350
1A
  3
ACAD_MLINESTYLE
350
17
  3
ACAD_PLOTSETTINGS
350
19
  3
ACAD_PLOTSTYLENAME
350
E
  3
ACAD_SCALELIST
350
47
  3
APPDATA
350
2E5
  3
DWGPROPS
350
2E9
  0
DICTIONARY
  5
D
102
{ACAD_REACTORS
330
C
102
}
330
C
100
AcDbDictionary
281
     1
  0
RASTERVARIABLES
  5
2E7
102
{ACAD_REACTORS
330
C
102
}
330
C
100
AcDbRasterVariables
 90
        0
 70
     1
 71
     1
 72
     1
  0
DICTIONARY
  5
1A
102
{ACAD_REACTORS
330
C
102
}
330
C
100
AcDbDictionary
281
     1
  3
Layout1
350
1E
  3
Layout2
350
26
  3
Model
350
22
  0
DICTIONARY
  5
17
102
{ACAD_REACTORS
330
C
102
}
330
C
100
AcDbDictionary
281
     1
  3
Standard
350
18
  0
DICTIONARY
  5
19
102
{ACAD_REACTORS
330
C
102
}
330
C
100
AcDbDictionary
281
     1
  0
ACDBDICTIONARYWDFLT
  5
E
102
{ACAD_REACTORS
330
C
102
}
330
C
100
AcDbDictionary
281
     1
  3
Normal
350
F
100
AcDbDictionaryWithDefault
340
F
  0
DICTIONARY
  5
47
102
{ACAD_REACTORS
330
C
102
}
330
C
100
AcDbDictionary
281
     1
  3
A0
350
48
  3
A1
350
49
  3
A2
350
4A
  3
A3
350
4B
  3
A4
350
4C
  3
A5
350
4D
  3
A6
350
4E
  3
A7
350
4F
  3
A8
350
50
  3
A9
350
51
  3
B0
350
52
  3
B1
350
53
  3
B2
350
54
  3
B3
350
55
  3
B4
350
56
  3
B5
350
57
  3
B6
350
58
  3
B7
350
59
  3
B8
350
5A
  3
B9
350
5B
  3
C0
350
5C
  3
C1
350
5D
  3
C2
350
5E
  3
C3
350
5F
  3
C4
350
60
  3
C5
350
61
  3
C6
350
62
  3
C7
350
63
  3
C8
350
64
  3
C9
350
65
  3
D0
350
66
  3
D1
350
67
  3
D2
350
68
  0
DICTIONARY
  5
2E5
102
{ACAD_REACTORS
330
C
102
}
330
C
100
AcDbDictionary
281
     1
  0
XRECORD
  5
2E9
102
{ACAD_REACTORS
330
C
102
}
330
C
100
AcDbXrecord
280
     1
  1
DWGPROPS COOKIE
  2

  3

  4

  6

  7

  8
raffaele
  9

300
=
301
=
302
=
303
=
304
=
305
=
306
=
307
=
308
=
309
=
 40
0.0
 41
2457340.382187593
 42
2457340.383484445
  1

 90
        0
  0
LAYOUT
  5
1E
102
{ACAD_REACTORS
330
1A
102
}
330
1A
100
AcDbPlotSettings
  1

  2
none_device
  4

  6

 40
0.0
 41
0.0
 42
0.0
 43
0.0
 44
0.0
 45
0.0
 46
0.0
 47
0.0
 48
0.0
 49
0.0
140
0.0
141
0.0
142
1.0
143
1.0
 70
   688
 72
     1
 73
     0
 74
     5
  7

 75
    16
147
1.0
148
0.0
149
0.0
100
AcDbLayout
  1
Layout1
 70
     1
 71
     1
 10
0.0
 20
0.0
 11
420.0
 21
297.0
 12
0.0
 22
0.0
 32
0.0
 14
1.000000000000000E+20
 24
1.000000000000000E+20
 34
1.000000000000000E+20
 15
-1.000000000000000E+20
 25
-1.000000000000000E+20
 35
-1.000000000000000E+20
146
0.0
 13
0.0
 23
0.0
 33
0.0
 16
1.0
 26
0.0
 36
0.0
 17
0.0
 27
1.0
 37
0.0
 76
     0
330
1B
  0
LAYOUT
  5
26
102
{ACAD_REACTORS
330
1A
102
}
330
1A
100
AcDbPlotSettings
  1

  2
none_device
  4

  6

 40
0.0
 41
0.0
 42
0.0
 43
0.0
 44
0.0
 45
0.0
 46
0.0
 47
0.0
 48
0.0
 49
0.0
140
0.0
141
0.0
142
1.0
143
1.0
 70
   688
 72
     1
 73
     0
 74
     5
  7

 75
    16
147
1.0
148
0.0
149
0.0
100
AcDbLayout
  1
Layout2
 70
     1
 71
     2
 10
0.0
 20
0.0
 11
0.0
 21
0.0
 12
0.0
 22
0.0
 32
0.0
 14
0.0
 24
0.0
 34
0.0
 15
0.0
 25
0.0
 35
0.0
146
0.0
 13
0.0
 23
0.0
 33
0.0
 16
1.0
 26
0.0
 36
0.0
 17
0.0
 27
1.0
 37
0.0
 76
     0
330
23
  0
LAYOUT
  5
22
102
{ACAD_REACTORS
330
1A
102
}
330
1A
100
AcDbPlotSettings
  1

  2
none_device
  4
Letter_(8.50_x_11.00_Inches)
  6

 40
6.35
 41
6.35
 42
6.35000508
 43
6.35000508
 44
215.9
 45
279.4
 46
0.0
 47
0.0
 48
0.0
 49
0.0
140
0.0
141
0.0
142
1.0
143
1.0
 70
  1712
 72
     1
 73
     0
 74
     0
  7

 75
     0
147
1.0
148
0.0
149
0.0
100
AcDbLayout
  1
Model
 70
     1
 71
     0
 10
0.0
 20
0.0
 11
420.0
 21
297.0
 12
0.0
 22
0.0
 32
0.0
 14
28.1275002106
 24
-9.8231611589
 34
0.0
 15
261.7438541
 25
286.6873894397
 35
0.0
146
0.0
 13
0.0
 23
0.0
 33
0.0
 16
1.0
 26
0.0
 36
0.0
 17
0.0
 27
1.0
 37
0.0
 76
     0
330
1F
331
29
  0
MLINESTYLE
  5
18
102
{ACAD_REACTORS
330
17
102
}
330
17
100
AcDbMlineStyle
  2
Standard
 70
     0
  3

 62
   256
 51
90.0
 52
90.0
 71
     2
 49
0.5
 62
   256
  6
BYLAYER
 49
-0.5
 62
   256
  6
BYLAYER
  0
ACDBPLACEHOLDER
  5
F
102
{ACAD_REACTORS
330
E
102
}
330
E
  0
SCALE
  5
48
102
{ACAD_REACTORS
330
47
102
}
330
47
100
AcDbScale
 70
     0
300
1:1
140
1.0
141
1.0
290
     1
  0
SCALE
  5
49
102
{ACAD_REACTORS
330
47
102
}
330
47
100
AcDbScale
 70
     0
300
1:2
140
1.0
141
2.0
290
     0
  0
SCALE
  5
4A
102
{ACAD_REACTORS
330
47
102
}
330
47
100
AcDbScale
 70
     0
300
1:4
140
1.0
141
4.0
290
     0
  0
SCALE
  5
4B
102
{ACAD_REACTORS
330
47
102
}
330
47
100
AcDbScale
 70
     0
300
1:5
140
1.0
141
5.0
290
     0
  0
SCALE
  5
4C
102
{ACAD_REACTORS
330
47
102
}
330
47
100
AcDbScale
 70
     0
300
1:8
140
1.0
141
8.0
290
     0
  0
SCALE
  5
4D
102
{ACAD_REACTORS
330
47
102
}
330
47
100
AcDbScale
 70
     0
300
1:10
140
1.0
141
10.0
290
     0
  0
SCALE
  5
4E
102
{ACAD_REACTORS
330
47
102
}
330
47
100
AcDbScale
 70
     0
300
1:16
140
1.0
141
16.0
290
     0
  0
SCALE
  5
4F
102
{ACAD_REACTORS
330
47
102
}
330
47
100
AcDbScale
 70
     0
300
1:20
140
1.0
141
20.0
290
     0
  0
SCALE
  5
50
102
{ACAD_REACTORS
330
47
102
}
330
47
100
AcDbScale
 70
     0
300
1:30
140
1.0
141
30.0
290
     0
  0
SCALE
  5
51
102
{ACAD_REACTORS
330
47
102
}
330
47
100
AcDbScale
 70
     0
300
1:40
140
1.0
141
40.0
290
     0
  0
SCALE
  5
52
102
{ACAD_REACTORS
330
47
102
}
330
47
100
AcDbScale
 70
     0
300
1:50
140
1.0
141
50.0
290
     0
  0
SCALE
  5
53
102
{ACAD_REACTORS
330
47
102
}
330
47
100
AcDbScale
 70
     0
300
1:100
140
1.0
141
100.0
290
     0
  0
SCALE
  5
54
102
{ACAD_REACTORS
330
47
102
}
330
47
100
AcDbScale
 70
     0
300
2:1
140
2.0
141
1.0
290
     0
  0
SCALE
  5
55
102
{ACAD_REACTORS
330
47
102
}
330
47
100
AcDbScale
 70
     0
300
4:1
140
4.0
141
1.0
290
     0
  0
SCALE
  5
56
102
{ACAD_REACTORS
330
47
102
}
330
47
100
AcDbScale
 70
     0
300
8:1
140
8.0
141
1.0
290
     0
  0
SCALE
  5
57
102
{ACAD_REACTORS
330
47
102
}
330
47
100
AcDbScale
 70
     0
300
10:1
140
10.0
141
1.0
290
     0
  0
SCALE
  5
58
102
{ACAD_REACTORS
330
47
102
}
330
47
100
AcDbScale
 70
     0
300
100:1
140
100.0
141
1.0
290
     0
  0
SCALE
  5
59
102
{ACAD_REACTORS
330
47
102
}
330
47
100
AcDbScale
 70
     0
300
1/128" = 1'-0"
140
0.0078125
141
12.0
290
     0
  0
SCALE
  5
5A
102
{ACAD_REACTORS
330
47
102
}
330
47
100
AcDbScale
 70
     0
300
1/64" = 1'-0"
140
0.015625
141
12.0
290
     0
  0
SCALE
  5
5B
102
{ACAD_REACTORS
330
47
102
}
330
47
100
AcDbScale
 70
     0
300
1/32" = 1'-0"
140
0.03125
141
12.0
290
     0
  0
SCALE
  5
5C
102
{ACAD_REACTORS
330
47
102
}
330
47
100
AcDbScale
 70
     0
300
1/16" = 1'-0"
140
0.0625
141
12.0
290
     0
  0
SCALE
  5
5D
102
{ACAD_REACTORS
330
47
102
}
330
47
100
AcDbScale
 70
     0
300
3/32" = 1'-0"
140
0.09375
141
12.0
290
     0
  0
SCALE
  5
5E
102
{ACAD_REACTORS
330
47
102
}
330
47
100
AcDbScale
 70
     0
300
1/8" = 1'-0"
140
0.125
141
12.0
290
     0
  0
SCALE
  5
5F
102
{ACAD_REACTORS
330
47
102
}
330
47
100
AcDbScale
 70
     0
300
3/16" = 1'-0"
140
0.1875
141
12.0
290
     0
  0
SCALE
  5
60
102
{ACAD_REACTORS
330
47
102
}
330
47
100
AcDbScale
 70
     0
300
1/4" = 1'-0"
140
0.25
141
12.0
290
     0
  0
SCALE
  5
61
102
{ACAD_REACTORS
330
47
102
}
330
47
100
AcDbScale
 70
     0
300
3/8" = 1'-0"
140
0.375
141
12.0
290
     0
  0
SCALE
  5
62
102
{ACAD_REACTORS
330
47
102
}
330
47
100
AcDbScale
 70
     0
300
1/2" = 1'-0"
140
0.5
141
12.0
290
     0
  0
SCALE
  5
63
102
{ACAD_REACTORS
330
47
102
}
330
47
100
AcDbScale
 70
     0
300
3/4" = 1'-0"
140
0.75
141
12.0
290
     0
  0
SCALE
  5
64
102
{ACAD_REACTORS
330
47
102
}
330
47
100
AcDbScale
 70
     0
300
1" = 1'-0"
140
1.0
141
12.0
290
     0
  0
SCALE
  5
65
102
{ACAD_REACTORS
330
47
102
}
330
47
100
AcDbScale
 70
     0
300
1-1/2" = 1'-0"
140
1.5
141
12.0
290
     0
  0
SCALE
  5
66
102
{ACAD_REACTORS
330
47
102
}
330
47
100
AcDbScale
 70
     0
300
3" = 1'-0"
140
3.0
141
12.0
290
     0
  0
SCALE
  5
67
102
{ACAD_REACTORS
330
47
102
}
330
47
100
AcDbScale
 70
     0
300
6" = 1'-0"
140
6.0
141
12.0
290
     0
  0
SCALE
  5
68
102
{ACAD_REACTORS
330
47
102
}
330
47
100
AcDbScale
 70
     0
300
1'-0" = 1'-0"
140
12.0
141
12.0
290
     0
  0
ENDSEC
  0
EOF
