  0
SECTION
  2
HEADER
  9
$ACADVER
  1
AC1015
  9
$ACADMAINTVER
 70
     6
  9
$DWGCODEPAGE
  3
ANSI_1252
  9
$INSBASE
 10
0.0
 20
0.0
 30
0.0
  9
$EXTMIN
 10
-137.9774405774979
 20
-148.4500714467142
 30
-0.0000000000000183
  9
$EXTMAX
 10
149.6616709728396
 20
174.6315626904618
 30
0.0000000000000123
  9
$LIMMIN
 10
-656.35
 20
-384.35
  9
$LIMMAX
 10
2061.85
 20
268.85
  9
$ORTHOMODE
 70
     0
  9
$REGENMODE
 70
     1
  9
$FILLMODE
 70
     1
  9
$QTEXTMODE
 70
     0
  9
$MIRRTEXT
 70
     1
  9
$LTSCALE
 40
10.0
  9
$ATTMODE
 70
     1
  9
$TEXTSIZE
 40
0.0
  9
$TRACEWID
 40
0.05
  9
$TEXTSTYLE
  7
Standard
  9
$CLAYER
  8
0
  9
$CELTYPE
  6
Continuous
  9
$CECOLOR
 62
   256
  9
$CELTSCALE
 40
1.0
  9
$DISPSILH
 70
     0
  9
$DIMSCALE
 40
1.0
  9
$DIMASZ
 40
1.25
  9
$DIMEXO
 40
0.0
  9
$DIMDLI
 40
0.38
  9
$DIMRND
 40
0.0
  9
$DIMDLE
 40
0.0
  9
$DIMEXE
 40
0.75
  9
$DIMTP
 40
0.0
  9
$DIMTM
 40
0.0
  9
$DIMTXT
 40
2.5
  9
$DIMCEN
 40
0.09
  9
$DIMTSZ
 40
0.0
  9
$DIMTOL
 70
     0
  9
$DIMLIM
 70
     0
  9
$DIMTIH
 70
     0
  9
$DIMTOH
 70
     0
  9
$DIMSE1
 70
     0
  9
$DIMSE2
 70
     0
  9
$DIMTAD
 70
     1
  9
$DIMZIN
 70
     0
  9
$DIMBLK
  1

  9
$DIMASO
 70
     1
  9
$DIMSHO
 70
     1
  9
$DIMPOST
  1

  9
$DIMAPOST
  1

  9
$DIMALT
 70
     0
  9
$DIMALTD
 70
     2
  9
$DIMALTF
 40
25.4
  9
$DIMLFAC
 40
1.0
  9
$DIMTOFL
 70
     0
  9
$DIMTVP
 40
0.0
  9
$DIMTIX
 70
     0
  9
$DIMSOXD
 70
     0
  9
$DIMSAH
 70
     0
  9
$DIMBLK1
  1

  9
$DIMBLK2
  1

  9
$DIMSTYLE
  2
Standard
  9
$DIMCLRD
 70
     7
  9
$DIMCLRE
 70
     7
  9
$DIMCLRT
 70
     7
  9
$DIMTFAC
 40
0.8
  9
$DIMGAP
 40
1.25
  9
$DIMJUST
 70
     0
  9
$DIMSD1
 70
     0
  9
$DIMSD2
 70
     0
  9
$DIMTOLJ
 70
     1
  9
$DIMTZIN
 70
     0
  9
$DIMALTZ
 70
     0
  9
$DIMALTTZ
 70
     0
  9
$DIMUPT
 70
     0
  9
$DIMDEC
 70
     2
  9
$DIMTDEC
 70
     4
  9
$DIMALTU
 70
     2
  9
$DIMALTTD
 70
     2
  9
$DIMTXSTY
  7
Standard
  9
$DIMAUNIT
 70
     0
  9
$DIMADEC
 70
     0
  9
$DIMALTRND
 40
0.0
  9
$DIMAZIN
 70
     0
  9
$DIMDSEP
 70
     0
  9
$DIMATFIT
 70
     3
  9
$DIMFRAC
 70
     0
  9
$DIMLDRBLK
  1

  9
$DIMLUNIT
 70
     2
  9
$DIMLWD
 70
     0
  9
$DIMLWE
 70
     0
  9
$DIMTMOVE
 70
     0
  9
$LUNITS
 70
     2
  9
$LUPREC
 70
     4
  9
$SKETCHINC
 40
0.1
  9
$FILLETRAD
 40
0.0
  9
$AUNITS
 70
     0
  9
$AUPREC
 70
     0
  9
$MENU
  1
acad
  9
$ELEVATION
 40
0.0
  9
$PELEVATION
 40
0.0
  9
$THICKNESS
 40
0.0
  9
$LIMCHECK
 70
     0
  9
$CHAMFERA
 40
0.0
  9
$CHAMFERB
 40
0.0
  9
$CHAMFERC
 40
0.0
  9
$CHAMFERD
 40
0.0
  9
$SKPOLY
 70
     0
  9
$TDCREATE
 40
2455323.528193981
  9
$TDUCREATE
 40
2455323.486527315
  9
$TDUPDATE
 40
2456003.670907037
  9
$TDUUPDATE
 40
2456003.62924037
  9
$TDINDWG
 40
0.1219071875
  9
$TDUSRTIMER
 40
2456003.629000197
  9
$USRTIMER
 70
     1
  9
$ANGBASE
 50
0.0
  9
$ANGDIR
 70
     0
  9
$PDMODE
 70
     0
  9
$PDSIZE
 40
0.0
  9
$PLINEWID
 40
0.0
  9
$SPLFRAME
 70
     0
  9
$SPLINETYPE
 70
     6
  9
$SPLINESEGS
 70
     8
  9
$HANDSEED
  5
44C5
  9
$SURFTAB1
 70
     6
  9
$SURFTAB2
 70
     6
  9
$SURFTYPE
 70
     6
  9
$SURFU
 70
     6
  9
$SURFV
 70
     6
  9
$UCSBASE
  2

  9
$UCSNAME
  2

  9
$UCSORG
 10
0.0
 20
0.0
 30
0.0
  9
$UCSXDIR
 10
1.0
 20
0.0
 30
0.0
  9
$UCSYDIR
 10
0.0
 20
1.0
 30
0.0
  9
$UCSORTHOREF
  2

  9
$UCSORTHOVIEW
 70
     0
  9
$UCSORGTOP
 10
0.0
 20
0.0
 30
0.0
  9
$UCSORGBOTTOM
 10
0.0
 20
0.0
 30
0.0
  9
$UCSORGLEFT
 10
0.0
 20
0.0
 30
0.0
  9
$UCSORGRIGHT
 10
0.0
 20
0.0
 30
0.0
  9
$UCSORGFRONT
 10
0.0
 20
0.0
 30
0.0
  9
$UCSORGBACK
 10
0.0
 20
0.0
 30
0.0
  9
$PUCSBASE
  2

  9
$PUCSNAME
  2

  9
$PUCSORG
 10
0.0
 20
0.0
 30
0.0
  9
$PUCSXDIR
 10
1.0
 20
0.0
 30
0.0
  9
$PUCSYDIR
 10
0.0
 20
1.0
 30
0.0
  9
$PUCSORTHOREF
  2

  9
$PUCSORTHOVIEW
 70
     0
  9
$PUCSORGTOP
 10
0.0
 20
0.0
 30
0.0
  9
$PUCSORGBOTTOM
 10
0.0
 20
0.0
 30
0.0
  9
$PUCSORGLEFT
 10
0.0
 20
0.0
 30
0.0
  9
$PUCSORGRIGHT
 10
0.0
 20
0.0
 30
0.0
  9
$PUCSORGFRONT
 10
0.0
 20
0.0
 30
0.0
  9
$PUCSORGBACK
 10
0.0
 20
0.0
 30
0.0
  9
$USERI1
 70
     0
  9
$USERI2
 70
     0
  9
$USERI3
 70
     0
  9
$USERI4
 70
     0
  9
$USERI5
 70
     0
  9
$USERR1
 40
0.0
  9
$USERR2
 40
0.0
  9
$USERR3
 40
0.0
  9
$USERR4
 40
0.0
  9
$USERR5
 40
0.0
  9
$WORLDVIEW
 70
     1
  9
$SHADEDGE
 70
     3
  9
$SHADEDIF
 70
    70
  9
$TILEMODE
 70
     1
  9
$MAXACTVP
 70
    16
  9
$PINSBASE
 10
0.0
 20
0.0
 30
0.0
  9
$PLIMCHECK
 70
     0
  9
$PEXTMIN
 10
1.000000000000000E+20
 20
1.000000000000000E+20
 30
1.000000000000000E+20
  9
$PEXTMAX
 10
-1.000000000000000E+20
 20
-1.000000000000000E+20
 30
-1.000000000000000E+20
  9
$PLIMMIN
 10
0.0
 20
0.0
  9
$PLIMMAX
 10
12.0
 20
9.0
  9
$UNITMODE
 70
     0
  9
$VISRETAIN
 70
     0
  9
$PLINEGEN
 70
     1
  9
$PSLTSCALE
 70
     0
  9
$TREEDEPTH
 70
  3020
  9
$CMLSTYLE
  2
Standard
  9
$CMLJUST
 70
     0
  9
$CMLSCALE
 40
1.0
  9
$PROXYGRAPHICS
 70
     0
  9
$MEASUREMENT
 70
     1
  9
$CELWEIGHT
370
     0
  9
$ENDCAPS
280
     0
  9
$JOINSTYLE
280
     0
  9
$LWDISPLAY
290
     0
  9
$INSUNITS
 70
     0
  9
$HYPERLINKBASE
  1

  9
$STYLESHEET
  1

  9
$XEDIT
290
     1
  9
$CEPSNTYPE
380
     0
  9
$PSTYLEMODE
290
     1
  9
$FINGERPRINTGUID
  2

  9
$VERSIONGUID
  2
{BC257F66-3A57-4669-AFCE-8B3056A72513}
  9
$EXTNAMES
290
     1
  9
$PSVPSCALE
 40
0.0
  9
$OLESTARTUP
290
     0
  0
ENDSEC
  0
SECTION
  2
CLASSES
  0
CLASS
  1
IMAGE
  2
AcDbRasterImage
  3
ISM
 90
      127
280
     0
281
     1
  0
CLASS
  1
DICTIONARYVAR
  2
AcDbDictionaryVar
  3
ObjectDBX Classes
 90
        0
280
     0
281
     0
  0
CLASS
  1
RASTERVARIABLES
  2
AcDbRasterVariables
  3
ISM
 90
        0
280
     0
281
     0
  0
CLASS
  1
IMAGEDEF
  2
AcDbRasterImageDef
  3
ISM
 90
        0
280
     0
281
     0
  0
CLASS
  1
IMAGEDEF_REACTOR
  2
AcDbRasterImageDefReactor
  3
ISM
 90
        1
280
     0
281
     0
  0
CLASS
  1
IDBUFFER
  2
AcDbIdBuffer
  3
ObjectDBX Classes
 90
        0
280
     0
281
     0
  0
CLASS
  1
SPATIAL_FILTER
  2
AcDbSpatialFilter
  3
ObjectDBX Classes
 90
        0
280
     0
281
     0
  0
CLASS
  1
SORTENTSTABLE
  2
AcDbSortentsTable
  3
ObjectDBX Classes
 90
        0
280
     0
281
     0
  0
CLASS
  1
LAYER_INDEX
  2
AcDbLayerIndex
  3
ObjectDBX Classes
 90
        0
280
     0
281
     0
  0
CLASS
  1
SPATIAL_INDEX
  2
AcDbSpatialIndex
  3
AutoCAD 2000
 90
        0
280
     0
281
     0
  0
CLASS
  1
OBJECT_PTR
  2
CAseDLPNTableRecord
  3
ASE-LPNTableRecord
 90
        1
280
     0
281
     0
  0
CLASS
  1
LAYOUT
  2
AcDbLayout
  3
ObjectDBX Classes
 90
        0
280
     0
281
     0
  0
CLASS
  1
PLOTSETTINGS
  2
AcDbPlotSettings
  3
ObjectDBX Classes
 90
        0
280
     0
281
     0
  0
CLASS
  1
ACDBDICTIONARYWDFLT
  2
AcDbDictionaryWithDefault
  3
ObjectDBX Classes
 90
        0
280
     0
281
     0
  0
CLASS
  1
ACDBPLACEHOLDER
  2
AcDbPlaceHolder
  3
ObjectDBX Classes
 90
        0
280
     0
281
     0
  0
CLASS
  1
VBA_PROJECT
  2
AcDbVbaProject
  3
ObjectDBX Classes
 90
        0
280
     0
281
     0
  0
CLASS
  1
WIPEOUT
  2
AcDbWipeout
  3
WipeOut|AutoCAD Express Tool|expresstools@autodesk.com
 90
      127
280
     0
281
     1
  0
CLASS
  1
WIPEOUTVARIABLES
  2
AcDbWipeoutVariables
  3
WipeOut|AutoCAD Express Tool|expresstools@autodesk.com
 90
        0
280
     0
281
     0
  0
CLASS
  1
RTEXT
  2
RText
  3
RText|AutoCAD Express Tool|expresstools@autodesk.com
 90
        0
280
     0
281
     1
  0
CLASS
  1
ARCALIGNEDTEXT
  2
AcDbArcAlignedText
  3
ATEXT|AutoCAD Express Tool|expresstools@autodesk.com
 90
        0
280
     0
281
     1
  0
CLASS
  1
MATERIAL
  2
AcDbMaterial
  3
ObjectDBX Classes
 90
     1153
280
     0
281
     0
  0
CLASS
  1
VISUALSTYLE
  2
AcDbVisualStyle
  3
ObjectDBX Classes
 90
     4095
280
     0
281
     0
  0
CLASS
  1
TABLESTYLE
  2
AcDbTableStyle
  3
ObjectDBX Classes
 90
     4095
280
     0
281
     0
  0
CLASS
  1
SCALE
  2
AcDbScale
  3
ObjectDBX Classes
 90
     1153
280
     0
281
     0
  0
CLASS
  1
MLEADERSTYLE
  2
AcDbMLeaderStyle
  3
ACDB_MLEADERSTYLE_CLASS
 90
     4095
280
     0
281
     0
  0
CLASS
  1
CELLSTYLEMAP
  2
AcDbCellStyleMap
  3
ObjectDBX Classes
 90
     1152
280
     0
281
     0
  0
ENDSEC
  0
SECTION
  2
TABLES
  0
TABLE
  2
VPORT
  5
7
330
0
100
AcDbSymbolTable
 70
     1
  0
VPORT
  5
15
330
7
100
AcDbSymbolTableRecord
100
AcDbViewportTableRecord
  2
*ACTIVE
 70
     0
 10
0.0
 20
0.0
 11
1.0
 21
1.0
 12
-29.3650123492273
 22
-16.81757452477883
 13
0.0
 23
0.0
 14
1.0
 24
1.0
 15
0.0
 25
0.0
 16
0.0
 26
0.0
 36
1.0
 17
0.0
 27
0.0
 37
0.0
 40
233.9446726628927
 41
2.274173806609547
 42
50.0
 43
0.0
 44
0.0
 50
0.0
 51
0.0
 71
    16
 72
   100
 73
     1
 74
     1
 75
     0
 76
     0
 77
     0
 78
     0
281
     0
 65
     0
110
0.0
120
0.0
130
0.0
111
1.0
121
0.0
131
0.0
112
0.0
122
1.0
132
0.0
 79
     0
146
0.0
  0
ENDTAB
  0
TABLE
  2
LTYPE
  5
4
330
0
100
AcDbSymbolTable
 70
     2
  0
LTYPE
  5
11
330
4
100
AcDbSymbolTableRecord
100
AcDbLinetypeTableRecord
  2
ByBlock
 70
     0
  3

 72
    65
 73
     0
 40
0.0
  0
LTYPE
  5
12
330
4
100
AcDbSymbolTableRecord
100
AcDbLinetypeTableRecord
  2
ByLayer
 70
     0
  3

 72
    65
 73
     0
 40
0.0
  0
LTYPE
  5
13
330
4
100
AcDbSymbolTableRecord
100
AcDbLinetypeTableRecord
  2
Continuous
 70
     0
  3
Solid line
 72
    65
 73
     0
 40
0.0
  0
LTYPE
  5
690
330
4
100
AcDbSymbolTableRecord
100
AcDbLinetypeTableRecord
  2
CENTER
 70
     0
  3
____ _ ____ _ ____ _ ____ _ ____ _ ____ _ ____
 72
    65
 73
     4
 40
2.0
 49
1.25
 74
     0
 49
-0.25
 74
     0
 49
0.25
 74
     0
 49
-0.25
 74
     0
  0
ENDTAB
  0
TABLE
  2
LAYER
  5
2
330
0
100
AcDbSymbolTable
 70
     1
  0
LAYER
  5
14
102
{ACAD_XDICTIONARY
360
4441
102
}
330
2
100
AcDbSymbolTableRecord
100
AcDbLayerTableRecord
  2
0
 70
     0
 62
     7
  6
Continuous
370
    -3
390
1D
  0
ENDTAB
  0
TABLE
  2
STYLE
  5
3
330
0
100
AcDbSymbolTable
 70
     1
  0
STYLE
  5
17
330
3
100
AcDbSymbolTableRecord
100
AcDbTextStyleTableRecord
  2
Standard
 70
     0
 40
0.0
 41
1.0
 50
0.0
 71
     0
 42
0.0
  3
I011000D_0.TTF
  4

1001
ACAD
1000
IsonormD
1071
        0
  0
ENDTAB
  0
TABLE
  2
VIEW
  5
5
330
0
100
AcDbSymbolTable
 70
     0
  0
ENDTAB
  0
TABLE
  2
UCS
  5
6
330
0
100
AcDbSymbolTable
 70
     0
  0
ENDTAB
  0
TABLE
  2
APPID
  5
8
330
0
100
AcDbSymbolTable
 70
     4
  0
APPID
  5
16
330
8
100
AcDbSymbolTableRecord
100
AcDbRegAppTableRecord
  2
ACAD
 70
     0
  0
APPID
  5
26
330
8
100
AcDbSymbolTableRecord
100
AcDbRegAppTableRecord
  2
TopSolid_Draft
 70
     0
  0
APPID
  5
2336
330
8
100
AcDbSymbolTableRecord
100
AcDbRegAppTableRecord
  2
ACAD_MLEADERVER
 70
     0
  0
APPID
  5
443F
330
8
100
AcDbSymbolTableRecord
100
AcDbRegAppTableRecord
  2
DCO15
 70
     0
  0
ENDTAB
  0
TABLE
  2
DIMSTYLE
  5
9
330
0
100
AcDbSymbolTable
 70
     1
100
AcDbDimStyleTable
  0
DIMSTYLE
105
18
330
9
100
AcDbSymbolTableRecord
100
AcDbDimStyleTableRecord
  2
Standard
 70
     0
 41
1.25
 42
0.0
 44
0.75
 73
     0
 74
     0
 77
     1
140
2.5
146
0.8
147
1.25
176
     7
177
     7
271
     2
178
     7
271
     2
340
17
  0
ENDTAB
  0
TABLE
  2
BLOCK_RECORD
  5
1
330
0
100
AcDbSymbolTable
 70
     0
  0
BLOCK_RECORD
  5
A
102
{ACAD_XDICTIONARY
360
233E
102
}
330
1
100
AcDbSymbolTableRecord
100
AcDbBlockTableRecord
  2
*MODEL_SPACE
340
20
  0
BLOCK_RECORD
  5
B
330
1
100
AcDbSymbolTableRecord
100
AcDbBlockTableRecord
  2
*PAPER_SPACE
340
21
  0
ENDTAB
  0
ENDSEC
  0
SECTION
  2
BLOCKS
  0
BLOCK
  5
D
330
A
100
AcDbEntity
  8
0
100
AcDbBlockBegin
  2
*MODEL_SPACE
 70
     0
 10
0.0
 20
0.0
 30
0.0
  3
*MODEL_SPACE
  1

  0
ENDBLK
  5
E
330
A
100
AcDbEntity
  8
0
100
AcDbBlockEnd
  0
BLOCK
  5
F
330
B
100
AcDbEntity
 67
     1
  8
0
100
AcDbBlockBegin
  2
*PAPER_SPACE
 70
     0
 10
0.0
 20
0.0
 30
0.0
  3
*PAPER_SPACE
  1

  0
ENDBLK
  5
10
330
B
100
AcDbEntity
 67
     1
  8
0
100
AcDbBlockEnd
  0
ENDSEC
  0
SECTION
  2
ENTITIES
  0
LINE
  5
1E40
330
A
100
AcDbEntity
  8
0
  6
CENTER
 62
     1
100
AcDbLine
 10
-1.499939000000096
 20
127.365
 30
0.0
 11
-1.499939000000096
 21
116.865
 31
0.0
  0
LINE
  5
1E41
330
A
100
AcDbEntity
  8
0
  6
CENTER
 62
     1
100
AcDbLine
 10
25.25
 20
166.585
 30
0.0
 11
41.25
 21
166.585
 31
0.0
  0
LINE
  5
1E42
330
A
100
AcDbEntity
  8
0
  6
CENTER
 62
     1
100
AcDbLine
 10
33.25
 20
158.585
 30
0.0
 11
33.25
 21
174.585
 31
0.0
  0
LINE
  5
1E43
330
A
100
AcDbEntity
  8
0
  6
CENTER
 62
     1
100
AcDbLine
 10
0.0
 20
129.515
 30
0.0
 11
0.0
 21
114.115
 31
0.0
  0
LINE
  5
1E44
330
A
100
AcDbEntity
  8
0
  6
CENTER
 62
     1
100
AcDbLine
 10
-91.24
 20
49.98641899999999
 30
0.0
 11
-80.74000000000002
 21
49.98641899999999
 31
0.0
  0
LINE
  5
1E45
330
A
100
AcDbEntity
  8
0
  6
CENTER
 62
     1
100
AcDbLine
 10
-91.24
 20
-0.0135270000000105
 30
0.0
 11
-80.74000000000002
 21
-0.0135270000000105
 31
0.0
  0
LINE
  5
1E46
330
A
100
AcDbEntity
  8
0
  6
CENTER
 62
     1
100
AcDbLine
 10
-107.61
 20
25.0
 30
0.0
 11
-98.31000000000002
 21
25.0
 31
0.0
  0
LINE
  5
1E47
330
A
100
AcDbEntity
  8
0
  6
CENTER
 62
     1
100
AcDbLine
 10
-102.96
 20
20.35
 30
0.0
 11
-102.96
 21
29.65000000000001
 31
0.0
  0
LINE
  5
1E48
330
A
100
AcDbEntity
  8
0
  6
CENTER
 62
     1
100
AcDbLine
 10
-97.61000000000001
 20
-15.0
 30
0.0
 11
-88.31000000000002
 21
-15.0
 31
0.0
  0
LINE
  5
1E49
330
A
100
AcDbEntity
  8
0
  6
CENTER
 62
     1
100
AcDbLine
 10
-92.96
 20
-19.65
 30
0.0
 11
-92.96
 21
-10.34999999999999
 31
0.0
  0
LINE
  5
1E4A
330
A
100
AcDbEntity
  8
0
  6
CENTER
 62
     1
100
AcDbLine
 10
-97.61000000000001
 20
65.0
 30
0.0
 11
-88.31000000000002
 21
65.0
 31
0.0
  0
LINE
  5
1E4B
330
A
100
AcDbEntity
  8
0
  6
CENTER
 62
     1
100
AcDbLine
 10
-92.96
 20
60.35
 30
0.0
 11
-92.96
 21
69.65
 31
0.0
  0
LINE
  5
1E4C
330
A
100
AcDbEntity
  8
0
  6
CENTER
 62
     1
100
AcDbLine
 10
-82.09
 20
25.0
 30
0.0
 11
-75.09
 21
25.0
 31
0.0
  0
LINE
  5
1E4D
330
A
100
AcDbEntity
  8
0
  6
CENTER
 62
     1
100
AcDbLine
 10
-78.59
 20
21.5
 30
0.0
 11
-78.59
 21
28.5
 31
0.0
  0
LINE
  5
1E4E
330
A
100
AcDbEntity
  8
0
  6
CENTER
 62
     1
100
AcDbLine
 10
-77.99000000000002
 20
0.0
 30
0.0
 11
-91.94
 21
0.0
 31
0.0
  0
LINE
  5
1E4F
330
A
100
AcDbEntity
  8
0
  6
CENTER
 62
     1
100
AcDbLine
 10
-77.99000000000002
 20
50.0
 30
0.0
 11
-91.94
 21
50.0
 31
0.0
  0
LINE
  5
1E50
330
A
100
AcDbEntity
  8
0
  6
CENTER
 62
     1
100
AcDbLine
 10
-130.46
 20
-28.30000000000001
 30
0.0
 11
-130.46
 21
64.1
 31
0.0
  0
LINE
  5
1E51
330
A
100
AcDbEntity
  8
0
  6
CENTER
 62
     1
100
AcDbLine
 10
-130.46
 20
73.0
 30
0.0
 11
-130.46
 21
78.30000000000003
 31
0.0
  0
LINE
  5
1E52
330
A
100
AcDbEntity
  8
0
  6
CENTER
 62
     1
100
AcDbLine
 10
33.25
 20
-28.30000000000001
 30
0.0
 11
33.25
 21
64.1
 31
0.0
  0
LINE
  5
1E53
330
A
100
AcDbEntity
  8
0
  6
CENTER
 62
     1
100
AcDbLine
 10
33.25
 20
73.0
 30
0.0
 11
33.25
 21
78.30000000000003
 31
0.0
  0
LINE
  5
1E54
330
A
100
AcDbEntity
  8
0
  6
CENTER
 62
     1
100
AcDbLine
 10
93.49
 20
49.98641899999999
 30
0.0
 11
82.99000000000002
 21
49.98641899999999
 31
0.0
  0
LINE
  5
1E55
330
A
100
AcDbEntity
  8
0
  6
CENTER
 62
     1
100
AcDbLine
 10
93.49
 20
-0.0135270000000105
 30
0.0
 11
82.99000000000002
 21
-0.0135270000000105
 31
0.0
  0
LINE
  5
1E56
330
A
100
AcDbEntity
  8
0
  6
CENTER
 62
     1
100
AcDbLine
 10
95.63999999999999
 20
50.0
 30
0.0
 11
80.24
 21
50.0
 31
0.0
  0
LINE
  5
1E57
330
A
100
AcDbEntity
  8
0
  6
CENTER
 62
     1
100
AcDbLine
 10
95.63999999999999
 20
0.0
 30
0.0
 11
80.24
 21
0.0
 31
0.0
  0
LINE
  5
1E58
330
A
100
AcDbEntity
  8
0
  6
CENTER
 62
     1
100
AcDbLine
 10
132.7099999999997
 20
-28.30000000000001
 30
0.0
 11
132.7099999999997
 21
64.1
 31
0.0
  0
LINE
  5
1E59
330
A
100
AcDbEntity
  8
0
  6
CENTER
 62
     1
100
AcDbLine
 10
132.7099999999997
 20
73.0
 30
0.0
 11
132.7099999999997
 21
78.30000000000003
 31
0.0
  0
LINE
  5
1E5A
330
A
100
AcDbEntity
  8
0
  6
CENTER
 62
     1
100
AcDbLine
 10
88.20999999999997
 20
65.0
 30
0.0
 11
102.21
 21
65.0
 31
0.0
  0
LINE
  5
1E5B
330
A
100
AcDbEntity
  8
0
  6
CENTER
 62
     1
100
AcDbLine
 10
95.21
 20
58.0
 30
0.0
 11
95.21
 21
72.0
 31
0.0
  0
LINE
  5
1E5C
330
A
100
AcDbEntity
  8
0
  6
CENTER
 62
     1
100
AcDbLine
 10
88.20999999999997
 20
-15.0
 30
0.0
 11
102.21
 21
-15.0
 31
0.0
  0
LINE
  5
1E5D
330
A
100
AcDbEntity
  8
0
  6
CENTER
 62
     1
100
AcDbLine
 10
95.21
 20
-22.0
 30
0.0
 11
95.21
 21
-8.0
 31
0.0
  0
LINE
  5
1E5E
330
A
100
AcDbEntity
  8
0
  6
CENTER
 62
     1
100
AcDbLine
 10
-1.499939000000096
 20
-72.36500000000002
 30
0.0
 11
-1.499939000000096
 21
-61.86500000000001
 31
0.0
  0
LINE
  5
1E5F
330
A
100
AcDbEntity
  8
0
  6
CENTER
 62
     1
100
AcDbLine
 10
25.25
 20
-111.585
 30
0.0
 11
41.25
 21
-111.585
 31
0.0
  0
LINE
  5
1E60
330
A
100
AcDbEntity
  8
0
  6
CENTER
 62
     1
100
AcDbLine
 10
33.25
 20
-119.585
 30
0.0
 11
33.25
 21
-103.5849999999999
 31
0.0
  0
LINE
  5
1E61
330
A
100
AcDbEntity
  8
0
  6
CENTER
 62
     1
100
AcDbLine
 10
0.0
 20
-74.51499999999999
 30
0.0
 11
0.0
 21
-59.11500000000001
 31
0.0
  0
ELLIPSE
  5
271D
330
A
100
AcDbEntity
  8
0
  6
Continuous
 62
     7
100
AcDbEllipse
 10
125.4948669999998
 20
-125.148304
 30
0.0
 11
-5.599999999999988
 21
-1.753597000000000E-10
 31
0.0
210
0.0
220
0.0
230
1.0
 40
0.4082480000000003
 41
0.1482830125458923
 42
1.107148717781302
  0
ELLIPSE
  5
271E
330
A
100
AcDbEntity
  8
0
  6
Continuous
 62
     7
100
AcDbEllipse
 10
125.4948669999998
 20
-125.148304
 30
0.0
 11
-5.599999999999988
 21
-1.753597000000000E-10
 31
0.0
210
3.131423214285721E-27
220
-1.000000000000000E-16
230
1.0
 40
0.4082480000000003
 41
1.107148717781307
 42
2.993309640795663
  0
ELLIPSE
  5
271F
330
A
100
AcDbEntity
  8
0
  6
Continuous
 62
     7
100
AcDbEllipse
 10
125.4948669999998
 20
-93.67251499999998
 30
0.0
 11
5.599999999999988
 21
-1.755818000000000E-10
 31
0.0
210
0.0
220
0.0
230
1.0
 40
0.4082480000000003
 41
3.362426600642264
 42
5.790036607911644
  0
ELLIPSE
  5
2720
330
A
100
AcDbEntity
  8
0
  6
Continuous
 62
     7
100
AcDbEllipse
 10
127.296791
 20
-71.241734
 30
0.0
 11
-8.000000000000009
 21
1.665000000000000E-13
 31
0.0
210
0.0
220
0.0
230
1.0
 40
0.4082480000000002
 41
2.147536029787401
 42
2.677945044588962
  0
LINE
  5
2721
330
A
100
AcDbEntity
  8
0
  6
Continuous
 62
     7
100
AcDbLine
 10
128.1781489999998
 20
-74.90388799999998
 30
0.0
 11
131.6591419999998
 21
-73.97942999999997
 31
0.0
  0
ELLIPSE
  5
2722
330
A
100
AcDbEntity
  8
0
  6
Continuous
 62
     7
100
AcDbEllipse
 10
125.4948669999998
 20
-72.71299799999997
 30
0.0
 11
-6.000000000000002
 21
1.110000000000000E-13
 31
4.000000000000000E-16
210
6.666666666666849E-17
220
1.000000000000006E-16
230
1.0
 40
0.4082480000000002
 41
5.286611521197778
 42
6.283185307179563
  0
LINE
  5
2723
330
A
100
AcDbEntity
  8
0
  6
Continuous
 62
     7
100
AcDbLine
 10
131.7558579999998
 20
-71.25240499999995
 30
0.0
 11
128.693268
 21
-70.62725599999997
 31
0.0
  0
ELLIPSE
  5
2724
330
A
100
AcDbEntity
  8
0
  6
Continuous
 62
     7
100
AcDbEllipse
 10
132.1136279999997
 20
-70.960286
 30
0.0
 11
0.8000000000000229
 21
0.0
 31
-1.000000000000000E-16
210
1.249999999999964E-16
220
1.000000000000000E-16
230
1.0
 40
0.4082480000000003
 41
4.248741371383911
 42
5.819537698178768
  0
LINE
  5
2725
330
A
100
AcDbEntity
  8
0
  6
Continuous
 62
     7
100
AcDbLine
 10
146.7822339999998
 20
-59.7137160000001
 30
0.0
 11
132.82917
 21
-71.10634500000003
 31
0.0
  0
LINE
  5
2726
330
A
100
AcDbEntity
  8
0
  6
Continuous
 62
     7
100
AcDbLine
 10
149.6444009999999
 20
-60.29795400000001
 30
0.0
 11
146.7822339999998
 21
-59.7137160000001
 31
0.0
  0
LINE
  5
2727
330
A
100
AcDbEntity
  8
0
  6
Continuous
 62
     7
100
AcDbLine
 10
134.4522079999999
 20
-72.70232700000003
 30
0.0
 11
149.6444009999999
 21
-60.29795400000001
 31
0.0
  0
ELLIPSE
  5
2728
330
A
100
AcDbEntity
  8
0
  6
Continuous
 62
     7
100
AcDbEllipse
 10
125.4948669999998
 20
-72.71299799999997
 30
0.0
 11
-6.000000000000002
 21
1.110000000000000E-13
 31
0.0
210
0.0
220
0.0
230
1.0
 40
0.4082480000000002
 41
0.0000000000000012
 42
2.034443935795688
  0
LINE
  5
2729
330
A
100
AcDbEntity
  8
0
  6
Continuous
 62
     7
100
AcDbLine
 10
128.1781489999998
 20
-95.35219700000005
 30
0.0
 11
128.1781489999998
 21
-74.90388799999998
 31
0.0
  0
ELLIPSE
  5
272A
330
A
100
AcDbEntity
  8
0
  6
Continuous
 62
     7
100
AcDbEllipse
 10
125.4948669999998
 20
-93.16130699999997
 30
0.0
 11
6.000000000000002
 21
-1.110000000000000E-13
 31
-4.000000000000000E-16
210
6.666666666666664E-17
220
6.166666666666670E-31
230
1.0
 40
0.4082480000000002
 41
3.141592653589776
 42
5.176036589385469
  0
LINE
  5
272B
330
A
100
AcDbEntity
  8
0
  6
Continuous
 62
     9
100
AcDbLine
 10
131.6591419999998
 20
-94.42773900000005
 30
0.0
 11
131.6591419999998
 21
-73.97942999999997
 31
0.0
  0
LINE
  5
272C
330
A
100
AcDbEntity
  8
0
  6
Continuous
 62
     7
100
AcDbLine
 10
131.6591419999998
 20
-94.42773900000005
 30
0.0
 11
128.1781489999998
 21
-95.35219700000005
 31
0.0
  0
LINE
  5
272D
330
A
100
AcDbEntity
  8
0
  6
Continuous
 62
     9
100
AcDbLine
 10
134.4522079999999
 20
-93.15063599999993
 30
0.0
 11
134.4522079999999
 21
-72.70232700000003
 31
0.0
  0
ELLIPSE
  5
272E
330
A
100
AcDbEntity
  8
0
  6
Continuous
 62
     7
100
AcDbEllipse
 10
127.296791
 20
-91.690043
 30
0.0
 11
8.000000000000009
 21
-1.665000000000000E-13
 31
0.0
210
0.0
220
0.0
230
1.0
 40
0.4082480000000002
 41
5.289128683377211
 42
5.819537698178772
  0
ELLIPSE
  5
272F
330
A
100
AcDbEntity
  8
0
  6
Continuous
 62
     7
100
AcDbEllipse
 10
142.4889839999998
 20
-102.655165
 30
0.0
 11
0.4240000000000359
 21
2.077167301880121
 31
0.0
210
0.0
220
0.0
230
1.0
 40
0.4082480000000002
 41
5.176036589385481
 42
6.283185307179563
  0
ELLIPSE
  5
2730
330
A
100
AcDbEntity
  8
0
  6
Continuous
 62
     7
100
AcDbEllipse
 10
146.066693
 20
-70.522108
 30
0.0
 11
0.4240000000000359
 21
2.077167301880121
 31
0.0
210
0.0
220
0.0
230
1.0
 40
0.4082480000000002
 41
5.176036589385481
 42
6.283185307179563
  0
ELLIPSE
  5
2731
330
A
100
AcDbEntity
  8
0
  6
Continuous
 62
     7
100
AcDbEllipse
 10
146.066693
 20
-128.945847
 30
0.0
 11
0.4240000000000359
 21
2.077167301880121
 31
0.0
210
0.0
220
0.0
230
1.0
 40
0.4082480000000002
 41
5.176036589385483
 42
6.283185307179556
  0
LINE
  5
2732
330
A
100
AcDbEntity
  8
0
  6
Continuous
 62
     7
100
AcDbLine
 10
149.6444009999999
 20
-133.327628
 30
0.0
 11
149.6444009999999
 21
-60.29795400000001
 31
0.0
  0
LINE
  5
2733
330
A
100
AcDbEntity
  8
0
  6
Continuous
 62
     7
100
AcDbLine
 10
134.4522079999999
 20
-145.732002
 30
0.0
 11
149.6444009999999
 21
-133.327628
 31
0.0
  0
LINE
  5
2734
330
A
100
AcDbEntity
  8
0
  6
Continuous
 62
     9
100
AcDbLine
 10
134.4522079999999
 20
-145.732002
 30
0.0
 11
134.4522079999999
 21
-125.283693
 31
0.0
  0
LINE
  5
2735
330
A
100
AcDbEntity
  8
0
  6
Continuous
 62
     7
100
AcDbLine
 10
134.4522079999999
 20
-125.283693
 30
0.0
 11
135.262012
 21
-124.622491
 31
0.0
  0
ELLIPSE
  5
2736
330
A
100
AcDbEntity
  8
0
  6
Continuous
 62
     7
100
AcDbEllipse
 10
135.262012
 20
-123.527046
 30
0.0
 11
-0.240000000000018
 21
-1.175755076535944
 31
0.0
210
0.0
220
0.0
230
1.0
 40
0.4082480000000002
 41
0.4636476090008427
 42
2.034443935795684
  0
LINE
  5
2737
330
A
100
AcDbEntity
  8
0
  6
Continuous
 62
     7
100
AcDbLine
 10
135.7986679999998
 20
-123.088868
 30
0.0
 11
135.7986679999998
 21
-93.14670099999996
 31
0.0
  0
ELLIPSE
  5
2738
330
A
100
AcDbEntity
  8
0
  6
Continuous
 62
     7
100
AcDbEllipse
 10
135.262012
 20
-93.584879
 30
0.0
 11
-0.240000000000018
 21
-1.175755076535944
 31
2.000000000000000E-16
210
-5.858502551198358E-18
220
1.712993161855428E-16
230
1.0
 40
0.4082480000000002
 41
3.141592653589805
 42
3.605240262590629
  0
LINE
  5
2739
330
A
100
AcDbEntity
  8
0
  6
Continuous
 62
     7
100
AcDbLine
 10
135.262012
 20
-92.48943399999996
 30
0.0
 11
134.4522079999999
 21
-93.15063599999993
 31
0.0
  0
ELLIPSE
  5
273A
330
A
100
AcDbEntity
  8
0
  6
Continuous
 62
     7
100
AcDbEllipse
 10
135.262012
 20
-93.584879
 30
0.0
 11
-0.240000000000018
 21
-1.175755076535944
 31
2.000000000000000E-16
210
1.097374153910677E-16
220
1.477033982432758E-16
230
1.0
 40
0.4082480000000002
 41
2.034443935795712
 42
3.141592653589786
  0
LINE
  5
273B
330
A
100
AcDbEntity
  8
0
  6
Continuous
 62
     9
100
AcDbLine
 10
135.7986679999998
 20
-93.14670099999996
 30
0.0
 11
134.7253559999999
 21
-92.927612
 31
0.0
  0
LINE
  5
273C
330
A
100
AcDbEntity
  8
0
  6
Continuous
 62
     9
100
AcDbLine
 10
132.9365009999998
 20
-122.5046299999999
 30
0.0
 11
135.7986679999998
 21
-123.088868
 31
0.0
  0
LINE
  5
273D
330
A
100
AcDbEntity
  8
0
  6
Continuous
 62
     7
100
AcDbLine
 10
132.9365009999998
 20
-94.00642099999997
 30
0.0
 11
132.9365009999998
 21
-122.5046299999999
 31
0.0
  0
ELLIPSE
  5
273E
330
A
100
AcDbEntity
  8
0
  6
Continuous
 62
     7
100
AcDbEllipse
 10
127.296791
 20
-123.823099
 30
0.0
 11
-8.000000000000009
 21
1.665000000000000E-13
 31
0.0
210
0.0
220
0.0
230
1.0
 40
0.4082480000000002
 41
2.147536029787399
 42
2.677945044588962
  0
LINE
  5
273F
330
A
100
AcDbEntity
  8
0
  6
Continuous
 62
     7
100
AcDbLine
 10
128.1781489999998
 20
-127.485254
 30
0.0
 11
131.6591419999998
 21
-126.560796
 31
0.0
  0
ELLIPSE
  5
2740
330
A
100
AcDbEntity
  8
0
  6
Continuous
 62
     7
100
AcDbEllipse
 10
125.4948669999998
 20
-125.294364
 30
0.0
 11
-6.000000000000002
 21
1.110000000000000E-13
 31
-4.000000000000000E-16
210
-6.666666666666664E-17
220
-6.166666666666670E-31
230
1.0
 40
0.4082480000000002
 41
6.024263765174237
 42
6.283185307179577
  0
LINE
  5
2741
330
A
100
AcDbEntity
  8
0
  6
Continuous
 62
     9
100
AcDbLine
 10
135.262012
 20
-124.622491
 30
0.0
 11
131.4946729999997
 21
-123.8534859999999
 31
0.0
  0
ELLIPSE
  5
2742
330
A
100
AcDbEntity
  8
0
  6
Continuous
 62
     7
100
AcDbEllipse
 10
125.4948669999998
 20
-145.742673
 30
0.0
 11
-6.000000000000002
 21
1.110000000000000E-13
 31
4.000000000000000E-16
210
6.666666666666849E-17
220
1.000000000000006E-16
230
1.0
 40
0.4082480000000002
 41
0.0000000000000001
 42
2.034443935795692
  0
ELLIPSE
  5
2743
330
A
100
AcDbEntity
  8
0
  6
Continuous
 62
     7
100
AcDbEllipse
 10
125.4948669999998
 20
-125.294364
 30
0.0
 11
-6.000000000000002
 21
1.110000000000000E-13
 31
4.000000000000000E-16
210
6.666666666666849E-17
220
1.000000000000006E-16
230
1.0
 40
0.4082480000000002
 41
6.283185307179584
 42
8.317629242975277
  0
LINE
  5
2744
330
A
100
AcDbEntity
  8
0
  6
Continuous
 62
     7
100
AcDbLine
 10
128.1781489999998
 20
-147.933563
 30
0.0
 11
128.1781489999998
 21
-127.485254
 31
0.0
  0
LINE
  5
2745
330
A
100
AcDbEntity
  8
0
  6
Continuous
 62
     9
100
AcDbLine
 10
131.6591419999998
 20
-147.0091049999999
 30
0.0
 11
131.6591419999998
 21
-126.560796
 31
0.0
  0
LINE
  5
2746
330
A
100
AcDbEntity
  8
0
  6
Continuous
 62
     7
100
AcDbLine
 10
128.1781489999998
 20
-147.933563
 30
0.0
 11
131.6591419999998
 21
-147.0091049999999
 31
0.0
  0
ELLIPSE
  5
2747
330
A
100
AcDbEntity
  8
0
  6
Continuous
 62
     7
100
AcDbEllipse
 10
144.886764
 20
-70.28125599999998
 30
0.0
 11
0.4240000000000359
 21
2.077167301880121
 31
0.0
210
0.0
220
0.0
230
1.0
 40
0.4082480000000002
 41
3.911003935108487
 42
5.513774025660606
  0
ELLIPSE
  5
2748
330
A
100
AcDbEntity
  8
0
  6
Continuous
 62
     7
100
AcDbEllipse
 10
127.296791
 20
-144.271408
 30
0.0
 11
-8.000000000000009
 21
1.665000000000000E-13
 31
0.0
210
0.0
220
0.0
230
1.0
 40
0.4082480000000002
 41
2.147536029787399
 42
2.677945044588962
  0
ELLIPSE
  5
2749
330
A
100
AcDbEntity
  8
0
  6
Continuous
 62
     7
100
AcDbEllipse
 10
146.066693
 20
-70.522108
 30
0.0
 11
0.4240000000000359
 21
2.077167301880121
 31
0.0
210
0.0
220
0.0
230
1.0
 40
0.4082480000000002
 41
3.141592653589794
 42
5.176036589385496
  0
ELLIPSE
  5
274A
330
A
100
AcDbEntity
  8
0
  6
Continuous
 62
     7
100
AcDbEllipse
 10
146.066693
 20
-70.522108
 30
0.0
 11
0.4240000000000359
 21
2.077167301880121
 31
0.0
210
0.0
220
0.0
230
1.0
 40
0.4082480000000002
 41
6.28318530717958
 42
9.424777960769381
  0
LINE
  5
274B
330
A
100
AcDbEntity
  8
0
  6
Continuous
 62
     7
100
AcDbLine
 10
131.494867
 20
-123.770715
 30
0.0
 11
131.7558579999998
 21
-123.8239890000001
 31
0.0
  0
ELLIPSE
  5
2758
330
A
100
AcDbEntity
  8
0
  6
Continuous
 62
     7
100
AcDbEllipse
 10
132.399845
 20
-122.942808
 30
0.0
 11
0.240000000000018
 21
1.175755076535944
 31
-1.000000000000000E-16
210
-2.929251275599179E-18
220
8.564965809277139E-17
230
1.0
 40
0.4082480000000002
 41
4.532535480592226
 42
5.176036589385454
  0
ELLIPSE
  5
2759
330
A
100
AcDbEntity
  8
0
  6
Continuous
 62
     7
100
AcDbEllipse
 10
141.3090559999998
 20
-102.414313
 30
0.0
 11
0.4240000000000359
 21
2.077167301880121
 31
0.0
210
0.0
220
0.0
230
1.0
 40
0.4082480000000002
 41
3.91100393510743
 42
5.513774025661903
  0
ELLIPSE
  5
275A
330
A
100
AcDbEntity
  8
0
  6
Continuous
 62
     7
100
AcDbEllipse
 10
142.4889839999998
 20
-102.655165
 30
0.0
 11
0.4240000000000359
 21
2.077167301880121
 31
1.000000000000000E-16
210
1.016195567811527E-17
220
-5.021678759968327E-17
230
1.0
 40
0.4082480000000002
 41
3.14159265358979
 42
5.176036589385502
  0
ELLIPSE
  5
275B
330
A
100
AcDbEntity
  8
0
  6
Continuous
 62
     7
100
AcDbEllipse
 10
142.4889839999998
 20
-102.655165
 30
0.0
 11
0.4240000000000359
 21
2.077167301880121
 31
0.0
210
0.0
220
0.0
230
1.0
 40
0.4082480000000002
 41
6.283185307179584
 42
9.424777960769381
  0
ELLIPSE
  5
275C
330
A
100
AcDbEntity
  8
0
  6
Continuous
 62
     7
100
AcDbEllipse
 10
144.886764
 20
-128.704996
 30
0.0
 11
0.4240000000000359
 21
2.077167301880121
 31
0.0
210
0.0
220
0.0
230
1.0
 40
0.4082480000000002
 41
3.911003935106366
 42
5.513774025662755
  0
ELLIPSE
  5
275D
330
A
100
AcDbEntity
  8
0
  6
Continuous
 62
     7
100
AcDbEllipse
 10
146.066693
 20
-128.945847
 30
0.0
 11
0.4240000000000359
 21
2.077167301880121
 31
0.0
210
0.0
220
0.0
230
1.0
 40
0.4082480000000002
 41
3.141592653589805
 42
5.176036589385502
  0
ELLIPSE
  5
275E
330
A
100
AcDbEntity
  8
0
  6
Continuous
 62
     7
100
AcDbEllipse
 10
146.066693
 20
-128.945847
 30
0.0
 11
0.4240000000000359
 21
2.077167301880121
 31
0.0
210
0.0
220
0.0
230
1.0
 40
0.4082480000000002
 41
0.0
 42
3.141592653589808
  0
LINE
  5
275F
330
A
100
AcDbEntity
  8
0
  6
Continuous
 62
     9
100
AcDbLine
 10
119.511837
 20
-94.80599700000013
 30
0.0
 11
119.511837
 21
-124.0178669999999
 31
0.0
  0
ELLIPSE
  5
2760
330
A
100
AcDbEntity
  8
0
  6
Continuous
 62
     7
100
AcDbEllipse
 10
20.35308300000003
 20
-127.068963
 30
0.0
 11
99.44000000000003
 21
-2.109400000000000E-12
 31
-6.900000000000000E-15
210
6.938857602574415E-17
220
6.493537583597678E-31
230
1.0
 40
0.4082480000000001
 41
0.0752281012114365
 42
0.1155614605296184
  0
LINE
  5
2761
330
A
100
AcDbEntity
  8
0
  6
Continuous
 62
     7
100
AcDbLine
 10
119.1298379999998
 20
-144.296943
 30
0.0
 11
119.1298379999998
 21
-122.38804
 31
0.0
  0
ELLIPSE
  5
2762
330
A
100
AcDbEntity
  8
0
  6
Continuous
 62
     7
100
AcDbEllipse
 10
20.35308300000003
 20
-148.977865
 30
0.0
 11
-99.44000000000003
 21
2.109400000000000E-12
 31
6.900000000000000E-15
210
6.938857602574415E-17
220
6.493537583597678E-31
230
1.0
 40
0.4082480000000001
 41
3.257154114119411
 42
3.423142730407705
  0
ELLIPSE
  5
2764
330
A
100
AcDbEntity
  8
0
  6
Continuous
 62
     7
100
AcDbEllipse
 10
20.35308300000003
 20
-75.94819100000002
 30
0.0
 11
-99.44000000000008
 21
2.109400000000000E-12
 31
6.900000000000001E-15
210
6.938857602574412E-17
220
6.493537583597678E-31
230
1.0
 40
0.4082480000000002
 41
3.257154114119412
 42
3.423142730407707
  0
LINE
  5
2765
330
A
100
AcDbEntity
  8
0
  6
Continuous
 62
     7
100
AcDbLine
 10
119.1298379999998
 20
-93.176171
 30
0.0
 11
119.1298379999998
 21
-71.267268
 31
0.0
  0
ELLIPSE
  5
2766
330
A
100
AcDbEntity
  8
0
  6
Continuous
 62
     7
100
AcDbEllipse
 10
20.35308300000003
 20
-97.85709300000002
 30
0.0
 11
-99.44000000000003
 21
2.109400000000000E-12
 31
6.900000000000000E-15
210
6.938857602574415E-17
220
6.493537583597678E-31
230
1.0
 40
0.4082480000000001
 41
3.216820754801226
 42
3.257154114119408
  0
ELLIPSE
  5
2767
330
A
100
AcDbEntity
  8
0
  6
Continuous
 62
     7
100
AcDbEllipse
 10
76.68418700000002
 20
-69.29667
 30
0.0
 11
-40.8
 21
8.882000000000000E-13
 31
2.800000000000000E-15
210
6.862745098039434E-17
220
1.000000000000007E-16
230
1.0
 40
0.4082480000000002
 41
3.423142730407705
 42
4.248741371383892
  0
LINE
  5
2768
330
A
100
AcDbEntity
  8
0
  6
Continuous
 62
     7
100
AcDbLine
 10
94.930501
 20
-54.398617
 30
0.0
 11
84.19737500000001
 21
-52.20772599999998
 31
0.0
  0
LINE
  5
2769
330
A
100
AcDbEntity
  8
0
  6
Continuous
 62
     7
100
AcDbLine
 10
84.19737500000001
 20
-52.20772599999998
 30
0.0
 11
86.34399999999997
 21
-50.455014
 31
0.0
  0
LINE
  5
276A
330
A
100
AcDbEntity
  8
0
  6
Continuous
 62
     7
100
AcDbLine
 10
86.34399999999997
 20
-50.455014
 30
0.0
 11
129.2765049999998
 21
-59.21857499999997
 31
0.0
  0
ELLIPSE
  5
276B
330
A
100
AcDbEntity
  8
0
  6
Continuous
 62
     7
100
AcDbEllipse
 10
165.7691349999998
 20
-66.66760199999997
 30
0.0
 11
-40.8
 21
8.882000000000000E-13
 31
0.0
210
0.0
220
0.0
230
1.0
 40
0.4082480000000002
 41
5.819537698178787
 42
6.283185307179584
  0
ELLIPSE
  5
276C
330
A
100
AcDbEntity
  8
0
  6
Continuous
 62
     7
100
AcDbEllipse
 10
126.3177399999998
 20
-73.20960000000002
 30
0.0
 11
-8.000000000000009
 21
1.665000000000000E-13
 31
6.000000000000000E-16
210
7.500000000000200E-17
220
1.000000000000005E-16
230
1.0
 40
0.4082480000000002
 41
4.780931817582521
 42
5.689054271648648
  0
LINE
  5
276D
330
A
100
AcDbEntity
  8
0
  6
Continuous
 62
     7
100
AcDbLine
 10
119.1298379999998
 20
-71.267268
 30
0.0
 11
119.688658
 21
-71.38133700000003
 31
0.0
  0
LINE
  5
276E
330
A
100
AcDbEntity
  8
0
  6
Continuous
 62
     7
100
AcDbLine
 10
125.769827
 20
-70.03628300000003
 30
0.0
 11
125.769827
 21
-69.95128299999999
 31
0.0
  0
LINE
  5
276F
330
A
100
AcDbEntity
  8
0
  6
Continuous
 62
     7
100
AcDbLine
 10
119.688658
 20
-72.095485
 30
0.0
 11
119.688658
 21
-71.38133700000003
 31
0.0
  0
ELLIPSE
  5
2770
330
A
100
AcDbEntity
  8
0
  6
Continuous
 62
     7
100
AcDbEllipse
 10
125.4948669999998
 20
-94.621901
 30
0.0
 11
6.000000000000002
 21
-1.110000000000000E-13
 31
0.0
210
0.0
220
0.0
230
1.0
 40
0.4082480000000002
 41
3.216820754801226
 42
6.283185307179584
  0
ELLIPSE
  5
2771
330
A
100
AcDbEntity
  8
0
  6
Continuous
 62
     7
100
AcDbEllipse
 10
125.4948669999998
 20
-94.621901
 30
0.0
 11
6.000000000000002
 21
-1.110000000000000E-13
 31
-4.000000000000000E-16
210
6.666666666666849E-17
220
1.000000000000006E-16
230
1.0
 40
0.4082480000000002
 41
6.28318530717958
 42
6.343494621680289
  0
ELLIPSE
  5
2772
330
A
100
AcDbEntity
  8
0
  6
Continuous
 62
     7
100
AcDbEllipse
 10
125.4948669999998
 20
-123.83377
 30
0.0
 11
-6.000000000000002
 21
1.110000000000000E-13
 31
4.000000000000000E-16
210
6.666666666666664E-17
220
6.166666666666670E-31
230
1.0
 40
0.4082480000000002
 41
0.0752281012114376
 42
3.141592653589792
  0
LINE
  5
2773
330
A
100
AcDbEntity
  8
0
  6
Continuous
 62
     7
100
AcDbLine
 10
119.1298379999998
 20
-93.176171
 30
0.0
 11
119.4989369999998
 21
-93.25151299999999
 31
0.0
  0
ELLIPSE
  5
2774
330
A
100
AcDbEntity
  8
0
  6
Continuous
 62
     7
100
AcDbEllipse
 10
165.7691349999998
 20
-66.66760199999997
 30
0.0
 11
-40.8
 21
8.882000000000000E-13
 31
2.800000000000000E-15
210
6.862745098039434E-17
220
1.000000000000007E-16
230
1.0
 40
0.4082480000000002
 41
0.0000000000000002
 42
0.1984405774753877
  0
LINE
  5
2775
330
A
100
AcDbEntity
  8
0
  6
Continuous
 62
     7
100
AcDbLine
 10
129.2765049999998
 20
-59.21857499999997
 30
0.0
 11
129.2765049999998
 21
-70.74630899999998
 31
0.0
  0
ELLIPSE
  5
2777
330
A
100
AcDbEntity
  8
0
  6
Continuous
 62
     7
100
AcDbEllipse
 10
76.68418700000002
 20
-142.326344
 30
0.0
 11
-40.80000000000006
 21
8.882000000000001E-13
 31
2.800000000000000E-15
210
6.862745098039205E-17
220
6.829680891964642E-31
230
1.0
 40
0.4082480000000001
 41
3.423142730407705
 42
4.248741371383892
  0
LINE
  5
2778
330
A
100
AcDbEntity
  8
0
  6
Continuous
 62
     7
100
AcDbLine
 10
119.688658
 20
-124.67685
 30
0.0
 11
119.688658
 21
-124.451284
 31
0.0
  0
LINE
  5
2779
330
A
100
AcDbEntity
  8
0
  6
Continuous
 62
     7
100
AcDbLine
 10
119.1298379999998
 20
-144.296943
 30
0.0
 11
119.494867
 21
-144.371454
 31
0.0
  0
LINE
  5
277A
330
A
100
AcDbEntity
  8
0
  6
Continuous
 62
     7
100
AcDbLine
 10
84.19737500000001
 20
-52.20772599999998
 30
0.0
 11
84.19737500000001
 21
-125.237401
 31
0.0
  0
LINE
  5
277B
330
A
100
AcDbEntity
  8
0
  6
Continuous
 62
     7
100
AcDbLine
 10
94.930501
 20
-127.428291
 30
0.0
 11
84.19737500000001
 21
-125.237401
 31
0.0
  0
LINE
  5
277C
330
A
100
AcDbEntity
  8
0
  6
Continuous
 62
     7
100
AcDbLine
 10
116.210566
 20
-56.55150099999997
 30
0.0
 11
119.099584
 21
-56.35114700000002
 31
0.0
  0
ELLIPSE
  5
277D
330
A
100
AcDbEntity
  8
0
  6
Continuous
 62
     7
100
AcDbEllipse
 10
119.4699749999998
 20
-57.837578
 30
0.0
 11
1.011928851253895
 21
-1.239354670786396
 31
9.999999999999999E-17
210
9.461324103559527E-18
220
8.841229182759179E-17
230
1.0
 40
0.8164970000000003
 41
2.356194490192318
 42
2.617993877991463
  0
LINE
  5
277E
330
A
100
AcDbEntity
  8
0
  6
Continuous
 62
     7
100
AcDbLine
 10
119.4699749999998
 20
-56.37698399999999
 30
0.0
 11
127.773868
 21
-58.07200899999998
 31
0.0
  0
ELLIPSE
  5
277F
330
A
100
AcDbEntity
  8
0
  6
Continuous
 62
     7
100
AcDbEllipse
 10
127.773868
 20
-59.532603
 30
0.0
 11
1.011928851253895
 21
-1.239354670786396
 31
9.999999999999999E-17
210
9.461324103559527E-18
220
8.841229182759179E-17
230
1.0
 40
0.8164970000000003
 41
1.224360047730937
 42
2.356194490192314
  0
LINE
  5
2780
330
A
100
AcDbEntity
  8
0
  6
Continuous
 62
     9
100
AcDbLine
 10
127.773868
 20
-58.07200899999998
 30
0.0
 11
128.1316389999999
 21
-57.77988999999998
 31
0.0
  0
ELLIPSE
  5
2781
330
A
100
AcDbEntity
  8
0
  6
Continuous
 62
     7
100
AcDbEllipse
 10
128.1316389999999
 20
-59.24048399999998
 30
0.0
 11
-1.011928851253895
 21
1.239354670786396
 31
-9.999999999999999E-17
210
9.461324103559527E-18
220
8.841229182759179E-17
230
1.0
 40
0.8164970000000003
 41
3.926990816987223
 42
5.497787143782112
  0
LINE
  5
2782
330
A
100
AcDbEntity
  8
0
  6
Continuous
 62
     9
100
AcDbLine
 10
129.5627219999998
 20
-59.532603
 30
0.0
 11
129.2765049999998
 21
-59.76629800000001
 31
0.0
  0
LINE
  5
2783
330
A
100
AcDbEntity
  8
0
  6
Continuous
 62
     9
100
AcDbLine
 10
119.8277459999997
 20
-56.08486499999997
 30
0.0
 11
119.4699749999998
 21
-56.37698399999999
 31
0.0
  0
LINE
  5
2784
330
A
100
AcDbEntity
  8
0
  6
Continuous
 62
     7
100
AcDbLine
 10
119.8277459999997
 20
-56.08486499999997
 30
0.0
 11
128.1316389999999
 21
-57.77988999999998
 31
0.0
  0
LINE
  5
2785
330
A
100
AcDbEntity
  8
0
  6
Continuous
 62
     7
100
AcDbLine
 10
129.5627219999998
 20
-59.532603
 30
0.0
 11
129.5627219999998
 21
-70.804733
 31
0.0
  0
LINE
  5
2786
330
A
100
AcDbEntity
  8
0
  6
Continuous
 62
     9
100
AcDbLine
 10
119.099584
 20
-56.35114700000002
 30
0.0
 11
119.457354
 21
-56.05902799999995
 31
0.0
  0
ELLIPSE
  5
2787
330
A
100
AcDbEntity
  8
0
  6
Continuous
 62
     7
100
AcDbEllipse
 10
119.8277459999997
 20
-57.545459
 30
0.0
 11
-1.011928851253895
 21
1.239354670786396
 31
-9.999999999999999E-17
210
9.461324103559527E-18
220
8.841229182759179E-17
230
1.0
 40
0.8164970000000003
 41
5.497787143782117
 42
5.759586531581262
  0
LINE
  5
2788
330
A
100
AcDbEntity
  8
0
  6
Continuous
 62
     7
100
AcDbLine
 10
115.2331169999998
 20
-56.35197999999997
 30
0.0
 11
119.457354
 21
-56.05902799999995
 31
0.0
  0
LINE
  5
2789
330
A
100
AcDbEntity
  8
0
  6
Continuous
 62
     7
100
AcDbLine
 10
131.637793
 20
-122.287002
 30
0.0
 11
131.637793
 21
-123.79989
 31
0.0
  0
ELLIPSE
  5
278A
330
A
100
AcDbEntity
  8
0
  6
Continuous
 62
     7
100
AcDbEllipse
 10
129.848939
 20
-121.921853
 30
0.0
 11
-1.264911064067339
 21
1.549193338482965
 31
-1.000000000000000E-16
210
1.736701825397970E-17
220
7.872983346207406E-17
230
1.0
 40
0.816497
 41
3.926990816922883
 42
4.329446404195658
  0
LINE
  5
278B
330
A
100
AcDbEntity
  8
0
  6
Continuous
 62
     7
100
AcDbLine
 10
130.9222509999998
 20
-63.71720299999998
 30
0.0
 11
130.9222509999998
 21
-71.08224599999998
 31
0.0
  0
ELLIPSE
  5
278C
330
A
100
AcDbEntity
  8
0
  6
Continuous
 62
     7
100
AcDbEllipse
 10
129.848939
 20
-62.03752000000003
 30
0.0
 11
-1.264911064067339
 21
1.549193338482965
 31
1.000000000000000E-16
210
9.162277660168418E-17
220
1.025996139358899E-17
230
1.0
 40
0.816497
 41
3.14159265358979
 42
3.926990816922878
  0
LINE
  5
278D
330
A
100
AcDbEntity
  8
0
  6
Continuous
 62
     7
100
AcDbLine
 10
131.637793
 20
-59.116333
 30
0.0
 11
131.637793
 21
-62.40266899999999
 31
0.0
  0
ELLIPSE
  5
278E
330
A
100
AcDbEntity
  8
0
  6
Continuous
 62
     7
100
AcDbEllipse
 10
129.848939
 20
-58.75118500000002
 30
0.0
 11
-1.264911064067339
 21
1.549193338482965
 31
1.000000000000000E-16
210
9.162277660168418E-17
220
1.025996139358899E-17
230
1.0
 40
0.816497
 41
3.926990816922876
 42
5.497787143717777
  0
LINE
  5
278F
330
A
100
AcDbEntity
  8
0
  6
Continuous
 62
     7
100
AcDbLine
 10
126.27123
 20
-56.19514600000002
 30
0.0
 11
129.848939
 21
-56.92544300000003
 31
0.0
  0
ELLIPSE
  5
2790
330
A
100
AcDbEntity
  8
0
  6
Continuous
 62
     7
100
AcDbEllipse
 10
126.27123
 20
-58.020888
 30
0.0
 11
-1.264911064067339
 21
1.549193338482965
 31
-1.000000000000000E-16
210
1.736701825397970E-17
220
7.872983346207406E-17
230
1.0
 40
0.816497
 41
5.497787143717777
 42
6.141288252511053
  0
LINE
  5
2791
330
A
100
AcDbEntity
  8
0
  6
Continuous
 62
     7
100
AcDbLine
 10
116.217868
 20
-54.50816099999997
 30
0.0
 11
125.197917
 21
-56.34120600000001
 31
0.0
  0
LINE
  5
2792
330
A
100
AcDbEntity
  8
0
  6
Continuous
 62
     7
100
AcDbLine
 10
90.136372
 20
-47.35855600000002
 30
0.0
 11
133.0688769999998
 21
-56.122117
 31
0.0
  0
LINE
  5
2793
330
A
100
AcDbEntity
  8
0
  6
Continuous
 62
     7
100
AcDbLine
 10
133.0688769999998
 20
-56.122117
 30
0.0
 11
133.0688769999998
 21
-70.91062599999998
 31
0.0
  0
LINE
  5
2794
330
A
100
AcDbEntity
  8
0
  6
Continuous
 62
     7
100
AcDbLine
 10
90.136372
 20
-51.229129
 30
0.0
 11
90.136372
 21
-47.35855600000002
 31
0.0
  0
LINE
  5
2795
330
A
100
AcDbEntity
  8
0
  6
Continuous
 62
     7
100
AcDbLine
 10
135.2155019999998
 20
-54.36940499999997
 30
0.0
 11
133.0688769999998
 21
-56.122117
 31
0.0
  0
LINE
  5
2796
330
A
100
AcDbEntity
  8
0
  6
Continuous
 62
     7
100
AcDbLine
 10
135.2155019999998
 20
-54.36940499999997
 30
0.0
 11
135.2155019999998
 21
-69.157914
 31
0.0
  0
LINE
  5
2797
330
A
100
AcDbEntity
  8
0
  6
Continuous
 62
     7
100
AcDbLine
 10
92.28299700000002
 20
-45.60584399999998
 30
0.0
 11
90.136372
 21
-47.35855600000002
 31
0.0
  0
LINE
  5
2798
330
A
100
AcDbEntity
  8
0
  6
Continuous
 62
     7
100
AcDbLine
 10
92.28299700000002
 20
-45.60584399999998
 30
0.0
 11
135.2155019999998
 21
-54.36940499999997
 31
0.0
  0
ELLIPSE
  5
2799
330
A
100
AcDbEntity
  8
0
  6
Continuous
 62
     7
100
AcDbEllipse
 10
129.848939
 20
-62.03752000000003
 30
0.0
 11
-1.264911064067339
 21
1.549193338482965
 31
-1.000000000000000E-16
210
1.736701825397970E-17
220
7.872983346207406E-17
230
1.0
 40
0.816497
 41
2.999695598921266
 42
3.14159265358979
  0
LINE
  5
279A
330
A
100
AcDbEntity
  8
0
  6
Continuous
 62
     7
100
AcDbLine
 10
131.280022
 20
-63.42508399999997
 30
0.0
 11
130.9222509999998
 21
-63.71720299999998
 31
0.0
  0
ELLIPSE
  5
279B
330
A
100
AcDbEntity
  8
0
  6
Continuous
 62
     7
100
AcDbEllipse
 10
116.217868
 20
-74.59132099999997
 30
0.0
 11
-13.91402170474087
 21
17.04112672331265
 31
7.999999999999999E-16
210
8.299838298304277E-17
220
2.082264324688234E-17
230
1.0
 40
0.816497
 41
5.497787143717776
 42
5.952967353729007
  0
ELLIPSE
  5
279C
330
A
100
AcDbEntity
  8
0
  6
Continuous
 62
     7
100
AcDbEllipse
 10
125.4948669999998
 20
-146.692058
 30
0.0
 11
4.240000000000021
 21
-2.619571000000000E-10
 31
0.0
210
0.0
220
0.0
230
1.0
 40
0.4082480000000002
 41
3.835654661417513
 42
5.618323964610722
  0
ELLIPSE
  5
279D
330
A
100
AcDbEntity
  8
0
  6
Continuous
 62
     7
100
AcDbEllipse
 10
125.4948669999998
 20
-71.76361200000002
 30
0.0
 11
-4.240000000000021
 21
-2.634559000000000E-10
 31
0.0
210
-6.213582547169781E-27
220
1.000000000000000E-16
230
1.0
 40
0.4082480000000002
 41
3.605240262552547
 42
4.248741371358518
  0
ELLIPSE
  5
279E
330
A
100
AcDbEntity
  8
0
  6
Continuous
 62
     7
100
AcDbEllipse
 10
125.4948669999998
 20
-71.76361200000002
 30
0.0
 11
-4.240000000000021
 21
-2.634559000000000E-10
 31
3.000000000000000E-16
210
7.075471697491814E-17
220
9.999999999818282E-17
230
1.0
 40
0.4082480000000002
 41
5.819537698216826
 42
9.888425569732137
  0
ELLIPSE
  5
279F
330
A
100
AcDbEntity
  8
0
  6
Continuous
 62
     7
100
AcDbEllipse
 10
125.4948669999998
 20
-72.27482000000003
 30
0.0
 11
4.800000000000026
 21
2.982614000000000E-10
 31
0.0
210
0.0
220
0.0
230
1.0
 40
0.4082480000000002
 41
0.0
 42
0.4636476089627577
  0
ELLIPSE
  5
27A0
330
A
100
AcDbEntity
  8
0
  6
Continuous
 62
     7
100
AcDbEllipse
 10
125.4948669999998
 20
-71.76361200000002
 30
0.0
 11
-4.240000000000021
 21
-2.634559000000000E-10
 31
3.000000000000000E-16
210
7.075471697491814E-17
220
9.999999999818282E-17
230
1.0
 40
0.4082480000000002
 41
4.248741371358518
 42
5.819537698216826
  0
ELLIPSE
  5
27A1
330
A
100
AcDbEntity
  8
0
  6
Continuous
 62
     7
100
AcDbEllipse
 10
125.4948669999998
 20
-72.71299799999997
 30
0.0
 11
-4.800000000000026
 21
-2.982614000000000E-10
 31
0.0
210
-6.213779166666634E-27
220
1.000000000000000E-16
230
1.0
 40
0.4082480000000002
 41
6.283185307179584
 42
9.424777960769381
  0
ELLIPSE
  5
27A2
330
A
100
AcDbEntity
  8
0
  6
Continuous
 62
     7
100
AcDbEllipse
 10
125.4948669999998
 20
-72.27482000000003
 30
0.0
 11
4.800000000000026
 21
2.982614000000000E-10
 31
0.0
210
0.0
220
0.0
230
1.0
 40
0.4082480000000002
 41
2.677945044627029
 42
3.14159265358979
  0
ELLIPSE
  5
27A3
330
A
100
AcDbEntity
  8
0
  6
Continuous
 62
     7
100
AcDbEllipse
 10
125.4948669999998
 20
-72.27482000000003
 30
0.0
 11
4.800000000000026
 21
2.982614000000000E-10
 31
0.0
210
-6.213779166666634E-27
220
1.000000000000000E-16
230
1.0
 40
0.4082480000000002
 41
3.14159265358979
 42
6.283185307179588
  0
ELLIPSE
  5
27A4
330
A
100
AcDbEntity
  8
0
  6
Continuous
 62
     7
100
AcDbEllipse
 10
125.4948669999998
 20
-93.67251499999998
 30
0.0
 11
5.800000000000027
 21
5.550000000000000E-14
 31
0.0
210
0.0
220
0.0
230
1.0
 40
0.4082480000000002
 41
4.717351950685476
 42
5.445738754104047
  0
ELLIPSE
  5
27A5
330
A
100
AcDbEntity
  8
0
  6
Continuous
 62
     7
100
AcDbEllipse
 10
125.4948669999998
 20
-93.67251499999998
 30
0.0
 11
5.800000000000027
 21
5.550000000000000E-14
 31
0.0
210
-9.568965517241333E-31
220
1.000000000000000E-16
230
1.0
 40
0.4082480000000002
 41
3.196144516717911
 42
4.717351950685476
  0
ELLIPSE
  5
27A6
330
A
100
AcDbEntity
  8
0
  6
Continuous
 62
     7
100
AcDbEllipse
 10
125.4948669999998
 20
-94.621901
 30
0.0
 11
5.800000000000027
 21
5.550000000000000E-14
 31
0.0
210
0.0
220
0.0
230
1.0
 40
0.4082480000000002
 41
5.445738754104047
 42
6.283185307179588
  0
ELLIPSE
  5
27A7
330
A
100
AcDbEntity
  8
0
  6
Continuous
 62
     7
100
AcDbEllipse
 10
125.4948669999998
 20
-93.67251499999998
 30
0.0
 11
5.800000000000027
 21
5.550000000000000E-14
 31
-4.000000000000000E-16
210
6.896551724137802E-17
220
9.999999999999970E-17
230
1.0
 40
0.4082480000000002
 41
5.445738754104047
 42
5.849795963191423
  0
ELLIPSE
  5
27A8
330
A
100
AcDbEntity
  8
0
  6
Continuous
 62
     7
100
AcDbEllipse
 10
125.4948669999998
 20
-94.621901
 30
0.0
 11
5.800000000000027
 21
5.550000000000000E-14
 31
-4.000000000000000E-16
210
6.896551724137802E-17
220
9.999999999999970E-17
230
1.0
 40
0.4082480000000002
 41
3.141592653589792
 42
5.445738754104047
  0
ELLIPSE
  5
27A9
330
A
100
AcDbEntity
  8
0
  6
Continuous
 62
     7
100
AcDbEllipse
 10
125.4948669999998
 20
-124.783156
 30
0.0
 11
-5.799999999999972
 21
-5.550000000000000E-14
 31
4.000000000000000E-16
210
6.896551724137964E-17
220
-2.969678953626617E-31
230
1.0
 40
0.4082480000000002
 41
6.283185307179584
 42
9.424777960769381
  0
LINE
  5
27AA
330
A
100
AcDbEntity
  8
0
  6
Continuous
 62
     7
100
AcDbLine
 10
119.545138
 20
-55.29688099999997
 30
0.0
 11
112.4684759999998
 21
-55.78764999999997
 31
0.0
  0
LINE
  5
27AB
330
A
100
AcDbEntity
  8
0
  6
Continuous
 62
     7
100
AcDbLine
 10
130.2782639999999
 20
-57.48777200000001
 30
0.0
 11
119.545138
 21
-55.29688099999997
 31
0.0
  0
LINE
  5
27AC
330
A
100
AcDbEntity
  8
0
  6
Continuous
 62
     7
100
AcDbLine
 10
130.2782639999999
 20
-70.95079199999998
 30
0.0
 11
130.2782639999999
 21
-57.48777200000001
 31
0.0
  0
LINE
  5
27AD
330
A
100
AcDbEntity
  8
0
  6
Continuous
 62
     7
100
AcDbLine
 10
129.998293
 20
-56.96230499999989
 30
0.0
 11
130.3677069999998
 21
-57.41474199999998
 31
0.0
  0
LINE
  5
27AE
330
A
100
AcDbEntity
  8
0
  6
Continuous
 62
     7
100
AcDbLine
 10
130.2782639999999
 20
-57.48777200000001
 30
0.0
 11
130.3677069999998
 21
-57.41474199999998
 31
0.0
  0
LINE
  5
27AF
330
A
100
AcDbEntity
  8
0
  6
Continuous
 62
     7
100
AcDbLine
 10
119.545138
 20
-55.29688099999997
 30
0.0
 11
119.652469
 21
-55.20924599999999
 31
0.0
  0
LINE
  5
27B0
330
A
100
AcDbEntity
  8
0
  6
Continuous
 62
     7
100
AcDbLine
 10
130.3677069999998
 20
-57.41474199999998
 30
0.0
 11
130.3677069999998
 21
-70.96904999999998
 31
0.0
  0
LINE
  5
27B1
330
A
100
AcDbEntity
  8
0
  6
Continuous
 62
     9
100
AcDbLine
 10
112.164381
 20
-55.72557699999999
 30
0.0
 11
113.5914899999999
 21
-54.56034799999997
 31
0.0
  0
LINE
  5
27B2
330
A
100
AcDbEntity
  8
0
  6
Continuous
 62
     7
100
AcDbLine
 10
115.719079
 20
-54.41279900000001
 30
0.0
 11
113.5914899999999
 21
-54.56034799999997
 31
0.0
  0
ELLIPSE
  5
27B3
330
A
100
AcDbEntity
  8
0
  6
Continuous
 62
     7
100
AcDbEllipse
 10
118.2213849999998
 20
-73.14073400000002
 30
0.0
 11
12.64911064067353
 21
-15.49193338482967
 31
7.000000000000001E-16
210
2.685385123448492E-17
220
6.711088342345195E-17
230
1.0
 40
0.8164969999999998
 41
2.617993877991469
 42
2.838025204528763
  0
LINE
  5
27B4
330
A
100
AcDbEntity
  8
0
  6
Continuous
 62
     7
100
AcDbLine
 10
119.494867
 20
-72.71299799999997
 30
0.0
 11
119.494867
 21
-93.16130699999997
 31
0.0
  0
LINE
  5
27B5
330
A
100
AcDbEntity
  8
0
  6
Continuous
 62
     7
100
AcDbLine
 10
119.494867
 20
-125.294364
 30
0.0
 11
119.494867
 21
-145.742673
 31
0.0
  0
LINE
  5
27B6
330
A
100
AcDbEntity
  8
0
  6
Continuous
 62
     7
100
AcDbLine
 10
131.494867
 20
-123.83377
 30
0.0
 11
131.494867
 21
-94.621901
 31
0.0
  0
LINE
  5
27B7
330
A
100
AcDbEntity
  8
0
  6
Continuous
 62
     7
100
AcDbLine
 10
129.7881179999998
 20
-71.39846399999998
 30
0.0
 11
129.287239
 21
-70.98949800000003
 31
0.0
  0
LINE
  5
27B8
330
A
100
AcDbEntity
  8
0
  6
Continuous
 62
     7
100
AcDbLine
 10
121.7024959999998
 20
-70.98949800000003
 30
0.0
 11
121.2016169999998
 21
-71.39846399999998
 31
0.0
  0
LINE
  5
27B9
330
A
100
AcDbEntity
  8
0
  6
Continuous
 62
     7
100
AcDbLine
 10
120.6948669999998
 20
-72.27482000000003
 30
0.0
 11
120.6948669999998
 21
-72.71299799999997
 31
0.0
  0
LINE
  5
27BA
330
A
100
AcDbEntity
  8
0
  6
Continuous
 62
     7
100
AcDbLine
 10
130.2948669999998
 20
-72.71299799999997
 30
0.0
 11
130.2948669999998
 21
-72.27482000000003
 31
0.0
  0
LINE
  5
27BB
330
A
100
AcDbEntity
  8
0
  6
Continuous
 62
     7
100
AcDbLine
 10
131.294867
 20
-94.621901
 30
0.0
 11
131.294867
 21
-94.52448099999998
 31
0.0
  0
LINE
  5
27BC
330
A
100
AcDbEntity
  8
0
  6
Continuous
 62
     7
100
AcDbLine
 10
119.694867
 20
-93.78847000000002
 30
0.0
 11
119.694867
 21
-94.621901
 31
0.0
  0
LINE
  5
27BD
330
A
100
AcDbEntity
  8
0
  6
Continuous
 62
     7
100
AcDbLine
 10
119.694867
 20
-124.460933
 30
0.0
 11
119.694867
 21
-124.783156
 31
0.0
  0
LINE
  5
27BE
330
A
100
AcDbEntity
  8
0
  6
Continuous
 62
     7
100
AcDbLine
 10
131.294867
 20
-124.783156
 30
0.0
 11
131.294867
 21
-124.460933
 31
0.0
  0
LINE
  5
27BF
330
A
100
AcDbEntity
  8
0
  6
Continuous
 62
     7
100
AcDbLine
 10
-82.69
 20
46.99999499999998
 30
0.0
 11
-82.69
 21
53.00000500000002
 31
0.0
  0
LINE
  5
27C0
330
A
100
AcDbEntity
  8
0
  6
Continuous
 62
     7
100
AcDbLine
 10
-82.69
 20
-3.000004999999986
 30
0.0
 11
-82.69
 21
3.000005000000014
 31
0.0
  0
ARC
  5
27C1
330
A
100
AcDbEntity
  8
0
  6
Continuous
 62
     9
100
AcDbCircle
 10
-78.59
 20
25.0
 30
0.0
 40
1.5
100
AcDbArc
 50
90.0
 51
0.0
  0
LINE
  5
27C2
330
A
100
AcDbEntity
  8
0
  6
Continuous
 62
     7
100
AcDbLine
 10
-137.46
 20
3.699999999999988
 30
0.0
 11
-123.46
 21
3.699999999999988
 31
0.0
  0
LINE
  5
27C3
330
A
100
AcDbEntity
  8
0
  6
Continuous
 62
     7
100
AcDbLine
 10
-137.46
 20
3.199999999999988
 30
0.0
 11
-123.46
 21
3.199999999999988
 31
0.0
  0
LINE
  5
27C4
330
A
100
AcDbEntity
  8
0
  6
Continuous
 62
     7
100
AcDbLine
 10
-123.46
 20
46.30000000000001
 30
0.0
 11
-137.46
 21
46.30000000000001
 31
0.0
  0
LINE
  5
27C5
330
A
100
AcDbEntity
  8
0
  6
Continuous
 62
     7
100
AcDbLine
 10
-123.46
 20
46.80000000000001
 30
0.0
 11
-137.46
 21
46.80000000000001
 31
0.0
  0
CIRCLE
  5
27C6
330
A
100
AcDbEntity
  8
0
  6
Continuous
 62
     7
100
AcDbCircle
 10
-102.96
 20
25.0
 30
0.0
 40
2.649999999999999
  0
CIRCLE
  5
27C7
330
A
100
AcDbEntity
  8
0
  6
Continuous
 62
     7
100
AcDbCircle
 10
-92.96
 20
65.0
 30
0.0
 40
2.649999999999999
  0
CIRCLE
  5
27C8
330
A
100
AcDbEntity
  8
0
  6
Continuous
 62
     7
100
AcDbCircle
 10
-92.96
 20
-15.0
 30
0.0
 40
2.649999999999999
  0
LINE
  5
27C9
330
A
100
AcDbEntity
  8
0
  6
Continuous
 62
     9
100
AcDbLine
 10
-125.423471
 20
47.0
 30
0.0
 11
-125.423471
 21
75.0
 31
0.0
  0
LINE
  5
27CA
330
A
100
AcDbEntity
  8
0
  6
Continuous
 62
     7
100
AcDbLine
 10
-125.423471
 20
75.0
 30
0.0
 11
-82.96000000000002
 21
75.0
 31
0.0
  0
LINE
  5
27CB
330
A
100
AcDbEntity
  8
0
  6
Continuous
 62
     7
100
AcDbLine
 10
-82.96000000000002
 20
-25.0
 30
0.0
 11
-82.96000000000002
 21
75.0
 31
0.0
  0
LINE
  5
27CC
330
A
100
AcDbEntity
  8
0
  6
Continuous
 62
     7
100
AcDbLine
 10
-125.423471
 20
-25.0
 30
0.0
 11
-82.96000000000002
 21
-25.0
 31
0.0
  0
LINE
  5
27CD
330
A
100
AcDbEntity
  8
0
  6
Continuous
 62
     9
100
AcDbLine
 10
-125.423471
 20
-25.0
 30
0.0
 11
-125.423471
 21
3.0
 31
0.0
  0
LINE
  5
27CE
330
A
100
AcDbEntity
  8
0
  6
Continuous
 62
     7
100
AcDbLine
 10
-125.423471
 20
3.0
 30
0.0
 11
-123.16
 21
3.0
 31
0.0
  0
ARC
  5
27CF
330
A
100
AcDbEntity
  8
0
  6
Continuous
 62
     7
100
AcDbCircle
 10
-123.16
 20
4.5
 30
0.0
 40
1.5
100
AcDbArc
 50
270.0
 51
0.0
  0
LINE
  5
27D0
330
A
100
AcDbEntity
  8
0
  6
Continuous
 62
     7
100
AcDbLine
 10
-121.66
 20
4.5
 30
0.0
 11
-121.66
 21
45.49999999999999
 31
0.0
  0
ARC
  5
27D1
330
A
100
AcDbEntity
  8
0
  6
Continuous
 62
     7
100
AcDbCircle
 10
-123.16
 20
45.49999999999999
 30
0.0
 40
1.5
100
AcDbArc
 50
0.0
 51
90.0
  0
LINE
  5
27D2
330
A
100
AcDbEntity
  8
0
  6
Continuous
 62
     7
100
AcDbLine
 10
-123.16
 20
47.0
 30
0.0
 11
-125.423471
 21
47.0
 31
0.0
  0
LINE
  5
27D3
330
A
100
AcDbEntity
  8
0
  6
Continuous
 62
     9
100
AcDbLine
 10
-130.482333
 20
47.0
 30
0.0
 11
-130.482333
 21
75.0
 31
0.0
  0
LINE
  5
27D4
330
A
100
AcDbEntity
  8
0
  6
Continuous
 62
     7
100
AcDbLine
 10
-130.482333
 20
75.0
 30
0.0
 11
-125.423471
 21
75.0
 31
0.0
  0
LINE
  5
27D5
330
A
100
AcDbEntity
  8
0
  6
Continuous
 62
     7
100
AcDbLine
 10
-125.423471
 20
47.0
 30
0.0
 11
-130.482333
 21
47.0
 31
0.0
  0
LINE
  5
27D6
330
A
100
AcDbEntity
  8
0
  6
Continuous
 62
     7
100
AcDbLine
 10
-130.482333
 20
-25.0
 30
0.0
 11
-125.423471
 21
-25.0
 31
0.0
  0
LINE
  5
27D7
330
A
100
AcDbEntity
  8
0
  6
Continuous
 62
     9
100
AcDbLine
 10
-130.482333
 20
-25.0
 30
0.0
 11
-130.482333
 21
3.0
 31
0.0
  0
LINE
  5
27D8
330
A
100
AcDbEntity
  8
0
  6
Continuous
 62
     7
100
AcDbLine
 10
-130.482333
 20
3.0
 30
0.0
 11
-125.423471
 21
3.0
 31
0.0
  0
LINE
  5
27D9
330
A
100
AcDbEntity
  8
0
  6
Continuous
 62
     7
100
AcDbLine
 10
-134.96
 20
47.0
 30
0.0
 11
-134.96
 21
75.0
 31
0.0
  0
LINE
  5
27DA
330
A
100
AcDbEntity
  8
0
  6
Continuous
 62
     7
100
AcDbLine
 10
-130.482333
 20
47.0
 30
0.0
 11
-134.96
 21
47.0
 31
0.0
  0
LINE
  5
27DB
330
A
100
AcDbEntity
  8
0
  6
Continuous
 62
     7
100
AcDbLine
 10
-134.96
 20
75.0
 30
0.0
 11
-130.482333
 21
75.0
 31
0.0
  0
LINE
  5
27DC
330
A
100
AcDbEntity
  8
0
  6
Continuous
 62
     7
100
AcDbLine
 10
-134.96
 20
-25.0
 30
0.0
 11
-134.96
 21
3.0
 31
0.0
  0
LINE
  5
27DD
330
A
100
AcDbEntity
  8
0
  6
Continuous
 62
     7
100
AcDbLine
 10
-134.96
 20
-25.0
 30
0.0
 11
-130.482333
 21
-25.0
 31
0.0
  0
LINE
  5
27DE
330
A
100
AcDbEntity
  8
0
  6
Continuous
 62
     7
100
AcDbLine
 10
-134.96
 20
3.0
 30
0.0
 11
-130.482333
 21
3.0
 31
0.0
  0
LINE
  5
27DF
330
A
100
AcDbEntity
  8
0
  6
Continuous
 62
     7
100
AcDbLine
 10
-137.96
 20
75.0
 30
0.0
 11
-134.96
 21
75.0
 31
0.0
  0
LINE
  5
27E0
330
A
100
AcDbEntity
  8
0
  6
Continuous
 62
     7
100
AcDbLine
 10
-134.96
 20
47.0
 30
0.0
 11
-137.96
 21
47.0
 31
0.0
  0
LINE
  5
27E1
330
A
100
AcDbEntity
  8
0
  6
Continuous
 62
     7
100
AcDbLine
 10
-137.96
 20
-25.0
 30
0.0
 11
-134.96
 21
-25.0
 31
0.0
  0
LINE
  5
27E2
330
A
100
AcDbEntity
  8
0
  6
Continuous
 62
     7
100
AcDbLine
 10
-137.96
 20
3.0
 30
0.0
 11
-134.96
 21
3.0
 31
0.0
  0
LINE
  5
27E3
330
A
100
AcDbEntity
  8
0
  6
Continuous
 62
     7
100
AcDbLine
 10
-122.96
 20
45.0
 30
0.0
 11
-137.96
 21
45.0
 31
0.0
  0
LINE
  5
27E4
330
A
100
AcDbEntity
  8
0
  6
Continuous
 62
     7
100
AcDbLine
 10
-137.96
 20
5.0
 30
0.0
 11
-122.96
 21
5.0
 31
0.0
  0
LINE
  5
27E5
330
A
100
AcDbEntity
  8
0
  6
Continuous
 62
     7
100
AcDbLine
 10
-122.743023
 20
45.0
 30
0.0
 11
-122.743023
 21
46.94087800000001
 31
0.0
  0
LINE
  5
27E6
330
A
100
AcDbEntity
  8
0
  6
Continuous
 62
     7
100
AcDbLine
 10
-91.39000000000001
 20
67.13485399999999
 30
0.0
 11
-91.39000000000001
 21
62.86514600000001
 31
0.0
  0
LINE
  5
27E7
330
A
100
AcDbEntity
  8
0
  6
Continuous
 62
     7
100
AcDbLine
 10
-91.39000000000001
 20
-12.86514600000001
 30
0.0
 11
-91.39000000000001
 21
-17.13485399999999
 31
0.0
  0
LINE
  5
27E8
330
A
100
AcDbEntity
  8
0
  6
Continuous
 62
     7
100
AcDbLine
 10
-122.743023
 20
3.059122000000001
 30
0.0
 11
-122.743023
 21
5.0
 31
0.0
  0
LINE
  5
27E9
330
A
100
AcDbEntity
  8
0
  6
Continuous
 62
     7
100
AcDbLine
 10
-122.743023
 20
5.0
 30
0.0
 11
-122.96
 21
5.0
 31
0.0
  0
LINE
  5
27EA
330
A
100
AcDbEntity
  8
0
  6
Continuous
 62
     7
100
AcDbLine
 10
-122.96
 20
45.0
 30
0.0
 11
-122.743023
 21
45.0
 31
0.0
  0
LINE
  5
27EB
330
A
100
AcDbEntity
  8
0
  6
Continuous
 62
     7
100
AcDbLine
 10
-81.59
 20
71.25
 30
0.0
 11
-80.78999999999998
 21
71.25
 31
0.0
  0
LINE
  5
27EC
330
A
100
AcDbEntity
  8
0
  6
Continuous
 62
     9
100
AcDbLine
 10
-80.78999999999998
 20
69.25
 30
0.0
 11
-81.59
 21
69.25
 31
0.0
  0
LINE
  5
27ED
330
A
100
AcDbEntity
  8
0
  6
Continuous
 62
     7
100
AcDbLine
 10
-81.59
 20
69.25
 30
0.0
 11
-81.59
 21
71.25
 31
0.0
  0
LINE
  5
27EE
330
A
100
AcDbEntity
  8
0
  6
Continuous
 62
     9
100
AcDbLine
 10
-81.59
 20
-19.25
 30
0.0
 11
-80.78999999999998
 21
-19.25
 31
0.0
  0
LINE
  5
27EF
330
A
100
AcDbEntity
  8
0
  6
Continuous
 62
     7
100
AcDbLine
 10
-81.59
 20
69.25
 30
0.0
 11
-81.59
 21
-19.25
 31
0.0
  0
LINE
  5
27F0
330
A
100
AcDbEntity
  8
0
  6
Continuous
 62
     7
100
AcDbLine
 10
-80.78999999999998
 20
-21.25
 30
0.0
 11
-81.59
 21
-21.25
 31
0.0
  0
LINE
  5
27F1
330
A
100
AcDbEntity
  8
0
  6
Continuous
 62
     7
100
AcDbLine
 10
-81.59
 20
-21.25
 30
0.0
 11
-81.59
 21
-19.25
 31
0.0
  0
LINE
  5
27F2
330
A
100
AcDbEntity
  8
0
  6
Continuous
 62
     7
100
AcDbLine
 10
-90.99
 20
66.772456
 30
0.0
 11
-90.99
 21
63.22754399999999
 31
0.0
  0
LINE
  5
27F3
330
A
100
AcDbEntity
  8
0
  6
Continuous
 62
     7
100
AcDbLine
 10
-90.99
 20
-13.22754399999999
 30
0.0
 11
-90.99
 21
-16.772456
 31
0.0
  0
LINE
  5
27F4
330
A
100
AcDbEntity
  8
0
  6
Continuous
 62
     7
100
AcDbLine
 10
-74.78999999999998
 20
75.0
 30
0.0
 11
-80.78999999999998
 21
75.0
 31
0.0
  0
LINE
  5
27F5
330
A
100
AcDbEntity
  8
0
  6
Continuous
 62
     7
100
AcDbLine
 10
-74.78999999999998
 20
75.0
 30
0.0
 11
-74.78999999999998
 21
-25.0
 31
0.0
  0
LINE
  5
27F6
330
A
100
AcDbEntity
  8
0
  6
Continuous
 62
     7
100
AcDbLine
 10
-74.78999999999998
 20
-25.0
 30
0.0
 11
-80.78999999999998
 21
-25.0
 31
0.0
  0
LINE
  5
27F7
330
A
100
AcDbEntity
  8
0
  6
Continuous
 62
     7
100
AcDbLine
 10
-80.78999999999998
 20
75.0
 30
0.0
 11
-80.78999999999998
 21
-25.0
 31
0.0
  0
CIRCLE
  5
27F8
330
A
100
AcDbEntity
  8
0
  6
Continuous
 62
     7
100
AcDbCircle
 10
-78.59
 20
25.0
 30
0.0
 40
1.25
  0
LINE
  5
27F9
330
A
100
AcDbEntity
  8
0
  6
Continuous
 62
     7
100
AcDbLine
 10
-136.46
 20
-25.6
 30
0.0
 11
-124.46
 21
-25.6
 31
0.0
  0
LINE
  5
27FA
330
A
100
AcDbEntity
  8
0
  6
Continuous
 62
     7
100
AcDbLine
 10
-125.16
 20
-26.30000000000001
 30
0.0
 11
-135.76
 21
-26.30000000000001
 31
0.0
  0
LINE
  5
27FB
330
A
100
AcDbEntity
  8
0
  6
Continuous
 62
     7
100
AcDbLine
 10
-124.46
 20
75.59999999999998
 30
0.0
 11
-136.46
 21
75.59999999999998
 31
0.0
  0
LINE
  5
27FC
330
A
100
AcDbEntity
  8
0
  6
Continuous
 62
     7
100
AcDbLine
 10
-135.76
 20
76.30000000000003
 30
0.0
 11
-125.16
 21
76.30000000000003
 31
0.0
  0
LINE
  5
27FD
330
A
100
AcDbEntity
  8
0
  6
Continuous
 62
     7
100
AcDbLine
 10
-123.21
 20
46.30000000000001
 30
0.0
 11
-133.107371
 21
46.30000000000001
 31
0.0
  0
LINE
  5
27FE
330
A
100
AcDbEntity
  8
0
  6
Continuous
 62
     7
100
AcDbLine
 10
-133.107371
 20
46.30000000000001
 30
0.0
 11
-137.71
 21
46.30000000000001
 31
0.0
  0
LINE
  5
27FF
330
A
100
AcDbEntity
  8
0
  6
Continuous
 62
     7
100
AcDbLine
 10
-137.71
 20
3.699999999999988
 30
0.0
 11
-123.245881
 21
3.699999999999988
 31
0.0
  0
LINE
  5
2800
330
A
100
AcDbEntity
  8
0
  6
Continuous
 62
     7
100
AcDbLine
 10
-123.245881
 20
3.699999999999988
 30
0.0
 11
-123.21
 21
3.699999999999988
 31
0.0
  0
CIRCLE
  5
2801
330
A
100
AcDbEntity
  8
0
  6
Continuous
 62
     7
100
AcDbCircle
 10
-78.59
 20
25.0
 30
0.0
 40
1.0
  0
LINE
  5
2802
330
A
100
AcDbEntity
  8
0
  6
Continuous
 62
     7
100
AcDbLine
 10
-78.15698700000002
 20
25.75
 30
0.0
 11
-77.723975
 21
25.0
 31
0.0
  0
LINE
  5
2803
330
A
100
AcDbEntity
  8
0
  6
Continuous
 62
     7
100
AcDbLine
 10
-79.02301299999996
 20
25.75
 30
0.0
 11
-78.15698700000002
 21
25.75
 31
0.0
  0
LINE
  5
2804
330
A
100
AcDbEntity
  8
0
  6
Continuous
 62
     7
100
AcDbLine
 10
-79.45602500000003
 20
25.0
 30
0.0
 11
-79.02301299999996
 21
25.75
 31
0.0
  0
LINE
  5
2805
330
A
100
AcDbEntity
  8
0
  6
Continuous
 62
     7
100
AcDbLine
 10
-79.02301299999996
 20
24.25
 30
0.0
 11
-79.45602500000003
 21
25.0
 31
0.0
  0
LINE
  5
2806
330
A
100
AcDbEntity
  8
0
  6
Continuous
 62
     7
100
AcDbLine
 10
-78.15698700000002
 20
24.25
 30
0.0
 11
-79.02301299999996
 21
24.25
 31
0.0
  0
LINE
  5
2807
330
A
100
AcDbEntity
  8
0
  6
Continuous
 62
     7
100
AcDbLine
 10
-77.723975
 20
25.0
 30
0.0
 11
-78.15698700000002
 21
24.25
 31
0.0
  0
LINE
  5
2808
330
A
100
AcDbEntity
  8
0
  6
Continuous
 62
     7
100
AcDbLine
 10
-82.74
 20
8.836473000000012
 30
0.0
 11
-82.74
 21
-8.863167000000004
 31
0.0
  0
LINE
  5
2809
330
A
100
AcDbEntity
  8
0
  6
Continuous
 62
     7
100
AcDbLine
 10
-82.74
 20
-8.863167000000004
 30
0.0
 11
-82.74
 21
-8.863527000000003
 31
0.0
  0
LINE
  5
280A
330
A
100
AcDbEntity
  8
0
  6
Continuous
 62
     7
100
AcDbLine
 10
-82.74
 20
58.83641899999999
 30
0.0
 11
-82.74
 21
41.136781
 31
0.0
  0
LINE
  5
280B
330
A
100
AcDbEntity
  8
0
  6
Continuous
 62
     7
100
AcDbLine
 10
-82.74
 20
41.136781
 30
0.0
 11
-82.74
 21
41.13641899999999
 31
0.0
  0
LINE
  5
280C
330
A
100
AcDbEntity
  8
0
  6
Continuous
 62
     9
100
AcDbLine
 10
-82.74
 20
47.5
 30
0.0
 11
-82.69
 21
47.5
 31
0.0
  0
LINE
  5
280D
330
A
100
AcDbEntity
  8
0
  6
Continuous
 62
     9
100
AcDbLine
 10
-82.69
 20
52.5
 30
0.0
 11
-82.74
 21
52.5
 31
0.0
  0
LINE
  5
280E
330
A
100
AcDbEntity
  8
0
  6
Continuous
 62
     9
100
AcDbLine
 10
-82.74
 20
-2.5
 30
0.0
 11
-82.69
 21
-2.5
 31
0.0
  0
LINE
  5
280F
330
A
100
AcDbEntity
  8
0
  6
Continuous
 62
     9
100
AcDbLine
 10
-82.69
 20
2.5
 30
0.0
 11
-82.74
 21
2.5
 31
0.0
  0
LINE
  5
2810
330
A
100
AcDbEntity
  8
0
  6
Continuous
 62
     7
100
AcDbLine
 10
-137.46
 20
3.699999999999988
 30
0.0
 11
-137.46
 21
3.199999999999988
 31
0.0
  0
LINE
  5
2811
330
A
100
AcDbEntity
  8
0
  6
Continuous
 62
     7
100
AcDbLine
 10
-123.46
 20
3.199999999999988
 30
0.0
 11
-123.46
 21
3.699999999999988
 31
0.0
  0
LINE
  5
2812
330
A
100
AcDbEntity
  8
0
  6
Continuous
 62
     7
100
AcDbLine
 10
-123.46
 20
46.30000000000001
 30
0.0
 11
-123.46
 21
46.80000000000001
 31
0.0
  0
LINE
  5
2813
330
A
100
AcDbEntity
  8
0
  6
Continuous
 62
     7
100
AcDbLine
 10
-137.46
 20
46.80000000000001
 30
0.0
 11
-137.46
 21
46.30000000000001
 31
0.0
  0
LINE
  5
2814
330
A
100
AcDbEntity
  8
0
  6
Continuous
 62
     7
100
AcDbLine
 10
-137.96
 20
75.0
 30
0.0
 11
-137.96
 21
47.0
 31
0.0
  0
LINE
  5
2815
330
A
100
AcDbEntity
  8
0
  6
Continuous
 62
     7
100
AcDbLine
 10
-137.96
 20
3.0
 30
0.0
 11
-137.96
 21
-25.0
 31
0.0
  0
LINE
  5
2816
330
A
100
AcDbEntity
  8
0
  6
Continuous
 62
     7
100
AcDbLine
 10
-122.96
 20
5.0
 30
0.0
 11
-122.96
 21
45.0
 31
0.0
  0
LINE
  5
2817
330
A
100
AcDbEntity
  8
0
  6
Continuous
 62
     7
100
AcDbLine
 10
-137.96
 20
45.0
 30
0.0
 11
-137.96
 21
5.0
 31
0.0
  0
LINE
  5
2818
330
A
100
AcDbEntity
  8
0
  6
Continuous
 62
     7
100
AcDbLine
 10
-134.46
 20
47.0
 30
0.0
 11
-134.46
 21
46.80000000000001
 31
0.0
  0
LINE
  5
2819
330
A
100
AcDbEntity
  8
0
  6
Continuous
 62
     7
100
AcDbLine
 10
-134.46
 20
3.199999999999988
 30
0.0
 11
-134.46
 21
3.0
 31
0.0
  0
LINE
  5
281A
330
A
100
AcDbEntity
  8
0
  6
Continuous
 62
     7
100
AcDbLine
 10
-126.46
 20
3.0
 30
0.0
 11
-126.46
 21
3.199999999999988
 31
0.0
  0
LINE
  5
281B
330
A
100
AcDbEntity
  8
0
  6
Continuous
 62
     7
100
AcDbLine
 10
-126.46
 20
46.80000000000001
 30
0.0
 11
-126.46
 21
47.0
 31
0.0
  0
LINE
  5
281C
330
A
100
AcDbEntity
  8
0
  6
Continuous
 62
     7
100
AcDbLine
 10
-124.46
 20
-25.6
 30
0.0
 11
-124.46
 21
-25.0
 31
0.0
  0
LINE
  5
281D
330
A
100
AcDbEntity
  8
0
  6
Continuous
 62
     7
100
AcDbLine
 10
-136.46
 20
-25.0
 30
0.0
 11
-136.46
 21
-25.6
 31
0.0
  0
LINE
  5
281E
330
A
100
AcDbEntity
  8
0
  6
Continuous
 62
     7
100
AcDbLine
 10
-136.46
 20
-25.6
 30
0.0
 11
-135.76
 21
-26.30000000000001
 31
0.0
  0
LINE
  5
281F
330
A
100
AcDbEntity
  8
0
  6
Continuous
 62
     7
100
AcDbLine
 10
-125.16
 20
-26.30000000000001
 30
0.0
 11
-124.46
 21
-25.6
 31
0.0
  0
LINE
  5
2820
330
A
100
AcDbEntity
  8
0
  6
Continuous
 62
     7
100
AcDbLine
 10
-136.46
 20
75.59999999999998
 30
0.0
 11
-136.46
 21
75.0
 31
0.0
  0
LINE
  5
2821
330
A
100
AcDbEntity
  8
0
  6
Continuous
 62
     7
100
AcDbLine
 10
-124.46
 20
75.0
 30
0.0
 11
-124.46
 21
75.59999999999998
 31
0.0
  0
LINE
  5
2822
330
A
100
AcDbEntity
  8
0
  6
Continuous
 62
     7
100
AcDbLine
 10
-124.46
 20
75.59999999999998
 30
0.0
 11
-125.16
 21
76.30000000000003
 31
0.0
  0
LINE
  5
2823
330
A
100
AcDbEntity
  8
0
  6
Continuous
 62
     7
100
AcDbLine
 10
-135.76
 20
76.30000000000003
 30
0.0
 11
-136.46
 21
75.59999999999998
 31
0.0
  0
LINE
  5
2824
330
A
100
AcDbEntity
  8
0
  6
Continuous
 62
     7
100
AcDbLine
 10
-82.69499999999998
 20
47.0
 30
0.0
 11
-82.69
 21
47.0
 31
0.0
  0
LINE
  5
2825
330
A
100
AcDbEntity
  8
0
  6
Continuous
 62
     7
100
AcDbLine
 10
-82.69
 20
47.0
 30
0.0
 11
-81.59
 21
47.0
 31
0.0
  0
LINE
  5
2826
330
A
100
AcDbEntity
  8
0
  6
Continuous
 62
     7
100
AcDbLine
 10
-81.59
 20
53.0
 30
0.0
 11
-82.69
 21
53.0
 31
0.0
  0
LINE
  5
2827
330
A
100
AcDbEntity
  8
0
  6
Continuous
 62
     7
100
AcDbLine
 10
-82.69
 20
53.0
 30
0.0
 11
-82.69499999999998
 21
53.0
 31
0.0
  0
LINE
  5
2828
330
A
100
AcDbEntity
  8
0
  6
Continuous
 62
     7
100
AcDbLine
 10
-82.74
 20
47.0
 30
0.0
 11
-82.69
 21
47.0
 31
0.0
  0
LINE
  5
2829
330
A
100
AcDbEntity
  8
0
  6
Continuous
 62
     7
100
AcDbLine
 10
-82.69
 20
47.0
 30
0.0
 11
-82.68500000000002
 21
47.0
 31
0.0
  0
LINE
  5
282A
330
A
100
AcDbEntity
  8
0
  6
Continuous
 62
     7
100
AcDbLine
 10
-82.68500000000002
 20
53.0
 30
0.0
 11
-82.69
 21
53.0
 31
0.0
  0
LINE
  5
282B
330
A
100
AcDbEntity
  8
0
  6
Continuous
 62
     7
100
AcDbLine
 10
-82.69
 20
53.0
 30
0.0
 11
-82.74
 21
53.0
 31
0.0
  0
LINE
  5
282C
330
A
100
AcDbEntity
  8
0
  6
Continuous
 62
     7
100
AcDbLine
 10
-82.69499999999998
 20
-3.0
 30
0.0
 11
-82.69
 21
-3.0
 31
0.0
  0
LINE
  5
282D
330
A
100
AcDbEntity
  8
0
  6
Continuous
 62
     7
100
AcDbLine
 10
-82.69
 20
-3.0
 30
0.0
 11
-81.59
 21
-3.0
 31
0.0
  0
LINE
  5
282E
330
A
100
AcDbEntity
  8
0
  6
Continuous
 62
     7
100
AcDbLine
 10
-81.59
 20
3.0
 30
0.0
 11
-82.69
 21
3.0
 31
0.0
  0
LINE
  5
282F
330
A
100
AcDbEntity
  8
0
  6
Continuous
 62
     7
100
AcDbLine
 10
-82.69
 20
3.0
 30
0.0
 11
-82.69499999999998
 21
3.0
 31
0.0
  0
LINE
  5
2830
330
A
100
AcDbEntity
  8
0
  6
Continuous
 62
     7
100
AcDbLine
 10
-82.74
 20
-3.0
 30
0.0
 11
-82.69
 21
-3.0
 31
0.0
  0
LINE
  5
2831
330
A
100
AcDbEntity
  8
0
  6
Continuous
 62
     7
100
AcDbLine
 10
-82.69
 20
-3.0
 30
0.0
 11
-82.68500000000002
 21
-3.0
 31
0.0
  0
LINE
  5
2832
330
A
100
AcDbEntity
  8
0
  6
Continuous
 62
     7
100
AcDbLine
 10
-82.68500000000002
 20
3.0
 30
0.0
 11
-82.69
 21
3.0
 31
0.0
  0
LINE
  5
2833
330
A
100
AcDbEntity
  8
0
  6
Continuous
 62
     7
100
AcDbLine
 10
-82.69
 20
3.0
 30
0.0
 11
-82.74
 21
3.0
 31
0.0
  0
LINE
  5
2834
330
A
100
AcDbEntity
  8
0
  6
Continuous
 62
     7
100
AcDbLine
 10
-123.21
 20
45.0
 30
0.0
 11
-123.21
 21
46.30000000000001
 31
0.0
  0
LINE
  5
2835
330
A
100
AcDbEntity
  8
0
  6
Continuous
 62
     7
100
AcDbLine
 10
-137.71
 20
46.30000000000001
 30
0.0
 11
-137.71
 21
45.0
 31
0.0
  0
LINE
  5
2836
330
A
100
AcDbEntity
  8
0
  6
Continuous
 62
     7
100
AcDbLine
 10
-137.71
 20
5.0
 30
0.0
 11
-137.71
 21
3.699999999999988
 31
0.0
  0
LINE
  5
2837
330
A
100
AcDbEntity
  8
0
  6
Continuous
 62
     7
100
AcDbLine
 10
-123.21
 20
3.699999999999988
 30
0.0
 11
-123.21
 21
5.0
 31
0.0
  0
LINE
  5
2838
330
A
100
AcDbEntity
  8
0
  6
Continuous
 62
     7
100
AcDbLine
 10
-82.74
 20
8.836473000000012
 30
0.0
 11
-82.96000000000002
 21
8.836473000000012
 31
0.0
  0
LINE
  5
2839
330
A
100
AcDbEntity
  8
0
  6
Continuous
 62
     7
100
AcDbLine
 10
-82.96000000000002
 20
-8.863527000000003
 30
0.0
 11
-82.74
 21
-8.863527000000003
 31
0.0
  0
LINE
  5
283A
330
A
100
AcDbEntity
  8
0
  6
Continuous
 62
     7
100
AcDbLine
 10
-82.74
 20
58.83641899999999
 30
0.0
 11
-82.96000000000002
 21
58.83641899999999
 31
0.0
  0
LINE
  5
283B
330
A
100
AcDbEntity
  8
0
  6
Continuous
 62
     7
100
AcDbLine
 10
-82.96000000000002
 20
41.13641899999999
 30
0.0
 11
-82.74
 21
41.13641899999999
 31
0.0
  0
LINE
  5
283C
330
A
100
AcDbEntity
  8
0
  6
Continuous
 62
     7
100
AcDbLine
 10
84.93999999999997
 20
53.00000500000002
 30
0.0
 11
84.93999999999997
 21
46.99999499999998
 31
0.0
  0
LINE
  5
283D
330
A
100
AcDbEntity
  8
0
  6
Continuous
 62
     7
100
AcDbLine
 10
84.93999999999997
 20
3.000005000000014
 30
0.0
 11
84.93999999999997
 21
-3.000004999999986
 31
0.0
  0
ARC
  5
283E
330
A
100
AcDbEntity
  8
0
  6
Continuous
 62
     9
100
AcDbCircle
 10
132.7099489999998
 20
62.99993199999999
 30
0.0
 40
1.500051
100
AcDbArc
 50
0.0025860000002636
 51
105.5145640000004
  0
LINE
  5
283F
330
A
100
AcDbEntity
  8
0
  6
Continuous
 62
     9
100
AcDbLine
 10
132.308724
 20
61.55466999999998
 30
0.0
 11
132.7099999999997
 21
61.5
 31
0.0
  0
ARC
  5
2840
330
A
100
AcDbEntity
  8
0
  6
Continuous
 62
     7
100
AcDbCircle
 10
132.7099999999997
 20
63.0
 30
0.0
 40
1.0
100
AcDbArc
 50
246.3508640000005
 51
90.0
  0
ARC
  5
2841
330
A
100
AcDbEntity
  8
0
  6
Continuous
 62
     7
100
AcDbCircle
 10
132.7099999999997
 20
63.0
 30
0.0
 40
1.0
100
AcDbArc
 50
90.0
 51
113.6491359999995
  0
LINE
  5
2842
330
A
100
AcDbEntity
  8
0
  6
Continuous
 62
     7
100
AcDbLine
 10
133.1430129999998
 20
63.75
 30
0.0
 11
133.576025
 21
63.0
 31
0.0
  0
LINE
  5
2843
330
A
100
AcDbEntity
  8
0
  6
Continuous
 62
     7
100
AcDbLine
 10
132.3088649999998
 20
63.75
 30
0.0
 11
133.1430129999998
 21
63.75
 31
0.0
  0
LINE
  5
2844
330
A
100
AcDbEntity
  8
0
  6
Continuous
 62
     7
100
AcDbLine
 10
133.1430129999998
 20
62.25
 30
0.0
 11
132.3088649999998
 21
62.25
 31
0.0
  0
LINE
  5
2845
330
A
100
AcDbEntity
  8
0
  6
Continuous
 62
     7
100
AcDbLine
 10
133.576025
 20
63.0
 30
0.0
 11
133.1430129999998
 21
62.25
 31
0.0
  0
LINE
  5
2846
330
A
100
AcDbEntity
  8
0
  6
Continuous
 62
     7
100
AcDbLine
 10
132.3088649999998
 20
3.699999999999988
 30
0.0
 11
139.7099999999998
 21
3.699999999999988
 31
0.0
  0
LINE
  5
2847
330
A
100
AcDbEntity
  8
0
  6
Continuous
 62
     7
100
AcDbLine
 10
132.3088649999998
 20
3.199999999999988
 30
0.0
 11
139.7099999999998
 21
3.199999999999988
 31
0.0
  0
LINE
  5
2848
330
A
100
AcDbEntity
  8
0
  6
Continuous
 62
     7
100
AcDbLine
 10
139.7099999999998
 20
46.30000000000001
 30
0.0
 11
132.3088649999998
 21
46.30000000000001
 31
0.0
  0
LINE
  5
2849
330
A
100
AcDbEntity
  8
0
  6
Continuous
 62
     7
100
AcDbLine
 10
139.7099999999998
 20
46.80000000000001
 30
0.0
 11
132.3088649999998
 21
46.80000000000001
 31
0.0
  0
LINE
  5
284A
330
A
100
AcDbEntity
  8
0
  6
Continuous
 62
     7
100
AcDbLine
 10
132.3088649999998
 20
3.0
 30
0.0
 11
140.2099999999999
 21
3.0
 31
0.0
  0
LINE
  5
284B
330
A
100
AcDbEntity
  8
0
  6
Continuous
 62
     7
100
AcDbLine
 10
132.3088649999998
 20
-25.0
 30
0.0
 11
140.2099999999999
 21
-25.0
 31
0.0
  0
LINE
  5
284C
330
A
100
AcDbEntity
  8
0
  6
Continuous
 62
     7
100
AcDbLine
 10
140.2099999999999
 20
47.0
 30
0.0
 11
132.3088649999998
 21
47.0
 31
0.0
  0
LINE
  5
284D
330
A
100
AcDbEntity
  8
0
  6
Continuous
 62
     7
100
AcDbLine
 10
132.3088649999998
 20
75.0
 30
0.0
 11
140.2099999999999
 21
75.0
 31
0.0
  0
ARC
  5
2868
330
A
100
AcDbEntity
  8
0
  6
Continuous
 62
     7
100
AcDbCircle
 10
95.21
 20
-15.0
 30
0.0
 40
5.0
100
AcDbArc
 50
113.2036209999994
 51
180.0
  0
ARC
  5
2869
330
A
100
AcDbEntity
  8
0
  6
Continuous
 62
     7
100
AcDbCircle
 10
95.21
 20
-15.0
 30
0.0
 40
5.0
100
AcDbArc
 50
180.0
 51
246.7963790000006
  0
ARC
  5
286A
330
A
100
AcDbEntity
  8
0
  6
Continuous
 62
     7
100
AcDbCircle
 10
95.21
 20
65.0
 30
0.0
 40
5.0
100
AcDbArc
 50
113.2036209999994
 51
180.0
  0
ARC
  5
286B
330
A
100
AcDbEntity
  8
0
  6
Continuous
 62
     7
100
AcDbCircle
 10
95.21
 20
65.0
 30
0.0
 40
5.0
100
AcDbArc
 50
180.0
 51
246.7963790000006
  0
LINE
  5
286C
330
A
100
AcDbEntity
  8
0
  6
Continuous
 62
     7
100
AcDbLine
 10
85.21
 20
-25.0
 30
0.0
 11
85.21
 21
-8.863527000000003
 31
0.0
  0
LINE
  5
286D
330
A
100
AcDbEntity
  8
0
  6
Continuous
 62
     7
100
AcDbLine
 10
85.21
 20
8.836473000000012
 30
0.0
 11
85.21
 21
41.13641899999999
 31
0.0
  0
LINE
  5
286E
330
A
100
AcDbEntity
  8
0
  6
Continuous
 62
     7
100
AcDbLine
 10
85.21
 20
58.83641899999999
 30
0.0
 11
85.21
 21
75.0
 31
0.0
  0
LINE
  5
286F
330
A
100
AcDbEntity
  8
0
  6
Continuous
 62
     7
100
AcDbLine
 10
85.21
 20
75.0
 30
0.0
 11
93.63999999999999
 21
75.0
 31
0.0
  0
LINE
  5
2870
330
A
100
AcDbEntity
  8
0
  6
Continuous
 62
     7
100
AcDbLine
 10
85.21
 20
-25.0
 30
0.0
 11
93.63999999999999
 21
-25.0
 31
0.0
  0
ARC
  5
2871
330
A
100
AcDbEntity
  8
0
  6
Continuous
 62
     7
100
AcDbCircle
 10
95.21
 20
-15.0
 30
0.0
 40
2.649999999999999
100
AcDbArc
 50
138.0215310000009
 51
221.9784689999991
  0
ARC
  5
2872
330
A
100
AcDbEntity
  8
0
  6
Continuous
 62
     7
100
AcDbCircle
 10
95.21
 20
65.0
 30
0.0
 40
2.649999999999999
100
AcDbArc
 50
138.0215310000009
 51
221.9784689999991
  0
LINE
  5
2873
330
A
100
AcDbEntity
  8
0
  6
Continuous
 62
     7
100
AcDbLine
 10
93.63999999999999
 20
75.0
 30
0.0
 11
93.63999999999999
 21
-25.0
 31
0.0
  0
LINE
  5
2874
330
A
100
AcDbEntity
  8
0
  6
Continuous
 62
     7
100
AcDbLine
 10
99.63999999999999
 20
75.0
 30
0.0
 11
93.63999999999999
 21
75.0
 31
0.0
  0
LINE
  5
2875
330
A
100
AcDbEntity
  8
0
  6
Continuous
 62
     7
100
AcDbLine
 10
99.63999999999999
 20
75.0
 30
0.0
 11
99.63999999999999
 21
-25.0
 31
0.0
  0
LINE
  5
2876
330
A
100
AcDbEntity
  8
0
  6
Continuous
 62
     7
100
AcDbLine
 10
99.63999999999999
 20
-25.0
 30
0.0
 11
93.63999999999999
 21
-25.0
 31
0.0
  0
LINE
  5
2878
330
A
100
AcDbEntity
  8
0
  6
Continuous
 62
     7
100
AcDbLine
 10
99.63999999999999
 20
75.0
 30
0.0
 11
116.056027
 21
75.0
 31
0.0
  0
LINE
  5
2879
330
A
100
AcDbEntity
  8
0
  6
Continuous
 62
     7
100
AcDbLine
 10
99.63999999999999
 20
-25.0
 30
0.0
 11
116.056027
 21
-25.0
 31
0.0
  0
LINE
  5
287B
330
A
100
AcDbEntity
  8
0
  6
Continuous
 62
     7
100
AcDbLine
 10
136.5587849999998
 20
5.0
 30
0.0
 11
132.3088649999998
 21
5.0
 31
0.0
  0
LINE
  5
287C
330
A
100
AcDbEntity
  8
0
  6
Continuous
 62
     7
100
AcDbLine
 10
132.3088649999998
 20
-25.0
 30
0.0
 11
132.3088649999998
 21
5.0
 31
0.0
  0
LINE
  5
287D
330
A
100
AcDbEntity
  8
0
  6
Continuous
 62
     7
100
AcDbLine
 10
132.3088649999998
 20
45.0
 30
0.0
 11
132.3088649999998
 21
75.0
 31
0.0
  0
LINE
  5
287E
330
A
100
AcDbEntity
  8
0
  6
Continuous
 62
     7
100
AcDbLine
 10
132.3088649999998
 20
45.0
 30
0.0
 11
136.5587849999998
 21
45.0
 31
0.0
  0
LINE
  5
287F
330
A
100
AcDbEntity
  8
0
  6
Continuous
 62
     7
100
AcDbLine
 10
116.056027
 20
75.0
 30
0.0
 11
132.3088649999998
 21
75.0
 31
0.0
  0
LINE
  5
2880
330
A
100
AcDbEntity
  8
0
  6
Continuous
 62
     7
100
AcDbLine
 10
116.056027
 20
-25.0
 30
0.0
 11
132.3088649999998
 21
-25.0
 31
0.0
  0
LINE
  5
2881
330
A
100
AcDbEntity
  8
0
  6
Continuous
 62
     7
100
AcDbLine
 10
140.2099999999999
 20
45.0
 30
0.0
 11
136.5587849999998
 21
45.0
 31
0.0
  0
LINE
  5
2882
330
A
100
AcDbEntity
  8
0
  6
Continuous
 62
     7
100
AcDbLine
 10
136.5587849999998
 20
5.0
 30
0.0
 11
140.2099999999999
 21
5.0
 31
0.0
  0
LINE
  5
2883
330
A
100
AcDbEntity
  8
0
  6
Continuous
 62
     9
100
AcDbLine
 10
83.83999999999997
 20
-6.126046000000002
 30
0.0
 11
83.04000000000002
 21
-6.126046000000002
 31
0.0
  0
LINE
  5
2884
330
A
100
AcDbEntity
  8
0
  6
Continuous
 62
     9
100
AcDbLine
 10
83.04000000000002
 20
-5.223567000000001
 30
0.0
 11
83.83999999999997
 21
-5.223567000000001
 31
0.0
  0
LINE
  5
2885
330
A
100
AcDbEntity
  8
0
  6
Continuous
 62
     7
100
AcDbLine
 10
83.83999999999997
 20
-5.223567000000001
 30
0.0
 11
83.83999999999997
 21
-6.126046000000002
 31
0.0
  0
LINE
  5
2886
330
A
100
AcDbEntity
  8
0
  6
Continuous
 62
     9
100
AcDbLine
 10
83.83999999999997
 20
55.223567
 30
0.0
 11
83.04000000000002
 21
55.223567
 31
0.0
  0
LINE
  5
2887
330
A
100
AcDbEntity
  8
0
  6
Continuous
 62
     7
100
AcDbLine
 10
83.83999999999997
 20
-5.223567000000001
 30
0.0
 11
83.83999999999997
 21
55.223567
 31
0.0
  0
LINE
  5
2888
330
A
100
AcDbEntity
  8
0
  6
Continuous
 62
     9
100
AcDbLine
 10
83.04000000000002
 20
56.126046
 30
0.0
 11
83.83999999999997
 21
56.126046
 31
0.0
  0
LINE
  5
2889
330
A
100
AcDbEntity
  8
0
  6
Continuous
 62
     7
100
AcDbLine
 10
83.83999999999997
 20
56.126046
 30
0.0
 11
83.83999999999997
 21
55.223567
 31
0.0
  0
LINE
  5
288A
330
A
100
AcDbEntity
  8
0
  6
Continuous
 62
     9
100
AcDbLine
 10
83.83999999999997
 20
-18.478519
 30
0.0
 11
83.04000000000002
 21
-18.478519
 31
0.0
  0
LINE
  5
288B
330
A
100
AcDbEntity
  8
0
  6
Continuous
 62
     7
100
AcDbLine
 10
83.83999999999997
 20
-18.478519
 30
0.0
 11
83.83999999999997
 21
-6.126046000000002
 31
0.0
  0
LINE
  5
288C
330
A
100
AcDbEntity
  8
0
  6
Continuous
 62
     9
100
AcDbLine
 10
83.83999999999997
 20
68.478519
 30
0.0
 11
83.04000000000002
 21
68.478519
 31
0.0
  0
LINE
  5
288D
330
A
100
AcDbEntity
  8
0
  6
Continuous
 62
     7
100
AcDbLine
 10
83.83999999999997
 20
56.126046
 30
0.0
 11
83.83999999999997
 21
68.478519
 31
0.0
  0
LINE
  5
288E
330
A
100
AcDbEntity
  8
0
  6
Continuous
 62
     9
100
AcDbLine
 10
83.04000000000002
 20
-21.18185199999999
 30
0.0
 11
83.83999999999997
 21
-21.18185199999999
 31
0.0
  0
LINE
  5
288F
330
A
100
AcDbEntity
  8
0
  6
Continuous
 62
     7
100
AcDbLine
 10
83.83999999999997
 20
-21.18185199999999
 30
0.0
 11
83.83999999999997
 21
-18.478519
 31
0.0
  0
LINE
  5
2890
330
A
100
AcDbEntity
  8
0
  6
Continuous
 62
     9
100
AcDbLine
 10
83.83999999999997
 20
71.18185199999998
 30
0.0
 11
83.04000000000002
 21
71.18185199999998
 31
0.0
  0
LINE
  5
2891
330
A
100
AcDbEntity
  8
0
  6
Continuous
 62
     7
100
AcDbLine
 10
83.83999999999997
 20
68.478519
 30
0.0
 11
83.83999999999997
 21
71.18185199999998
 31
0.0
  0
LINE
  5
2892
330
A
100
AcDbEntity
  8
0
  6
Continuous
 62
     7
100
AcDbLine
 10
83.83999999999997
 20
-21.25
 30
0.0
 11
83.04000000000002
 21
-21.25
 31
0.0
  0
LINE
  5
2893
330
A
100
AcDbEntity
  8
0
  6
Continuous
 62
     7
100
AcDbLine
 10
83.83999999999997
 20
-21.18185199999999
 30
0.0
 11
83.83999999999997
 21
-21.25
 31
0.0
  0
LINE
  5
2894
330
A
100
AcDbEntity
  8
0
  6
Continuous
 62
     7
100
AcDbLine
 10
83.04000000000002
 20
71.25
 30
0.0
 11
83.83999999999997
 21
71.25
 31
0.0
  0
LINE
  5
2895
330
A
100
AcDbEntity
  8
0
  6
Continuous
 62
     7
100
AcDbLine
 10
83.83999999999997
 20
71.25
 30
0.0
 11
83.83999999999997
 21
71.18185199999998
 31
0.0
  0
LINE
  5
2896
330
A
100
AcDbEntity
  8
0
  6
Continuous
 62
     7
100
AcDbLine
 10
93.63999999999999
 20
-24.0
 30
0.0
 11
93.24
 21
-24.0
 31
0.0
  0
LINE
  5
2897
330
A
100
AcDbEntity
  8
0
  6
Continuous
 62
     7
100
AcDbLine
 10
93.24
 20
-24.0
 30
0.0
 11
93.24
 21
-22.0
 31
0.0
  0
LINE
  5
2898
330
A
100
AcDbEntity
  8
0
  6
Continuous
 62
     9
100
AcDbLine
 10
93.24
 20
-22.0
 30
0.0
 11
93.63999999999999
 21
-22.0
 31
0.0
  0
LINE
  5
2899
330
A
100
AcDbEntity
  8
0
  6
Continuous
 62
     9
100
AcDbLine
 10
93.63999999999999
 20
72.0
 30
0.0
 11
93.24
 21
72.0
 31
0.0
  0
LINE
  5
289A
330
A
100
AcDbEntity
  8
0
  6
Continuous
 62
     7
100
AcDbLine
 10
93.24
 20
-22.0
 30
0.0
 11
93.24
 21
72.0
 31
0.0
  0
LINE
  5
289B
330
A
100
AcDbEntity
  8
0
  6
Continuous
 62
     7
100
AcDbLine
 10
93.24
 20
74.0
 30
0.0
 11
93.63999999999999
 21
74.0
 31
0.0
  0
LINE
  5
289C
330
A
100
AcDbEntity
  8
0
  6
Continuous
 62
     7
100
AcDbLine
 10
93.24
 20
72.0
 30
0.0
 11
93.24
 21
74.0
 31
0.0
  0
LINE
  5
289D
330
A
100
AcDbEntity
  8
0
  6
Continuous
 62
     7
100
AcDbLine
 10
77.04000000000002
 20
-25.0
 30
0.0
 11
83.04000000000002
 21
-25.0
 31
0.0
  0
LINE
  5
289E
330
A
100
AcDbEntity
  8
0
  6
Continuous
 62
     7
100
AcDbLine
 10
77.04000000000002
 20
-25.0
 30
0.0
 11
77.04000000000002
 21
75.0
 31
0.0
  0
LINE
  5
289F
330
A
100
AcDbEntity
  8
0
  6
Continuous
 62
     7
100
AcDbLine
 10
77.04000000000002
 20
75.0
 30
0.0
 11
83.04000000000002
 21
75.0
 31
0.0
  0
LINE
  5
28A0
330
A
100
AcDbEntity
  8
0
  6
Continuous
 62
     7
100
AcDbLine
 10
83.04000000000002
 20
-25.0
 30
0.0
 11
83.04000000000002
 21
75.0
 31
0.0
  0
LINE
  5
28A1
330
A
100
AcDbEntity
  8
0
  6
Continuous
 62
     7
100
AcDbLine
 10
138.01
 20
-26.30000000000001
 30
0.0
 11
127.41
 21
-26.30000000000001
 31
0.0
  0
LINE
  5
28A2
330
A
100
AcDbEntity
  8
0
  6
Continuous
 62
     7
100
AcDbLine
 10
126.7099999999999
 20
-25.6
 30
0.0
 11
138.71
 21
-25.6
 31
0.0
  0
LINE
  5
28A3
330
A
100
AcDbEntity
  8
0
  6
Continuous
 62
     7
100
AcDbLine
 10
138.71
 20
75.59999999999998
 30
0.0
 11
126.7099999999999
 21
75.59999999999998
 31
0.0
  0
LINE
  5
28A4
330
A
100
AcDbEntity
  8
0
  6
Continuous
 62
     7
100
AcDbLine
 10
127.41
 20
76.30000000000003
 30
0.0
 11
138.01
 21
76.30000000000003
 31
0.0
  0
LINE
  5
28A5
330
A
100
AcDbEntity
  8
0
  6
Continuous
 62
     7
100
AcDbLine
 10
139.9599999999999
 20
46.30000000000001
 30
0.0
 11
132.3088649999998
 21
46.30000000000001
 31
0.0
  0
LINE
  5
28A6
330
A
100
AcDbEntity
  8
0
  6
Continuous
 62
     7
100
AcDbLine
 10
132.3088649999998
 20
3.699999999999988
 30
0.0
 11
139.9599999999999
 21
3.699999999999988
 31
0.0
  0
LINE
  5
28A7
330
A
100
AcDbEntity
  8
0
  6
Continuous
 62
     7
100
AcDbLine
 10
84.99
 20
-8.863527000000003
 30
0.0
 11
84.99
 21
8.836473000000012
 31
0.0
  0
LINE
  5
28A8
330
A
100
AcDbEntity
  8
0
  6
Continuous
 62
     7
100
AcDbLine
 10
91.49
 20
-8.863527000000003
 30
0.0
 11
91.49
 21
8.836473000000012
 31
0.0
  0
LINE
  5
28A9
330
A
100
AcDbEntity
  8
0
  6
Continuous
 62
     7
100
AcDbLine
 10
84.99
 20
41.13641899999999
 30
0.0
 11
84.99
 21
58.83641899999999
 31
0.0
  0
LINE
  5
28AA
330
A
100
AcDbEntity
  8
0
  6
Continuous
 62
     7
100
AcDbLine
 10
91.49
 20
41.13641899999999
 30
0.0
 11
91.49
 21
58.83641899999999
 31
0.0
  0
LINE
  5
28AB
330
A
100
AcDbEntity
  8
0
  6
Continuous
 62
     9
100
AcDbLine
 10
84.99
 20
52.5
 30
0.0
 11
84.93999999999997
 21
52.5
 31
0.0
  0
LINE
  5
28AC
330
A
100
AcDbEntity
  8
0
  6
Continuous
 62
     9
100
AcDbLine
 10
84.93999999999997
 20
47.5
 30
0.0
 11
84.99
 21
47.5
 31
0.0
  0
LINE
  5
28AD
330
A
100
AcDbEntity
  8
0
  6
Continuous
 62
     9
100
AcDbLine
 10
84.99
 20
2.5
 30
0.0
 11
84.93999999999997
 21
2.5
 31
0.0
  0
LINE
  5
28AE
330
A
100
AcDbEntity
  8
0
  6
Continuous
 62
     9
100
AcDbLine
 10
84.93999999999997
 20
-2.5
 30
0.0
 11
84.99
 21
-2.5
 31
0.0
  0
LINE
  5
28AF
330
A
100
AcDbEntity
  8
0
  6
Continuous
 62
     7
100
AcDbLine
 10
139.7099999999998
 20
3.199999999999988
 30
0.0
 11
139.7099999999998
 21
3.699999999999988
 31
0.0
  0
LINE
  5
28B0
330
A
100
AcDbEntity
  8
0
  6
Continuous
 62
     7
100
AcDbLine
 10
139.7099999999998
 20
46.30000000000001
 30
0.0
 11
139.7099999999998
 21
46.80000000000001
 31
0.0
  0
LINE
  5
28B1
330
A
100
AcDbEntity
  8
0
  6
Continuous
 62
     7
100
AcDbLine
 10
140.2099999999999
 20
-25.0
 30
0.0
 11
140.2099999999999
 21
3.0
 31
0.0
  0
LINE
  5
28B2
330
A
100
AcDbEntity
  8
0
  6
Continuous
 62
     7
100
AcDbLine
 10
140.2099999999999
 20
47.0
 30
0.0
 11
140.2099999999999
 21
75.0
 31
0.0
  0
LINE
  5
28B3
330
A
100
AcDbEntity
  8
0
  6
Continuous
 62
     7
100
AcDbLine
 10
91.49
 20
-4.900000000000004
 30
0.0
 11
93.24
 21
-4.900000000000004
 31
0.0
  0
LINE
  5
28B4
330
A
100
AcDbEntity
  8
0
  6
Continuous
 62
     7
100
AcDbLine
 10
93.24
 20
4.900000000000004
 30
0.0
 11
91.49
 21
4.900000000000004
 31
0.0
  0
LINE
  5
28B5
330
A
100
AcDbEntity
  8
0
  6
Continuous
 62
     7
100
AcDbLine
 10
91.49
 20
45.09999999999998
 30
0.0
 11
93.24
 21
45.09999999999998
 31
0.0
  0
LINE
  5
28B6
330
A
100
AcDbEntity
  8
0
  6
Continuous
 62
     7
100
AcDbLine
 10
93.24
 20
54.90000000000001
 30
0.0
 11
91.49
 21
54.90000000000001
 31
0.0
  0
LINE
  5
28B7
330
A
100
AcDbEntity
  8
0
  6
Continuous
 62
     7
100
AcDbLine
 10
140.2099999999999
 20
5.0
 30
0.0
 11
140.2099999999999
 21
45.0
 31
0.0
  0
LINE
  5
28B8
330
A
100
AcDbEntity
  8
0
  6
Continuous
 62
     7
100
AcDbLine
 10
136.7099999999997
 20
3.0
 30
0.0
 11
136.7099999999997
 21
3.199999999999988
 31
0.0
  0
LINE
  5
28B9
330
A
100
AcDbEntity
  8
0
  6
Continuous
 62
     7
100
AcDbLine
 10
136.7099999999997
 20
46.80000000000001
 30
0.0
 11
136.7099999999997
 21
47.0
 31
0.0
  0
LINE
  5
28BA
330
A
100
AcDbEntity
  8
0
  6
Continuous
 62
     7
100
AcDbLine
 10
126.7099999999999
 20
-25.6
 30
0.0
 11
127.41
 21
-26.30000000000001
 31
0.0
  0
LINE
  5
28BB
330
A
100
AcDbEntity
  8
0
  6
Continuous
 62
     7
100
AcDbLine
 10
138.01
 20
-26.30000000000001
 30
0.0
 11
138.71
 21
-25.6
 31
0.0
  0
LINE
  5
28BC
330
A
100
AcDbEntity
  8
0
  6
Continuous
 62
     7
100
AcDbLine
 10
138.71
 20
-25.6
 30
0.0
 11
138.71
 21
-25.0
 31
0.0
  0
LINE
  5
28BD
330
A
100
AcDbEntity
  8
0
  6
Continuous
 62
     7
100
AcDbLine
 10
126.7099999999999
 20
-25.0
 30
0.0
 11
126.7099999999999
 21
-25.6
 31
0.0
  0
LINE
  5
28BE
330
A
100
AcDbEntity
  8
0
  6
Continuous
 62
     7
100
AcDbLine
 10
138.71
 20
75.59999999999998
 30
0.0
 11
138.01
 21
76.30000000000003
 31
0.0
  0
LINE
  5
28BF
330
A
100
AcDbEntity
  8
0
  6
Continuous
 62
     7
100
AcDbLine
 10
127.41
 20
76.30000000000003
 30
0.0
 11
126.7099999999999
 21
75.59999999999998
 31
0.0
  0
LINE
  5
28C0
330
A
100
AcDbEntity
  8
0
  6
Continuous
 62
     7
100
AcDbLine
 10
126.7099999999999
 20
75.59999999999998
 30
0.0
 11
126.7099999999999
 21
75.0
 31
0.0
  0
LINE
  5
28C1
330
A
100
AcDbEntity
  8
0
  6
Continuous
 62
     7
100
AcDbLine
 10
138.71
 20
75.0
 30
0.0
 11
138.71
 21
75.59999999999998
 31
0.0
  0
LINE
  5
28C2
330
A
100
AcDbEntity
  8
0
  6
Continuous
 62
     7
100
AcDbLine
 10
84.99
 20
53.0
 30
0.0
 11
84.93999999999997
 21
53.0
 31
0.0
  0
LINE
  5
28C3
330
A
100
AcDbEntity
  8
0
  6
Continuous
 62
     7
100
AcDbLine
 10
84.93999999999997
 20
53.0
 30
0.0
 11
84.935
 21
53.0
 31
0.0
  0
LINE
  5
28C4
330
A
100
AcDbEntity
  8
0
  6
Continuous
 62
     7
100
AcDbLine
 10
84.935
 20
47.0
 30
0.0
 11
84.93999999999997
 21
47.0
 31
0.0
  0
LINE
  5
28C5
330
A
100
AcDbEntity
  8
0
  6
Continuous
 62
     7
100
AcDbLine
 10
84.93999999999997
 20
47.0
 30
0.0
 11
84.99
 21
47.0
 31
0.0
  0
LINE
  5
28C6
330
A
100
AcDbEntity
  8
0
  6
Continuous
 62
     7
100
AcDbLine
 10
84.945
 20
53.0
 30
0.0
 11
84.93999999999997
 21
53.0
 31
0.0
  0
LINE
  5
28C7
330
A
100
AcDbEntity
  8
0
  6
Continuous
 62
     7
100
AcDbLine
 10
84.93999999999997
 20
53.0
 30
0.0
 11
83.83999999999997
 21
53.0
 31
0.0
  0
LINE
  5
28C8
330
A
100
AcDbEntity
  8
0
  6
Continuous
 62
     7
100
AcDbLine
 10
83.83999999999997
 20
47.0
 30
0.0
 11
84.93999999999997
 21
47.0
 31
0.0
  0
LINE
  5
28C9
330
A
100
AcDbEntity
  8
0
  6
Continuous
 62
     7
100
AcDbLine
 10
84.93999999999997
 20
47.0
 30
0.0
 11
84.945
 21
47.0
 31
0.0
  0
LINE
  5
28CA
330
A
100
AcDbEntity
  8
0
  6
Continuous
 62
     7
100
AcDbLine
 10
84.945
 20
3.0
 30
0.0
 11
84.93999999999997
 21
3.0
 31
0.0
  0
LINE
  5
28CB
330
A
100
AcDbEntity
  8
0
  6
Continuous
 62
     7
100
AcDbLine
 10
84.93999999999997
 20
3.0
 30
0.0
 11
83.83999999999997
 21
3.0
 31
0.0
  0
LINE
  5
28CC
330
A
100
AcDbEntity
  8
0
  6
Continuous
 62
     7
100
AcDbLine
 10
83.83999999999997
 20
-3.0
 30
0.0
 11
84.93999999999997
 21
-3.0
 31
0.0
  0
LINE
  5
28CD
330
A
100
AcDbEntity
  8
0
  6
Continuous
 62
     7
100
AcDbLine
 10
84.93999999999997
 20
-3.0
 30
0.0
 11
84.945
 21
-3.0
 31
0.0
  0
LINE
  5
28CE
330
A
100
AcDbEntity
  8
0
  6
Continuous
 62
     7
100
AcDbLine
 10
84.99
 20
3.0
 30
0.0
 11
84.93999999999997
 21
3.0
 31
0.0
  0
LINE
  5
28CF
330
A
100
AcDbEntity
  8
0
  6
Continuous
 62
     7
100
AcDbLine
 10
84.93999999999997
 20
3.0
 30
0.0
 11
84.935
 21
3.0
 31
0.0
  0
LINE
  5
28D0
330
A
100
AcDbEntity
  8
0
  6
Continuous
 62
     7
100
AcDbLine
 10
84.935
 20
-3.0
 30
0.0
 11
84.93999999999997
 21
-3.0
 31
0.0
  0
LINE
  5
28D1
330
A
100
AcDbEntity
  8
0
  6
Continuous
 62
     7
100
AcDbLine
 10
84.93999999999997
 20
-3.0
 30
0.0
 11
84.99
 21
-3.0
 31
0.0
  0
LINE
  5
28D2
330
A
100
AcDbEntity
  8
0
  6
Continuous
 62
     7
100
AcDbLine
 10
139.9599999999999
 20
45.0
 30
0.0
 11
139.9599999999999
 21
46.30000000000001
 31
0.0
  0
LINE
  5
28D3
330
A
100
AcDbEntity
  8
0
  6
Continuous
 62
     7
100
AcDbLine
 10
139.9599999999999
 20
3.699999999999988
 30
0.0
 11
139.9599999999999
 21
5.0
 31
0.0
  0
LINE
  5
28D4
330
A
100
AcDbEntity
  8
0
  6
Continuous
 62
     7
100
AcDbLine
 10
84.99
 20
-8.863527000000003
 30
0.0
 11
91.49
 21
-8.863527000000003
 31
0.0
  0
LINE
  5
28D5
330
A
100
AcDbEntity
  8
0
  6
Continuous
 62
     7
100
AcDbLine
 10
91.49
 20
8.836473000000012
 30
0.0
 11
84.99
 21
8.836473000000012
 31
0.0
  0
LINE
  5
28D6
330
A
100
AcDbEntity
  8
0
  6
Continuous
 62
     7
100
AcDbLine
 10
84.99
 20
41.13641899999999
 30
0.0
 11
91.49
 21
41.13641899999999
 31
0.0
  0
LINE
  5
28D7
330
A
100
AcDbEntity
  8
0
  6
Continuous
 62
     7
100
AcDbLine
 10
91.49
 20
58.83641899999999
 30
0.0
 11
84.99
 21
58.83641899999999
 31
0.0
  0
LINE
  5
28D8
330
A
100
AcDbEntity
  8
0
  6
Continuous
 62
     7
100
AcDbLine
 10
3.000004999999986
 20
-63.81499999999999
 30
0.0
 11
-3.000004999999986
 21
-63.81499999999999
 31
0.0
  0
LINE
  5
28D9
330
A
100
AcDbEntity
  8
0
  6
Continuous
 62
     9
100
AcDbLine
 10
2.5
 20
-63.81499999999999
 30
0.0
 11
-2.5
 21
-63.81499999999999
 31
0.0
  0
ARC
  5
28DA
330
A
100
AcDbEntity
  8
0
  6
Continuous
 62
     7
100
AcDbCircle
 10
33.25
 20
-106.548471
 30
0.0
 40
10.0
100
AcDbArc
 50
329.6098019999995
 51
0.0
  0
LINE
  5
28DB
330
A
100
AcDbEntity
  8
0
  6
Continuous
 62
     7
100
AcDbLine
 10
39.25
 20
-116.0849999999999
 30
0.0
 11
41.87600200000002
 21
-111.607333
 31
0.0
  0
LINE
  5
28DC
330
A
100
AcDbEntity
  8
0
  6
Continuous
 62
     7
100
AcDbLine
 10
38.25
 20
-104.085
 30
0.0
 11
33.25
 21
-104.085
 31
0.0
  0
ARC
  5
28DD
330
A
100
AcDbEntity
  8
0
  6
Continuous
 62
     7
100
AcDbCircle
 10
38.25
 20
-103.085
 30
0.0
 40
1.0
100
AcDbArc
 50
270.0
 51
0.0
  0
LINE
  5
28DE
330
A
100
AcDbEntity
  8
0
  6
Continuous
 62
     7
100
AcDbLine
 10
39.25
 20
-64.08499999999998
 30
0.0
 11
39.25
 21
-103.085
 31
0.0
  0
LINE
  5
28DF
330
A
100
AcDbEntity
  8
0
  6
Continuous
 62
     7
100
AcDbLine
 10
43.25
 20
-64.08499999999998
 30
0.0
 11
39.25
 21
-64.08499999999998
 31
0.0
  0
LINE
  5
28E0
330
A
100
AcDbEntity
  8
0
  6
Continuous
 62
     7
100
AcDbLine
 10
43.25
 20
-106.548471
 30
0.0
 11
43.25
 21
-64.08499999999998
 31
0.0
  0
ARC
  5
28E1
330
A
100
AcDbEntity
  8
0
  6
Continuous
 62
     7
100
AcDbCircle
 10
33.25
 20
-111.585
 30
0.0
 40
7.5
100
AcDbArc
 50
90.0
 51
323.1301019999994
  0
ARC
  5
28E2
330
A
100
AcDbEntity
  8
0
  6
Continuous
 62
     7
100
AcDbCircle
 10
-26.0
 20
-129.515
 30
0.0
 40
51.0
100
AcDbArc
 50
42.69668199999958
 51
90.0
  0
LINE
  5
28E3
330
A
100
AcDbEntity
  8
0
  6
Continuous
 62
     7
100
AcDbLine
 10
-41.0
 20
-78.51499999999999
 30
0.0
 11
-41.0
 21
-72.51499999999999
 31
0.0
  0
ARC
  5
28E4
330
A
100
AcDbEntity
  8
0
  6
Continuous
 62
     7
100
AcDbCircle
 10
70.0
 20
-72.51499999999999
 30
0.0
 40
51.0
100
AcDbArc
 50
180.0
 51
217.9348589999991
  0
ARC
  5
28E5
330
A
100
AcDbEntity
  8
0
  6
Continuous
 62
     7
100
AcDbCircle
 10
34.85000000000002
 20
-112.485
 30
0.0
 40
10.0
100
AcDbArc
 50
120.4922660000011
 51
172.5238499999999
  0
LINE
  5
28E6
330
A
100
AcDbEntity
  8
0
  6
Continuous
 62
     7
100
AcDbLine
 10
24.15403399999997
 20
-111.1838649999999
 30
0.0
 11
24.93500899999998
 21
-111.1838649999999
 31
0.0
  0
ARC
  5
28E7
330
A
100
AcDbEntity
  8
0
  6
Continuous
 62
     7
100
AcDbCircle
 10
-79.872118
 20
-179.220984
 30
0.0
 40
124.3
100
AcDbArc
 50
33.18623500000047
 51
42.69668199999958
  0
LINE
  5
28E8
330
A
100
AcDbEntity
  8
0
  6
Continuous
 62
     7
100
AcDbLine
 10
-41.0
 20
-72.51499999999999
 30
0.0
 11
19.0
 21
-72.51499999999999
 31
0.0
  0
LINE
  5
28E9
330
A
100
AcDbEntity
  8
0
  6
Continuous
 62
     7
100
AcDbLine
 10
-26.0
 20
-78.51499999999999
 30
0.0
 11
-41.0
 21
-78.51499999999999
 31
0.0
  0
ARC
  5
28EA
330
A
100
AcDbEntity
  8
0
  6
Continuous
 62
     7
100
AcDbCircle
 10
33.25
 20
-111.585
 30
0.0
 40
7.5
100
AcDbArc
 50
323.1301019999994
 51
336.089501999999
  0
ARC
  5
28EB
330
A
100
AcDbEntity
  8
0
  6
Continuous
 62
     7
100
AcDbCircle
 10
70.0
 20
-72.51499999999999
 30
0.0
 40
51.0
100
AcDbArc
 50
217.9348589999991
 51
219.0557769999996
  0
ARC
  5
28EC
330
A
100
AcDbEntity
  8
0
  6
Continuous
 62
     7
100
AcDbCircle
 10
-79.872118
 20
-179.220984
 30
0.0
 40
124.3
100
AcDbArc
 50
30.87530399999855
 51
33.18623500000047
  0
LINE
  5
28ED
330
A
100
AcDbEntity
  8
0
  6
Continuous
 62
     9
100
AcDbLine
 10
-0.122681
 20
-62.71499999999996
 30
0.0
 11
-0.122681
 21
-61.91500000000002
 31
0.0
  0
LINE
  5
28EE
330
A
100
AcDbEntity
  8
0
  6
Continuous
 62
     9
100
AcDbLine
 10
0.3949569999999767
 20
-61.91500000000002
 30
0.0
 11
0.3949569999999767
 21
-62.71499999999996
 31
0.0
  0
LINE
  5
28EF
330
A
100
AcDbEntity
  8
0
  6
Continuous
 62
     7
100
AcDbLine
 10
0.3949569999999767
 20
-62.71499999999996
 30
0.0
 11
-0.122681
 21
-62.71499999999996
 31
0.0
  0
LINE
  5
28F0
330
A
100
AcDbEntity
  8
0
  6
Continuous
 62
     9
100
AcDbLine
 10
12.0
 20
-62.71499999999996
 30
0.0
 11
12.0
 21
-61.91500000000002
 31
0.0
  0
LINE
  5
28F1
330
A
100
AcDbEntity
  8
0
  6
Continuous
 62
     7
100
AcDbLine
 10
0.3949569999999767
 20
-62.71499999999996
 30
0.0
 11
12.0
 21
-62.71499999999996
 31
0.0
  0
LINE
  5
28F2
330
A
100
AcDbEntity
  8
0
  6
Continuous
 62
     7
100
AcDbLine
 10
14.0
 20
-61.91500000000002
 30
0.0
 11
14.0
 21
-62.71499999999996
 31
0.0
  0
LINE
  5
28F3
330
A
100
AcDbEntity
  8
0
  6
Continuous
 62
     7
100
AcDbLine
 10
14.0
 20
-62.71499999999996
 30
0.0
 11
12.0
 21
-62.71499999999996
 31
0.0
  0
LINE
  5
28F4
330
A
100
AcDbEntity
  8
0
  6
Continuous
 62
     9
100
AcDbLine
 10
-10.211657
 20
-62.71499999999996
 30
0.0
 11
-10.211657
 21
-61.91500000000002
 31
0.0
  0
LINE
  5
28F5
330
A
100
AcDbEntity
  8
0
  6
Continuous
 62
     7
100
AcDbLine
 10
-10.211657
 20
-62.71499999999996
 30
0.0
 11
-0.122681
 21
-62.71499999999996
 31
0.0
  0
LINE
  5
28F6
330
A
100
AcDbEntity
  8
0
  6
Continuous
 62
     9
100
AcDbLine
 10
-25.4176700000001
 20
-61.91500000000002
 30
0.0
 11
-25.4176700000001
 21
-62.71499999999996
 31
0.0
  0
LINE
  5
28F7
330
A
100
AcDbEntity
  8
0
  6
Continuous
 62
     7
100
AcDbLine
 10
-25.4176700000001
 20
-62.71499999999996
 30
0.0
 11
-10.211657
 21
-62.71499999999996
 31
0.0
  0
LINE
  5
28F8
330
A
100
AcDbEntity
  8
0
  6
Continuous
 62
     7
100
AcDbLine
 10
-25.63286400000004
 20
-62.71499999999996
 30
0.0
 11
-25.63286400000004
 21
-61.91500000000002
 31
0.0
  0
LINE
  5
28F9
330
A
100
AcDbEntity
  8
0
  6
Continuous
 62
     7
100
AcDbLine
 10
-25.4176700000001
 20
-62.71499999999996
 30
0.0
 11
-25.63286400000004
 21
-62.71499999999996
 31
0.0
  0
LINE
  5
28FA
330
A
100
AcDbEntity
  8
0
  6
Continuous
 62
     7
100
AcDbLine
 10
-40.0
 20
-72.51499999999999
 30
0.0
 11
-40.0
 21
-72.115
 31
0.0
  0
LINE
  5
28FB
330
A
100
AcDbEntity
  8
0
  6
Continuous
 62
     7
100
AcDbLine
 10
-40.0
 20
-72.115
 30
0.0
 11
-38.0
 21
-72.115
 31
0.0
  0
LINE
  5
28FC
330
A
100
AcDbEntity
  8
0
  6
Continuous
 62
     9
100
AcDbLine
 10
-38.0
 20
-72.115
 30
0.0
 11
-38.0
 21
-72.51499999999999
 31
0.0
  0
LINE
  5
28FD
330
A
100
AcDbEntity
  8
0
  6
Continuous
 62
     9
100
AcDbLine
 10
16.0
 20
-72.51499999999999
 30
0.0
 11
16.0
 21
-72.115
 31
0.0
  0
LINE
  5
28FE
330
A
100
AcDbEntity
  8
0
  6
Continuous
 62
     7
100
AcDbLine
 10
-38.0
 20
-72.115
 30
0.0
 11
16.0
 21
-72.115
 31
0.0
  0
LINE
  5
28FF
330
A
100
AcDbEntity
  8
0
  6
Continuous
 62
     7
100
AcDbLine
 10
18.0
 20
-72.115
 30
0.0
 11
18.0
 21
-72.51499999999999
 31
0.0
  0
LINE
  5
2900
330
A
100
AcDbEntity
  8
0
  6
Continuous
 62
     7
100
AcDbLine
 10
16.0
 20
-72.115
 30
0.0
 11
18.0
 21
-72.115
 31
0.0
  0
LINE
  5
2901
330
A
100
AcDbEntity
  8
0
  6
Continuous
 62
     7
100
AcDbLine
 10
-41.0
 20
-55.91500000000002
 30
0.0
 11
19.0
 21
-55.91500000000002
 31
0.0
  0
LINE
  5
2902
330
A
100
AcDbEntity
  8
0
  6
Continuous
 62
     7
100
AcDbLine
 10
19.0
 20
-55.91500000000002
 30
0.0
 11
19.0
 21
-61.91500000000002
 31
0.0
  0
LINE
  5
2903
330
A
100
AcDbEntity
  8
0
  6
Continuous
 62
     7
100
AcDbLine
 10
-41.0
 20
-55.91500000000002
 30
0.0
 11
-41.0
 21
-61.91500000000002
 31
0.0
  0
LINE
  5
2904
330
A
100
AcDbEntity
  8
0
  6
Continuous
 62
     7
100
AcDbLine
 10
-41.0
 20
-61.91500000000002
 30
0.0
 11
19.0
 21
-61.91500000000002
 31
0.0
  0
CIRCLE
  5
2905
330
A
100
AcDbEntity
  8
0
  6
Continuous
 62
     7
100
AcDbCircle
 10
33.25
 20
-111.585
 30
0.0
 40
5.299999999999998
  0
CIRCLE
  5
2906
330
A
100
AcDbEntity
  8
0
  6
Continuous
 62
     7
100
AcDbCircle
 10
33.25
 20
-111.585
 30
0.0
 40
6.0
  0
LINE
  5
2907
330
A
100
AcDbEntity
  8
0
  6
Continuous
 62
     7
100
AcDbLine
 10
-10.349939
 20
-63.86500000000001
 30
0.0
 11
7.350060999999982
 21
-63.86500000000001
 31
0.0
  0
LINE
  5
2908
330
A
100
AcDbEntity
  8
0
  6
Continuous
 62
     7
100
AcDbLine
 10
-10.349939
 20
-70.36500000000001
 30
0.0
 11
7.350060999999982
 21
-70.36500000000001
 31
0.0
  0
LINE
  5
2909
330
A
100
AcDbEntity
  8
0
  6
Continuous
 62
     9
100
AcDbLine
 10
2.5
 20
-63.86500000000001
 30
0.0
 11
2.5
 21
-63.81499999999999
 31
0.0
  0
LINE
  5
290A
330
A
100
AcDbEntity
  8
0
  6
Continuous
 62
     9
100
AcDbLine
 10
-2.5
 20
-63.81499999999999
 30
0.0
 11
-2.5
 21
-63.86500000000001
 31
0.0
  0
LINE
  5
290B
330
A
100
AcDbEntity
  8
0
  6
Continuous
 62
     7
100
AcDbLine
 10
-4.899999999999976
 20
-70.36500000000001
 30
0.0
 11
-4.899999999999976
 21
-72.115
 31
0.0
  0
LINE
  5
290C
330
A
100
AcDbEntity
  8
0
  6
Continuous
 62
     7
100
AcDbLine
 10
4.899999999999976
 20
-72.115
 30
0.0
 11
4.899999999999976
 21
-70.36500000000001
 31
0.0
  0
LINE
  5
290D
330
A
100
AcDbEntity
  8
0
  6
Continuous
 62
     7
100
AcDbLine
 10
3.0
 20
-63.86500000000001
 30
0.0
 11
3.0
 21
-63.81499999999999
 31
0.0
  0
LINE
  5
290E
330
A
100
AcDbEntity
  8
0
  6
Continuous
 62
     7
100
AcDbLine
 10
3.0
 20
-63.81499999999999
 30
0.0
 11
3.0
 21
-63.81
 31
0.0
  0
LINE
  5
290F
330
A
100
AcDbEntity
  8
0
  6
Continuous
 62
     7
100
AcDbLine
 10
-3.0
 20
-63.81
 30
0.0
 11
-3.0
 21
-63.86500000000001
 31
0.0
  0
LINE
  5
2910
330
A
100
AcDbEntity
  8
0
  6
Continuous
 62
     7
100
AcDbLine
 10
3.0
 20
-63.81999999999999
 30
0.0
 11
3.0
 21
-63.81499999999999
 31
0.0
  0
LINE
  5
2911
330
A
100
AcDbEntity
  8
0
  6
Continuous
 62
     7
100
AcDbLine
 10
3.0
 20
-63.81499999999999
 30
0.0
 11
3.0
 21
-62.71499999999996
 31
0.0
  0
LINE
  5
2912
330
A
100
AcDbEntity
  8
0
  6
Continuous
 62
     7
100
AcDbLine
 10
-3.0
 20
-62.71499999999996
 30
0.0
 11
-3.0
 21
-63.81999999999999
 31
0.0
  0
LINE
  5
2913
330
A
100
AcDbEntity
  8
0
  6
Continuous
 62
     7
100
AcDbLine
 10
-10.349939
 20
-63.86500000000001
 30
0.0
 11
-10.349939
 21
-70.36500000000001
 31
0.0
  0
LINE
  5
2914
330
A
100
AcDbEntity
  8
0
  6
Continuous
 62
     7
100
AcDbLine
 10
7.350060999999982
 20
-70.36500000000001
 30
0.0
 11
7.350060999999982
 21
-63.86500000000001
 31
0.0
  0
LINE
  5
2915
330
A
100
AcDbEntity
  8
0
  6
Continuous
 62
     7
100
AcDbLine
 10
-3.000004999999986
 20
118.815
 30
0.0
 11
0.0
 21
118.815
 31
0.0
  0
LINE
  5
2916
330
A
100
AcDbEntity
  8
0
  6
Continuous
 62
     7
100
AcDbLine
 10
0.0
 20
118.815
 30
0.0
 11
3.000004999999986
 21
118.815
 31
0.0
  0
LINE
  5
2917
330
A
100
AcDbEntity
  8
0
  6
Continuous
 62
     9
100
AcDbLine
 10
-2.5
 20
118.815
 30
0.0
 11
0.0
 21
118.815
 31
0.0
  0
LINE
  5
2918
330
A
100
AcDbEntity
  8
0
  6
Continuous
 62
     7
100
AcDbLine
 10
43.25
 20
119.085
 30
0.0
 11
39.25
 21
119.085
 31
0.0
  0
LINE
  5
2919
330
A
100
AcDbEntity
  8
0
  6
Continuous
 62
     7
100
AcDbLine
 10
39.25
 20
119.085
 30
0.0
 11
39.25
 21
158.085
 31
0.0
  0
ARC
  5
291A
330
A
100
AcDbEntity
  8
0
  6
Continuous
 62
     7
100
AcDbCircle
 10
38.25
 20
158.085
 30
0.0
 40
1.0
100
AcDbArc
 50
0.0
 51
90.0
  0
LINE
  5
291B
330
A
100
AcDbEntity
  8
0
  6
Continuous
 62
     7
100
AcDbLine
 10
38.25
 20
159.085
 30
0.0
 11
33.25
 21
159.085
 31
0.0
  0
ARC
  5
291C
330
A
100
AcDbEntity
  8
0
  6
Continuous
 62
     7
100
AcDbCircle
 10
33.25
 20
166.585
 30
0.0
 40
7.5
100
AcDbArc
 50
36.86989800000063
 51
270.0
  0
LINE
  5
291D
330
A
100
AcDbEntity
  8
0
  6
Continuous
 62
     7
100
AcDbLine
 10
39.25
 20
171.085
 30
0.0
 11
41.87600200000002
 21
166.607333
 31
0.0
  0
ARC
  5
291E
330
A
100
AcDbEntity
  8
0
  6
Continuous
 62
     7
100
AcDbCircle
 10
33.25
 20
161.548471
 30
0.0
 40
10.0
100
AcDbArc
 50
0.0
 51
30.39019800000051
  0
LINE
  5
291F
330
A
100
AcDbEntity
  8
0
  6
Continuous
 62
     7
100
AcDbLine
 10
43.25
 20
161.548471
 30
0.0
 11
43.25
 21
119.085
 31
0.0
  0
LINE
  5
2920
330
A
100
AcDbEntity
  8
0
  6
Continuous
 62
     7
100
AcDbLine
 10
-41.0
 20
127.515
 30
0.0
 11
19.0
 21
127.515
 31
0.0
  0
LINE
  5
2921
330
A
100
AcDbEntity
  8
0
  6
Continuous
 62
     7
100
AcDbLine
 10
-41.0
 20
133.515
 30
0.0
 11
-41.0
 21
127.515
 31
0.0
  0
LINE
  5
2922
330
A
100
AcDbEntity
  8
0
  6
Continuous
 62
     7
100
AcDbLine
 10
-26.0
 20
133.515
 30
0.0
 11
-41.0
 21
133.515
 31
0.0
  0
ARC
  5
2923
330
A
100
AcDbEntity
  8
0
  6
Continuous
 62
     7
100
AcDbCircle
 10
-26.0
 20
184.515
 30
0.0
 40
51.0
100
AcDbArc
 50
270.0
 51
317.3033180000004
  0
ARC
  5
2924
330
A
100
AcDbEntity
  8
0
  6
Continuous
 62
     7
100
AcDbCircle
 10
-79.872118
 20
234.220984
 30
0.0
 40
124.3
100
AcDbArc
 50
317.3033180000004
 51
326.8137649999995
  0
LINE
  5
2925
330
A
100
AcDbEntity
  8
0
  6
Continuous
 62
     7
100
AcDbLine
 10
24.15403399999997
 20
166.183865
 30
0.0
 11
24.93500899999998
 21
166.183865
 31
0.0
  0
ARC
  5
2926
330
A
100
AcDbEntity
  8
0
  6
Continuous
 62
     7
100
AcDbCircle
 10
34.85000000000002
 20
167.485
 30
0.0
 40
10.0
100
AcDbArc
 50
187.4761500000001
 51
239.5077339999989
  0
ARC
  5
2927
330
A
100
AcDbEntity
  8
0
  6
Continuous
 62
     7
100
AcDbCircle
 10
70.0
 20
127.515
 30
0.0
 40
51.0
100
AcDbArc
 50
142.0651410000009
 51
180.0
  0
ARC
  5
2928
330
A
100
AcDbEntity
  8
0
  6
Continuous
 62
     7
100
AcDbCircle
 10
33.25
 20
166.585
 30
0.0
 40
7.5
100
AcDbArc
 50
23.91049800000102
 51
36.86989800000063
  0
ARC
  5
2929
330
A
100
AcDbEntity
  8
0
  6
Continuous
 62
     7
100
AcDbCircle
 10
-79.872118
 20
234.220984
 30
0.0
 40
124.3
100
AcDbArc
 50
326.8137649999995
 51
329.1246959999999
  0
ARC
  5
292A
330
A
100
AcDbEntity
  8
0
  6
Continuous
 62
     7
100
AcDbCircle
 10
70.0
 20
127.515
 30
0.0
 40
51.0
100
AcDbArc
 50
140.9442230000004
 51
142.0651410000009
  0
LINE
  5
292B
330
A
100
AcDbEntity
  8
0
  6
Continuous
 62
     7
100
AcDbLine
 10
14.0
 20
117.715
 30
0.0
 11
14.0
 21
116.915
 31
0.0
  0
LINE
  5
292C
330
A
100
AcDbEntity
  8
0
  6
Continuous
 62
     9
100
AcDbLine
 10
12.0
 20
116.915
 30
0.0
 11
12.0
 21
117.715
 31
0.0
  0
LINE
  5
292D
330
A
100
AcDbEntity
  8
0
  6
Continuous
 62
     7
100
AcDbLine
 10
12.0
 20
117.715
 30
0.0
 11
14.0
 21
117.715
 31
0.0
  0
LINE
  5
292E
330
A
100
AcDbEntity
  8
0
  6
Continuous
 62
     9
100
AcDbLine
 10
0.3949569999999767
 20
117.715
 30
0.0
 11
0.3949569999999767
 21
116.915
 31
0.0
  0
LINE
  5
292F
330
A
100
AcDbEntity
  8
0
  6
Continuous
 62
     7
100
AcDbLine
 10
12.0
 20
117.715
 30
0.0
 11
0.3949569999999767
 21
117.715
 31
0.0
  0
LINE
  5
2930
330
A
100
AcDbEntity
  8
0
  6
Continuous
 62
     9
100
AcDbLine
 10
-0.122681
 20
116.915
 30
0.0
 11
-0.122681
 21
117.715
 31
0.0
  0
LINE
  5
2931
330
A
100
AcDbEntity
  8
0
  6
Continuous
 62
     7
100
AcDbLine
 10
-0.122681
 20
117.715
 30
0.0
 11
0.3949569999999767
 21
117.715
 31
0.0
  0
LINE
  5
2932
330
A
100
AcDbEntity
  8
0
  6
Continuous
 62
     9
100
AcDbLine
 10
-10.211657
 20
117.715
 30
0.0
 11
-10.211657
 21
116.915
 31
0.0
  0
LINE
  5
2933
330
A
100
AcDbEntity
  8
0
  6
Continuous
 62
     7
100
AcDbLine
 10
-0.122681
 20
117.715
 30
0.0
 11
-10.211657
 21
117.715
 31
0.0
  0
LINE
  5
2934
330
A
100
AcDbEntity
  8
0
  6
Continuous
 62
     9
100
AcDbLine
 10
-25.4176700000001
 20
117.715
 30
0.0
 11
-25.4176700000001
 21
116.915
 31
0.0
  0
LINE
  5
2935
330
A
100
AcDbEntity
  8
0
  6
Continuous
 62
     7
100
AcDbLine
 10
-10.211657
 20
117.715
 30
0.0
 11
-25.4176700000001
 21
117.715
 31
0.0
  0
LINE
  5
2936
330
A
100
AcDbEntity
  8
0
  6
Continuous
 62
     7
100
AcDbLine
 10
-25.63286400000004
 20
116.915
 30
0.0
 11
-25.63286400000004
 21
117.715
 31
0.0
  0
LINE
  5
2937
330
A
100
AcDbEntity
  8
0
  6
Continuous
 62
     7
100
AcDbLine
 10
-25.63286400000004
 20
117.715
 30
0.0
 11
-25.4176700000001
 21
117.715
 31
0.0
  0
LINE
  5
2938
330
A
100
AcDbEntity
  8
0
  6
Continuous
 62
     7
100
AcDbLine
 10
18.0
 20
127.515
 30
0.0
 11
18.0
 21
127.115
 31
0.0
  0
LINE
  5
2939
330
A
100
AcDbEntity
  8
0
  6
Continuous
 62
     9
100
AcDbLine
 10
16.0
 20
127.115
 30
0.0
 11
16.0
 21
127.515
 31
0.0
  0
LINE
  5
293A
330
A
100
AcDbEntity
  8
0
  6
Continuous
 62
     7
100
AcDbLine
 10
18.0
 20
127.115
 30
0.0
 11
16.0
 21
127.115
 31
0.0
  0
LINE
  5
293B
330
A
100
AcDbEntity
  8
0
  6
Continuous
 62
     9
100
AcDbLine
 10
-38.0
 20
127.515
 30
0.0
 11
-38.0
 21
127.115
 31
0.0
  0
LINE
  5
293C
330
A
100
AcDbEntity
  8
0
  6
Continuous
 62
     7
100
AcDbLine
 10
16.0
 20
127.115
 30
0.0
 11
-38.0
 21
127.115
 31
0.0
  0
LINE
  5
293D
330
A
100
AcDbEntity
  8
0
  6
Continuous
 62
     7
100
AcDbLine
 10
-40.0
 20
127.115
 30
0.0
 11
-40.0
 21
127.515
 31
0.0
  0
LINE
  5
293E
330
A
100
AcDbEntity
  8
0
  6
Continuous
 62
     7
100
AcDbLine
 10
-38.0
 20
127.115
 30
0.0
 11
-40.0
 21
127.115
 31
0.0
  0
LINE
  5
293F
330
A
100
AcDbEntity
  8
0
  6
Continuous
 62
     7
100
AcDbLine
 10
19.0
 20
110.915
 30
0.0
 11
19.0
 21
116.915
 31
0.0
  0
LINE
  5
2940
330
A
100
AcDbEntity
  8
0
  6
Continuous
 62
     7
100
AcDbLine
 10
19.0
 20
110.915
 30
0.0
 11
-41.0
 21
110.915
 31
0.0
  0
LINE
  5
2941
330
A
100
AcDbEntity
  8
0
  6
Continuous
 62
     7
100
AcDbLine
 10
-41.0
 20
110.915
 30
0.0
 11
-41.0
 21
116.915
 31
0.0
  0
LINE
  5
2942
330
A
100
AcDbEntity
  8
0
  6
Continuous
 62
     7
100
AcDbLine
 10
19.0
 20
116.915
 30
0.0
 11
-41.0
 21
116.915
 31
0.0
  0
CIRCLE
  5
2943
330
A
100
AcDbEntity
  8
0
  6
Continuous
 62
     7
100
AcDbCircle
 10
33.25
 20
166.585
 30
0.0
 40
5.299999999999998
  0
CIRCLE
  5
2944
330
A
100
AcDbEntity
  8
0
  6
Continuous
 62
     7
100
AcDbCircle
 10
33.25
 20
166.585
 30
0.0
 40
6.0
  0
LINE
  5
2945
330
A
100
AcDbEntity
  8
0
  6
Continuous
 62
     7
100
AcDbLine
 10
7.350060999999982
 20
118.865
 30
0.0
 11
-1.420129000000031
 21
118.865
 31
0.0
  0
LINE
  5
2946
330
A
100
AcDbEntity
  8
0
  6
Continuous
 62
     7
100
AcDbLine
 10
7.350060999999982
 20
125.365
 30
0.0
 11
-1.420129000000031
 21
125.365
 31
0.0
  0
LINE
  5
2947
330
A
100
AcDbEntity
  8
0
  6
Continuous
 62
     7
100
AcDbLine
 10
-1.420129000000031
 20
118.865
 30
0.0
 11
-10.349939
 21
118.865
 31
0.0
  0
LINE
  5
2948
330
A
100
AcDbEntity
  8
0
  6
Continuous
 62
     7
100
AcDbLine
 10
-1.420129000000031
 20
125.365
 30
0.0
 11
-10.349939
 21
125.365
 31
0.0
  0
LINE
  5
2949
330
A
100
AcDbEntity
  8
0
  6
Continuous
 62
     9
100
AcDbLine
 10
-2.5
 20
118.865
 30
0.0
 11
-2.5
 21
118.815
 31
0.0
  0
LINE
  5
294A
330
A
100
AcDbEntity
  8
0
  6
Continuous
 62
     9
100
AcDbLine
 10
2.5
 20
118.815
 30
0.0
 11
2.5
 21
118.865
 31
0.0
  0
LINE
  5
294B
330
A
100
AcDbEntity
  8
0
  6
Continuous
 62
     7
100
AcDbLine
 10
4.899999999999976
 20
125.365
 30
0.0
 11
4.899999999999976
 21
127.115
 31
0.0
  0
LINE
  5
294C
330
A
100
AcDbEntity
  8
0
  6
Continuous
 62
     7
100
AcDbLine
 10
-4.899999999999976
 20
127.115
 30
0.0
 11
-4.899999999999976
 21
125.365
 31
0.0
  0
LINE
  5
294D
330
A
100
AcDbEntity
  8
0
  6
Continuous
 62
     7
100
AcDbLine
 10
-3.0
 20
118.865
 30
0.0
 11
-3.0
 21
118.81
 31
0.0
  0
LINE
  5
294E
330
A
100
AcDbEntity
  8
0
  6
Continuous
 62
     7
100
AcDbLine
 10
3.0
 20
118.81
 30
0.0
 11
3.0
 21
118.815
 31
0.0
  0
LINE
  5
294F
330
A
100
AcDbEntity
  8
0
  6
Continuous
 62
     7
100
AcDbLine
 10
3.0
 20
118.815
 30
0.0
 11
3.0
 21
118.865
 31
0.0
  0
LINE
  5
2950
330
A
100
AcDbEntity
  8
0
  6
Continuous
 62
     7
100
AcDbLine
 10
-3.0
 20
118.82
 30
0.0
 11
-3.0
 21
117.715
 31
0.0
  0
LINE
  5
2951
330
A
100
AcDbEntity
  8
0
  6
Continuous
 62
     7
100
AcDbLine
 10
3.0
 20
117.715
 30
0.0
 11
3.0
 21
118.815
 31
0.0
  0
LINE
  5
2952
330
A
100
AcDbEntity
  8
0
  6
Continuous
 62
     7
100
AcDbLine
 10
3.0
 20
118.815
 30
0.0
 11
3.0
 21
118.82
 31
0.0
  0
LINE
  5
2953
330
A
100
AcDbEntity
  8
0
  6
Continuous
 62
     7
100
AcDbLine
 10
7.350060999999982
 20
118.865
 30
0.0
 11
7.350060999999982
 21
125.365
 31
0.0
  0
LINE
  5
2954
330
A
100
AcDbEntity
  8
0
  6
Continuous
 62
     7
100
AcDbLine
 10
-10.349939
 20
125.365
 30
0.0
 11
-10.349939
 21
118.865
 31
0.0
  0
LINE
  5
2955
330
A
100
AcDbEntity
  8
0
  6
Continuous
 62
     9
100
AcDbLine
 10
25.75
 20
64.49999499999998
 30
0.0
 11
25.90151400000002
 21
63.015299
 31
0.0
  0
LINE
  5
2956
330
A
100
AcDbEntity
  8
0
  6
Continuous
 62
     9
100
AcDbLine
 10
25.90151400000002
 20
63.015299
 30
0.0
 11
25.79471799999999
 21
61.74253799999998
 31
0.0
  0
LINE
  5
2957
330
A
100
AcDbEntity
  8
0
  6
Continuous
 62
     9
100
AcDbLine
 10
25.79471799999999
 20
61.74253799999998
 30
0.0
 11
25.75
 21
61.500005
 31
0.0
  0
LINE
  5
2958
330
A
100
AcDbEntity
  8
0
  6
Continuous
 62
     7
100
AcDbLine
 10
26.25
 20
3.699999999999988
 30
0.0
 11
33.25
 21
3.699999999999988
 31
0.0
  0
LINE
  5
2959
330
A
100
AcDbEntity
  8
0
  6
Continuous
 62
     7
100
AcDbLine
 10
26.25
 20
3.199999999999988
 30
0.0
 11
33.25
 21
3.199999999999988
 31
0.0
  0
LINE
  5
295A
330
A
100
AcDbEntity
  8
0
  6
Continuous
 62
     7
100
AcDbLine
 10
33.25
 20
3.199999999999988
 30
0.0
 11
40.25
 21
3.199999999999988
 31
0.0
  0
LINE
  5
295B
330
A
100
AcDbEntity
  8
0
  6
Continuous
 62
     7
100
AcDbLine
 10
33.25
 20
3.699999999999988
 30
0.0
 11
40.25
 21
3.699999999999988
 31
0.0
  0
LINE
  5
295C
330
A
100
AcDbEntity
  8
0
  6
Continuous
 62
     7
100
AcDbLine
 10
40.25
 20
46.30000000000001
 30
0.0
 11
33.25
 21
46.30000000000001
 31
0.0
  0
LINE
  5
295D
330
A
100
AcDbEntity
  8
0
  6
Continuous
 62
     7
100
AcDbLine
 10
33.25
 20
46.30000000000001
 30
0.0
 11
26.25
 21
46.30000000000001
 31
0.0
  0
LINE
  5
295E
330
A
100
AcDbEntity
  8
0
  6
Continuous
 62
     7
100
AcDbLine
 10
40.25
 20
46.80000000000001
 30
0.0
 11
26.25
 21
46.80000000000001
 31
0.0
  0
LINE
  5
295F
330
A
100
AcDbEntity
  8
0
  6
Continuous
 62
     7
100
AcDbLine
 10
25.75
 20
-25.0
 30
0.0
 11
39.25
 21
-25.0
 31
0.0
  0
LINE
  5
2960
330
A
100
AcDbEntity
  8
0
  6
Continuous
 62
     7
100
AcDbLine
 10
25.75
 20
3.0
 30
0.0
 11
39.25
 21
3.0
 31
0.0
  0
LINE
  5
2961
330
A
100
AcDbEntity
  8
0
  6
Continuous
 62
     7
100
AcDbLine
 10
39.25
 20
-25.0
 30
0.0
 11
39.25
 21
3.0
 31
0.0
  0
LINE
  5
2962
330
A
100
AcDbEntity
  8
0
  6
Continuous
 62
     7
100
AcDbLine
 10
25.75
 20
75.0
 30
0.0
 11
39.25
 21
75.0
 31
0.0
  0
LINE
  5
2963
330
A
100
AcDbEntity
  8
0
  6
Continuous
 62
     7
100
AcDbLine
 10
25.75
 20
61.75
 30
0.0
 11
25.85489999999999
 21
63.0
 31
0.0
  0
LINE
  5
2964
330
A
100
AcDbEntity
  8
0
  6
Continuous
 62
     7
100
AcDbLine
 10
39.25
 20
47.0
 30
0.0
 11
39.25
 21
75.0
 31
0.0
  0
LINE
  5
2965
330
A
100
AcDbEntity
  8
0
  6
Continuous
 62
     7
100
AcDbLine
 10
25.85489999999999
 20
63.0
 30
0.0
 11
25.75
 21
64.25
 31
0.0
  0
LINE
  5
2966
330
A
100
AcDbEntity
  8
0
  6
Continuous
 62
     7
100
AcDbLine
 10
39.25
 20
47.0
 30
0.0
 11
25.75
 21
47.0
 31
0.0
  0
LINE
  5
2967
330
A
100
AcDbEntity
  8
0
  6
Continuous
 62
     9
100
AcDbLine
 10
41.87600200000002
 20
47.0
 30
0.0
 11
41.87600200000002
 21
75.0
 31
0.0
  0
LINE
  5
2968
330
A
100
AcDbEntity
  8
0
  6
Continuous
 62
     7
100
AcDbLine
 10
39.25
 20
75.0
 30
0.0
 11
41.87600200000002
 21
75.0
 31
0.0
  0
LINE
  5
2969
330
A
100
AcDbEntity
  8
0
  6
Continuous
 62
     7
100
AcDbLine
 10
41.87600200000002
 20
47.0
 30
0.0
 11
39.25
 21
47.0
 31
0.0
  0
LINE
  5
296A
330
A
100
AcDbEntity
  8
0
  6
Continuous
 62
     9
100
AcDbLine
 10
41.87600200000002
 20
-25.0
 30
0.0
 11
41.87600200000002
 21
3.0
 31
0.0
  0
LINE
  5
296B
330
A
100
AcDbEntity
  8
0
  6
Continuous
 62
     7
100
AcDbLine
 10
39.25
 20
-25.0
 30
0.0
 11
41.87600200000002
 21
-25.0
 31
0.0
  0
LINE
  5
296C
330
A
100
AcDbEntity
  8
0
  6
Continuous
 62
     7
100
AcDbLine
 10
39.25
 20
3.0
 30
0.0
 11
41.87600200000002
 21
3.0
 31
0.0
  0
LINE
  5
296D
330
A
100
AcDbEntity
  8
0
  6
Continuous
 62
     7
100
AcDbLine
 10
43.25
 20
47.0
 30
0.0
 11
43.25
 21
75.0
 31
0.0
  0
LINE
  5
296E
330
A
100
AcDbEntity
  8
0
  6
Continuous
 62
     7
100
AcDbLine
 10
41.87600200000002
 20
75.0
 30
0.0
 11
43.25
 21
75.0
 31
0.0
  0
LINE
  5
296F
330
A
100
AcDbEntity
  8
0
  6
Continuous
 62
     7
100
AcDbLine
 10
43.25
 20
47.0
 30
0.0
 11
41.87600200000002
 21
47.0
 31
0.0
  0
LINE
  5
2970
330
A
100
AcDbEntity
  8
0
  6
Continuous
 62
     7
100
AcDbLine
 10
43.25
 20
-25.0
 30
0.0
 11
43.25
 21
3.0
 31
0.0
  0
LINE
  5
2971
330
A
100
AcDbEntity
  8
0
  6
Continuous
 62
     7
100
AcDbLine
 10
41.87600200000002
 20
-25.0
 30
0.0
 11
43.25
 21
-25.0
 31
0.0
  0
LINE
  5
2972
330
A
100
AcDbEntity
  8
0
  6
Continuous
 62
     7
100
AcDbLine
 10
41.87600200000002
 20
3.0
 30
0.0
 11
43.25
 21
3.0
 31
0.0
  0
LINE
  5
2973
330
A
100
AcDbEntity
  8
0
  6
Continuous
 62
     7
100
AcDbLine
 10
37.25
 20
3.013392999999978
 30
0.0
 11
38.25
 21
3.013392999999978
 31
0.0
  0
LINE
  5
297B
330
A
100
AcDbEntity
  8
0
  6
Continuous
 62
     9
100
AcDbLine
 10
40.49999999999999
 20
4.5
 30
0.0
 11
43.25
 21
4.5
 31
0.0
  0
LINE
  5
297C
330
A
100
AcDbEntity
  8
0
  6
Continuous
 62
     7
100
AcDbLine
 10
43.25
 20
3.0
 30
0.0
 11
43.25
 21
4.5
 31
0.0
  0
LINE
  5
2984
330
A
100
AcDbEntity
  8
0
  6
Continuous
 62
     7
100
AcDbLine
 10
38.25
 20
46.98660700000002
 30
0.0
 11
37.25
 21
46.98660700000002
 31
0.0
  0
LINE
  5
2985
330
A
100
AcDbEntity
  8
0
  6
Continuous
 62
     9
100
AcDbLine
 10
43.25
 20
45.49999999999999
 30
0.0
 11
40.49999999999999
 21
45.49999999999999
 31
0.0
  0
LINE
  5
2986
330
A
100
AcDbEntity
  8
0
  6
Continuous
 62
     7
100
AcDbLine
 10
43.25
 20
45.49999999999999
 30
0.0
 11
43.25
 21
47.0
 31
0.0
  0
LINE
  5
2987
330
A
100
AcDbEntity
  8
0
  6
Continuous
 62
     7
100
AcDbLine
 10
43.25
 20
4.5
 30
0.0
 11
43.25
 21
45.49999999999999
 31
0.0
  0
LINE
  5
2988
330
A
100
AcDbEntity
  8
0
  6
Continuous
 62
     7
100
AcDbLine
 10
40.75
 20
45.0
 30
0.0
 11
26.81285400000002
 21
45.0
 31
0.0
  0
LINE
  5
2989
330
A
100
AcDbEntity
  8
0
  6
Continuous
 62
     7
100
AcDbLine
 10
26.81285400000002
 20
5.0
 30
0.0
 11
40.75
 21
5.0
 31
0.0
  0
LINE
  5
298B
330
A
100
AcDbEntity
  8
0
  6
Continuous
 62
     7
100
AcDbLine
 10
24.15403399999997
 20
-25.0
 30
0.0
 11
24.15403399999997
 21
5.0
 31
0.0
  0
LINE
  5
298C
330
A
100
AcDbEntity
  8
0
  6
Continuous
 62
     7
100
AcDbLine
 10
11.48264700000003
 20
-25.0
 30
0.0
 11
24.15403399999997
 21
-25.0
 31
0.0
  0
LINE
  5
298E
330
A
100
AcDbEntity
  8
0
  6
Continuous
 62
     7
100
AcDbLine
 10
11.48264700000003
 20
75.0
 30
0.0
 11
24.15403399999997
 21
75.0
 31
0.0
  0
LINE
  5
298F
330
A
100
AcDbEntity
  8
0
  6
Continuous
 62
     7
100
AcDbLine
 10
24.15403399999997
 20
45.0
 30
0.0
 11
24.15403399999997
 21
75.0
 31
0.0
  0
LINE
  5
2990
330
A
100
AcDbEntity
  8
0
  6
Continuous
 62
     7
100
AcDbLine
 10
26.81285400000002
 20
5.0
 30
0.0
 11
24.15403399999997
 21
5.0
 31
0.0
  0
LINE
  5
2991
330
A
100
AcDbEntity
  8
0
  6
Continuous
 62
     7
100
AcDbLine
 10
24.15403399999997
 20
45.0
 30
0.0
 11
26.81285400000002
 21
45.0
 31
0.0
  0
LINE
  5
2992
330
A
100
AcDbEntity
  8
0
  6
Continuous
 62
     7
100
AcDbLine
 10
24.93500899999998
 20
-25.0
 30
0.0
 11
24.93500899999998
 21
5.0
 31
0.0
  0
LINE
  5
2993
330
A
100
AcDbEntity
  8
0
  6
Continuous
 62
     7
100
AcDbLine
 10
24.15403399999997
 20
-25.0
 30
0.0
 11
24.93500899999998
 21
-25.0
 31
0.0
  0
LINE
  5
2994
330
A
100
AcDbEntity
  8
0
  6
Continuous
 62
     7
100
AcDbLine
 10
24.15403399999997
 20
75.0
 30
0.0
 11
24.93500899999998
 21
75.0
 31
0.0
  0
LINE
  5
2995
330
A
100
AcDbEntity
  8
0
  6
Continuous
 62
     7
100
AcDbLine
 10
24.93500899999998
 20
45.0
 30
0.0
 11
24.93500899999998
 21
75.0
 31
0.0
  0
LINE
  5
2996
330
A
100
AcDbEntity
  8
0
  6
Continuous
 62
     7
100
AcDbLine
 10
24.93500899999998
 20
75.0
 30
0.0
 11
25.75
 21
75.0
 31
0.0
  0
LINE
  5
2997
330
A
100
AcDbEntity
  8
0
  6
Continuous
 62
     7
100
AcDbLine
 10
25.75
 20
-25.0
 30
0.0
 11
24.93500899999998
 21
-25.0
 31
0.0
  0
LINE
  5
2999
330
A
100
AcDbEntity
  8
0
  6
Continuous
 62
     7
100
AcDbLine
 10
-26.0
 20
-25.0
 30
0.0
 11
11.48264700000003
 21
-25.0
 31
0.0
  0
LINE
  5
299A
330
A
100
AcDbEntity
  8
0
  6
Continuous
 62
     7
100
AcDbLine
 10
-26.0
 20
75.0
 30
0.0
 11
11.48264700000003
 21
75.0
 31
0.0
  0
LINE
  5
299B
330
A
100
AcDbEntity
  8
0
  6
Continuous
 62
     7
100
AcDbLine
 10
-41.0
 20
75.0
 30
0.0
 11
-41.0
 21
-25.0
 31
0.0
  0
LINE
  5
299C
330
A
100
AcDbEntity
  8
0
  6
Continuous
 62
     7
100
AcDbLine
 10
-26.0
 20
-25.0
 30
0.0
 11
-41.0
 21
-25.0
 31
0.0
  0
LINE
  5
299D
330
A
100
AcDbEntity
  8
0
  6
Continuous
 62
     7
100
AcDbLine
 10
-26.0
 20
75.0
 30
0.0
 11
-41.0
 21
75.0
 31
0.0
  0
LINE
  5
299E
330
A
100
AcDbEntity
  8
0
  6
Continuous
 62
     7
100
AcDbLine
 10
38.55000000000001
 20
-26.30000000000001
 30
0.0
 11
27.94999999999999
 21
-26.30000000000001
 31
0.0
  0
LINE
  5
299F
330
A
100
AcDbEntity
  8
0
  6
Continuous
 62
     7
100
AcDbLine
 10
27.25
 20
-25.6
 30
0.0
 11
39.25
 21
-25.6
 31
0.0
  0
LINE
  5
29A0
330
A
100
AcDbEntity
  8
0
  6
Continuous
 62
     7
100
AcDbLine
 10
27.94999999999999
 20
76.30000000000003
 30
0.0
 11
38.55000000000001
 21
76.30000000000003
 31
0.0
  0
LINE
  5
29A1
330
A
100
AcDbEntity
  8
0
  6
Continuous
 62
     7
100
AcDbLine
 10
39.25
 20
75.59999999999998
 30
0.0
 11
27.25
 21
75.59999999999998
 31
0.0
  0
LINE
  5
29A2
330
A
100
AcDbEntity
  8
0
  6
Continuous
 62
     7
100
AcDbLine
 10
40.49999999999999
 20
46.30000000000001
 30
0.0
 11
39.99936500000001
 21
46.30000000000001
 31
0.0
  0
LINE
  5
29A3
330
A
100
AcDbEntity
  8
0
  6
Continuous
 62
     7
100
AcDbLine
 10
39.99936500000001
 20
46.30000000000001
 30
0.0
 11
26.0
 21
46.30000000000001
 31
0.0
  0
LINE
  5
29A4
330
A
100
AcDbEntity
  8
0
  6
Continuous
 62
     7
100
AcDbLine
 10
26.0
 20
3.699999999999988
 30
0.0
 11
40.49999999999999
 21
3.699999999999988
 31
0.0
  0
LINE
  5
29A5
330
A
100
AcDbEntity
  8
0
  6
Continuous
 62
     7
100
AcDbLine
 10
26.25
 20
3.699999999999988
 30
0.0
 11
26.25
 21
3.199999999999988
 31
0.0
  0
LINE
  5
29A6
330
A
100
AcDbEntity
  8
0
  6
Continuous
 62
     7
100
AcDbLine
 10
40.25
 20
3.199999999999988
 30
0.0
 11
40.25
 21
3.699999999999988
 31
0.0
  0
LINE
  5
29A7
330
A
100
AcDbEntity
  8
0
  6
Continuous
 62
     7
100
AcDbLine
 10
40.25
 20
46.30000000000001
 30
0.0
 11
40.25
 21
46.80000000000001
 31
0.0
  0
LINE
  5
29A8
330
A
100
AcDbEntity
  8
0
  6
Continuous
 62
     7
100
AcDbLine
 10
26.25
 20
46.80000000000001
 30
0.0
 11
26.25
 21
46.30000000000001
 31
0.0
  0
LINE
  5
29A9
330
A
100
AcDbEntity
  8
0
  6
Continuous
 62
     7
100
AcDbLine
 10
25.75
 20
3.0
 30
0.0
 11
25.75
 21
-25.0
 31
0.0
  0
LINE
  5
29AA
330
A
100
AcDbEntity
  8
0
  6
Continuous
 62
     7
100
AcDbLine
 10
25.75
 20
61.500005
 30
0.0
 11
25.75
 21
47.0
 31
0.0
  0
LINE
  5
29AB
330
A
100
AcDbEntity
  8
0
  6
Continuous
 62
     7
100
AcDbLine
 10
25.75
 20
75.0
 30
0.0
 11
25.75
 21
64.49999499999998
 31
0.0
  0
LINE
  5
29AC
330
A
100
AcDbEntity
  8
0
  6
Continuous
 62
     7
100
AcDbLine
 10
40.75
 20
5.0
 30
0.0
 11
40.75
 21
45.0
 31
0.0
  0
LINE
  5
29AD
330
A
100
AcDbEntity
  8
0
  6
Continuous
 62
     7
100
AcDbLine
 10
29.25
 20
47.0
 30
0.0
 11
29.25
 21
46.80000000000001
 31
0.0
  0
LINE
  5
29AE
330
A
100
AcDbEntity
  8
0
  6
Continuous
 62
     7
100
AcDbLine
 10
29.25
 20
3.199999999999988
 30
0.0
 11
29.25
 21
3.0
 31
0.0
  0
LINE
  5
29AF
330
A
100
AcDbEntity
  8
0
  6
Continuous
 62
     7
100
AcDbLine
 10
37.25
 20
3.0
 30
0.0
 11
37.25
 21
3.199999999999988
 31
0.0
  0
LINE
  5
29B0
330
A
100
AcDbEntity
  8
0
  6
Continuous
 62
     7
100
AcDbLine
 10
37.25
 20
46.80000000000001
 30
0.0
 11
37.25
 21
47.0
 31
0.0
  0
LINE
  5
29B1
330
A
100
AcDbEntity
  8
0
  6
Continuous
 62
     7
100
AcDbLine
 10
27.25
 20
-25.6
 30
0.0
 11
27.94999999999999
 21
-26.30000000000001
 31
0.0
  0
LINE
  5
29B2
330
A
100
AcDbEntity
  8
0
  6
Continuous
 62
     7
100
AcDbLine
 10
38.55000000000001
 20
-26.30000000000001
 30
0.0
 11
39.25
 21
-25.6
 31
0.0
  0
LINE
  5
29B3
330
A
100
AcDbEntity
  8
0
  6
Continuous
 62
     7
100
AcDbLine
 10
39.25
 20
-25.6
 30
0.0
 11
39.25
 21
-25.0
 31
0.0
  0
LINE
  5
29B4
330
A
100
AcDbEntity
  8
0
  6
Continuous
 62
     7
100
AcDbLine
 10
27.25
 20
-25.0
 30
0.0
 11
27.25
 21
-25.6
 31
0.0
  0
LINE
  5
29B5
330
A
100
AcDbEntity
  8
0
  6
Continuous
 62
     7
100
AcDbLine
 10
39.25
 20
75.59999999999998
 30
0.0
 11
38.55000000000001
 21
76.30000000000003
 31
0.0
  0
LINE
  5
29B6
330
A
100
AcDbEntity
  8
0
  6
Continuous
 62
     7
100
AcDbLine
 10
27.94999999999999
 20
76.30000000000003
 30
0.0
 11
27.25
 21
75.59999999999998
 31
0.0
  0
LINE
  5
29B7
330
A
100
AcDbEntity
  8
0
  6
Continuous
 62
     7
100
AcDbLine
 10
27.25
 20
75.59999999999998
 30
0.0
 11
27.25
 21
75.0
 31
0.0
  0
LINE
  5
29B8
330
A
100
AcDbEntity
  8
0
  6
Continuous
 62
     7
100
AcDbLine
 10
39.25
 20
75.0
 30
0.0
 11
39.25
 21
75.59999999999998
 31
0.0
  0
LINE
  5
29B9
330
A
100
AcDbEntity
  8
0
  6
Continuous
 62
     7
100
AcDbLine
 10
40.49999999999999
 20
45.0
 30
0.0
 11
40.49999999999999
 21
46.30000000000001
 31
0.0
  0
LINE
  5
29BA
330
A
100
AcDbEntity
  8
0
  6
Continuous
 62
     7
100
AcDbLine
 10
26.0
 20
46.30000000000001
 30
0.0
 11
26.0
 21
45.0
 31
0.0
  0
LINE
  5
29BB
330
A
100
AcDbEntity
  8
0
  6
Continuous
 62
     7
100
AcDbLine
 10
26.0
 20
5.0
 30
0.0
 11
26.0
 21
3.699999999999988
 31
0.0
  0
LINE
  5
29BC
330
A
100
AcDbEntity
  8
0
  6
Continuous
 62
     7
100
AcDbLine
 10
40.49999999999999
 20
3.699999999999988
 30
0.0
 11
40.49999999999999
 21
5.0
 31
0.0
  0
ARC
  5
42AB
330
A
100
AcDbEntity
  8
0
  6
Continuous
 62
     7
100
AcDbCircle
 10
132.0055127248034
 20
-122.6164405654192
 30
0.0
 40
1.233085845947235
100
AcDbArc
 50
258.3189522805036
 51
280.8027449427145
  0
LINE
  5
42AC
330
A
100
AcDbEntity
  8
0
  6
Continuous
 62
     7
100
AcDbLine
 10
132.236628
 20
-123.827674
 30
0.0
 11
132.359468
 21
-123.7932819999999
 31
0.0
  0
LINE
  5
42AD
330
A
100
AcDbEntity
  8
0
  6
Continuous
 62
     7
100
AcDbLine
 10
132.359468
 20
-123.7932819999999
 30
0.0
 11
132.474687
 21
-123.740457
 31
0.0
  0
LINE
  5
42AE
330
A
100
AcDbEntity
  8
0
  6
Continuous
 62
     7
100
AcDbLine
 10
132.474687
 20
-123.740457
 30
0.0
 11
132.5718089999998
 21
-123.673756
 31
0.0
  0
LINE
  5
42AF
330
A
100
AcDbEntity
  8
0
  6
Continuous
 62
     7
100
AcDbLine
 10
132.5718089999998
 20
-123.673756
 30
0.0
 11
132.6551129999999
 21
-123.592054
 31
0.0
  0
LINE
  5
42B0
330
A
100
AcDbEntity
  8
0
  6
Continuous
 62
     7
100
AcDbLine
 10
132.6551129999999
 20
-123.592054
 30
0.0
 11
132.719169
 21
-123.5048950000001
 31
0.0
  0
LINE
  5
42B1
330
A
100
AcDbEntity
  8
0
  6
Continuous
 62
     7
100
AcDbLine
 10
132.719169
 20
-123.5048950000001
 30
0.0
 11
132.775343
 21
-123.399464
 31
0.0
  0
LINE
  5
42B2
330
A
100
AcDbEntity
  8
0
  6
Continuous
 62
     7
100
AcDbLine
 10
132.775343
 20
-123.399464
 30
0.0
 11
132.8176919999998
 21
-123.287801
 31
0.0
  0
LINE
  5
42B3
330
A
100
AcDbEntity
  8
0
  6
Continuous
 62
     7
100
AcDbLine
 10
132.8176919999998
 20
-123.287801
 30
0.0
 11
132.82917
 21
-123.249533
 31
0.0
  0
LINE
  5
42B4
330
A
100
AcDbEntity
  8
0
  6
Continuous
 62
     7
100
AcDbLine
 10
132.308777
 20
61.81614199999998
 30
0.0
 11
132.441504
 21
61.77918
 31
0.0
  0
LINE
  5
42B5
330
A
100
AcDbEntity
  8
0
  6
Continuous
 62
     7
100
AcDbLine
 10
132.441504
 20
61.77918
 30
0.0
 11
132.5627129999998
 21
61.75870800000001
 31
0.0
  0
ARC
  5
42B6
330
A
100
AcDbEntity
  8
0
  6
Continuous
 62
     7
100
AcDbCircle
 10
132.7100010013283
 20
62.99997044755361
 30
0.0
 40
1.249970487268333
100
AcDbArc
 50
263.2329341378353
 51
284.4533401021191
  0
LINE
  5
42B7
330
A
100
AcDbEntity
  8
0
  6
Continuous
 62
     7
100
AcDbLine
 10
133.021983
 20
61.78956000000003
 30
0.0
 11
133.154708
 21
61.831782
 31
0.0
  0
LINE
  5
42B8
330
A
100
AcDbEntity
  8
0
  6
Continuous
 62
     7
100
AcDbLine
 10
133.154708
 20
61.831782
 30
0.0
 11
133.2573279999998
 21
61.87620100000001
 31
0.0
  0
LINE
  5
42B9
330
A
100
AcDbEntity
  8
0
  6
Continuous
 62
     7
100
AcDbLine
 10
133.2573279999998
 20
61.87620100000001
 30
0.0
 11
133.363469
 21
61.93441200000001
 31
0.0
  0
ARC
  5
42BA
330
A
100
AcDbEntity
  8
0
  6
Continuous
 62
     7
100
AcDbCircle
 10
132.7100195893857
 20
62.99997384314091
 30
0.0
 40
1.249967269087363
100
AcDbArc
 50
301.51845793883
 51
322.7463622689523
  0
ARC
  5
42BB
330
A
100
AcDbEntity
  8
0
  6
Continuous
 62
     7
100
AcDbCircle
 10
132.7100033314245
 20
63.0000018743861
 30
0.0
 40
1.249997178455285
100
AcDbArc
 50
322.7457906766169
 51
349.6506781615406
  0
LINE
  5
42BC
330
A
100
AcDbEntity
  8
0
  6
Continuous
 62
     7
100
AcDbLine
 10
133.939664
 20
62.775441
 30
0.0
 11
133.957712
 21
62.92439999999999
 31
0.0
  0
LINE
  5
42BD
330
A
100
AcDbEntity
  8
0
  6
Continuous
 62
     7
100
AcDbLine
 10
133.957712
 20
62.92439999999999
 30
0.0
 11
133.9599999999999
 21
63.0
 31
0.0
  0
LINE
  5
42BE
330
A
100
AcDbEntity
  8
0
  6
Continuous
 62
     7
100
AcDbLine
 10
133.9599999999999
 20
63.0
 30
0.0
 11
133.9542189999998
 21
63.120072
 31
0.0
  0
ARC
  5
42BF
330
A
100
AcDbEntity
  8
0
  6
Continuous
 62
     7
100
AcDbCircle
 10
132.7100010445898
 20
63.00000160362198
 30
0.0
 40
1.24999808825885
100
AcDbArc
 50
5.512128840997766
 51
32.2434028137239
  0
ARC
  5
42C0
330
A
100
AcDbEntity
  8
0
  6
Continuous
 62
     7
100
AcDbCircle
 10
132.7100237281749
 20
63.00001786997508
 30
0.0
 40
1.249970224349405
100
AcDbArc
 50
32.24332691446311
 51
53.50076981795004
  0
LINE
  5
42C1
330
A
100
AcDbEntity
  8
0
  6
Continuous
 62
     7
100
AcDbLine
 10
133.453521
 20
64.00482500000001
 30
0.0
 11
133.335716
 21
64.08211799999998
 31
0.0
  0
LINE
  5
42C2
330
A
100
AcDbEntity
  8
0
  6
Continuous
 62
     7
100
AcDbLine
 10
133.335716
 20
64.08211799999998
 30
0.0
 11
133.2347279999998
 21
64.13452699999999
 31
0.0
  0
LINE
  5
42C3
330
A
100
AcDbEntity
  8
0
  6
Continuous
 62
     7
100
AcDbLine
 10
133.2347279999998
 20
64.13452699999999
 30
0.0
 11
133.1203529999998
 21
64.180725
 31
0.0
  0
ARC
  5
42C4
330
A
100
AcDbEntity
  8
0
  6
Continuous
 62
     7
100
AcDbCircle
 10
132.7100084155585
 20
63.00003052586217
 30
0.0
 40
1.249968847307773
100
AcDbArc
 50
70.83535482383925
 51
92.1952683581112
  0
LINE
  5
42C5
330
A
100
AcDbEntity
  8
0
  6
Continuous
 62
     7
100
AcDbLine
 10
132.662128
 20
64.24908200000002
 30
0.0
 11
132.5227009999998
 21
64.2358870000001
 31
0.0
  0
LINE
  5
42C6
330
A
100
AcDbEntity
  8
0
  6
Continuous
 62
     7
100
AcDbLine
 10
132.5227009999998
 20
64.2358870000001
 30
0.0
 11
132.413
 21
64.2142
 31
0.0
  0
LINE
  5
42C7
330
A
100
AcDbEntity
  8
0
  6
Continuous
 62
     7
100
AcDbLine
 10
132.413
 20
64.2142
 30
0.0
 11
132.308786
 21
64.18386100000001
 31
0.0
  0
LINE
  5
42C8
330
A
100
AcDbEntity
  8
0
  6
Continuous
 62
     7
100
AcDbLine
 10
39.14210200000002
 20
46.80009599999999
 30
0.0
 11
39.05019700000003
 21
46.874652
 31
0.0
  0
LINE
  5
42C9
330
A
100
AcDbEntity
  8
0
  6
Continuous
 62
     7
100
AcDbLine
 10
39.05019700000003
 20
46.874652
 30
0.0
 11
38.948689
 21
46.919569
 31
0.0
  0
LINE
  5
42CA
330
A
100
AcDbEntity
  8
0
  6
Continuous
 62
     7
100
AcDbLine
 10
38.948689
 20
46.919569
 30
0.0
 11
38.83448500000003
 21
46.94878899999998
 31
0.0
  0
ARC
  5
42CB
330
A
100
AcDbEntity
  8
0
  6
Continuous
 62
     7
100
AcDbCircle
 10
38.33348093931039
 20
43.7412449670654
 30
0.0
 40
3.246435551807836
100
AcDbArc
 50
81.12238704100211
 51
91.473503079101
  0
ARC
  5
42CC
330
A
100
AcDbEntity
  8
0
  6
Continuous
 62
     7
100
AcDbCircle
 10
38.30576115527811
 20
6.7103555979115
 30
0.0
 40
3.697383095757681
100
AcDbArc
 50
269.1358753212099
 51
278.1420292346703
  0
LINE
  5
42CD
330
A
100
AcDbEntity
  8
0
  6
Continuous
 62
     7
100
AcDbLine
 10
38.82941199999999
 20
3.050241999999997
 30
0.0
 11
38.95042899999999
 21
3.081012999999984
 31
0.0
  0
LINE
  5
42CE
330
A
100
AcDbEntity
  8
0
  6
Continuous
 62
     7
100
AcDbLine
 10
38.95042899999999
 20
3.081012999999984
 30
0.0
 11
39.05274900000001
 21
3.126847999999995
 31
0.0
  0
LINE
  5
42CF
330
A
100
AcDbEntity
  8
0
  6
Continuous
 62
     7
100
AcDbLine
 10
39.05274900000001
 20
3.126847999999995
 30
0.0
 11
39.142133
 21
3.199939999999998
 31
0.0
  0
TEXT
  5
4408
330
A
100
AcDbEntity
  8
0
  6
Continuous
 62
     7
370
     0
100
AcDbText
 10
80.74339627232786
 20
135.0146412884334
 30
0.0
 40
20.0
  1
8667
100
AcDbText
  0
CIRCLE
  5
4493
330
A
100
AcDbEntity
  8
0
  6
CENTER
 62
     1
100
AcDbCircle
 10
0.0
 20
50.0
 30
0.0
 40
9.0
  0
CIRCLE
  5
4494
330
A
100
AcDbEntity
  8
0
  6
CENTER
 62
     1
100
AcDbCircle
 10
0.0
 20
0.0
 30
0.0
 40
9.0
  0
LINE
  5
4495
330
A
100
AcDbEntity
  8
0
  6
CENTER
 62
     1
100
AcDbLine
 10
-11.19999999999999
 20
50.0
 30
0.0
 11
11.19999999999999
 21
50.0
 31
0.0
  0
LINE
  5
4496
330
A
100
AcDbEntity
  8
0
  6
CENTER
 62
     1
100
AcDbLine
 10
0.0
 20
38.80000000000001
 30
0.0
 11
0.0
 21
61.19999999999999
 31
0.0
  0
LINE
  5
4497
330
A
100
AcDbEntity
  8
0
  6
CENTER
 62
     1
100
AcDbLine
 10
-11.19999999999999
 20
0.0
 30
0.0
 11
11.19999999999999
 21
0.0
 31
0.0
  0
LINE
  5
4498
330
A
100
AcDbEntity
  8
0
  6
CENTER
 62
     1
100
AcDbLine
 10
0.0
 20
-11.19999999999999
 30
0.0
 11
0.0
 21
11.19999999999999
 31
0.0
  0
ENDSEC
  0
SECTION
  2
OBJECTS
  0
DICTIONARY
  5
19
330
0
100
AcDbDictionary
281
     1
  3
ACAD_GROUP
350
1A
  3
ACAD_IMAGE_VARS
350
44C2
  3
ACAD_LAYOUT
350
1E
  3
ACAD_MLINESTYLE
350
1B
  3
ACAD_PLOTSETTINGS
350
22
  3
ACAD_PLOTSTYLENAME
350
1F
  3
ACAD_SCALELIST
350
2312
  3
ACAD_WIPEOUT_VARS
350
23
  3
AcDbVariableDictionary
350
4443
  3
APPDATA
350
44C1
  3
ASE_INDEX_DICTIONARY
350
443E
  3
DWGPROPS
350
44C3
  0
DICTIONARY
  5
4441
330
14
100
AcDbDictionary
280
     1
281
     1
  3
ADSK_XREC_LAYER_RECONCILED
360
4442
  0
DICTIONARY
  5
233E
330
A
100
AcDbDictionary
280
     1
281
     1
  3
ACAD_SORTENTS
360
233F
  0
DICTIONARY
  5
1A
102
{ACAD_REACTORS
330
19
102
}
330
19
100
AcDbDictionary
281
     1
  0
RASTERVARIABLES
  5
44C2
102
{ACAD_REACTORS
330
19
102
}
330
19
100
AcDbRasterVariables
 90
        0
 70
     1
 71
     1
 72
     0
  0
DICTIONARY
  5
1E
102
{ACAD_REACTORS
330
19
102
}
330
19
100
AcDbDictionary
281
     1
  3
Layout1
350
21
  3
Model
350
20
  0
DICTIONARY
  5
1B
102
{ACAD_REACTORS
330
19
102
}
330
19
100
AcDbDictionary
281
     1
  3
Standard
350
1C
  0
DICTIONARY
  5
22
102
{ACAD_REACTORS
330
19
102
}
330
19
100
AcDbDictionary
281
     1
  0
ACDBDICTIONARYWDFLT
  5
1F
102
{ACAD_REACTORS
330
19
102
}
330
19
100
AcDbDictionary
281
     1
  3
Normal
350
1D
100
AcDbDictionaryWithDefault
340
1D
  0
DICTIONARY
  5
2312
102
{ACAD_REACTORS
330
19
102
}
330
19
100
AcDbDictionary
281
     1
  3
A0
350
2313
  3
A1
350
2314
  3
A2
350
2315
  3
A3
350
2316
  3
A4
350
2317
  3
A5
350
2318
  3
A6
350
2319
  3
A7
350
231A
  3
A8
350
231B
  3
A9
350
231C
  3
B0
350
231D
  3
B1
350
231E
  3
B2
350
231F
  3
B3
350
2320
  3
B4
350
2321
  3
B5
350
2322
  3
B6
350
2323
  3
B7
350
2324
  3
B8
350
2325
  3
B9
350
2326
  3
C0
350
2327
  3
C1
350
2328
  3
C2
350
2329
  3
C3
350
232A
  3
C4
350
232B
  3
C5
350
232C
  3
C6
350
232D
  3
C7
350
232E
  3
C8
350
232F
  3
C9
350
2330
  3
D0
350
2331
  3
D1
350
2332
  3
D2
350
2333
  0
WIPEOUTVARIABLES
  5
23
330
19
100
AcDbWipeoutVariables
 70
     1
  0
DICTIONARY
  5
4443
102
{ACAD_REACTORS
330
19
102
}
330
19
100
AcDbDictionary
281
     1
  3
CANNOSCALE
350
44C4
  3
DIMASSOC
350
4449
  3
INDEXCTL
350
4448
  3
SORTENTS
350
4447
  0
DICTIONARY
  5
44C1
102
{ACAD_REACTORS
330
19
102
}
330
19
100
AcDbDictionary
281
     1
  0
DICTIONARY
  5
443E
102
{ACAD_REACTORS
330
19
102
}
330
19
100
AcDbDictionary
281
     1
  3
ASEBlockHierarchyIndexRecord
350
4440
1001
DCO15
1040
1686558972.246
  0
XRECORD
  5
44C3
102
{ACAD_REACTORS
330
19
102
}
330
19
100
AcDbXrecord
280
     1
  1
DWGPROPS COOKIE
  2

  3

  4

  6

  7

  8
renzo.ceresoli
  9

300
=
301
=
302
=
303
=
304
=
305
=
306
=
307
=
308
=
309
=
 40
0.0
 41
2455323.486527315
 42
2456003.62924037
  1

 90
        0
  0
XRECORD
  5
4442
102
{ACAD_REACTORS
330
4441
102
}
330
4441
100
AcDbXrecord
280
     1
290
     1
  0
SORTENTSTABLE
  5
233F
102
{ACAD_REACTORS
330
233E
102
}
330
233E
100
AcDbSortentsTable
330
A
331
1E40
  5
3DEF
331
1E41
  5
3DF0
331
1E42
  5
3DF1
331
1E43
  5
3DF2
331
1E44
  5
3DF3
331
1E45
  5
3DF4
331
1E46
  5
3DF5
331
1E47
  5
3DF6
331
1E48
  5
3DF7
331
1E49
  5
3DF8
331
1E4A
  5
3DF9
331
1E4B
  5
3DFA
331
1E4C
  5
3DFB
331
1E4D
  5
3DFC
331
1E4E
  5
3DFD
331
1E4F
  5
3DFE
331
1E50
  5
3DFF
331
1E51
  5
3E00
331
1E52
  5
3E01
331
1E53
  5
3E02
331
1E54
  5
3E03
331
1E55
  5
3E04
331
1E56
  5
3E05
331
1E57
  5
3E06
331
1E58
  5
3E07
331
1E59
  5
3E08
331
1E5A
  5
3E09
331
1E5B
  5
3E0A
331
1E5C
  5
3E0B
331
1E5D
  5
3E0C
331
1E5E
  5
3E0D
331
1E5F
  5
3E0E
331
1E60
  5
3E0F
331
1E61
  5
3E10
331
271D
  5
3D2B
331
271E
  5
3D2C
331
271F
  5
3D2D
331
2720
  5
3D2E
331
2721
  5
3D2F
331
2722
  5
3D30
331
2723
  5
3D31
331
2724
  5
3D32
331
2725
  5
3D33
331
2726
  5
3D34
331
2727
  5
3D35
331
2728
  5
3D36
331
2729
  5
3D37
331
272A
  5
3D38
331
272B
  5
3D39
331
272C
  5
3D3A
331
272D
  5
3D3B
331
272E
  5
3D3C
331
272F
  5
3D3D
331
2730
  5
3D3E
331
2731
  5
3D3F
331
2732
  5
3D40
331
2733
  5
3D41
331
2734
  5
3D42
331
2735
  5
3D43
331
2736
  5
3D44
331
2737
  5
3D45
331
2738
  5
3D46
331
2739
  5
3D47
331
273A
  5
3D48
331
273B
  5
3D49
331
273C
  5
3D4A
331
273D
  5
3D4B
331
273E
  5
3D4C
331
273F
  5
3D4D
331
2740
  5
3D4E
331
2741
  5
3D4F
331
2742
  5
3D50
331
2743
  5
3D51
331
2744
  5
3D52
331
2745
  5
3D53
331
2746
  5
3D54
331
2747
  5
3D55
331
2748
  5
3D56
331
2749
  5
3D57
331
274A
  5
3D58
331
274B
  5
3D59
331
2758
  5
3D5B
331
2759
  5
3D5C
331
275A
  5
3D5D
331
275B
  5
3D5E
331
275C
  5
3D5F
331
275D
  5
3D60
331
275E
  5
3D61
331
275F
  5
3D62
331
2760
  5
3D63
331
2761
  5
3D64
331
2762
  5
3D65
331
2764
  5
3D67
331
2765
  5
3D68
331
2766
  5
3D69
331
2767
  5
3D6A
331
2768
  5
3D6B
331
2769
  5
3D6C
331
276A
  5
3D6D
331
276B
  5
3D6E
331
276C
  5
3D6F
331
276D
  5
3D70
331
276E
  5
3D71
331
276F
  5
3D72
331
2770
  5
3D73
331
2771
  5
3D74
331
2772
  5
3D75
331
2773
  5
3D89
331
2774
  5
3D8A
331
2775
  5
3D8B
331
2777
  5
3D8D
331
2778
  5
3D8E
331
2779
  5
3D8F
331
277A
  5
3DA3
331
277B
  5
3DA4
331
277C
  5
3DA5
331
277D
  5
3DA6
331
277E
  5
3DA7
331
277F
  5
3DA8
331
2780
  5
3DA9
331
2781
  5
3DAA
331
2782
  5
3DAB
331
2783
  5
3DAC
331
2784
  5
3DAD
331
2785
  5
3DAE
331
2786
  5
3DAF
331
2787
  5
3DB0
331
2788
  5
3DB1
331
2789
  5
3DB2
331
278A
  5
3DB3
331
278B
  5
3DB4
331
278C
  5
3DB5
331
278D
  5
3DB6
331
278E
  5
3DB7
331
278F
  5
3DB8
331
2790
  5
3DB9
331
2791
  5
3DBA
331
2792
  5
3DBB
331
2793
  5
3DBC
331
2794
  5
3DBD
331
2795
  5
3DBE
331
2796
  5
3DBF
331
2797
  5
3DC0
331
2798
  5
3DC1
331
2799
  5
3DC2
331
279A
  5
3DC3
331
279B
  5
3DC4
331
279C
  5
3DC5
331
279D
  5
3DC6
331
279E
  5
3DC7
331
279F
  5
3DC8
331
27A0
  5
3DC9
331
27A1
  5
3DCA
331
27A2
  5
3DCB
331
27A3
  5
3DCC
331
27A4
  5
3DCD
331
27A5
  5
3DCE
331
27A6
  5
3DCF
331
27A7
  5
3DD0
331
27A8
  5
3DD1
331
27A9
  5
3DD2
331
27AA
  5
3DD3
331
27AB
  5
3DD4
331
27AC
  5
3DD5
331
27AD
  5
3DD6
331
27AE
  5
3DD7
331
27AF
  5
3DD8
331
27B0
  5
3DD9
331
27B1
  5
3DDA
331
27B2
  5
3DDB
331
27B3
  5
3DDC
331
27B4
  5
3DDD
331
27B5
  5
3DDE
331
27B6
  5
3DDF
331
27B7
  5
3DE0
331
27B8
  5
3DE1
331
27B9
  5
3DE2
331
27BA
  5
3DE3
331
27BB
  5
3DE4
331
27BC
  5
3DE5
331
27BD
  5
3DE6
331
27BE
  5
3DE7
331
27BF
  5
3CAE
331
27C0
  5
3CAF
331
27C1
  5
3CB0
331
27C2
  5
3CB1
331
27C3
  5
3CB2
331
27C4
  5
3CB3
331
27C5
  5
3CB4
331
27C6
  5
3CB5
331
27C7
  5
3CB6
331
27C8
  5
3CB7
331
27C9
  5
3CB8
331
27CA
  5
3CB9
331
27CB
  5
3CBA
331
27CC
  5
3CBB
331
27CD
  5
3CBC
331
27CE
  5
3CBD
331
27CF
  5
3CBE
331
27D0
  5
3CBF
331
27D1
  5
3CC0
331
27D2
  5
3CC1
331
27D3
  5
3CC2
331
27D4
  5
3CC3
331
27D5
  5
3CC4
331
27D6
  5
3CC5
331
27D7
  5
3CC6
331
27D8
  5
3CC7
331
27D9
  5
3CC8
331
27DA
  5
3CC9
331
27DB
  5
3CCA
331
27DC
  5
3CCB
331
27DD
  5
3CCC
331
27DE
  5
3CCD
331
27DF
  5
3CCE
331
27E0
  5
3CCF
331
27E1
  5
3CD0
331
27E2
  5
3CD1
331
27E3
  5
3CD2
331
27E4
  5
3CD3
331
27E5
  5
3CD4
331
27E6
  5
3CD5
331
27E7
  5
3CD6
331
27E8
  5
3CD7
331
27E9
  5
3CD8
331
27EA
  5
3CD9
331
27EB
  5
3CDA
331
27EC
  5
3CDB
331
27ED
  5
3CDC
331
27EE
  5
3CDD
331
27EF
  5
3CDE
331
27F0
  5
3CDF
331
27F1
  5
3CE0
331
27F2
  5
3CE1
331
27F3
  5
3CE2
331
27F4
  5
3CE3
331
27F5
  5
3CE4
331
27F6
  5
3CE5
331
27F7
  5
3CE6
331
27F8
  5
3CE7
331
27F9
  5
3CE8
331
27FA
  5
3CE9
331
27FB
  5
3CEA
331
27FC
  5
3CEB
331
27FD
  5
3CEC
331
27FE
  5
3CED
331
27FF
  5
3CEE
331
2800
  5
3CEF
331
2801
  5
3CF0
331
2802
  5
3CF1
331
2803
  5
3CF2
331
2804
  5
3CF3
331
2805
  5
3CF4
331
2806
  5
3CF5
331
2807
  5
3CF6
331
2808
  5
3CF7
331
2809
  5
3CF8
331
280A
  5
3CF9
331
280B
  5
3CFA
331
280C
  5
3CFB
331
280D
  5
3CFC
331
280E
  5
3CFD
331
280F
  5
3CFE
331
2810
  5
3CFF
331
2811
  5
3D00
331
2812
  5
3D01
331
2813
  5
3D02
331
2814
  5
3D03
331
2815
  5
3D04
331
2816
  5
3D05
331
2817
  5
3D06
331
2818
  5
3D07
331
2819
  5
3D08
331
281A
  5
3D09
331
281B
  5
3D0A
331
281C
  5
3D0B
331
281D
  5
3D0C
331
281E
  5
3D0D
331
281F
  5
3D0E
331
2820
  5
3D0F
331
2821
  5
3D10
331
2822
  5
3D11
331
2823
  5
3D12
331
2824
  5
3D13
331
2825
  5
3D14
331
2826
  5
3D15
331
2827
  5
3D16
331
2828
  5
3D17
331
2829
  5
3D18
331
282A
  5
3D19
331
282B
  5
3D1A
331
282C
  5
3D1B
331
282D
  5
3D1C
331
282E
  5
3D1D
331
282F
  5
3D1E
331
2830
  5
3D1F
331
2831
  5
3D20
331
2832
  5
3D21
331
2833
  5
3D22
331
2834
  5
3D23
331
2835
  5
3D24
331
2836
  5
3D25
331
2837
  5
3D26
331
2838
  5
3D27
331
2839
  5
3D28
331
283A
  5
3D29
331
283B
  5
3D2A
331
283C
  5
3C2A
331
283D
  5
3C2B
331
283E
  5
3C2C
331
283F
  5
3C2D
331
2840
  5
3C2E
331
2841
  5
3C2F
331
2842
  5
3C30
331
2843
  5
3C31
331
2844
  5
3C32
331
2845
  5
3C33
331
2846
  5
3C34
331
2847
  5
3C35
331
2848
  5
3C36
331
2849
  5
3C37
331
284A
  5
3C38
331
284B
  5
3C39
331
284C
  5
3C3A
331
284D
  5
3C3B
331
2868
  5
3C3E
331
2869
  5
3C3F
331
286A
  5
3C40
331
286B
  5
3C41
331
286C
  5
3C42
331
286D
  5
3C43
331
286E
  5
3C44
331
286F
  5
3C45
331
2870
  5
3C46
331
2871
  5
3C47
331
2872
  5
3C48
331
2873
  5
3C49
331
2874
  5
3C4A
331
2875
  5
3C4B
331
2876
  5
3C4C
331
2878
  5
3C4E
331
2879
  5
3C4F
331
287B
  5
3C51
331
287C
  5
3C52
331
287D
  5
3C53
331
287E
  5
3C54
331
287F
  5
3C55
331
2880
  5
3C56
331
2881
  5
3C57
331
2882
  5
3C58
331
2883
  5
3C59
331
2884
  5
3C5A
331
2885
  5
3C5B
331
2886
  5
3C5C
331
2887
  5
3C5D
331
2888
  5
3C5E
331
2889
  5
3C5F
331
288A
  5
3C60
331
288B
  5
3C61
331
288C
  5
3C62
331
288D
  5
3C63
331
288E
  5
3C64
331
288F
  5
3C65
331
2890
  5
3C66
331
2891
  5
3C67
331
2892
  5
3C68
331
2893
  5
3C69
331
2894
  5
3C6A
331
2895
  5
3C6B
331
2896
  5
3C6C
331
2897
  5
3C6D
331
2898
  5
3C6E
331
2899
  5
3C6F
331
289A
  5
3C70
331
289B
  5
3C71
331
289C
  5
3C72
331
289D
  5
3C73
331
289E
  5
3C74
331
289F
  5
3C75
331
28A0
  5
3C76
331
28A1
  5
3C77
331
28A2
  5
3C78
331
28A3
  5
3C79
331
28A4
  5
3C7A
331
28A5
  5
3C7B
331
28A6
  5
3C7C
331
28A7
  5
3C7D
331
28A8
  5
3C7E
331
28A9
  5
3C7F
331
28AA
  5
3C80
331
28AB
  5
3C81
331
28AC
  5
3C82
331
28AD
  5
3C83
331
28AE
  5
3C84
331
28AF
  5
3C85
331
28B0
  5
3C86
331
28B1
  5
3C87
331
28B2
  5
3C88
331
28B3
  5
3C89
331
28B4
  5
3C8A
331
28B5
  5
3C8B
331
28B6
  5
3C8C
331
28B7
  5
3C8D
331
28B8
  5
3C8E
331
28B9
  5
3C8F
331
28BA
  5
3C90
331
28BB
  5
3C91
331
28BC
  5
3C92
331
28BD
  5
3C93
331
28BE
  5
3C94
331
28BF
  5
3C95
331
28C0
  5
3C96
331
28C1
  5
3C97
331
28C2
  5
3C98
331
28C3
  5
3C99
331
28C4
  5
3C9A
331
28C5
  5
3C9B
331
28C6
  5
3C9C
331
28C7
  5
3C9D
331
28C8
  5
3C9E
331
28C9
  5
3C9F
331
28CA
  5
3CA0
331
28CB
  5
3CA1
331
28CC
  5
3CA2
331
28CD
  5
3CA3
331
28CE
  5
3CA4
331
28CF
  5
3CA5
331
28D0
  5
3CA6
331
28D1
  5
3CA7
331
28D2
  5
3CA8
331
28D3
  5
3CA9
331
28D4
  5
3CAA
331
28D5
  5
3CAB
331
28D6
  5
3CAC
331
28D7
  5
3CAD
331
28D8
  5
3BCB
331
28D9
  5
3BCC
331
28DA
  5
3BCD
331
28DB
  5
3BCE
331
28DC
  5
3BCF
331
28DD
  5
3BD0
331
28DE
  5
3BD1
331
28DF
  5
3BD2
331
28E0
  5
3BD3
331
28E1
  5
3BD4
331
28E2
  5
3BD5
331
28E3
  5
3BD6
331
28E4
  5
3BD7
331
28E5
  5
3BD8
331
28E6
  5
3BD9
331
28E7
  5
3BDA
331
28E8
  5
3BDB
331
28E9
  5
3BDC
331
28EA
  5
3BDD
331
28EB
  5
3BDE
331
28EC
  5
3BDF
331
28ED
  5
3BE0
331
28EE
  5
3BE1
331
28EF
  5
3BE2
331
28F0
  5
3BE3
331
28F1
  5
3BE4
331
28F2
  5
3BE5
331
28F3
  5
3BE6
331
28F4
  5
3BE7
331
28F5
  5
3BF9
331
28F6
  5
3BFA
331
28F7
  5
3BFB
331
28F8
  5
3BFC
331
28F9
  5
3BFD
331
28FA
  5
3BFE
331
28FB
  5
3C10
331
28FC
  5
3C11
331
28FD
  5
3C12
331
28FE
  5
3C13
331
28FF
  5
3C14
331
2900
  5
3C15
331
2901
  5
3C16
331
2902
  5
3C17
331
2903
  5
3C18
331
2904
  5
3C19
331
2905
  5
3C1A
331
2906
  5
3C1B
331
2907
  5
3C1C
331
2908
  5
3C1D
331
2909
  5
3C1E
331
290A
  5
3C1F
331
290B
  5
3C20
331
290C
  5
3C21
331
290D
  5
3C22
331
290E
  5
3C23
331
290F
  5
3C24
331
2910
  5
3C25
331
2911
  5
3C26
331
2912
  5
3C27
331
2913
  5
3C28
331
2914
  5
3C29
331
2915
  5
3B8B
331
2916
  5
3B8C
331
2917
  5
3B8D
331
2918
  5
3B8E
331
2919
  5
3B8F
331
291A
  5
3B90
331
291B
  5
3B91
331
291C
  5
3B92
331
291D
  5
3B93
331
291E
  5
3B94
331
291F
  5
3B95
331
2920
  5
3B96
331
2921
  5
3B97
331
2922
  5
3B98
331
2923
  5
3B99
331
2924
  5
3B9A
331
2925
  5
3B9B
331
2926
  5
3B9C
331
2927
  5
3B9D
331
2928
  5
3B9E
331
2929
  5
3B9F
331
292A
  5
3BA0
331
292B
  5
3BA1
331
292C
  5
3BA2
331
292D
  5
3BA3
331
292E
  5
3BA4
331
292F
  5
3BA5
331
2930
  5
3BA6
331
2931
  5
3BA7
331
2932
  5
3BA8
331
2933
  5
3BA9
331
2934
  5
3BAA
331
2935
  5
3BAB
331
2936
  5
3BAC
331
2937
  5
3BAD
331
2938
  5
3BAE
331
2939
  5
3BAF
331
293A
  5
3BB0
331
293B
  5
3BB1
331
293C
  5
3BB2
331
293D
  5
3BB3
331
293E
  5
3BB4
331
293F
  5
3BB5
331
2940
  5
3BB6
331
2941
  5
3BB7
331
2942
  5
3BB8
331
2943
  5
3BB9
331
2944
  5
3BBA
331
2945
  5
3BBB
331
2946
  5
3BBC
331
2947
  5
3BBD
331
2948
  5
3BBE
331
2949
  5
3BBF
331
294A
  5
3BC0
331
294B
  5
3BC1
331
294C
  5
3BC2
331
294D
  5
3BC3
331
294E
  5
3BC4
331
294F
  5
3BC5
331
2950
  5
3BC6
331
2951
  5
3BC7
331
2952
  5
3BC8
331
2953
  5
3BC9
331
2954
  5
3BCA
331
2955
  5
3B2F
331
2956
  5
3B30
331
2957
  5
3B31
331
2958
  5
3B32
331
2959
  5
3B33
331
295A
  5
3B34
331
295B
  5
3B35
331
295C
  5
3B36
331
295D
  5
3B37
331
295E
  5
3B38
331
295F
  5
3B39
331
2960
  5
3B3A
331
2961
  5
3B3B
331
2962
  5
3B3C
331
2963
  5
3B3D
331
2964
  5
3B3E
331
2965
  5
3B3F
331
2966
  5
3B40
331
2967
  5
3B41
331
2968
  5
3B42
331
2969
  5
3B43
331
296A
  5
3B44
331
296B
  5
3B45
331
296C
  5
3B46
331
296D
  5
3B47
331
296E
  5
3B48
331
296F
  5
3B49
331
2970
  5
3B4A
331
2971
  5
3B4B
331
2972
  5
3B4C
331
2973
  5
3B4D
331
297B
  5
3B4F
331
297C
  5
3B50
331
2984
  5
3B52
331
2985
  5
3B53
331
2986
  5
3B54
331
2987
  5
3B55
331
2988
  5
3B56
331
2989
  5
3B57
331
298B
  5
3B59
331
298C
  5
3B5A
331
298E
  5
3B5C
331
298F
  5
3B5D
331
2990
  5
3B5E
331
2991
  5
3B5F
331
2992
  5
3B60
331
2993
  5
3B61
331
2994
  5
3B62
331
2995
  5
3B63
331
2996
  5
3B64
331
2997
  5
3B65
331
2999
  5
3B67
331
299A
  5
3B68
331
299B
  5
3B69
331
299C
  5
3B6A
331
299D
  5
3B6B
331
299E
  5
3B6C
331
299F
  5
3B6D
331
29A0
  5
3B6E
331
29A1
  5
3B6F
331
29A2
  5
3B70
331
29A3
  5
3B71
331
29A4
  5
3B72
331
29A5
  5
3B73
331
29A6
  5
3B74
331
29A7
  5
3B75
331
29A8
  5
3B76
331
29A9
  5
3B77
331
29AA
  5
3B78
331
29AB
  5
3B79
331
29AC
  5
3B7A
331
29AD
  5
3B7B
331
29AE
  5
3B7C
331
29AF
  5
3B7D
331
29B0
  5
3B7E
331
29B1
  5
3B7F
331
29B2
  5
3B80
331
29B3
  5
3B81
331
29B4
  5
3B82
331
29B5
  5
3B83
331
29B6
  5
3B84
331
29B7
  5
3B85
331
29B8
  5
3B86
331
29B9
  5
3B87
331
29BA
  5
3B88
331
29BB
  5
3B89
331
29BC
  5
3B8A
  0
LAYOUT
  5
21
102
{ACAD_REACTORS
330
1E
102
}
330
1E
100
AcDbPlotSettings
  1

  2

  4

  6

 40
0.0
 41
0.0
 42
0.0
 43
0.0
 44
0.0
 45
0.0
 46
0.0
 47
0.0
 48
0.0
 49
0.0
140
0.0
141
0.0
142
1.0
143
1.0
 70
     0
 72
     0
 73
     0
 74
     0
  7

 75
     0
147
1.0
148
0.0
149
0.0
100
AcDbLayout
  1
Layout1
 70
     0
 71
     1
 10
0.0
 20
0.0
 11
12.0
 21
9.0
 12
0.0
 22
0.0
 32
0.0
 14
1.000000000000000E+20
 24
1.000000000000000E+20
 34
1.000000000000000E+20
 15
-1.000000000000000E+20
 25
-1.000000000000000E+20
 35
-1.000000000000000E+20
146
0.0
 13
0.0
 23
0.0
 33
0.0
 16
1.0
 26
0.0
 36
0.0
 17
0.0
 27
1.0
 37
0.0
 76
     0
330
B
  0
LAYOUT
  5
20
102
{ACAD_REACTORS
330
1E
102
}
330
1E
100
AcDbPlotSettings
  1

  2

  4

  6

 40
0.0
 41
0.0
 42
0.0
 43
0.0
 44
0.0
 45
0.0
 46
0.0
 47
0.0
 48
0.0
 49
0.0
140
0.0
141
0.0
142
1.0
143
1.0
 70
  1024
 72
     0
 73
     0
 74
     0
  7

 75
     0
147
1.0
148
0.0
149
0.0
100
AcDbLayout
  1
Model
 70
     0
 71
     0
 10
0.0
 20
0.0
 11
0.0
 21
0.0
 12
0.0
 22
0.0
 32
0.0
 14
0.0
 24
0.0
 34
0.0
 15
0.0
 25
0.0
 35
0.0
146
0.0
 13
0.0
 23
0.0
 33
0.0
 16
0.0
 26
0.0
 36
0.0
 17
0.0
 27
0.0
 37
0.0
 76
     0
330
A
331
15
  0
MLINESTYLE
  5
1C
102
{ACAD_REACTORS
330
1B
102
}
330
1B
100
AcDbMlineStyle
  2
STANDARD
 70
     0
  3

 62
     0
 51
90.0
 52
90.0
 71
     2
 49
0.5
 62
   256
  6
BYLAYER
 49
-0.5
 62
   256
  6
BYLAYER
  0
ACDBPLACEHOLDER
  5
1D
102
{ACAD_REACTORS
330
1F
102
}
330
1F
  0
SCALE
  5
2313
102
{ACAD_REACTORS
330
2312
102
}
330
2312
100
AcDbScale
 70
     0
300
1:1
140
1.0
141
1.0
290
     1
  0
SCALE
  5
2314
102
{ACAD_REACTORS
330
2312
102
}
330
2312
100
AcDbScale
 70
     0
300
1:2
140
1.0
141
2.0
290
     0
  0
SCALE
  5
2315
102
{ACAD_REACTORS
330
2312
102
}
330
2312
100
AcDbScale
 70
     0
300
1:4
140
1.0
141
4.0
290
     0
  0
SCALE
  5
2316
102
{ACAD_REACTORS
330
2312
102
}
330
2312
100
AcDbScale
 70
     0
300
1:5
140
1.0
141
5.0
290
     0
  0
SCALE
  5
2317
102
{ACAD_REACTORS
330
2312
102
}
330
2312
100
AcDbScale
 70
     0
300
1:8
140
1.0
141
8.0
290
     0
  0
SCALE
  5
2318
102
{ACAD_REACTORS
330
2312
102
}
330
2312
100
AcDbScale
 70
     0
300
1:10
140
1.0
141
10.0
290
     0
  0
SCALE
  5
2319
102
{ACAD_REACTORS
330
2312
102
}
330
2312
100
AcDbScale
 70
     0
300
1:16
140
1.0
141
16.0
290
     0
  0
SCALE
  5
231A
102
{ACAD_REACTORS
330
2312
102
}
330
2312
100
AcDbScale
 70
     0
300
1:20
140
1.0
141
20.0
290
     0
  0
SCALE
  5
231B
102
{ACAD_REACTORS
330
2312
102
}
330
2312
100
AcDbScale
 70
     0
300
1:30
140
1.0
141
30.0
290
     0
  0
SCALE
  5
231C
102
{ACAD_REACTORS
330
2312
102
}
330
2312
100
AcDbScale
 70
     0
300
1:40
140
1.0
141
40.0
290
     0
  0
SCALE
  5
231D
102
{ACAD_REACTORS
330
2312
102
}
330
2312
100
AcDbScale
 70
     0
300
1:50
140
1.0
141
50.0
290
     0
  0
SCALE
  5
231E
102
{ACAD_REACTORS
330
2312
102
}
330
2312
100
AcDbScale
 70
     0
300
1:100
140
1.0
141
100.0
290
     0
  0
SCALE
  5
231F
102
{ACAD_REACTORS
330
2312
102
}
330
2312
100
AcDbScale
 70
     0
300
2:1
140
2.0
141
1.0
290
     0
  0
SCALE
  5
2320
102
{ACAD_REACTORS
330
2312
102
}
330
2312
100
AcDbScale
 70
     0
300
4:1
140
4.0
141
1.0
290
     0
  0
SCALE
  5
2321
102
{ACAD_REACTORS
330
2312
102
}
330
2312
100
AcDbScale
 70
     0
300
8:1
140
8.0
141
1.0
290
     0
  0
SCALE
  5
2322
102
{ACAD_REACTORS
330
2312
102
}
330
2312
100
AcDbScale
 70
     0
300
10:1
140
10.0
141
1.0
290
     0
  0
SCALE
  5
2323
102
{ACAD_REACTORS
330
2312
102
}
330
2312
100
AcDbScale
 70
     0
300
100:1
140
100.0
141
1.0
290
     0
  0
SCALE
  5
2324
102
{ACAD_REACTORS
330
2312
102
}
330
2312
100
AcDbScale
 70
     0
300
1/128" = 1'-0"
140
0.0078125
141
12.0
290
     0
  0
SCALE
  5
2325
102
{ACAD_REACTORS
330
2312
102
}
330
2312
100
AcDbScale
 70
     0
300
1/64" = 1'-0"
140
0.015625
141
12.0
290
     0
  0
SCALE
  5
2326
102
{ACAD_REACTORS
330
2312
102
}
330
2312
100
AcDbScale
 70
     0
300
1/32" = 1'-0"
140
0.03125
141
12.0
290
     0
  0
SCALE
  5
2327
102
{ACAD_REACTORS
330
2312
102
}
330
2312
100
AcDbScale
 70
     0
300
1/16" = 1'-0"
140
0.0625
141
12.0
290
     0
  0
SCALE
  5
2328
102
{ACAD_REACTORS
330
2312
102
}
330
2312
100
AcDbScale
 70
     0
300
3/32" = 1'-0"
140
0.09375
141
12.0
290
     0
  0
SCALE
  5
2329
102
{ACAD_REACTORS
330
2312
102
}
330
2312
100
AcDbScale
 70
     0
300
1/8" = 1'-0"
140
0.125
141
12.0
290
     0
  0
SCALE
  5
232A
102
{ACAD_REACTORS
330
2312
102
}
330
2312
100
AcDbScale
 70
     0
300
3/16" = 1'-0"
140
0.1875
141
12.0
290
     0
  0
SCALE
  5
232B
102
{ACAD_REACTORS
330
2312
102
}
330
2312
100
AcDbScale
 70
     0
300
1/4" = 1'-0"
140
0.25
141
12.0
290
     0
  0
SCALE
  5
232C
102
{ACAD_REACTORS
330
2312
102
}
330
2312
100
AcDbScale
 70
     0
300
3/8" = 1'-0"
140
0.375
141
12.0
290
     0
  0
SCALE
  5
232D
102
{ACAD_REACTORS
330
2312
102
}
330
2312
100
AcDbScale
 70
     0
300
1/2" = 1'-0"
140
0.5
141
12.0
290
     0
  0
SCALE
  5
232E
102
{ACAD_REACTORS
330
2312
102
}
330
2312
100
AcDbScale
 70
     0
300
3/4" = 1'-0"
140
0.75
141
12.0
290
     0
  0
SCALE
  5
232F
102
{ACAD_REACTORS
330
2312
102
}
330
2312
100
AcDbScale
 70
     0
300
1" = 1'-0"
140
1.0
141
12.0
290
     0
  0
SCALE
  5
2330
102
{ACAD_REACTORS
330
2312
102
}
330
2312
100
AcDbScale
 70
     0
300
1-1/2" = 1'-0"
140
1.5
141
12.0
290
     0
  0
SCALE
  5
2331
102
{ACAD_REACTORS
330
2312
102
}
330
2312
100
AcDbScale
 70
     0
300
3" = 1'-0"
140
3.0
141
12.0
290
     0
  0
SCALE
  5
2332
102
{ACAD_REACTORS
330
2312
102
}
330
2312
100
AcDbScale
 70
     0
300
6" = 1'-0"
140
6.0
141
12.0
290
     0
  0
SCALE
  5
2333
102
{ACAD_REACTORS
330
2312
102
}
330
2312
100
AcDbScale
 70
     0
300
1'-0" = 1'-0"
140
12.0
141
12.0
290
     0
  0
DICTIONARYVAR
  5
44C4
102
{ACAD_REACTORS
330
4443
102
}
330
4443
100
DictionaryVariables
280
     0
  1
1:1
  0
DICTIONARYVAR
  5
4449
102
{ACAD_REACTORS
330
4443
102
}
330
4443
100
DictionaryVariables
280
     0
  1
1
  0
DICTIONARYVAR
  5
4448
102
{ACAD_REACTORS
330
4443
102
}
330
4443
100
DictionaryVariables
280
     0
  1
0
  0
DICTIONARYVAR
  5
4447
102
{ACAD_REACTORS
330
4443
102
}
330
4443
100
DictionaryVariables
280
     0
  1
127
  0
XRECORD
  5
4440
102
{ACAD_REACTORS
330
443E
102
}
330
443E
100
AcDbXrecord
280
     1
  0
ENDSEC
  0
EOF
