  0
SECTION
  2
HEADER
  9
$ACADVER
  1
AC1015
  9
$ACADMAINTVER
 70
    20
  9
$DWGCODEPAGE
  3
ANSI_1252
  9
$INSBASE
 10
0.0
 20
0.0
 30
0.0
  9
$EXTMIN
 10
-101.4781729568822
 20
-103.5983868241874
 30
-0.000000000000003
  9
$EXTMAX
 10
162.3119853186208
 20
103.5665601663249
 30
0.0000000000000126
  9
$LIMMIN
 10
-656.35
 20
-384.35
  9
$LIMMAX
 10
2061.85
 20
268.85
  9
$ORTHOMODE
 70
     1
  9
$REGENMODE
 70
     1
  9
$FILLMODE
 70
     1
  9
$QTEXTMODE
 70
     0
  9
$MIRRTEXT
 70
     1
  9
$LTSCALE
 40
10.0
  9
$ATTMODE
 70
     1
  9
$TEXTSIZE
 40
0.0
  9
$TRACEWID
 40
0.05
  9
$TEXTSTYLE
  7
Standard
  9
$CLAYER
  8
0
  9
$CELTYPE
  6
Continuous
  9
$CECOLOR
 62
   256
  9
$CELTSCALE
 40
1.0
  9
$DISPSILH
 70
     0
  9
$DIMSCALE
 40
1.0
  9
$DIMASZ
 40
1.25
  9
$DIMEXO
 40
0.0
  9
$DIMDLI
 40
0.38
  9
$DIMRND
 40
0.0
  9
$DIMDLE
 40
0.0
  9
$DIMEXE
 40
0.75
  9
$DIMTP
 40
0.0
  9
$DIMTM
 40
0.0
  9
$DIMTXT
 40
2.5
  9
$DIMCEN
 40
0.09
  9
$DIMTSZ
 40
0.0
  9
$DIMTOL
 70
     0
  9
$DIMLIM
 70
     0
  9
$DIMTIH
 70
     0
  9
$DIMTOH
 70
     0
  9
$DIMSE1
 70
     0
  9
$DIMSE2
 70
     0
  9
$DIMTAD
 70
     1
  9
$DIMZIN
 70
     0
  9
$DIMBLK
  1

  9
$DIMASO
 70
     1
  9
$DIMSHO
 70
     1
  9
$DIMPOST
  1

  9
$DIMAPOST
  1

  9
$DIMALT
 70
     0
  9
$DIMALTD
 70
     2
  9
$DIMALTF
 40
25.4
  9
$DIMLFAC
 40
1.0
  9
$DIMTOFL
 70
     0
  9
$DIMTVP
 40
0.0
  9
$DIMTIX
 70
     0
  9
$DIMSOXD
 70
     0
  9
$DIMSAH
 70
     0
  9
$DIMBLK1
  1

  9
$DIMBLK2
  1

  9
$DIMSTYLE
  2
Standard
  9
$DIMCLRD
 70
     7
  9
$DIMCLRE
 70
     7
  9
$DIMCLRT
 70
     7
  9
$DIMTFAC
 40
0.8
  9
$DIMGAP
 40
1.25
  9
$DIMJUST
 70
     0
  9
$DIMSD1
 70
     0
  9
$DIMSD2
 70
     0
  9
$DIMTOLJ
 70
     1
  9
$DIMTZIN
 70
     0
  9
$DIMALTZ
 70
     0
  9
$DIMALTTZ
 70
     0
  9
$DIMUPT
 70
     0
  9
$DIMDEC
 70
     2
  9
$DIMTDEC
 70
     4
  9
$DIMALTU
 70
     2
  9
$DIMALTTD
 70
     2
  9
$DIMTXSTY
  7
Standard
  9
$DIMAUNIT
 70
     0
  9
$DIMADEC
 70
     0
  9
$DIMALTRND
 40
0.0
  9
$DIMAZIN
 70
     0
  9
$DIMDSEP
 70
     0
  9
$DIMATFIT
 70
     3
  9
$DIMFRAC
 70
     0
  9
$DIMLDRBLK
  1

  9
$DIMLUNIT
 70
     2
  9
$DIMLWD
 70
     0
  9
$DIMLWE
 70
     0
  9
$DIMTMOVE
 70
     0
  9
$LUNITS
 70
     2
  9
$LUPREC
 70
     4
  9
$SKETCHINC
 40
0.1
  9
$FILLETRAD
 40
0.0
  9
$AUNITS
 70
     0
  9
$AUPREC
 70
     0
  9
$MENU
  1
acad
  9
$ELEVATION
 40
0.0
  9
$PELEVATION
 40
0.0
  9
$THICKNESS
 40
0.0
  9
$LIMCHECK
 70
     0
  9
$CHAMFERA
 40
0.0
  9
$CHAMFERB
 40
0.0
  9
$CHAMFERC
 40
0.0
  9
$CHAMFERD
 40
0.0
  9
$SKPOLY
 70
     0
  9
$TDCREATE
 40
2455323.569860659
  9
$TDUCREATE
 40
2455323.486527326
  9
$TDUPDATE
 40
2455324.618255509
  9
$TDUUPDATE
 40
2455324.534922176
  9
$TDINDWG
 40
0.1342392708
  9
$TDUSRTIMER
 40
0.1342231829
  9
$USRTIMER
 70
     1
  9
$ANGBASE
 50
0.0
  9
$ANGDIR
 70
     0
  9
$PDMODE
 70
     0
  9
$PDSIZE
 40
0.0
  9
$PLINEWID
 40
0.0
  9
$SPLFRAME
 70
     0
  9
$SPLINETYPE
 70
     6
  9
$SPLINESEGS
 70
     8
  9
$HANDSEED
  5
44BA
  9
$SURFTAB1
 70
     6
  9
$SURFTAB2
 70
     6
  9
$SURFTYPE
 70
     6
  9
$SURFU
 70
     6
  9
$SURFV
 70
     6
  9
$UCSBASE
  2

  9
$UCSNAME
  2

  9
$UCSORG
 10
0.0
 20
0.0
 30
0.0
  9
$UCSXDIR
 10
1.0
 20
0.0
 30
0.0
  9
$UCSYDIR
 10
0.0
 20
1.0
 30
0.0
  9
$UCSORTHOREF
  2

  9
$UCSORTHOVIEW
 70
     0
  9
$UCSORGTOP
 10
0.0
 20
0.0
 30
0.0
  9
$UCSORGBOTTOM
 10
0.0
 20
0.0
 30
0.0
  9
$UCSORGLEFT
 10
0.0
 20
0.0
 30
0.0
  9
$UCSORGRIGHT
 10
0.0
 20
0.0
 30
0.0
  9
$UCSORGFRONT
 10
0.0
 20
0.0
 30
0.0
  9
$UCSORGBACK
 10
0.0
 20
0.0
 30
0.0
  9
$PUCSBASE
  2

  9
$PUCSNAME
  2

  9
$PUCSORG
 10
0.0
 20
0.0
 30
0.0
  9
$PUCSXDIR
 10
1.0
 20
0.0
 30
0.0
  9
$PUCSYDIR
 10
0.0
 20
1.0
 30
0.0
  9
$PUCSORTHOREF
  2

  9
$PUCSORTHOVIEW
 70
     0
  9
$PUCSORGTOP
 10
0.0
 20
0.0
 30
0.0
  9
$PUCSORGBOTTOM
 10
0.0
 20
0.0
 30
0.0
  9
$PUCSORGLEFT
 10
0.0
 20
0.0
 30
0.0
  9
$PUCSORGRIGHT
 10
0.0
 20
0.0
 30
0.0
  9
$PUCSORGFRONT
 10
0.0
 20
0.0
 30
0.0
  9
$PUCSORGBACK
 10
0.0
 20
0.0
 30
0.0
  9
$USERI1
 70
     0
  9
$USERI2
 70
     0
  9
$USERI3
 70
     0
  9
$USERI4
 70
     0
  9
$USERI5
 70
     0
  9
$USERR1
 40
0.0
  9
$USERR2
 40
0.0
  9
$USERR3
 40
0.0
  9
$USERR4
 40
0.0
  9
$USERR5
 40
0.0
  9
$WORLDVIEW
 70
     1
  9
$SHADEDGE
 70
     3
  9
$SHADEDIF
 70
    70
  9
$TILEMODE
 70
     1
  9
$MAXACTVP
 70
    16
  9
$PINSBASE
 10
0.0
 20
0.0
 30
0.0
  9
$PLIMCHECK
 70
     0
  9
$PEXTMIN
 10
1.000000000000000E+20
 20
1.000000000000000E+20
 30
1.000000000000000E+20
  9
$PEXTMAX
 10
-1.000000000000000E+20
 20
-1.000000000000000E+20
 30
-1.000000000000000E+20
  9
$PLIMMIN
 10
0.0
 20
0.0
  9
$PLIMMAX
 10
12.0
 20
9.0
  9
$UNITMODE
 70
     0
  9
$VISRETAIN
 70
     0
  9
$PLINEGEN
 70
     1
  9
$PSLTSCALE
 70
     0
  9
$TREEDEPTH
 70
  3020
  9
$CMLSTYLE
  2
Standard
  9
$CMLJUST
 70
     0
  9
$CMLSCALE
 40
1.0
  9
$PROXYGRAPHICS
 70
     0
  9
$MEASUREMENT
 70
     1
  9
$CELWEIGHT
370
     0
  9
$ENDCAPS
280
     0
  9
$JOINSTYLE
280
     0
  9
$LWDISPLAY
290
     0
  9
$INSUNITS
 70
     0
  9
$HYPERLINKBASE
  1

  9
$STYLESHEET
  1

  9
$XEDIT
290
     1
  9
$CEPSNTYPE
380
     0
  9
$PSTYLEMODE
290
     1
  9
$FINGERPRINTGUID
  2

  9
$VERSIONGUID
  2
{0B37DD1B-7475-4DFD-B174-6F12DF0A54C0}
  9
$EXTNAMES
290
     1
  9
$PSVPSCALE
 40
0.0
  9
$OLESTARTUP
290
     0
  0
ENDSEC
  0
SECTION
  2
CLASSES
  0
CLASS
  1
IMAGE
  2
AcDbRasterImage
  3
ISM
 90
    34943
280
     0
281
     1
  0
CLASS
  1
DICTIONARYVAR
  2
AcDbDictionaryVar
  3
ObjectDBX Classes
 90
        0
280
     0
281
     0
  0
CLASS
  1
RASTERVARIABLES
  2
AcDbRasterVariables
  3
ISM
 90
    32768
280
     0
281
     0
  0
CLASS
  1
IMAGEDEF
  2
AcDbRasterImageDef
  3
ISM
 90
    32768
280
     0
281
     0
  0
CLASS
  1
IMAGEDEF_REACTOR
  2
AcDbRasterImageDefReactor
  3
ISM
 90
    32769
280
     0
281
     0
  0
CLASS
  1
IDBUFFER
  2
AcDbIdBuffer
  3
ObjectDBX Classes
 90
    32768
280
     0
281
     0
  0
CLASS
  1
SPATIAL_FILTER
  2
AcDbSpatialFilter
  3
ObjectDBX Classes
 90
    32768
280
     0
281
     0
  0
CLASS
  1
SORTENTSTABLE
  2
AcDbSortentsTable
  3
ObjectDBX Classes
 90
        0
280
     0
281
     0
  0
CLASS
  1
LAYER_INDEX
  2
AcDbLayerIndex
  3
ObjectDBX Classes
 90
    32768
280
     0
281
     0
  0
CLASS
  1
SPATIAL_INDEX
  2
AcDbSpatialIndex
  3
ObjectDBX Classes
 90
    32768
280
     0
281
     0
  0
CLASS
  1
OBJECT_PTR
  2
CAseDLPNTableRecord
  3
ASE-LPNTableRecord
 90
    32769
280
     0
281
     0
  0
CLASS
  1
LAYOUT
  2
AcDbLayout
  3
ObjectDBX Classes
 90
        0
280
     0
281
     0
  0
CLASS
  1
PLOTSETTINGS
  2
AcDbPlotSettings
  3
ObjectDBX Classes
 90
    32768
280
     0
281
     0
  0
CLASS
  1
ACDBDICTIONARYWDFLT
  2
AcDbDictionaryWithDefault
  3
ObjectDBX Classes
 90
        0
280
     0
281
     0
  0
CLASS
  1
ACDBPLACEHOLDER
  2
AcDbPlaceHolder
  3
ObjectDBX Classes
 90
        0
280
     0
281
     0
  0
CLASS
  1
VBA_PROJECT
  2
AcDbVbaProject
  3
acad
 90
    32768
280
     0
281
     0
  0
CLASS
  1
WIPEOUT
  2
AcDbWipeout
  3
"WipeOut|Product Desc: Object Enabler for WipeOut entity                        |Company: Autodesk, Inc.                        |WEB Address: www.autodesk.com"
 90
    34943
280
     0
281
     1
  0
CLASS
  1
WIPEOUTVARIABLES
  2
AcDbWipeoutVariables
  3
"WipeOut|Product Desc:     WipeOut Dbx Application|Company:          Autodesk, Inc.|WEB Address:      www.autodesk.com"
 90
        0
280
     0
281
     0
  0
CLASS
  1
RTEXT
  2
RText
  3
RText|AutoCAD Express Tool|expresstools@autodesk.com
 90
    35839
280
     0
281
     1
  0
CLASS
  1
ARCALIGNEDTEXT
  2
AcDbArcAlignedText
  3
ATEXT|AutoCAD Express Tool|expresstools@autodesk.com
 90
    32768
280
     0
281
     1
  0
CLASS
  1
MATERIAL
  2
AcDbMaterial
  3
ObjectDBX Classes
 90
     1153
280
     0
281
     0
  0
CLASS
  1
VISUALSTYLE
  2
AcDbVisualStyle
  3
ObjectDBX Classes
 90
     4095
280
     0
281
     0
  0
CLASS
  1
TABLESTYLE
  2
AcDbTableStyle
  3
ObjectDBX Classes
 90
     4095
280
     0
281
     0
  0
CLASS
  1
SCALE
  2
AcDbScale
  3
ObjectDBX Classes
 90
     1153
280
     0
281
     0
  0
CLASS
  1
MLEADERSTYLE
  2
AcDbMLeaderStyle
  3
ACDB_MLEADERSTYLE_CLASS
 90
     4095
280
     0
281
     0
  0
CLASS
  1
CELLSTYLEMAP
  2
AcDbCellStyleMap
  3
ObjectDBX Classes
 90
     1152
280
     0
281
     0
  0
ENDSEC
  0
SECTION
  2
TABLES
  0
TABLE
  2
VPORT
  5
7
330
0
100
AcDbSymbolTable
 70
     1
  0
VPORT
  5
15
330
7
100
AcDbSymbolTableRecord
100
AcDbViewportTableRecord
  2
*ACTIVE
 70
     0
 10
0.0
 20
0.0
 11
1.0
 21
1.0
 12
28.11643616590684
 22
1.954770464956311
 13
0.0
 23
0.0
 14
1.0
 24
1.0
 15
0.0
 25
0.0
 16
0.0
 26
0.0
 36
1.0
 17
0.0
 27
0.0
 37
0.0
 40
234.3889795347276
 41
1.611330698287219
 42
50.0
 43
0.0
 44
0.0
 50
0.0
 51
0.0
 71
     0
 72
   100
 73
     1
 74
     1
 75
     0
 76
     0
 77
     0
 78
     0
281
     0
 65
     0
110
0.0
120
0.0
130
0.0
111
1.0
121
0.0
131
0.0
112
0.0
122
1.0
132
0.0
 79
     0
146
0.0
  0
ENDTAB
  0
TABLE
  2
LTYPE
  5
4
330
0
100
AcDbSymbolTable
 70
     2
  0
LTYPE
  5
11
330
4
100
AcDbSymbolTableRecord
100
AcDbLinetypeTableRecord
  2
ByBlock
 70
     0
  3

 72
    65
 73
     0
 40
0.0
  0
LTYPE
  5
12
330
4
100
AcDbSymbolTableRecord
100
AcDbLinetypeTableRecord
  2
ByLayer
 70
     0
  3

 72
    65
 73
     0
 40
0.0
  0
LTYPE
  5
13
330
4
100
AcDbSymbolTableRecord
100
AcDbLinetypeTableRecord
  2
Continuous
 70
     0
  3
Solid line
 72
    65
 73
     0
 40
0.0
  0
LTYPE
  5
690
330
4
100
AcDbSymbolTableRecord
100
AcDbLinetypeTableRecord
  2
CENTER
 70
     0
  3
____ _ ____ _ ____ _ ____ _ ____ _ ____ _ ____
 72
    65
 73
     4
 40
2.0
 49
1.25
 74
     0
 49
-0.25
 74
     0
 49
0.25
 74
     0
 49
-0.25
 74
     0
  0
ENDTAB
  0
TABLE
  2
LAYER
  5
2
330
0
100
AcDbSymbolTable
 70
     1
  0
LAYER
  5
14
102
{ACAD_XDICTIONARY
360
4441
102
}
330
2
100
AcDbSymbolTableRecord
100
AcDbLayerTableRecord
  2
0
 70
     0
 62
     7
  6
Continuous
370
    -3
390
1D
  0
ENDTAB
  0
TABLE
  2
STYLE
  5
3
330
0
100
AcDbSymbolTable
 70
     1
  0
STYLE
  5
17
330
3
100
AcDbSymbolTableRecord
100
AcDbTextStyleTableRecord
  2
Standard
 70
     0
 40
0.0
 41
1.0
 50
0.0
 71
     0
 42
0.0
  3
IsonormD
  4

1001
ACAD
1000
IsonormD
1071
        0
  0
ENDTAB
  0
TABLE
  2
VIEW
  5
5
330
0
100
AcDbSymbolTable
 70
     0
  0
ENDTAB
  0
TABLE
  2
UCS
  5
6
330
0
100
AcDbSymbolTable
 70
     0
  0
ENDTAB
  0
TABLE
  2
APPID
  5
8
330
0
100
AcDbSymbolTable
 70
     4
  0
APPID
  5
16
330
8
100
AcDbSymbolTableRecord
100
AcDbRegAppTableRecord
  2
ACAD
 70
     0
  0
APPID
  5
26
330
8
100
AcDbSymbolTableRecord
100
AcDbRegAppTableRecord
  2
TopSolid_Draft
 70
     0
  0
APPID
  5
2336
330
8
100
AcDbSymbolTableRecord
100
AcDbRegAppTableRecord
  2
ACAD_MLEADERVER
 70
     0
  0
APPID
  5
443F
330
8
100
AcDbSymbolTableRecord
100
AcDbRegAppTableRecord
  2
DCO15
 70
     0
  0
ENDTAB
  0
TABLE
  2
DIMSTYLE
  5
9
330
0
100
AcDbSymbolTable
 70
     1
100
AcDbDimStyleTable
 71
     0
  0
DIMSTYLE
105
18
330
9
100
AcDbSymbolTableRecord
100
AcDbDimStyleTableRecord
  2
Standard
 70
     0
 41
1.25
 42
0.0
 44
0.75
 73
     0
 74
     0
 77
     1
140
2.5
146
0.8
147
1.25
176
     7
177
     7
178
     7
271
     2
340
17
  0
ENDTAB
  0
TABLE
  2
BLOCK_RECORD
  5
1
330
0
100
AcDbSymbolTable
 70
     0
  0
BLOCK_RECORD
  5
A
102
{ACAD_XDICTIONARY
360
233E
102
}
330
1
100
AcDbSymbolTableRecord
100
AcDbBlockTableRecord
  2
*MODEL_SPACE
340
20
  0
BLOCK_RECORD
  5
B
330
1
100
AcDbSymbolTableRecord
100
AcDbBlockTableRecord
  2
*PAPER_SPACE
340
21
  0
ENDTAB
  0
ENDSEC
  0
SECTION
  2
BLOCKS
  0
BLOCK
  5
D
330
A
100
AcDbEntity
  8
0
100
AcDbBlockBegin
  2
*MODEL_SPACE
 70
     0
 10
0.0
 20
0.0
 30
0.0
  3
*MODEL_SPACE
  1

  0
ENDBLK
  5
E
330
A
100
AcDbEntity
  8
0
100
AcDbBlockEnd
  0
BLOCK
  5
F
330
B
100
AcDbEntity
 67
     1
  8
0
100
AcDbBlockBegin
  2
*PAPER_SPACE
 70
     0
 10
0.0
 20
0.0
 30
0.0
  3
*PAPER_SPACE
  1

  0
ENDBLK
  5
10
330
B
100
AcDbEntity
 67
     1
  8
0
100
AcDbBlockEnd
  0
ENDSEC
  0
SECTION
  2
ENTITIES
  0
LINE
  5
CCB
330
A
100
AcDbEntity
  8
0
  6
CENTER
 62
     1
100
AcDbLine
 10
75.0
 20
-28.3
 30
0.0
 11
75.0
 21
20.6
 31
0.0
  0
LINE
  5
CCC
330
A
100
AcDbEntity
  8
0
  6
CENTER
 62
     1
100
AcDbLine
 10
75.0
 20
23.0
 30
0.0
 11
75.0
 21
28.30000000000001
 31
0.0
  0
LINE
  5
EB7
330
A
100
AcDbEntity
  8
0
  6
CENTER
 62
     1
100
AcDbLine
 10
0.0135890000001382
 20
73.4
 30
0.0
 11
0.0135890000001382
 21
62.9
 31
0.0
  0
LINE
  5
EB8
330
A
100
AcDbEntity
  8
0
  6
CENTER
 62
     1
100
AcDbLine
 10
67.0
 20
95.54999999999999
 30
0.0
 11
83.0
 21
95.54999999999999
 31
0.0
  0
LINE
  5
EB9
330
A
100
AcDbEntity
  8
0
  6
CENTER
 62
     1
100
AcDbLine
 10
75.0
 20
87.55
 30
0.0
 11
75.0
 21
103.55
 31
0.0
  0
LINE
  5
EBA
330
A
100
AcDbEntity
  8
0
  6
CENTER
 62
     1
100
AcDbLine
 10
0.0
 20
75.55000000000003
 30
0.0
 11
0.0
 21
60.15
 31
0.0
  0
LINE
  5
EBB
330
A
100
AcDbEntity
  8
0
  6
CENTER
 62
     1
100
AcDbLine
 10
45.0
 20
75.55000000000003
 30
0.0
 11
45.0
 21
60.15
 31
0.0
  0
LINE
  5
EBD
330
A
100
AcDbEntity
  8
0
  6
CENTER
 62
     1
100
AcDbLine
 10
-85.0
 20
0.0
 30
0.0
 11
-74.59999999999991
 21
0.0
 31
0.0
  0
LINE
  5
EBE
330
A
100
AcDbEntity
  8
0
  6
CENTER
 62
     1
100
AcDbLine
 10
-79.79999999999995
 20
-5.200000000000001
 30
0.0
 11
-79.79999999999995
 21
5.199999999999987
 31
0.0
  0
LINE
  5
EBF
330
A
100
AcDbEntity
  8
0
  6
CENTER
 62
     1
100
AcDbLine
 10
-77.0
 20
-17.0
 30
0.0
 11
-66.59999999999991
 21
-17.0
 31
0.0
  0
LINE
  5
EC0
330
A
100
AcDbEntity
  8
0
  6
CENTER
 62
     1
100
AcDbLine
 10
-71.79999999999996
 20
-22.2
 30
0.0
 11
-71.79999999999996
 21
-11.79999999999999
 31
0.0
  0
LINE
  5
EC1
330
A
100
AcDbEntity
  8
0
  6
CENTER
 62
     1
100
AcDbLine
 10
-77.0
 20
17.0
 30
0.0
 11
-66.59999999999991
 21
17.0
 31
0.0
  0
LINE
  5
EC2
330
A
100
AcDbEntity
  8
0
  6
CENTER
 62
     1
100
AcDbLine
 10
-71.79999999999996
 20
11.80000000000001
 30
0.0
 11
-71.79999999999996
 21
22.19999999999999
 31
0.0
  0
LINE
  5
EC3
330
A
100
AcDbEntity
  8
0
  6
CENTER
 62
     1
100
AcDbLine
 10
-58.70000000000004
 20
-3.5
 30
0.0
 11
-58.70000000000004
 21
3.5
 31
0.0
  0
LINE
  5
EC4
330
A
100
AcDbEntity
  8
0
  6
CENTER
 62
     1
100
AcDbLine
 10
-55.20000000000004
 20
0.0
 30
0.0
 11
-72.34999999999991
 21
0.0
 31
0.0
  0
LINE
  5
EC5
330
A
100
AcDbEntity
  8
0
  6
CENTER
 62
     1
100
AcDbLine
 10
-93.79999999999997
 20
-28.3
 30
0.0
 11
-93.79999999999997
 21
20.6
 31
0.0
  0
LINE
  5
EC6
330
A
100
AcDbEntity
  8
0
  6
CENTER
 62
     1
100
AcDbLine
 10
-93.79999999999997
 20
23.0
 30
0.0
 11
-93.79999999999997
 21
28.30000000000001
 31
0.0
  0
LINE
  5
EC7
330
A
100
AcDbEntity
  8
0
  6
CENTER
 62
     1
100
AcDbLine
 10
0.0135890000001382
 20
-73.4
 30
0.0
 11
0.0135890000001382
 21
-62.9
 31
0.0
  0
LINE
  5
EC8
330
A
100
AcDbEntity
  8
0
  6
CENTER
 62
     1
100
AcDbLine
 10
67.0
 20
-95.54999999999999
 30
0.0
 11
83.0
 21
-95.54999999999999
 31
0.0
  0
LINE
  5
EC9
330
A
100
AcDbEntity
  8
0
  6
CENTER
 62
     1
100
AcDbLine
 10
75.0
 20
-103.55
 30
0.0
 11
75.0
 21
-87.55
 31
0.0
  0
LINE
  5
ECA
330
A
100
AcDbEntity
  8
0
  6
CENTER
 62
     1
100
AcDbLine
 10
45.0
 20
-75.54999999999998
 30
0.0
 11
45.0
 21
-60.15
 31
0.0
  0
LINE
  5
ECB
330
A
100
AcDbEntity
  8
0
  6
CENTER
 62
     1
100
AcDbLine
 10
0.0
 20
-75.54999999999998
 30
0.0
 11
0.0
 21
-60.15
 31
0.0
  0
LINE
  5
ECC
330
A
100
AcDbEntity
  8
0
  6
CENTER
 62
     1
100
AcDbLine
 10
132.6500000000001
 20
-1.499937999999985
 30
0.0
 11
122.1500000000001
 21
-1.499937999999985
 31
0.0
  0
LINE
  5
ECD
330
A
100
AcDbEntity
  8
0
  6
CENTER
 62
     1
100
AcDbLine
 10
151.7999999999999
 20
19.5
 30
0.0
 11
157.7999999999999
 21
19.5
 31
0.0
  0
LINE
  5
ECE
330
A
100
AcDbEntity
  8
0
  6
CENTER
 62
     1
100
AcDbLine
 10
134.7999999999999
 20
0.0
 30
0.0
 11
119.4000000000001
 21
0.0
 31
0.0
  0
LINE
  5
ECF
330
A
100
AcDbEntity
  8
0
  6
CENTER
 62
     1
100
AcDbLine
 10
154.7999999999999
 20
-28.3
 30
0.0
 11
154.7999999999999
 21
22.5
 31
0.0
  0
LINE
  5
ED0
330
A
100
AcDbEntity
  8
0
  6
CENTER
 62
     1
100
AcDbLine
 10
154.7999999999999
 20
23.0
 30
0.0
 11
154.7999999999999
 21
28.30000000000001
 31
0.0
  0
LINE
  5
ED1
330
A
100
AcDbEntity
  8
0
  6
CENTER
 62
     1
100
AcDbLine
 10
125.7999999999999
 20
17.0
 30
0.0
 11
139.7999999999999
 21
17.0
 31
0.0
  0
LINE
  5
ED2
330
A
100
AcDbEntity
  8
0
  6
CENTER
 62
     1
100
AcDbLine
 10
132.7999999999999
 20
10.0
 30
0.0
 11
132.7999999999999
 21
24.0
 31
0.0
  0
LINE
  5
ED3
330
A
100
AcDbEntity
  8
0
  6
CENTER
 62
     1
100
AcDbLine
 10
125.7999999999999
 20
-17.0
 30
0.0
 11
139.7999999999999
 21
-17.0
 31
0.0
  0
LINE
  5
ED4
330
A
100
AcDbEntity
  8
0
  6
CENTER
 62
     1
100
AcDbLine
 10
132.7999999999999
 20
-24.0
 30
0.0
 11
132.7999999999999
 21
-10.0
 31
0.0
  0
LINE
  5
356A
330
A
100
AcDbEntity
  8
0
  6
Continuous
 62
     7
100
AcDbLine
 10
124.0999999999999
 20
3.000005000000014
 30
0.0
 11
124.0999999999999
 21
-3.000005000000001
 31
0.0
  0
LINE
  5
356B
330
A
100
AcDbEntity
  8
0
  6
Continuous
 62
     9
100
AcDbLine
 10
124.0999999999999
 20
2.5
 30
0.0
 11
124.0999999999999
 21
-2.5
 31
0.0
  0
ARC
  5
356C
330
A
100
AcDbEntity
  8
0
  6
Continuous
 62
     9
100
AcDbCircle
 10
154.8000140000001
 20
19.499986
 30
0.0
 40
1.499985999999999
100
AcDbArc
 50
0.0005490000002199
 51
269.9994510000047
  0
LINE
  5
356D
330
A
100
AcDbEntity
  8
0
  6
Continuous
 62
     7
100
AcDbLine
 10
147.7999999999999
 20
-12.29999999999999
 30
0.0
 11
161.7999999999999
 21
-12.29999999999999
 31
0.0
  0
LINE
  5
356E
330
A
100
AcDbEntity
  8
0
  6
Continuous
 62
     7
100
AcDbLine
 10
147.7999999999999
 20
-12.8
 30
0.0
 11
161.7999999999999
 21
-12.8
 31
0.0
  0
LINE
  5
356F
330
A
100
AcDbEntity
  8
0
  6
Continuous
 62
     7
100
AcDbLine
 10
161.7999999999999
 20
12.30000000000001
 30
0.0
 11
161.7904069999999
 21
12.30000000000001
 31
0.0
  0
LINE
  5
3570
330
A
100
AcDbEntity
  8
0
  6
Continuous
 62
     7
100
AcDbLine
 10
161.7904069999999
 20
12.30000000000001
 30
0.0
 11
154.900719
 21
12.30000000000001
 31
0.0
  0
LINE
  5
3571
330
A
100
AcDbEntity
  8
0
  6
Continuous
 62
     7
100
AcDbLine
 10
154.900719
 20
12.30000000000001
 30
0.0
 11
154.700634
 21
12.30000000000001
 31
0.0
  0
LINE
  5
3572
330
A
100
AcDbEntity
  8
0
  6
Continuous
 62
     7
100
AcDbLine
 10
154.700634
 20
12.30000000000001
 30
0.0
 11
147.7999999999999
 21
12.30000000000001
 31
0.0
  0
LINE
  5
3573
330
A
100
AcDbEntity
  8
0
  6
Continuous
 62
     7
100
AcDbLine
 10
161.7999999999999
 20
12.80000000000001
 30
0.0
 11
147.7999999999999
 21
12.80000000000001
 31
0.0
  0
CIRCLE
  5
3574
330
A
100
AcDbEntity
  8
0
  6
Continuous
 62
     7
100
AcDbCircle
 10
154.7999999999999
 20
19.5
 30
0.0
 40
1.0
  0
LINE
  5
3575
330
A
100
AcDbEntity
  8
0
  6
Continuous
 62
     7
100
AcDbLine
 10
155.5499999999999
 20
19.06698700000001
 30
0.0
 11
154.7999999999999
 21
18.63397499999999
 31
0.0
  0
LINE
  5
3576
330
A
100
AcDbEntity
  8
0
  6
Continuous
 62
     7
100
AcDbLine
 10
155.5499999999999
 20
19.93301299999999
 30
0.0
 11
155.5499999999999
 21
19.06698700000001
 31
0.0
  0
LINE
  5
3577
330
A
100
AcDbEntity
  8
0
  6
Continuous
 62
     7
100
AcDbLine
 10
154.7999999999999
 20
20.36602500000001
 30
0.0
 11
155.5499999999999
 21
19.93301299999999
 31
0.0
  0
LINE
  5
3578
330
A
100
AcDbEntity
  8
0
  6
Continuous
 62
     7
100
AcDbLine
 10
154.0499999999999
 20
19.93301299999999
 30
0.0
 11
154.7999999999999
 21
20.36602500000001
 31
0.0
  0
LINE
  5
3579
330
A
100
AcDbEntity
  8
0
  6
Continuous
 62
     7
100
AcDbLine
 10
154.0499999999999
 20
19.06698700000001
 30
0.0
 11
154.0499999999999
 21
19.93301299999999
 31
0.0
  0
LINE
  5
357A
330
A
100
AcDbEntity
  8
0
  6
Continuous
 62
     7
100
AcDbLine
 10
154.7999999999999
 20
18.63397499999999
 30
0.0
 11
154.0499999999999
 21
19.06698700000001
 31
0.0
  0
LINE
  5
357B
330
A
100
AcDbEntity
  8
0
  6
Continuous
 62
     9
100
AcDbLine
 10
116.2
 20
-23.0
 30
0.0
 11
122.2
 21
-23.0
 31
0.0
  0
LINE
  5
357C
330
A
100
AcDbEntity
  8
0
  6
Continuous
 62
     7
100
AcDbLine
 10
122.2
 20
-23.0
 30
0.0
 11
122.2
 21
-25.0
 31
0.0
  0
LINE
  5
357D
330
A
100
AcDbEntity
  8
0
  6
Continuous
 62
     7
100
AcDbLine
 10
122.2
 20
-25.0
 30
0.0
 11
116.2
 21
-25.0
 31
0.0
  0
LINE
  5
357E
330
A
100
AcDbEntity
  8
0
  6
Continuous
 62
     7
100
AcDbLine
 10
116.2
 20
-25.0
 30
0.0
 11
116.2
 21
-23.0
 31
0.0
  0
LINE
  5
357F
330
A
100
AcDbEntity
  8
0
  6
Continuous
 62
     7
100
AcDbLine
 10
116.2
 20
-23.0
 30
0.0
 11
116.2
 21
23.0
 31
0.0
  0
LINE
  5
3580
330
A
100
AcDbEntity
  8
0
  6
Continuous
 62
     9
100
AcDbLine
 10
122.2
 20
23.0
 30
0.0
 11
116.2
 21
23.0
 31
0.0
  0
LINE
  5
3581
330
A
100
AcDbEntity
  8
0
  6
Continuous
 62
     7
100
AcDbLine
 10
122.2
 20
-23.0
 30
0.0
 11
122.2
 21
23.0
 31
0.0
  0
LINE
  5
3582
330
A
100
AcDbEntity
  8
0
  6
Continuous
 62
     7
100
AcDbLine
 10
116.2
 20
25.0
 30
0.0
 11
122.2
 21
25.0
 31
0.0
  0
LINE
  5
3583
330
A
100
AcDbEntity
  8
0
  6
Continuous
 62
     7
100
AcDbLine
 10
116.2
 20
23.0
 30
0.0
 11
116.2
 21
25.0
 31
0.0
  0
LINE
  5
3584
330
A
100
AcDbEntity
  8
0
  6
Continuous
 62
     7
100
AcDbLine
 10
122.2
 20
25.0
 30
0.0
 11
122.2
 21
23.0
 31
0.0
  0
LINE
  5
3585
330
A
100
AcDbEntity
  8
0
  6
Continuous
 62
     7
100
AcDbLine
 10
132.7999999999999
 20
-24.0
 30
0.0
 11
132.4000000000001
 21
-24.0
 31
0.0
  0
LINE
  5
3586
330
A
100
AcDbEntity
  8
0
  6
Continuous
 62
     9
100
AcDbLine
 10
132.4000000000001
 20
-22.0
 30
0.0
 11
132.7999999999999
 21
-22.0
 31
0.0
  0
LINE
  5
3587
330
A
100
AcDbEntity
  8
0
  6
Continuous
 62
     7
100
AcDbLine
 10
132.4000000000001
 20
-24.0
 30
0.0
 11
132.4000000000001
 21
-22.0
 31
0.0
  0
LINE
  5
3588
330
A
100
AcDbEntity
  8
0
  6
Continuous
 62
     9
100
AcDbLine
 10
132.7999999999999
 20
22.0
 30
0.0
 11
132.4000000000001
 21
22.0
 31
0.0
  0
LINE
  5
3589
330
A
100
AcDbEntity
  8
0
  6
Continuous
 62
     7
100
AcDbLine
 10
132.4000000000001
 20
-22.0
 30
0.0
 11
132.4000000000001
 21
22.0
 31
0.0
  0
LINE
  5
358A
330
A
100
AcDbEntity
  8
0
  6
Continuous
 62
     7
100
AcDbLine
 10
132.4000000000001
 20
24.0
 30
0.0
 11
132.7999999999999
 21
24.0
 31
0.0
  0
LINE
  5
358B
330
A
100
AcDbEntity
  8
0
  6
Continuous
 62
     7
100
AcDbLine
 10
132.4000000000001
 20
22.0
 30
0.0
 11
132.4000000000001
 21
24.0
 31
0.0
  0
LINE
  5
3591
330
A
100
AcDbEntity
  8
0
  6
Continuous
 62
     7
100
AcDbLine
 10
141.7999999999999
 20
25.0
 30
0.0
 11
136.152644
 21
25.0
 31
0.0
  0
LINE
  5
3592
330
A
100
AcDbEntity
  8
0
  6
Continuous
 62
     7
100
AcDbLine
 10
141.7999999999999
 20
25.0
 30
0.0
 11
141.7999999999999
 21
-25.0
 31
0.0
  0
LINE
  5
3593
330
A
100
AcDbEntity
  8
0
  6
Continuous
 62
     7
100
AcDbLine
 10
141.7999999999999
 20
-25.0
 30
0.0
 11
136.152644
 21
-25.0
 31
0.0
  0
LINE
  5
359A
330
A
100
AcDbEntity
  8
0
  6
Continuous
 62
     7
100
AcDbLine
 10
135.880877
 20
23.0
 30
0.0
 11
135.880877
 21
-23.0
 31
0.0
  0
LINE
  5
359B
330
A
100
AcDbEntity
  8
0
  6
Continuous
 62
     7
100
AcDbLine
 10
136.152644
 20
-25.0
 30
0.0
 11
132.7999999999999
 21
-25.0
 31
0.0
  0
LINE
  5
359C
330
A
100
AcDbEntity
  8
0
  6
Continuous
 62
     9
100
AcDbLine
 10
132.7999999999999
 20
-23.0
 30
0.0
 11
135.880877
 21
-23.0
 31
0.0
  0
LINE
  5
359D
330
A
100
AcDbEntity
  8
0
  6
Continuous
 62
     7
100
AcDbLine
 10
132.7999999999999
 20
-25.0
 30
0.0
 11
132.7999999999999
 21
-23.0
 31
0.0
  0
LINE
  5
359E
330
A
100
AcDbEntity
  8
0
  6
Continuous
 62
     9
100
AcDbLine
 10
135.880877
 20
23.0
 30
0.0
 11
132.7999999999999
 21
23.0
 31
0.0
  0
LINE
  5
359F
330
A
100
AcDbEntity
  8
0
  6
Continuous
 62
     7
100
AcDbLine
 10
132.7999999999999
 20
-23.0
 30
0.0
 11
132.7999999999999
 21
23.0
 31
0.0
  0
LINE
  5
35A0
330
A
100
AcDbEntity
  8
0
  6
Continuous
 62
     7
100
AcDbLine
 10
132.7999999999999
 20
25.0
 30
0.0
 11
136.152644
 21
25.0
 31
0.0
  0
LINE
  5
35A1
330
A
100
AcDbEntity
  8
0
  6
Continuous
 62
     7
100
AcDbLine
 10
132.7999999999999
 20
23.0
 30
0.0
 11
132.7999999999999
 21
25.0
 31
0.0
  0
LINE
  5
35A2
330
A
100
AcDbEntity
  8
0
  6
Continuous
 62
     9
100
AcDbLine
 10
145.7999999999999
 20
25.0
 30
0.0
 11
145.7999999999999
 21
-25.0
 31
0.0
  0
LINE
  5
35A3
330
A
100
AcDbEntity
  8
0
  6
Continuous
 62
     7
100
AcDbLine
 10
141.7999999999999
 20
25.0
 30
0.0
 11
145.7999999999999
 21
25.0
 31
0.0
  0
LINE
  5
35A4
330
A
100
AcDbEntity
  8
0
  6
Continuous
 62
     7
100
AcDbLine
 10
141.7999999999999
 20
-25.0
 30
0.0
 11
145.7999999999999
 21
-25.0
 31
0.0
  0
LINE
  5
35A5
330
A
100
AcDbEntity
  8
0
  6
Continuous
 62
     7
100
AcDbLine
 10
146.7999999999999
 20
25.0
 30
0.0
 11
146.7999999999999
 21
11.0
 31
0.0
  0
LINE
  5
35A6
330
A
100
AcDbEntity
  8
0
  6
Continuous
 62
     7
100
AcDbLine
 10
146.7999999999999
 20
11.0
 30
0.0
 11
154.7999999999999
 21
11.0
 31
0.0
  0
LINE
  5
35A7
330
A
100
AcDbEntity
  8
0
  6
Continuous
 62
     7
100
AcDbLine
 10
146.7999999999999
 20
-11.0
 30
0.0
 11
154.7999999999999
 21
-11.0
 31
0.0
  0
LINE
  5
35A8
330
A
100
AcDbEntity
  8
0
  6
Continuous
 62
     7
100
AcDbLine
 10
146.7999999999999
 20
-11.0
 30
0.0
 11
146.7999999999999
 21
-25.0
 31
0.0
  0
LINE
  5
35A9
330
A
100
AcDbEntity
  8
0
  6
Continuous
 62
     7
100
AcDbLine
 10
146.7999999999999
 20
25.0
 30
0.0
 11
145.7999999999999
 21
25.0
 31
0.0
  0
LINE
  5
35AA
330
A
100
AcDbEntity
  8
0
  6
Continuous
 62
     7
100
AcDbLine
 10
146.7999999999999
 20
-25.0
 30
0.0
 11
145.7999999999999
 21
-25.0
 31
0.0
  0
LINE
  5
35AB
330
A
100
AcDbEntity
  8
0
  6
Continuous
 62
     7
100
AcDbLine
 10
162.2999999999999
 20
11.0
 30
0.0
 11
162.140642
 21
11.0
 31
0.0
  0
LINE
  5
35AC
330
A
100
AcDbEntity
  8
0
  6
Continuous
 62
     7
100
AcDbLine
 10
162.140642
 20
11.0
 30
0.0
 11
154.7999999999999
 21
11.0
 31
0.0
  0
LINE
  5
35AD
330
A
100
AcDbEntity
  8
0
  6
Continuous
 62
     7
100
AcDbLine
 10
162.2999999999999
 20
-11.0
 30
0.0
 11
154.7999999999999
 21
-11.0
 31
0.0
  0
LINE
  5
35AE
330
A
100
AcDbEntity
  8
0
  6
Continuous
 62
     7
100
AcDbLine
 10
149.5
 20
26.30000000000001
 30
0.0
 11
150.958732
 21
26.30000000000001
 31
0.0
  0
LINE
  5
35AF
330
A
100
AcDbEntity
  8
0
  6
Continuous
 62
     7
100
AcDbLine
 10
160.7999999999999
 20
25.6
 30
0.0
 11
150.4513949999998
 21
25.6
 31
0.0
  0
LINE
  5
35B0
330
A
100
AcDbEntity
  8
0
  6
Continuous
 62
     7
100
AcDbLine
 10
150.958732
 20
26.30000000000001
 30
0.0
 11
160.0999999999999
 21
26.30000000000001
 31
0.0
  0
LINE
  5
35B1
330
A
100
AcDbEntity
  8
0
  6
Continuous
 62
     7
100
AcDbLine
 10
150.4513949999998
 20
25.6
 30
0.0
 11
148.7999999999999
 21
25.6
 31
0.0
  0
LINE
  5
35B2
330
A
100
AcDbEntity
  8
0
  6
Continuous
 62
     7
100
AcDbLine
 10
148.7999999999999
 20
-25.6
 30
0.0
 11
160.7999999999999
 21
-25.6
 31
0.0
  0
LINE
  5
35B3
330
A
100
AcDbEntity
  8
0
  6
Continuous
 62
     7
100
AcDbLine
 10
160.0999999999999
 20
-26.3
 30
0.0
 11
149.5
 21
-26.3
 31
0.0
  0
LINE
  5
35B5
330
A
100
AcDbEntity
  8
0
  6
Continuous
 62
     7
100
AcDbLine
 10
147.2999999999999
 20
-12.98660700000001
 30
0.0
 11
147.2999999999999
 21
-25.0
 31
0.0
  0
LINE
  5
35B6
330
A
100
AcDbEntity
  8
0
  6
Continuous
 62
     7
100
AcDbLine
 10
147.5
 20
-13.0
 30
0.0
 11
147.2999999999999
 21
-12.98660700000001
 31
0.0
  0
LINE
  5
35B7
330
A
100
AcDbEntity
  8
0
  6
Continuous
 62
     7
100
AcDbLine
 10
147.5
 20
-13.0
 30
0.0
 11
154.7999999999999
 21
-13.0
 31
0.0
  0
LINE
  5
35B8
330
A
100
AcDbEntity
  8
0
  6
Continuous
 62
     7
100
AcDbLine
 10
147.2999999999999
 20
-25.0
 30
0.0
 11
154.7999999999999
 21
-25.0
 31
0.0
  0
LINE
  5
35B9
330
A
100
AcDbEntity
  8
0
  6
Continuous
 62
     7
100
AcDbLine
 10
154.7999999999999
 20
-13.0
 30
0.0
 11
162.2999999999999
 21
-13.0
 31
0.0
  0
LINE
  5
35BA
330
A
100
AcDbEntity
  8
0
  6
Continuous
 62
     7
100
AcDbLine
 10
154.7999999999999
 20
-25.0
 30
0.0
 11
162.2999999999999
 21
-25.0
 31
0.0
  0
LINE
  5
35BB
330
A
100
AcDbEntity
  8
0
  6
Continuous
 62
     7
100
AcDbLine
 10
154.7999999999999
 20
13.0
 30
0.0
 11
147.5
 21
13.0
 31
0.0
  0
LINE
  5
35BC
330
A
100
AcDbEntity
  8
0
  6
Continuous
 62
     7
100
AcDbLine
 10
147.2999999999999
 20
12.98660700000002
 30
0.0
 11
147.5
 21
13.0
 31
0.0
  0
LINE
  5
35BD
330
A
100
AcDbEntity
  8
0
  6
Continuous
 62
     7
100
AcDbLine
 10
147.2999999999999
 20
25.0
 30
0.0
 11
147.2999999999999
 21
12.98660700000002
 31
0.0
  0
LINE
  5
35BE
330
A
100
AcDbEntity
  8
0
  6
Continuous
 62
     7
100
AcDbLine
 10
147.2999999999999
 20
25.0
 30
0.0
 11
154.7999999999999
 21
25.0
 31
0.0
  0
LINE
  5
35C0
330
A
100
AcDbEntity
  8
0
  6
Continuous
 62
     9
100
AcDbLine
 10
154.7999999999999
 20
21.0
 30
0.0
 11
154.7999999999999
 21
20.75
 31
0.0
  0
ARC
  5
35C1
330
A
100
AcDbEntity
  8
0
  6
Continuous
 62
     7
100
AcDbCircle
 10
154.7999999999999
 20
19.5
 30
0.0
 40
1.25
100
AcDbArc
 50
90.0
 51
270.0
  0
LINE
  5
35C2
330
A
100
AcDbEntity
  8
0
  6
Continuous
 62
     9
100
AcDbLine
 10
154.7999999999999
 20
18.25
 30
0.0
 11
154.7999999999999
 21
18.0
 31
0.0
  0
LINE
  5
35C3
330
A
100
AcDbEntity
  8
0
  6
Continuous
 62
     9
100
AcDbLine
 10
154.7999999999999
 20
18.0
 30
0.0
 11
154.7999999999999
 21
13.0
 31
0.0
  0
LINE
  5
35C4
330
A
100
AcDbEntity
  8
0
  6
Continuous
 62
     7
100
AcDbLine
 10
162.2999999999999
 20
13.0
 30
0.0
 11
154.7999999999999
 21
13.0
 31
0.0
  0
LINE
  5
35C5
330
A
100
AcDbEntity
  8
0
  6
Continuous
 62
     7
100
AcDbLine
 10
154.7999999999999
 20
25.0
 30
0.0
 11
162.2999999999999
 21
25.0
 31
0.0
  0
ARC
  5
35C6
330
A
100
AcDbEntity
  8
0
  6
Continuous
 62
     7
100
AcDbCircle
 10
154.7999999999999
 20
19.5
 30
0.0
 40
1.25
100
AcDbArc
 50
270.0
 51
90.0
  0
LINE
  5
35C7
330
A
100
AcDbEntity
  8
0
  6
Continuous
 62
     7
100
AcDbLine
 10
146.800023
 20
12.826662
 30
0.0
 11
147.2999999999999
 21
12.98660700000002
 31
0.0
  0
LINE
  5
35C8
330
A
100
AcDbEntity
  8
0
  6
Continuous
 62
     7
100
AcDbLine
 10
147.2999999999999
 20
25.0
 30
0.0
 11
146.7999999999999
 21
25.0
 31
0.0
  0
LINE
  5
35C9
330
A
100
AcDbEntity
  8
0
  6
Continuous
 62
     7
100
AcDbLine
 10
147.2999999999999
 20
-12.98660700000001
 30
0.0
 11
146.8000179999999
 21
-12.826659
 31
0.0
  0
LINE
  5
35CA
330
A
100
AcDbEntity
  8
0
  6
Continuous
 62
     7
100
AcDbLine
 10
146.7999999999999
 20
-25.0
 30
0.0
 11
147.2999999999999
 21
-25.0
 31
0.0
  0
ARC
  5
35CB
330
A
100
AcDbEntity
  8
0
  6
Continuous
 62
     7
100
AcDbCircle
 10
132.7999999999999
 20
17.0
 30
0.0
 40
5.0
100
AcDbArc
 50
94.58856599999355
 51
180.0
  0
ARC
  5
35CC
330
A
100
AcDbEntity
  8
0
  6
Continuous
 62
     7
100
AcDbCircle
 10
132.7999999999999
 20
17.0
 30
0.0
 40
5.0
100
AcDbArc
 50
180.0
 51
265.4114340000065
  0
ARC
  5
35CD
330
A
100
AcDbEntity
  8
0
  6
Continuous
 62
     7
100
AcDbCircle
 10
132.7999999999999
 20
-17.0
 30
0.0
 40
5.0
100
AcDbArc
 50
94.58856599999355
 51
180.0
  0
ARC
  5
35CE
330
A
100
AcDbEntity
  8
0
  6
Continuous
 62
     7
100
AcDbCircle
 10
132.7999999999999
 20
-17.0
 30
0.0
 40
5.0
100
AcDbArc
 50
180.0
 51
265.4114340000065
  0
LINE
  5
35CF
330
A
100
AcDbEntity
  8
0
  6
Continuous
 62
     7
100
AcDbLine
 10
124.7999999999999
 20
25.0
 30
0.0
 11
124.7999999999999
 21
8.849999999999994
 31
0.0
  0
LINE
  5
35D0
330
A
100
AcDbEntity
  8
0
  6
Continuous
 62
     7
100
AcDbLine
 10
124.7999999999999
 20
-10.34993799999999
 30
0.0
 11
124.7999999999999
 21
-25.0
 31
0.0
  0
LINE
  5
35D1
330
A
100
AcDbEntity
  8
0
  6
Continuous
 62
     7
100
AcDbLine
 10
124.7999999999999
 20
25.0
 30
0.0
 11
132.7999999999999
 21
25.0
 31
0.0
  0
LINE
  5
35D2
330
A
100
AcDbEntity
  8
0
  6
Continuous
 62
     7
100
AcDbLine
 10
124.7999999999999
 20
-25.0
 30
0.0
 11
132.7999999999999
 21
-25.0
 31
0.0
  0
ARC
  5
35D3
330
A
100
AcDbEntity
  8
0
  6
Continuous
 62
     7
100
AcDbCircle
 10
132.7999999999999
 20
-17.0
 30
0.0
 40
3.2
100
AcDbArc
 50
97.18075600000291
 51
262.8192439999971
  0
ARC
  5
35D4
330
A
100
AcDbEntity
  8
0
  6
Continuous
 62
     7
100
AcDbCircle
 10
132.7999999999999
 20
17.0
 30
0.0
 40
3.2
100
AcDbArc
 50
97.18075600000291
 51
262.8192439999971
  0
LINE
  5
35D5
330
A
100
AcDbEntity
  8
0
  6
Continuous
 62
     7
100
AcDbLine
 10
151.2999999999999
 20
24.5
 30
0.0
 11
158.2999999999999
 21
24.5
 31
0.0
  0
LINE
  5
35D6
330
A
100
AcDbEntity
  8
0
  6
Continuous
 62
     7
100
AcDbLine
 10
158.7999999999999
 20
24.0
 30
0.0
 11
150.7999999999999
 21
24.0
 31
0.0
  0
LINE
  5
35D7
330
A
100
AcDbEntity
  8
0
  6
Continuous
 62
     7
100
AcDbLine
 10
162.0499999999999
 20
11.0
 30
0.0
 11
162.040099
 21
11.0
 31
0.0
  0
LINE
  5
35D8
330
A
100
AcDbEntity
  8
0
  6
Continuous
 62
     7
100
AcDbLine
 10
162.040099
 20
11.0
 30
0.0
 11
154.800676
 21
11.0
 31
0.0
  0
LINE
  5
35D9
330
A
100
AcDbEntity
  8
0
  6
Continuous
 62
     7
100
AcDbLine
 10
162.0499999999999
 20
12.30000000000001
 30
0.0
 11
161.8964109999999
 21
12.30000000000001
 31
0.0
  0
LINE
  5
35DA
330
A
100
AcDbEntity
  8
0
  6
Continuous
 62
     7
100
AcDbLine
 10
161.8964109999999
 20
12.30000000000001
 30
0.0
 11
154.800676
 21
12.30000000000001
 31
0.0
  0
LINE
  5
35DB
330
A
100
AcDbEntity
  8
0
  6
Continuous
 62
     7
100
AcDbLine
 10
154.800676
 20
12.30000000000001
 30
0.0
 11
147.69893
 21
12.30000000000001
 31
0.0
  0
LINE
  5
35DC
330
A
100
AcDbEntity
  8
0
  6
Continuous
 62
     7
100
AcDbLine
 10
147.69893
 20
12.30000000000001
 30
0.0
 11
147.5499999999999
 21
12.30000000000001
 31
0.0
  0
LINE
  5
35DD
330
A
100
AcDbEntity
  8
0
  6
Continuous
 62
     7
100
AcDbLine
 10
154.7999999999999
 20
-11.0
 30
0.0
 11
162.0499999999999
 21
-11.0
 31
0.0
  0
LINE
  5
35DE
330
A
100
AcDbEntity
  8
0
  6
Continuous
 62
     7
100
AcDbLine
 10
147.5499999999999
 20
-12.29999999999999
 30
0.0
 11
162.0499999999999
 21
-12.29999999999999
 31
0.0
  0
LINE
  5
35DF
330
A
100
AcDbEntity
  8
0
  6
Continuous
 62
     9
100
AcDbLine
 10
122.2
 20
-11.83216000000001
 30
0.0
 11
122.4000000000001
 21
-11.83216000000001
 31
0.0
  0
LINE
  5
35E0
330
A
100
AcDbEntity
  8
0
  6
Continuous
 62
     9
100
AcDbLine
 10
122.4000000000001
 20
-13.04571399999999
 30
0.0
 11
122.2
 21
-13.04571399999999
 31
0.0
  0
LINE
  5
35E1
330
A
100
AcDbEntity
  8
0
  6
Continuous
 62
     7
100
AcDbLine
 10
122.4000000000001
 20
-11.83216000000001
 30
0.0
 11
122.4000000000001
 21
-13.04571399999999
 31
0.0
  0
LINE
  5
35E2
330
A
100
AcDbEntity
  8
0
  6
Continuous
 62
     9
100
AcDbLine
 10
122.4000000000001
 20
11.83216000000001
 30
0.0
 11
122.2
 21
11.83216000000001
 31
0.0
  0
LINE
  5
35E3
330
A
100
AcDbEntity
  8
0
  6
Continuous
 62
     7
100
AcDbLine
 10
122.4000000000001
 20
-11.83216000000001
 30
0.0
 11
122.4000000000001
 21
11.83216000000001
 31
0.0
  0
LINE
  5
35E4
330
A
100
AcDbEntity
  8
0
  6
Continuous
 62
     9
100
AcDbLine
 10
122.2
 20
13.045714
 30
0.0
 11
122.4000000000001
 21
13.045714
 31
0.0
  0
LINE
  5
35E5
330
A
100
AcDbEntity
  8
0
  6
Continuous
 62
     7
100
AcDbLine
 10
122.4000000000001
 20
13.045714
 30
0.0
 11
122.4000000000001
 21
11.83216000000001
 31
0.0
  0
LINE
  5
35E6
330
A
100
AcDbEntity
  8
0
  6
Continuous
 62
     7
100
AcDbLine
 10
122.2
 20
-21.5
 30
0.0
 11
122.4000000000001
 21
-21.5
 31
0.0
  0
LINE
  5
35E7
330
A
100
AcDbEntity
  8
0
  6
Continuous
 62
     7
100
AcDbLine
 10
122.4000000000001
 20
-21.5
 30
0.0
 11
122.4000000000001
 21
-13.04571399999999
 31
0.0
  0
LINE
  5
35E8
330
A
100
AcDbEntity
  8
0
  6
Continuous
 62
     7
100
AcDbLine
 10
122.2
 20
21.5
 30
0.0
 11
122.4000000000001
 21
21.5
 31
0.0
  0
LINE
  5
35E9
330
A
100
AcDbEntity
  8
0
  6
Continuous
 62
     7
100
AcDbLine
 10
122.4000000000001
 20
13.045714
 30
0.0
 11
122.4000000000001
 21
21.5
 31
0.0
  0
LINE
  5
35EA
330
A
100
AcDbEntity
  8
0
  6
Continuous
 62
     7
100
AcDbLine
 10
124.1500000000001
 20
-8.849999999999994
 30
0.0
 11
124.1500000000001
 21
-3.0
 31
0.0
  0
LINE
  5
35EB
330
A
100
AcDbEntity
  8
0
  6
Continuous
 62
     7
100
AcDbLine
 10
124.1500000000001
 20
3.0
 30
0.0
 11
124.1500000000001
 21
7.350062000000008
 31
0.0
  0
LINE
  5
35EC
330
A
100
AcDbEntity
  8
0
  6
Continuous
 62
     7
100
AcDbLine
 10
124.1500000000001
 20
7.350062000000008
 30
0.0
 11
124.1500000000001
 21
8.849999999999994
 31
0.0
  0
LINE
  5
35ED
330
A
100
AcDbEntity
  8
0
  6
Continuous
 62
     7
100
AcDbLine
 10
130.6500000000001
 20
7.350062000000008
 30
0.0
 11
130.6500000000001
 21
8.849999999999994
 31
0.0
  0
LINE
  5
35EE
330
A
100
AcDbEntity
  8
0
  6
Continuous
 62
     7
100
AcDbLine
 10
124.1500000000001
 20
-10.34993799999999
 30
0.0
 11
124.1500000000001
 21
7.350062000000008
 31
0.0
  0
LINE
  5
35EF
330
A
100
AcDbEntity
  8
0
  6
Continuous
 62
     7
100
AcDbLine
 10
130.6500000000001
 20
-10.34993799999999
 30
0.0
 11
130.6500000000001
 21
7.350062000000008
 31
0.0
  0
LINE
  5
35F0
330
A
100
AcDbEntity
  8
0
  6
Continuous
 62
     9
100
AcDbLine
 10
124.1500000000001
 20
2.5
 30
0.0
 11
124.0999999999999
 21
2.5
 31
0.0
  0
LINE
  5
35F1
330
A
100
AcDbEntity
  8
0
  6
Continuous
 62
     9
100
AcDbLine
 10
124.0999999999999
 20
-2.5
 30
0.0
 11
124.1500000000001
 21
-2.5
 31
0.0
  0
LINE
  5
35F2
330
A
100
AcDbEntity
  8
0
  6
Continuous
 62
     7
100
AcDbLine
 10
147.7999999999999
 20
-12.29999999999999
 30
0.0
 11
147.7999999999999
 21
-12.8
 31
0.0
  0
LINE
  5
35F3
330
A
100
AcDbEntity
  8
0
  6
Continuous
 62
     7
100
AcDbLine
 10
161.7999999999999
 20
-12.8
 30
0.0
 11
161.7999999999999
 21
-12.29999999999999
 31
0.0
  0
LINE
  5
35F4
330
A
100
AcDbEntity
  8
0
  6
Continuous
 62
     7
100
AcDbLine
 10
161.7999999999999
 20
12.30000000000001
 30
0.0
 11
161.7999999999999
 21
12.80000000000001
 31
0.0
  0
LINE
  5
35F5
330
A
100
AcDbEntity
  8
0
  6
Continuous
 62
     7
100
AcDbLine
 10
147.7999999999999
 20
12.80000000000001
 30
0.0
 11
147.7999999999999
 21
12.30000000000001
 31
0.0
  0
LINE
  5
35F6
330
A
100
AcDbEntity
  8
0
  6
Continuous
 62
     7
100
AcDbLine
 10
130.6500000000001
 20
-4.900000000000004
 30
0.0
 11
132.4000000000001
 21
-4.900000000000004
 31
0.0
  0
LINE
  5
35F7
330
A
100
AcDbEntity
  8
0
  6
Continuous
 62
     7
100
AcDbLine
 10
132.4000000000001
 20
4.900000000000004
 30
0.0
 11
130.6500000000001
 21
4.900000000000004
 31
0.0
  0
LINE
  5
35F8
330
A
100
AcDbEntity
  8
0
  6
Continuous
 62
     7
100
AcDbLine
 10
162.2999999999999
 20
-11.0
 30
0.0
 11
162.2999999999999
 21
11.0
 31
0.0
  0
LINE
  5
35F9
330
A
100
AcDbEntity
  8
0
  6
Continuous
 62
     7
100
AcDbLine
 10
160.7999999999999
 20
25.6
 30
0.0
 11
160.0999999999999
 21
26.30000000000001
 31
0.0
  0
LINE
  5
35FA
330
A
100
AcDbEntity
  8
0
  6
Continuous
 62
     7
100
AcDbLine
 10
149.5
 20
26.30000000000001
 30
0.0
 11
148.7999999999999
 21
25.6
 31
0.0
  0
LINE
  5
35FB
330
A
100
AcDbEntity
  8
0
  6
Continuous
 62
     7
100
AcDbLine
 10
148.7999999999999
 20
25.6
 30
0.0
 11
148.7999999999999
 21
25.0
 31
0.0
  0
LINE
  5
35FC
330
A
100
AcDbEntity
  8
0
  6
Continuous
 62
     7
100
AcDbLine
 10
160.7999999999999
 20
25.0
 30
0.0
 11
160.7999999999999
 21
25.6
 31
0.0
  0
LINE
  5
35FD
330
A
100
AcDbEntity
  8
0
  6
Continuous
 62
     7
100
AcDbLine
 10
160.7999999999999
 20
-25.6
 30
0.0
 11
160.7999999999999
 21
-25.0
 31
0.0
  0
LINE
  5
35FE
330
A
100
AcDbEntity
  8
0
  6
Continuous
 62
     7
100
AcDbLine
 10
148.7999999999999
 20
-25.0
 30
0.0
 11
148.7999999999999
 21
-25.6
 31
0.0
  0
LINE
  5
35FF
330
A
100
AcDbEntity
  8
0
  6
Continuous
 62
     7
100
AcDbLine
 10
148.7999999999999
 20
-25.6
 30
0.0
 11
149.5
 21
-26.3
 31
0.0
  0
LINE
  5
3600
330
A
100
AcDbEntity
  8
0
  6
Continuous
 62
     7
100
AcDbLine
 10
160.0999999999999
 20
-26.3
 30
0.0
 11
160.7999999999999
 21
-25.6
 31
0.0
  0
LINE
  5
3601
330
A
100
AcDbEntity
  8
0
  6
Continuous
 62
     7
100
AcDbLine
 10
162.2999999999999
 20
-25.0
 30
0.0
 11
162.2999999999999
 21
-13.0
 31
0.0
  0
LINE
  5
3602
330
A
100
AcDbEntity
  8
0
  6
Continuous
 62
     7
100
AcDbLine
 10
162.2999999999999
 20
13.0
 30
0.0
 11
162.2999999999999
 21
25.0
 31
0.0
  0
LINE
  5
3603
330
A
100
AcDbEntity
  8
0
  6
Continuous
 62
     7
100
AcDbLine
 10
150.7999999999999
 20
13.0
 30
0.0
 11
150.7999999999999
 21
12.80000000000001
 31
0.0
  0
LINE
  5
3604
330
A
100
AcDbEntity
  8
0
  6
Continuous
 62
     7
100
AcDbLine
 10
150.7999999999999
 20
-12.8
 30
0.0
 11
150.7999999999999
 21
-13.0
 31
0.0
  0
LINE
  5
3605
330
A
100
AcDbEntity
  8
0
  6
Continuous
 62
     7
100
AcDbLine
 10
158.7999999999999
 20
-13.0
 30
0.0
 11
158.7999999999999
 21
-12.8
 31
0.0
  0
LINE
  5
3606
330
A
100
AcDbEntity
  8
0
  6
Continuous
 62
     7
100
AcDbLine
 10
158.7999999999999
 20
12.80000000000001
 30
0.0
 11
158.7999999999999
 21
13.0
 31
0.0
  0
LINE
  5
3607
330
A
100
AcDbEntity
  8
0
  6
Continuous
 62
     7
100
AcDbLine
 10
162.0499999999999
 20
11.0
 30
0.0
 11
162.0499999999999
 21
12.30000000000001
 31
0.0
  0
LINE
  5
3608
330
A
100
AcDbEntity
  8
0
  6
Continuous
 62
     7
100
AcDbLine
 10
147.5499999999999
 20
12.30000000000001
 30
0.0
 11
147.5499999999999
 21
11.0
 31
0.0
  0
LINE
  5
3609
330
A
100
AcDbEntity
  8
0
  6
Continuous
 62
     7
100
AcDbLine
 10
147.5499999999999
 20
-11.0
 30
0.0
 11
147.5499999999999
 21
-12.29999999999999
 31
0.0
  0
LINE
  5
360A
330
A
100
AcDbEntity
  8
0
  6
Continuous
 62
     7
100
AcDbLine
 10
162.0499999999999
 20
-12.29999999999999
 30
0.0
 11
162.0499999999999
 21
-11.0
 31
0.0
  0
LINE
  5
360B
330
A
100
AcDbEntity
  8
0
  6
Continuous
 62
     7
100
AcDbLine
 10
124.1500000000001
 20
3.0
 30
0.0
 11
124.0999999999999
 21
3.0
 31
0.0
  0
LINE
  5
360C
330
A
100
AcDbEntity
  8
0
  6
Continuous
 62
     7
100
AcDbLine
 10
124.0999999999999
 20
3.0
 30
0.0
 11
124.095
 21
3.0
 31
0.0
  0
LINE
  5
360D
330
A
100
AcDbEntity
  8
0
  6
Continuous
 62
     7
100
AcDbLine
 10
124.095
 20
-3.0
 30
0.0
 11
124.1500000000001
 21
-3.0
 31
0.0
  0
LINE
  5
360E
330
A
100
AcDbEntity
  8
0
  6
Continuous
 62
     7
100
AcDbLine
 10
124.105
 20
3.0
 30
0.0
 11
124.0999999999999
 21
3.0
 31
0.0
  0
LINE
  5
360F
330
A
100
AcDbEntity
  8
0
  6
Continuous
 62
     7
100
AcDbLine
 10
124.0999999999999
 20
3.0
 30
0.0
 11
122.4000000000001
 21
3.0
 31
0.0
  0
LINE
  5
3610
330
A
100
AcDbEntity
  8
0
  6
Continuous
 62
     7
100
AcDbLine
 10
122.4000000000001
 20
-3.0
 30
0.0
 11
124.105
 21
-3.0
 31
0.0
  0
LINE
  5
3611
330
A
100
AcDbEntity
  8
0
  6
Continuous
 62
     7
100
AcDbLine
 10
130.6500000000001
 20
8.849999999999994
 30
0.0
 11
124.1500000000001
 21
8.849999999999994
 31
0.0
  0
LINE
  5
3612
330
A
100
AcDbEntity
  8
0
  6
Continuous
 62
     7
100
AcDbLine
 10
124.1500000000001
 20
-10.34993799999999
 30
0.0
 11
130.6500000000001
 21
-10.34993799999999
 31
0.0
  0
LINE
  5
3613
330
A
100
AcDbEntity
  8
0
  6
Continuous
 62
     7
100
AcDbLine
 10
130.6500000000001
 20
7.350062000000008
 30
0.0
 11
124.1500000000001
 21
7.350062000000008
 31
0.0
  0
LINE
  5
3614
330
A
100
AcDbEntity
  8
0
  6
Continuous
 62
     7
100
AcDbLine
 10
48.0000050000001
 20
-64.84999999999999
 30
0.0
 11
41.99999499999989
 21
-64.84999999999999
 31
0.0
  0
LINE
  5
3615
330
A
100
AcDbEntity
  8
0
  6
Continuous
 62
     7
100
AcDbLine
 10
3.000005000000101
 20
-64.84999999999999
 30
0.0
 11
-3.000005000000101
 21
-64.84999999999999
 31
0.0
  0
LINE
  5
3616
330
A
100
AcDbEntity
  8
0
  6
Continuous
 62
     9
100
AcDbLine
 10
67.65153000000009
 20
-97.04999499999999
 30
0.0
 11
67.59239599999999
 21
-96.72362599999999
 31
0.0
  0
LINE
  5
3617
330
A
100
AcDbEntity
  8
0
  6
Continuous
 62
     9
100
AcDbLine
 10
67.59251900000004
 20
-94.37559499999998
 30
0.0
 11
67.65153000000009
 21
-94.05000499999999
 31
0.0
  0
LINE
  5
3618
330
A
100
AcDbEntity
  8
0
  6
Continuous
 62
     7
100
AcDbLine
 10
63.5
 20
-56.95
 30
0.0
 11
63.5
 21
-62.95
 31
0.0
  0
LINE
  5
3619
330
A
100
AcDbEntity
  8
0
  6
Continuous
 62
     7
100
AcDbLine
 10
-24.5
 20
-62.95
 30
0.0
 11
63.5
 21
-62.95
 31
0.0
  0
LINE
  5
361A
330
A
100
AcDbEntity
  8
0
  6
Continuous
 62
     9
100
AcDbLine
 10
-24.5
 20
-56.95
 30
0.0
 11
-24.5
 21
-62.95
 31
0.0
  0
LINE
  5
361B
330
A
100
AcDbEntity
  8
0
  6
Continuous
 62
     7
100
AcDbLine
 10
-24.5
 20
-56.95
 30
0.0
 11
63.5
 21
-56.95
 31
0.0
  0
LINE
  5
361C
330
A
100
AcDbEntity
  8
0
  6
Continuous
 62
     7
100
AcDbLine
 10
-24.5
 20
-62.95
 30
0.0
 11
-26.5
 21
-62.95
 31
0.0
  0
LINE
  5
361D
330
A
100
AcDbEntity
  8
0
  6
Continuous
 62
     7
100
AcDbLine
 10
-26.5
 20
-62.95
 30
0.0
 11
-26.5
 21
-56.95
 31
0.0
  0
LINE
  5
361E
330
A
100
AcDbEntity
  8
0
  6
Continuous
 62
     7
100
AcDbLine
 10
-26.5
 20
-56.95
 30
0.0
 11
-24.5
 21
-56.95
 31
0.0
  0
LINE
  5
361F
330
A
100
AcDbEntity
  8
0
  6
Continuous
 62
     7
100
AcDbLine
 10
-26.0
 20
-73.55
 30
0.0
 11
-26.0
 21
-73.15000000000002
 31
0.0
  0
LINE
  5
3620
330
A
100
AcDbEntity
  8
0
  6
Continuous
 62
     7
100
AcDbLine
 10
-26.0
 20
-73.15000000000002
 30
0.0
 11
-24.0
 21
-73.15000000000002
 31
0.0
  0
LINE
  5
3621
330
A
100
AcDbEntity
  8
0
  6
Continuous
 62
     9
100
AcDbLine
 10
-24.0
 20
-73.15000000000002
 30
0.0
 11
-24.0
 21
-73.55
 31
0.0
  0
LINE
  5
3622
330
A
100
AcDbEntity
  8
0
  6
Continuous
 62
     9
100
AcDbLine
 10
60.0
 20
-73.55
 30
0.0
 11
60.0
 21
-73.15000000000002
 31
0.0
  0
LINE
  5
3623
330
A
100
AcDbEntity
  8
0
  6
Continuous
 62
     7
100
AcDbLine
 10
-24.0
 20
-73.15000000000002
 30
0.0
 11
60.0
 21
-73.15000000000002
 31
0.0
  0
LINE
  5
3624
330
A
100
AcDbEntity
  8
0
  6
Continuous
 62
     7
100
AcDbLine
 10
62.0
 20
-73.15000000000002
 30
0.0
 11
62.0
 21
-73.55
 31
0.0
  0
LINE
  5
3625
330
A
100
AcDbEntity
  8
0
  6
Continuous
 62
     7
100
AcDbLine
 10
60.0
 20
-73.15000000000002
 30
0.0
 11
62.0
 21
-73.15000000000002
 31
0.0
  0
LINE
  5
3626
330
A
100
AcDbEntity
  8
0
  6
Continuous
 62
     7
100
AcDbLine
 10
-26.5
 20
-76.63087700000001
 30
0.0
 11
-26.5
 21
-73.55
 31
0.0
  0
LINE
  5
3627
330
A
100
AcDbEntity
  8
0
  6
Continuous
 62
     9
100
AcDbLine
 10
-24.5
 20
-73.55
 30
0.0
 11
-24.5
 21
-76.90264400000002
 31
0.0
  0
LINE
  5
3628
330
A
100
AcDbEntity
  8
0
  6
Continuous
 62
     7
100
AcDbLine
 10
-24.5
 20
-76.90264400000002
 30
0.0
 11
-26.5
 21
-76.63087700000001
 31
0.0
  0
LINE
  5
3629
330
A
100
AcDbEntity
  8
0
  6
Continuous
 62
     7
100
AcDbLine
 10
-26.5
 20
-73.55
 30
0.0
 11
-24.5
 21
-73.55
 31
0.0
  0
LINE
  5
362A
330
A
100
AcDbEntity
  8
0
  6
Continuous
 62
     7
100
AcDbLine
 10
63.0
 20
-73.55
 30
0.0
 11
63.0
 21
-74.05
 31
0.0
  0
ARC
  5
362B
330
A
100
AcDbEntity
  8
0
  6
Continuous
 62
     7
100
AcDbCircle
 10
63.5
 20
-74.05
 30
0.0
 40
0.5
100
AcDbArc
 50
180.0
 51
270.0
  0
LINE
  5
362C
330
A
100
AcDbEntity
  8
0
  6
Continuous
 62
     7
100
AcDbLine
 10
63.5
 20
-74.55
 30
0.0
 11
65.76239600000008
 21
-74.55
 31
0.0
  0
ARC
  5
362D
330
A
100
AcDbEntity
  8
0
  6
Continuous
 62
     7
100
AcDbCircle
 10
65.76239600000008
 20
-84.55
 30
0.0
 40
10.0
100
AcDbArc
 50
29.99999999999729
 51
90.0
  0
LINE
  5
362E
330
A
100
AcDbEntity
  8
0
  6
Continuous
 62
     7
100
AcDbLine
 10
74.42264999999998
 20
-79.55
 30
0.0
 11
79.04145199999994
 21
-87.55
 31
0.0
  0
LINE
  5
362F
330
A
100
AcDbEntity
  8
0
  6
Continuous
 62
     7
100
AcDbLine
 10
79.04145199999994
 20
-87.55
 30
0.0
 11
67.5
 21
-87.55
 31
0.0
  0
LINE
  5
3630
330
A
100
AcDbEntity
  8
0
  6
Continuous
 62
     7
100
AcDbLine
 10
67.5
 20
-87.55
 30
0.0
 11
67.5
 21
-86.54999999999999
 31
0.0
  0
ARC
  5
3631
330
A
100
AcDbEntity
  8
0
  6
Continuous
 62
     7
100
AcDbCircle
 10
63.5
 20
-86.54999999999999
 30
0.0
 40
4.0
100
AcDbArc
 50
0.0
 51
90.0
  0
LINE
  5
3632
330
A
100
AcDbEntity
  8
0
  6
Continuous
 62
     7
100
AcDbLine
 10
63.5
 20
-82.55
 30
0.0
 11
60.0
 21
-82.55
 31
0.0
  0
ARC
  5
3633
330
A
100
AcDbEntity
  8
0
  6
Continuous
 62
     7
100
AcDbCircle
 10
60.0
 20
552.45
 30
0.0
 40
635.0
100
AcDbArc
 50
262.3529179999959
 51
270.0
  0
LINE
  5
3634
330
A
100
AcDbEntity
  8
0
  6
Continuous
 62
     7
100
AcDbLine
 10
-24.5
 20
-73.55
 30
0.0
 11
63.0
 21
-73.55
 31
0.0
  0
LINE
  5
3635
330
A
100
AcDbEntity
  8
0
  6
Continuous
 62
     7
100
AcDbLine
 10
79.04145199999994
 20
-87.55
 30
0.0
 11
79.33012699999995
 21
-88.04999999999997
 31
0.0
  0
LINE
  5
3636
330
A
100
AcDbEntity
  8
0
  6
Continuous
 62
     7
100
AcDbLine
 10
67.5
 20
-87.55
 30
0.0
 11
67.5
 21
-95.54999999999999
 31
0.0
  0
CIRCLE
  5
3637
330
A
100
AcDbEntity
  8
0
  6
Continuous
 62
     7
100
AcDbCircle
 10
75.0
 20
-95.54999999999999
 30
0.0
 40
5.299999999999998
  0
CIRCLE
  5
3638
330
A
100
AcDbEntity
  8
0
  6
Continuous
 62
     7
100
AcDbCircle
 10
75.0
 20
-95.54999999999999
 30
0.0
 40
6.0
  0
LINE
  5
3639
330
A
100
AcDbEntity
  8
0
  6
Continuous
 62
     7
100
AcDbLine
 10
80.0
 20
-88.04999999999997
 30
0.0
 11
75.0
 21
-88.04999999999997
 31
0.0
  0
ARC
  5
363A
330
A
100
AcDbEntity
  8
0
  6
Continuous
 62
     7
100
AcDbCircle
 10
80.0
 20
-87.05
 30
0.0
 40
1.0
100
AcDbArc
 50
270.0
 51
0.0
  0
LINE
  5
363B
330
A
100
AcDbEntity
  8
0
  6
Continuous
 62
     7
100
AcDbLine
 10
81.0
 20
-65.54999999999999
 30
0.0
 11
81.0
 21
-87.05
 31
0.0
  0
LINE
  5
363C
330
A
100
AcDbEntity
  8
0
  6
Continuous
 62
     7
100
AcDbLine
 10
85.0
 20
-65.54999999999999
 30
0.0
 11
81.0
 21
-65.54999999999999
 31
0.0
  0
LINE
  5
363D
330
A
100
AcDbEntity
  8
0
  6
Continuous
 62
     7
100
AcDbLine
 10
85.0
 20
-93.04999999999999
 30
0.0
 11
85.0
 21
-65.54999999999999
 31
0.0
  0
LINE
  5
363E
330
A
100
AcDbEntity
  8
0
  6
Continuous
 62
     7
100
AcDbLine
 10
81.54195299999992
 20
-99.21781300000001
 30
0.0
 11
85.0
 21
-93.04999999999999
 31
0.0
  0
ARC
  5
363F
330
A
100
AcDbEntity
  8
0
  6
Continuous
 62
     7
100
AcDbCircle
 10
75.0
 20
-95.54999999999999
 30
0.0
 40
7.5
100
AcDbArc
 50
180.0
 51
330.7223870000032
  0
ARC
  5
3640
330
A
100
AcDbEntity
  8
0
  6
Continuous
 62
     7
100
AcDbCircle
 10
75.0
 20
-95.54999999999999
 30
0.0
 40
7.5
100
AcDbArc
 50
90.0
 51
180.0
  0
LINE
  5
3641
330
A
100
AcDbEntity
  8
0
  6
Continuous
 62
     9
100
AcDbLine
 10
-0.5
 20
-62.95
 30
0.0
 11
-0.5
 21
-63.15000000000001
 31
0.0
  0
LINE
  5
3642
330
A
100
AcDbEntity
  8
0
  6
Continuous
 62
     9
100
AcDbLine
 10
-17.58974399999988
 20
-62.95
 30
0.0
 11
-17.58974399999988
 21
-63.15000000000001
 31
0.0
  0
LINE
  5
3643
330
A
100
AcDbEntity
  8
0
  6
Continuous
 62
     7
100
AcDbLine
 10
-17.58974399999988
 20
-63.15000000000001
 30
0.0
 11
-0.5
 21
-63.15000000000001
 31
0.0
  0
LINE
  5
3644
330
A
100
AcDbEntity
  8
0
  6
Continuous
 62
     9
100
AcDbLine
 10
56.0
 20
-63.15000000000001
 30
0.0
 11
56.0
 21
-62.95
 31
0.0
  0
LINE
  5
3645
330
A
100
AcDbEntity
  8
0
  6
Continuous
 62
     7
100
AcDbLine
 10
-0.5
 20
-63.15000000000001
 30
0.0
 11
56.0
 21
-63.15000000000001
 31
0.0
  0
LINE
  5
3646
330
A
100
AcDbEntity
  8
0
  6
Continuous
 62
     7
100
AcDbLine
 10
58.0
 20
-62.95
 30
0.0
 11
58.0
 21
-63.15000000000001
 31
0.0
  0
LINE
  5
3647
330
A
100
AcDbEntity
  8
0
  6
Continuous
 62
     7
100
AcDbLine
 10
58.0
 20
-63.15000000000001
 30
0.0
 11
56.0
 21
-63.15000000000001
 31
0.0
  0
LINE
  5
3648
330
A
100
AcDbEntity
  8
0
  6
Continuous
 62
     7
100
AcDbLine
 10
-18.0
 20
-63.15000000000001
 30
0.0
 11
-18.0
 21
-62.95
 31
0.0
  0
LINE
  5
3649
330
A
100
AcDbEntity
  8
0
  6
Continuous
 62
     7
100
AcDbLine
 10
-17.58974399999988
 20
-63.15000000000001
 30
0.0
 11
-18.0
 21
-63.15000000000001
 31
0.0
  0
LINE
  5
364A
330
A
100
AcDbEntity
  8
0
  6
Continuous
 62
     7
100
AcDbLine
 10
36.1500000000001
 20
-64.90000000000001
 30
0.0
 11
53.84963700000003
 21
-64.90000000000001
 31
0.0
  0
LINE
  5
364B
330
A
100
AcDbEntity
  8
0
  6
Continuous
 62
     7
100
AcDbLine
 10
36.1500000000001
 20
-71.4
 30
0.0
 11
53.84963700000003
 21
-71.4
 31
0.0
  0
LINE
  5
364C
330
A
100
AcDbEntity
  8
0
  6
Continuous
 62
     7
100
AcDbLine
 10
53.84963700000003
 20
-64.90000000000001
 30
0.0
 11
53.8499999999999
 21
-64.90000000000001
 31
0.0
  0
LINE
  5
364D
330
A
100
AcDbEntity
  8
0
  6
Continuous
 62
     7
100
AcDbLine
 10
53.84963700000003
 20
-71.4
 30
0.0
 11
53.8499999999999
 21
-71.4
 31
0.0
  0
LINE
  5
364E
330
A
100
AcDbEntity
  8
0
  6
Continuous
 62
     7
100
AcDbLine
 10
-8.836410999999998
 20
-64.90000000000001
 30
0.0
 11
8.863225999999938
 21
-64.90000000000001
 31
0.0
  0
LINE
  5
364F
330
A
100
AcDbEntity
  8
0
  6
Continuous
 62
     7
100
AcDbLine
 10
-8.836410999999998
 20
-71.4
 30
0.0
 11
8.863225999999938
 21
-71.4
 31
0.0
  0
LINE
  5
3650
330
A
100
AcDbEntity
  8
0
  6
Continuous
 62
     7
100
AcDbLine
 10
8.863225999999938
 20
-64.90000000000001
 30
0.0
 11
8.863589000000047
 21
-64.90000000000001
 31
0.0
  0
LINE
  5
3651
330
A
100
AcDbEntity
  8
0
  6
Continuous
 62
     7
100
AcDbLine
 10
8.863225999999938
 20
-71.4
 30
0.0
 11
8.863589000000047
 21
-71.4
 31
0.0
  0
LINE
  5
3652
330
A
100
AcDbEntity
  8
0
  6
Continuous
 62
     9
100
AcDbLine
 10
47.5
 20
-64.90000000000001
 30
0.0
 11
47.5
 21
-64.84999999999999
 31
0.0
  0
LINE
  5
3653
330
A
100
AcDbEntity
  8
0
  6
Continuous
 62
     9
100
AcDbLine
 10
42.5
 20
-64.84999999999999
 30
0.0
 11
42.5
 21
-64.90000000000001
 31
0.0
  0
LINE
  5
3654
330
A
100
AcDbEntity
  8
0
  6
Continuous
 62
     9
100
AcDbLine
 10
2.5
 20
-64.90000000000001
 30
0.0
 11
2.5
 21
-64.84999999999999
 31
0.0
  0
LINE
  5
3655
330
A
100
AcDbEntity
  8
0
  6
Continuous
 62
     9
100
AcDbLine
 10
-2.5
 20
-64.84999999999999
 30
0.0
 11
-2.5
 21
-64.90000000000001
 31
0.0
  0
LINE
  5
3656
330
A
100
AcDbEntity
  8
0
  6
Continuous
 62
     9
100
AcDbLine
 10
67.65142200000013
 20
-97.04999499999999
 30
0.0
 11
67.65153000000009
 21
-97.04999499999999
 31
0.0
  0
LINE
  5
3657
330
A
100
AcDbEntity
  8
0
  6
Continuous
 62
     9
100
AcDbLine
 10
67.65153000000009
 20
-94.05000499999999
 30
0.0
 11
67.65142200000013
 21
-94.05000499999999
 31
0.0
  0
LINE
  5
3658
330
A
100
AcDbEntity
  8
0
  6
Continuous
 62
     7
100
AcDbLine
 10
-4.90000000000009
 20
-71.4
 30
0.0
 11
-4.90000000000009
 21
-73.15000000000002
 31
0.0
  0
LINE
  5
3659
330
A
100
AcDbEntity
  8
0
  6
Continuous
 62
     7
100
AcDbLine
 10
4.90000000000009
 20
-73.15000000000002
 30
0.0
 11
4.90000000000009
 21
-71.4
 31
0.0
  0
LINE
  5
365A
330
A
100
AcDbEntity
  8
0
  6
Continuous
 62
     7
100
AcDbLine
 10
40.0999999999999
 20
-71.4
 30
0.0
 11
40.0999999999999
 21
-73.15000000000002
 31
0.0
  0
LINE
  5
365B
330
A
100
AcDbEntity
  8
0
  6
Continuous
 62
     7
100
AcDbLine
 10
49.90000000000009
 20
-73.15000000000002
 30
0.0
 11
49.90000000000009
 21
-71.4
 31
0.0
  0
LINE
  5
365C
330
A
100
AcDbEntity
  8
0
  6
Continuous
 62
     7
100
AcDbLine
 10
48.0
 20
-64.90000000000001
 30
0.0
 11
48.0
 21
-64.84999999999999
 31
0.0
  0
LINE
  5
365D
330
A
100
AcDbEntity
  8
0
  6
Continuous
 62
     7
100
AcDbLine
 10
48.0
 20
-64.84999999999999
 30
0.0
 11
48.0
 21
-64.845
 31
0.0
  0
LINE
  5
365E
330
A
100
AcDbEntity
  8
0
  6
Continuous
 62
     7
100
AcDbLine
 10
42.0
 20
-64.845
 30
0.0
 11
42.0
 21
-64.84999999999999
 31
0.0
  0
LINE
  5
365F
330
A
100
AcDbEntity
  8
0
  6
Continuous
 62
     7
100
AcDbLine
 10
42.0
 20
-64.84999999999999
 30
0.0
 11
42.0
 21
-64.90000000000001
 31
0.0
  0
LINE
  5
3660
330
A
100
AcDbEntity
  8
0
  6
Continuous
 62
     7
100
AcDbLine
 10
48.0
 20
-64.85499999999999
 30
0.0
 11
48.0
 21
-64.84999999999999
 31
0.0
  0
LINE
  5
3661
330
A
100
AcDbEntity
  8
0
  6
Continuous
 62
     7
100
AcDbLine
 10
48.0
 20
-64.84999999999999
 30
0.0
 11
48.0
 21
-63.15000000000001
 31
0.0
  0
LINE
  5
3662
330
A
100
AcDbEntity
  8
0
  6
Continuous
 62
     7
100
AcDbLine
 10
42.0
 20
-63.15000000000001
 30
0.0
 11
42.0
 21
-64.84999999999999
 31
0.0
  0
LINE
  5
3663
330
A
100
AcDbEntity
  8
0
  6
Continuous
 62
     7
100
AcDbLine
 10
42.0
 20
-64.84999999999999
 30
0.0
 11
42.0
 21
-64.85499999999999
 31
0.0
  0
LINE
  5
3664
330
A
100
AcDbEntity
  8
0
  6
Continuous
 62
     7
100
AcDbLine
 10
3.0
 20
-64.85499999999999
 30
0.0
 11
3.0
 21
-64.84999999999999
 31
0.0
  0
LINE
  5
3665
330
A
100
AcDbEntity
  8
0
  6
Continuous
 62
     7
100
AcDbLine
 10
3.0
 20
-64.84999999999999
 30
0.0
 11
3.0
 21
-63.15000000000001
 31
0.0
  0
LINE
  5
3666
330
A
100
AcDbEntity
  8
0
  6
Continuous
 62
     7
100
AcDbLine
 10
-3.0
 20
-63.15000000000001
 30
0.0
 11
-3.0
 21
-64.84999999999999
 31
0.0
  0
LINE
  5
3667
330
A
100
AcDbEntity
  8
0
  6
Continuous
 62
     7
100
AcDbLine
 10
-3.0
 20
-64.84999999999999
 30
0.0
 11
-3.0
 21
-64.85499999999999
 31
0.0
  0
LINE
  5
3668
330
A
100
AcDbEntity
  8
0
  6
Continuous
 62
     7
100
AcDbLine
 10
3.0
 20
-64.90000000000001
 30
0.0
 11
3.0
 21
-64.84999999999999
 31
0.0
  0
LINE
  5
3669
330
A
100
AcDbEntity
  8
0
  6
Continuous
 62
     7
100
AcDbLine
 10
3.0
 20
-64.84999999999999
 30
0.0
 11
3.0
 21
-64.845
 31
0.0
  0
LINE
  5
366A
330
A
100
AcDbEntity
  8
0
  6
Continuous
 62
     7
100
AcDbLine
 10
-3.0
 20
-64.845
 30
0.0
 11
-3.0
 21
-64.84999999999999
 31
0.0
  0
LINE
  5
366B
330
A
100
AcDbEntity
  8
0
  6
Continuous
 62
     7
100
AcDbLine
 10
-3.0
 20
-64.84999999999999
 30
0.0
 11
-3.0
 21
-64.90000000000001
 31
0.0
  0
LINE
  5
366C
330
A
100
AcDbEntity
  8
0
  6
Continuous
 62
     7
100
AcDbLine
 10
36.1500000000001
 20
-64.90000000000001
 30
0.0
 11
36.1500000000001
 21
-71.4
 31
0.0
  0
LINE
  5
366D
330
A
100
AcDbEntity
  8
0
  6
Continuous
 62
     7
100
AcDbLine
 10
53.8499999999999
 20
-71.4
 30
0.0
 11
53.8499999999999
 21
-64.90000000000001
 31
0.0
  0
LINE
  5
366E
330
A
100
AcDbEntity
  8
0
  6
Continuous
 62
     7
100
AcDbLine
 10
-8.836410999999998
 20
-64.90000000000001
 30
0.0
 11
-8.836410999999998
 21
-71.4
 31
0.0
  0
LINE
  5
366F
330
A
100
AcDbEntity
  8
0
  6
Continuous
 62
     7
100
AcDbLine
 10
8.863589000000047
 20
-71.4
 30
0.0
 11
8.863589000000047
 21
-64.90000000000001
 31
0.0
  0
LINE
  5
3670
330
A
100
AcDbEntity
  8
0
  6
Continuous
 62
     7
100
AcDbLine
 10
-63.0999999999999
 20
-3.000005000000001
 30
0.0
 11
-63.0999999999999
 21
0.0
 31
0.0
  0
LINE
  5
3671
330
A
100
AcDbEntity
  8
0
  6
Continuous
 62
     7
100
AcDbLine
 10
-63.0999999999999
 20
0.0
 30
0.0
 11
-63.0999999999999
 21
3.000005000000014
 31
0.0
  0
LINE
  5
3672
330
A
100
AcDbEntity
  8
0
  6
Continuous
 62
     9
100
AcDbLine
 10
-63.0999999999999
 20
-2.5
 30
0.0
 11
-63.0999999999999
 21
0.0
 31
0.0
  0
ARC
  5
3673
330
A
100
AcDbEntity
  8
0
  6
Continuous
 62
     9
100
AcDbCircle
 10
-58.70000000000004
 20
0.0
 30
0.0
 40
1.5
100
AcDbArc
 50
270.0
 51
180.0
  0
LINE
  5
3674
330
A
100
AcDbEntity
  8
0
  6
Continuous
 62
     7
100
AcDbLine
 10
-100.7999999999999
 20
-12.29999999999999
 30
0.0
 11
-93.79999999999997
 21
-12.29999999999999
 31
0.0
  0
LINE
  5
3675
330
A
100
AcDbEntity
  8
0
  6
Continuous
 62
     7
100
AcDbLine
 10
-100.7999999999999
 20
-12.8
 30
0.0
 11
-93.79999999999997
 21
-12.8
 31
0.0
  0
LINE
  5
3676
330
A
100
AcDbEntity
  8
0
  6
Continuous
 62
     7
100
AcDbLine
 10
-93.79999999999997
 20
-12.8
 30
0.0
 11
-86.79999999999997
 21
-12.8
 31
0.0
  0
LINE
  5
3677
330
A
100
AcDbEntity
  8
0
  6
Continuous
 62
     7
100
AcDbLine
 10
-93.79999999999997
 20
-12.29999999999999
 30
0.0
 11
-86.79999999999997
 21
-12.29999999999999
 31
0.0
  0
LINE
  5
3678
330
A
100
AcDbEntity
  8
0
  6
Continuous
 62
     7
100
AcDbLine
 10
-86.79999999999997
 20
12.30000000000001
 30
0.0
 11
-86.80959299999996
 21
12.30000000000001
 31
0.0
  0
LINE
  5
3679
330
A
100
AcDbEntity
  8
0
  6
Continuous
 62
     7
100
AcDbLine
 10
-86.80959299999996
 20
12.30000000000001
 30
0.0
 11
-93.79999900000006
 21
12.30000000000001
 31
0.0
  0
LINE
  5
367A
330
A
100
AcDbEntity
  8
0
  6
Continuous
 62
     7
100
AcDbLine
 10
-86.79999999999997
 20
12.80000000000001
 30
0.0
 11
-93.79999900000006
 21
12.80000000000001
 31
0.0
  0
LINE
  5
367B
330
A
100
AcDbEntity
  8
0
  6
Continuous
 62
     7
100
AcDbLine
 10
-93.79999900000006
 20
12.30000000000001
 30
0.0
 11
-100.7999999999999
 21
12.30000000000001
 31
0.0
  0
LINE
  5
367C
330
A
100
AcDbEntity
  8
0
  6
Continuous
 62
     7
100
AcDbLine
 10
-93.79999900000006
 20
12.80000000000001
 30
0.0
 11
-100.7999999999999
 21
12.80000000000001
 31
0.0
  0
CIRCLE
  5
367D
330
A
100
AcDbEntity
  8
0
  6
Continuous
 62
     7
100
AcDbCircle
 10
-58.70000000000004
 20
0.0
 30
0.0
 40
1.0
  0
LINE
  5
367E
330
A
100
AcDbEntity
  8
0
  6
Continuous
 62
     7
100
AcDbLine
 10
-59.45000000000003
 20
0.4330129999999885
 30
0.0
 11
-58.70000000000004
 21
0.8660250000000074
 31
0.0
  0
LINE
  5
367F
330
A
100
AcDbEntity
  8
0
  6
Continuous
 62
     7
100
AcDbLine
 10
-59.45000000000003
 20
-0.4330129999999885
 30
0.0
 11
-59.45000000000003
 21
0.4330129999999885
 31
0.0
  0
LINE
  5
3680
330
A
100
AcDbEntity
  8
0
  6
Continuous
 62
     7
100
AcDbLine
 10
-58.70000000000004
 20
-0.8660249999999932
 30
0.0
 11
-59.45000000000003
 21
-0.4330129999999885
 31
0.0
  0
LINE
  5
3681
330
A
100
AcDbEntity
  8
0
  6
Continuous
 62
     7
100
AcDbLine
 10
-57.95000000000005
 20
-0.4330129999999885
 30
0.0
 11
-58.70000000000004
 21
-0.8660249999999932
 31
0.0
  0
LINE
  5
3682
330
A
100
AcDbEntity
  8
0
  6
Continuous
 62
     7
100
AcDbLine
 10
-57.95000000000005
 20
0.4330129999999885
 30
0.0
 11
-57.95000000000005
 21
-0.4330129999999885
 31
0.0
  0
LINE
  5
3683
330
A
100
AcDbEntity
  8
0
  6
Continuous
 62
     7
100
AcDbLine
 10
-58.70000000000004
 20
0.8660250000000074
 30
0.0
 11
-57.95000000000005
 21
0.4330129999999885
 31
0.0
  0
LINE
  5
3684
330
A
100
AcDbEntity
  8
0
  6
Continuous
 62
     7
100
AcDbLine
 10
-55.20000000000004
 20
25.0
 30
0.0
 11
-61.20000000000004
 21
25.0
 31
0.0
  0
LINE
  5
3685
330
A
100
AcDbEntity
  8
0
  6
Continuous
 62
     7
100
AcDbLine
 10
-55.20000000000004
 20
-25.0
 30
0.0
 11
-61.20000000000004
 21
-25.0
 31
0.0
  0
CIRCLE
  5
3686
330
A
100
AcDbEntity
  8
0
  6
Continuous
 62
     7
100
AcDbCircle
 10
-58.70000000000004
 20
0.0
 30
0.0
 40
1.25
  0
LINE
  5
3687
330
A
100
AcDbEntity
  8
0
  6
Continuous
 62
     7
100
AcDbLine
 10
-61.20000000000004
 20
25.0
 30
0.0
 11
-61.20000000000004
 21
-25.0
 31
0.0
  0
LINE
  5
3688
330
A
100
AcDbEntity
  8
0
  6
Continuous
 62
     7
100
AcDbLine
 10
-55.20000000000004
 20
25.0
 30
0.0
 11
-55.20000000000004
 21
-25.0
 31
0.0
  0
LINE
  5
3689
330
A
100
AcDbEntity
  8
0
  6
Continuous
 62
     7
100
AcDbLine
 10
-71.40000000000009
 20
20.17490200000001
 30
0.0
 11
-71.40000000000009
 21
13.825098
 31
0.0
  0
LINE
  5
368A
330
A
100
AcDbEntity
  8
0
  6
Continuous
 62
     7
100
AcDbLine
 10
-71.40000000000009
 20
-13.825098
 30
0.0
 11
-71.40000000000009
 21
-20.17490200000001
 31
0.0
  0
LINE
  5
368B
330
A
100
AcDbEntity
  8
0
  6
Continuous
 62
     7
100
AcDbLine
 10
-90.04999999999997
 20
11.0
 30
0.0
 11
-101.2999999999999
 21
11.0
 31
0.0
  0
LINE
  5
368C
330
A
100
AcDbEntity
  8
0
  6
Continuous
 62
     9
100
AcDbLine
 10
-90.04999999999997
 20
11.0
 30
0.0
 11
-90.04999999999997
 21
-11.0
 31
0.0
  0
LINE
  5
368D
330
A
100
AcDbEntity
  8
0
  6
Continuous
 62
     7
100
AcDbLine
 10
-90.04999999999997
 20
-11.0
 30
0.0
 11
-101.2999999999999
 21
-11.0
 31
0.0
  0
LINE
  5
368E
330
A
100
AcDbEntity
  8
0
  6
Continuous
 62
     7
100
AcDbLine
 10
-85.79999999999996
 20
12.82665
 30
0.0
 11
-85.79999999999996
 21
11.0
 31
0.0
  0
LINE
  5
368F
330
A
100
AcDbEntity
  8
0
  6
Continuous
 62
     9
100
AcDbLine
 10
-77.79999999999995
 20
2.497998999999991
 30
0.0
 11
-77.79999999999995
 21
-2.497998999999991
 31
0.0
  0
LINE
  5
3690
330
A
100
AcDbEntity
  8
0
  6
Continuous
 62
     7
100
AcDbLine
 10
-85.79999999999996
 20
-11.0
 30
0.0
 11
-85.79999999999996
 21
-12.82665
 31
0.0
  0
LINE
  5
3691
330
A
100
AcDbEntity
  8
0
  6
Continuous
 62
     7
100
AcDbLine
 10
-85.79999999999996
 20
-11.0
 30
0.0
 11
-90.04999999999997
 21
-11.0
 31
0.0
  0
LINE
  5
3692
330
A
100
AcDbEntity
  8
0
  6
Continuous
 62
     7
100
AcDbLine
 10
-85.79999999999996
 20
11.0
 30
0.0
 11
-90.04999999999997
 21
11.0
 31
0.0
  0
LINE
  5
3693
330
A
100
AcDbEntity
  8
0
  6
Continuous
 62
     7
100
AcDbLine
 10
-72.79999999999995
 20
20.039737
 30
0.0
 11
-72.79999999999995
 21
13.960263
 31
0.0
  0
LINE
  5
3694
330
A
100
AcDbEntity
  8
0
  6
Continuous
 62
     7
100
AcDbLine
 10
-72.79999999999995
 20
-13.96026299999998
 30
0.0
 11
-72.79999999999995
 21
-20.03973700000002
 31
0.0
  0
LINE
  5
3695
330
A
100
AcDbEntity
  8
0
  6
Continuous
 62
     9
100
AcDbLine
 10
-72.29999999999995
 20
20.160696
 30
0.0
 11
-72.29999999999995
 21
13.839304
 31
0.0
  0
LINE
  5
3696
330
A
100
AcDbEntity
  8
0
  6
Continuous
 62
     9
100
AcDbLine
 10
-72.29999999999995
 20
-13.839304
 30
0.0
 11
-72.29999999999995
 21
-20.160696
 31
0.0
  0
LINE
  5
3697
330
A
100
AcDbEntity
  8
0
  6
Continuous
 62
     7
100
AcDbLine
 10
-71.79999999999996
 20
20.19999999999999
 30
0.0
 11
-71.79999999999996
 21
13.80000000000001
 31
0.0
  0
LINE
  5
3698
330
A
100
AcDbEntity
  8
0
  6
Continuous
 62
     7
100
AcDbLine
 10
-71.79999999999996
 20
-13.8
 30
0.0
 11
-71.79999999999996
 21
-20.2
 31
0.0
  0
LINE
  5
3699
330
A
100
AcDbEntity
  8
0
  6
Continuous
 62
     7
100
AcDbLine
 10
-87.79999999999997
 20
25.6
 30
0.0
 11
-99.79999999999996
 21
25.6
 31
0.0
  0
LINE
  5
369A
330
A
100
AcDbEntity
  8
0
  6
Continuous
 62
     7
100
AcDbLine
 10
-99.10000000000003
 20
26.30000000000001
 30
0.0
 11
-88.49999999999999
 21
26.30000000000001
 31
0.0
  0
LINE
  5
369B
330
A
100
AcDbEntity
  8
0
  6
Continuous
 62
     7
100
AcDbLine
 10
-88.49999999999999
 20
-26.3
 30
0.0
 11
-97.54067200000008
 21
-26.3
 31
0.0
  0
LINE
  5
369C
330
A
100
AcDbEntity
  8
0
  6
Continuous
 62
     7
100
AcDbLine
 10
-99.79999999999996
 20
-25.6
 30
0.0
 11
-98.03472300000008
 21
-25.6
 31
0.0
  0
LINE
  5
369D
330
A
100
AcDbEntity
  8
0
  6
Continuous
 62
     7
100
AcDbLine
 10
-97.54067200000008
 20
-26.3
 30
0.0
 11
-99.10000000000003
 21
-26.3
 31
0.0
  0
LINE
  5
369E
330
A
100
AcDbEntity
  8
0
  6
Continuous
 62
     7
100
AcDbLine
 10
-98.03472300000008
 20
-25.6
 30
0.0
 11
-87.79999999999997
 21
-25.6
 31
0.0
  0
LINE
  5
369F
330
A
100
AcDbEntity
  8
0
  6
Continuous
 62
     9
100
AcDbLine
 10
-97.46781300000009
 20
25.0
 30
0.0
 11
-97.46781300000009
 21
13.0
 31
0.0
  0
LINE
  5
36A0
330
A
100
AcDbEntity
  8
0
  6
Continuous
 62
     7
100
AcDbLine
 10
-91.29999999999997
 20
25.0
 30
0.0
 11
-91.29999999999997
 21
13.0
 31
0.0
  0
LINE
  5
36A1
330
A
100
AcDbEntity
  8
0
  6
Continuous
 62
     7
100
AcDbLine
 10
-91.29999999999997
 20
13.0
 30
0.0
 11
-97.46781300000009
 21
13.0
 31
0.0
  0
LINE
  5
36A2
330
A
100
AcDbEntity
  8
0
  6
Continuous
 62
     7
100
AcDbLine
 10
-97.46781300000009
 20
25.0
 30
0.0
 11
-91.29999999999997
 21
25.0
 31
0.0
  0
ARC
  5
36A3
330
A
100
AcDbEntity
  8
0
  6
Continuous
 62
     7
100
AcDbCircle
 10
-86.5
 20
-11.5
 30
0.0
 40
1.5
100
AcDbArc
 50
270.0
 51
0.0
  0
LINE
  5
36A4
330
A
100
AcDbEntity
  8
0
  6
Continuous
 62
     7
100
AcDbLine
 10
-85.0
 20
-11.5
 30
0.0
 11
-85.0
 21
11.5
 31
0.0
  0
ARC
  5
36A5
330
A
100
AcDbEntity
  8
0
  6
Continuous
 62
     7
100
AcDbCircle
 10
-86.5
 20
11.5
 30
0.0
 40
1.5
100
AcDbArc
 50
0.0
 51
90.0
  0
LINE
  5
36A6
330
A
100
AcDbEntity
  8
0
  6
Continuous
 62
     7
100
AcDbLine
 10
-86.5
 20
13.0
 30
0.0
 11
-91.29999999999997
 21
13.0
 31
0.0
  0
LINE
  5
36A7
330
A
100
AcDbEntity
  8
0
  6
Continuous
 62
     7
100
AcDbLine
 10
-91.29999999999997
 20
-25.0
 30
0.0
 11
-63.79999999999995
 21
-25.0
 31
0.0
  0
LINE
  5
36A8
330
A
100
AcDbEntity
  8
0
  6
Continuous
 62
     7
100
AcDbLine
 10
-91.29999999999997
 20
-13.0
 30
0.0
 11
-91.29999999999997
 21
-25.0
 31
0.0
  0
LINE
  5
36A9
330
A
100
AcDbEntity
  8
0
  6
Continuous
 62
     7
100
AcDbLine
 10
-91.29999999999997
 20
-13.0
 30
0.0
 11
-86.5
 21
-13.0
 31
0.0
  0
CIRCLE
  5
36AA
330
A
100
AcDbEntity
  8
0
  6
Continuous
 62
     7
100
AcDbCircle
 10
-71.79999999999996
 20
17.0
 30
0.0
 40
3.2
  0
CIRCLE
  5
36AB
330
A
100
AcDbEntity
  8
0
  6
Continuous
 62
     7
100
AcDbCircle
 10
-79.79999999999995
 20
0.0
 30
0.0
 40
3.2
  0
CIRCLE
  5
36AC
330
A
100
AcDbEntity
  8
0
  6
Continuous
 62
     7
100
AcDbCircle
 10
-71.79999999999996
 20
-17.0
 30
0.0
 40
3.2
  0
LINE
  5
36AD
330
A
100
AcDbEntity
  8
0
  6
Continuous
 62
     7
100
AcDbLine
 10
-91.29999999999997
 20
25.0
 30
0.0
 11
-63.79999999999995
 21
25.0
 31
0.0
  0
LINE
  5
36AE
330
A
100
AcDbEntity
  8
0
  6
Continuous
 62
     7
100
AcDbLine
 10
-63.79999999999995
 20
25.0
 30
0.0
 11
-63.79999999999995
 21
-25.0
 31
0.0
  0
LINE
  5
36AF
330
A
100
AcDbEntity
  8
0
  6
Continuous
 62
     7
100
AcDbLine
 10
-97.46781300000009
 20
-25.0
 30
0.0
 11
-91.29999999999997
 21
-25.0
 31
0.0
  0
LINE
  5
36B0
330
A
100
AcDbEntity
  8
0
  6
Continuous
 62
     9
100
AcDbLine
 10
-97.46781300000009
 20
-13.0
 30
0.0
 11
-97.46781300000009
 21
-25.0
 31
0.0
  0
LINE
  5
36B1
330
A
100
AcDbEntity
  8
0
  6
Continuous
 62
     7
100
AcDbLine
 10
-97.46781300000009
 20
-13.0
 30
0.0
 11
-91.29999999999997
 21
-13.0
 31
0.0
  0
LINE
  5
36B2
330
A
100
AcDbEntity
  8
0
  6
Continuous
 62
     7
100
AcDbLine
 10
-101.2999999999999
 20
25.0
 30
0.0
 11
-97.46781300000009
 21
25.0
 31
0.0
  0
LINE
  5
36B3
330
A
100
AcDbEntity
  8
0
  6
Continuous
 62
     7
100
AcDbLine
 10
-97.46781300000009
 20
13.0
 30
0.0
 11
-101.2999999999999
 21
13.0
 31
0.0
  0
LINE
  5
36B4
330
A
100
AcDbEntity
  8
0
  6
Continuous
 62
     7
100
AcDbLine
 10
-101.2999999999999
 20
-25.0
 30
0.0
 11
-97.46781300000009
 21
-25.0
 31
0.0
  0
LINE
  5
36B5
330
A
100
AcDbEntity
  8
0
  6
Continuous
 62
     7
100
AcDbLine
 10
-101.2999999999999
 20
-13.0
 30
0.0
 11
-97.46781300000009
 21
-13.0
 31
0.0
  0
LINE
  5
36B6
330
A
100
AcDbEntity
  8
0
  6
Continuous
 62
     7
100
AcDbLine
 10
-90.04999999999997
 20
11.0
 30
0.0
 11
-101.0499999999999
 21
11.0
 31
0.0
  0
LINE
  5
36B7
330
A
100
AcDbEntity
  8
0
  6
Continuous
 62
     7
100
AcDbLine
 10
-86.54999999999997
 20
12.30000000000001
 30
0.0
 11
-86.70358899999996
 21
12.30000000000001
 31
0.0
  0
LINE
  5
36B8
330
A
100
AcDbEntity
  8
0
  6
Continuous
 62
     7
100
AcDbLine
 10
-86.70358899999996
 20
12.30000000000001
 30
0.0
 11
-93.69994700000004
 21
12.30000000000001
 31
0.0
  0
LINE
  5
36B9
330
A
100
AcDbEntity
  8
0
  6
Continuous
 62
     7
100
AcDbLine
 10
-93.69994700000004
 20
12.30000000000001
 30
0.0
 11
-93.90005199999995
 21
12.30000000000001
 31
0.0
  0
LINE
  5
36BA
330
A
100
AcDbEntity
  8
0
  6
Continuous
 62
     7
100
AcDbLine
 10
-93.90005199999995
 20
12.30000000000001
 30
0.0
 11
-100.9010699999999
 21
12.30000000000001
 31
0.0
  0
LINE
  5
36BB
330
A
100
AcDbEntity
  8
0
  6
Continuous
 62
     7
100
AcDbLine
 10
-100.9010699999999
 20
12.30000000000001
 30
0.0
 11
-101.0499999999999
 21
12.30000000000001
 31
0.0
  0
LINE
  5
36BC
330
A
100
AcDbEntity
  8
0
  6
Continuous
 62
     7
100
AcDbLine
 10
-101.049932
 20
-11.0
 30
0.0
 11
-90.04999999999997
 21
-11.0
 31
0.0
  0
LINE
  5
36BD
330
A
100
AcDbEntity
  8
0
  6
Continuous
 62
     7
100
AcDbLine
 10
-101.049932
 20
-12.29999999999999
 30
0.0
 11
-86.54999999999997
 21
-12.29999999999999
 31
0.0
  0
LINE
  5
36BE
330
A
100
AcDbEntity
  8
0
  6
Continuous
 62
     9
100
AcDbLine
 10
-61.20000000000004
 20
19.5
 30
0.0
 11
-61.4000000000001
 21
19.5
 31
0.0
  0
LINE
  5
36BF
330
A
100
AcDbEntity
  8
0
  6
Continuous
 62
     7
100
AcDbLine
 10
-61.4000000000001
 20
19.5
 30
0.0
 11
-61.4000000000001
 21
21.5
 31
0.0
  0
LINE
  5
36C0
330
A
100
AcDbEntity
  8
0
  6
Continuous
 62
     7
100
AcDbLine
 10
-61.4000000000001
 20
21.5
 30
0.0
 11
-61.20000000000004
 21
21.5
 31
0.0
  0
LINE
  5
36C1
330
A
100
AcDbEntity
  8
0
  6
Continuous
 62
     9
100
AcDbLine
 10
-61.4000000000001
 20
-19.5
 30
0.0
 11
-61.20000000000004
 21
-19.5
 31
0.0
  0
LINE
  5
36C2
330
A
100
AcDbEntity
  8
0
  6
Continuous
 62
     7
100
AcDbLine
 10
-61.4000000000001
 20
19.5
 30
0.0
 11
-61.4000000000001
 21
-19.5
 31
0.0
  0
LINE
  5
36C3
330
A
100
AcDbEntity
  8
0
  6
Continuous
 62
     7
100
AcDbLine
 10
-61.20000000000004
 20
-21.5
 30
0.0
 11
-61.4000000000001
 21
-21.5
 31
0.0
  0
LINE
  5
36C4
330
A
100
AcDbEntity
  8
0
  6
Continuous
 62
     7
100
AcDbLine
 10
-61.4000000000001
 20
-21.5
 30
0.0
 11
-61.4000000000001
 21
-19.5
 31
0.0
  0
LINE
  5
36C5
330
A
100
AcDbEntity
  8
0
  6
Continuous
 62
     7
100
AcDbLine
 10
-63.1500000000001
 20
8.849999999999994
 30
0.0
 11
-63.1500000000001
 21
0.0801510000000008
 31
0.0
  0
LINE
  5
36C6
330
A
100
AcDbEntity
  8
0
  6
Continuous
 62
     7
100
AcDbLine
 10
-63.1500000000001
 20
0.0801510000000008
 30
0.0
 11
-63.1500000000001
 21
-8.849999999999994
 31
0.0
  0
LINE
  5
36C7
330
A
100
AcDbEntity
  8
0
  6
Continuous
 62
     7
100
AcDbLine
 10
-63.1500000000001
 20
7.350062000000008
 30
0.0
 11
-63.1500000000001
 21
3.087738999999998
 31
0.0
  0
LINE
  5
36C8
330
A
100
AcDbEntity
  8
0
  6
Continuous
 62
     7
100
AcDbLine
 10
-63.1500000000001
 20
3.087738999999998
 30
0.0
 11
-63.1500000000001
 21
3.0
 31
0.0
  0
LINE
  5
36C9
330
A
100
AcDbEntity
  8
0
  6
Continuous
 62
     7
100
AcDbLine
 10
-63.1500000000001
 20
-3.0
 30
0.0
 11
-63.1500000000001
 21
-3.087116999999991
 31
0.0
  0
LINE
  5
36CA
330
A
100
AcDbEntity
  8
0
  6
Continuous
 62
     7
100
AcDbLine
 10
-63.1500000000001
 20
-3.087116999999991
 30
0.0
 11
-63.1500000000001
 21
-8.849892999999994
 31
0.0
  0
LINE
  5
36CB
330
A
100
AcDbEntity
  8
0
  6
Continuous
 62
     7
100
AcDbLine
 10
-63.1500000000001
 20
-8.849892999999994
 30
0.0
 11
-63.1500000000001
 21
-10.34993799999999
 31
0.0
  0
LINE
  5
36CC
330
A
100
AcDbEntity
  8
0
  6
Continuous
 62
     9
100
AcDbLine
 10
-63.1500000000001
 20
-2.5
 30
0.0
 11
-63.0999999999999
 21
-2.5
 31
0.0
  0
LINE
  5
36CD
330
A
100
AcDbEntity
  8
0
  6
Continuous
 62
     9
100
AcDbLine
 10
-63.0999999999999
 20
2.5
 30
0.0
 11
-63.1500000000001
 21
2.5
 31
0.0
  0
LINE
  5
36CE
330
A
100
AcDbEntity
  8
0
  6
Continuous
 62
     7
100
AcDbLine
 10
-100.7999999999999
 20
-12.29999999999999
 30
0.0
 11
-100.7999999999999
 21
-12.8
 31
0.0
  0
LINE
  5
36CF
330
A
100
AcDbEntity
  8
0
  6
Continuous
 62
     7
100
AcDbLine
 10
-86.79999999999997
 20
-12.8
 30
0.0
 11
-86.79999999999997
 21
-12.29999999999999
 31
0.0
  0
LINE
  5
36D0
330
A
100
AcDbEntity
  8
0
  6
Continuous
 62
     7
100
AcDbLine
 10
-86.79999999999997
 20
12.30000000000001
 30
0.0
 11
-86.79999999999997
 21
12.80000000000001
 31
0.0
  0
LINE
  5
36D1
330
A
100
AcDbEntity
  8
0
  6
Continuous
 62
     7
100
AcDbLine
 10
-100.7999999999999
 20
12.80000000000001
 30
0.0
 11
-100.7999999999999
 21
12.30000000000001
 31
0.0
  0
LINE
  5
36D2
330
A
100
AcDbEntity
  8
0
  6
Continuous
 62
     7
100
AcDbLine
 10
-101.2999999999999
 20
11.0
 30
0.0
 11
-101.2999999999999
 21
-11.0
 31
0.0
  0
LINE
  5
36D3
330
A
100
AcDbEntity
  8
0
  6
Continuous
 62
     7
100
AcDbLine
 10
-99.79999999999996
 20
25.6
 30
0.0
 11
-99.79999999999996
 21
25.0
 31
0.0
  0
LINE
  5
36D4
330
A
100
AcDbEntity
  8
0
  6
Continuous
 62
     7
100
AcDbLine
 10
-87.79999999999997
 20
25.0
 30
0.0
 11
-87.79999999999997
 21
25.6
 31
0.0
  0
LINE
  5
36D5
330
A
100
AcDbEntity
  8
0
  6
Continuous
 62
     7
100
AcDbLine
 10
-87.79999999999997
 20
25.6
 30
0.0
 11
-88.49999999999999
 21
26.30000000000001
 31
0.0
  0
LINE
  5
36D6
330
A
100
AcDbEntity
  8
0
  6
Continuous
 62
     7
100
AcDbLine
 10
-99.10000000000003
 20
26.30000000000001
 30
0.0
 11
-99.79999999999996
 21
25.6
 31
0.0
  0
LINE
  5
36D7
330
A
100
AcDbEntity
  8
0
  6
Continuous
 62
     7
100
AcDbLine
 10
-99.79999999999996
 20
-25.6
 30
0.0
 11
-99.10000000000003
 21
-26.3
 31
0.0
  0
LINE
  5
36D8
330
A
100
AcDbEntity
  8
0
  6
Continuous
 62
     7
100
AcDbLine
 10
-88.49999999999999
 20
-26.3
 30
0.0
 11
-87.79999999999997
 21
-25.6
 31
0.0
  0
LINE
  5
36D9
330
A
100
AcDbEntity
  8
0
  6
Continuous
 62
     7
100
AcDbLine
 10
-87.79999999999997
 20
-25.6
 30
0.0
 11
-87.79999999999997
 21
-25.0
 31
0.0
  0
LINE
  5
36DA
330
A
100
AcDbEntity
  8
0
  6
Continuous
 62
     7
100
AcDbLine
 10
-99.79999999999996
 20
-25.0
 30
0.0
 11
-99.79999999999996
 21
-25.6
 31
0.0
  0
LINE
  5
36DB
330
A
100
AcDbEntity
  8
0
  6
Continuous
 62
     7
100
AcDbLine
 10
-101.2999999999999
 20
25.0
 30
0.0
 11
-101.2999999999999
 21
13.0
 31
0.0
  0
LINE
  5
36DC
330
A
100
AcDbEntity
  8
0
  6
Continuous
 62
     7
100
AcDbLine
 10
-101.2999999999999
 20
-13.0
 30
0.0
 11
-101.2999999999999
 21
-25.0
 31
0.0
  0
LINE
  5
36DD
330
A
100
AcDbEntity
  8
0
  6
Continuous
 62
     7
100
AcDbLine
 10
-97.79999999999997
 20
13.0
 30
0.0
 11
-97.79999999999997
 21
12.80000000000001
 31
0.0
  0
LINE
  5
36DE
330
A
100
AcDbEntity
  8
0
  6
Continuous
 62
     7
100
AcDbLine
 10
-97.79999999999997
 20
-12.8
 30
0.0
 11
-97.79999999999997
 21
-13.0
 31
0.0
  0
LINE
  5
36DF
330
A
100
AcDbEntity
  8
0
  6
Continuous
 62
     7
100
AcDbLine
 10
-89.79999999999996
 20
-13.0
 30
0.0
 11
-89.79999999999996
 21
-12.8
 31
0.0
  0
LINE
  5
36E0
330
A
100
AcDbEntity
  8
0
  6
Continuous
 62
     7
100
AcDbLine
 10
-89.79999999999996
 20
12.80000000000001
 30
0.0
 11
-89.79999999999996
 21
13.0
 31
0.0
  0
LINE
  5
36E1
330
A
100
AcDbEntity
  8
0
  6
Continuous
 62
     7
100
AcDbLine
 10
-86.54999999999997
 20
11.0
 30
0.0
 11
-86.54999999999997
 21
12.30000000000001
 31
0.0
  0
LINE
  5
36E2
330
A
100
AcDbEntity
  8
0
  6
Continuous
 62
     7
100
AcDbLine
 10
-101.0499999999999
 20
12.30000000000001
 30
0.0
 11
-101.0499999999999
 21
11.0
 31
0.0
  0
LINE
  5
36E3
330
A
100
AcDbEntity
  8
0
  6
Continuous
 62
     7
100
AcDbLine
 10
-101.0499999999999
 20
-11.0
 30
0.0
 11
-101.0499999999999
 21
-12.29999999999999
 31
0.0
  0
LINE
  5
36E4
330
A
100
AcDbEntity
  8
0
  6
Continuous
 62
     7
100
AcDbLine
 10
-86.54999999999997
 20
-12.29999999999999
 30
0.0
 11
-86.54999999999997
 21
-11.0
 31
0.0
  0
LINE
  5
36E5
330
A
100
AcDbEntity
  8
0
  6
Continuous
 62
     7
100
AcDbLine
 10
-63.10500000000001
 20
-3.0
 30
0.0
 11
-61.4000000000001
 21
-3.0
 31
0.0
  0
LINE
  5
36E6
330
A
100
AcDbEntity
  8
0
  6
Continuous
 62
     7
100
AcDbLine
 10
-61.4000000000001
 20
3.0
 30
0.0
 11
-63.0999999999999
 21
3.0
 31
0.0
  0
LINE
  5
36E7
330
A
100
AcDbEntity
  8
0
  6
Continuous
 62
     7
100
AcDbLine
 10
-63.0999999999999
 20
3.0
 30
0.0
 11
-63.10500000000001
 21
3.0
 31
0.0
  0
LINE
  5
36E8
330
A
100
AcDbEntity
  8
0
  6
Continuous
 62
     7
100
AcDbLine
 10
-63.1500000000001
 20
-3.0
 30
0.0
 11
-63.09500000000003
 21
-3.0
 31
0.0
  0
LINE
  5
36E9
330
A
100
AcDbEntity
  8
0
  6
Continuous
 62
     7
100
AcDbLine
 10
-63.09500000000003
 20
3.0
 30
0.0
 11
-63.0999999999999
 21
3.0
 31
0.0
  0
LINE
  5
36EA
330
A
100
AcDbEntity
  8
0
  6
Continuous
 62
     7
100
AcDbLine
 10
-63.0999999999999
 20
3.0
 30
0.0
 11
-63.1500000000001
 21
3.0
 31
0.0
  0
LINE
  5
36EB
330
A
100
AcDbEntity
  8
0
  6
Continuous
 62
     7
100
AcDbLine
 10
-63.1500000000001
 20
8.849999999999994
 30
0.0
 11
-63.79999999999995
 21
8.849999999999994
 31
0.0
  0
LINE
  5
36EC
330
A
100
AcDbEntity
  8
0
  6
Continuous
 62
     7
100
AcDbLine
 10
-63.79999999999995
 20
-8.849999999999994
 30
0.0
 11
-63.1500000000001
 21
-8.849999999999994
 31
0.0
  0
LINE
  5
36ED
330
A
100
AcDbEntity
  8
0
  6
Continuous
 62
     7
100
AcDbLine
 10
-63.79999999999995
 20
-10.34993799999999
 30
0.0
 11
-63.1500000000001
 21
-10.34993799999999
 31
0.0
  0
LINE
  5
36EE
330
A
100
AcDbEntity
  8
0
  6
Continuous
 62
     7
100
AcDbLine
 10
41.99999499999989
 20
64.84999999999999
 30
0.0
 11
48.0000050000001
 21
64.84999999999999
 31
0.0
  0
LINE
  5
36EF
330
A
100
AcDbEntity
  8
0
  6
Continuous
 62
     7
100
AcDbLine
 10
-3.000005000000101
 20
64.84999999999999
 30
0.0
 11
3.000005000000101
 21
64.84999999999999
 31
0.0
  0
LINE
  5
36F0
330
A
100
AcDbEntity
  8
0
  6
Continuous
 62
     9
100
AcDbLine
 10
-2.5
 20
64.84999999999999
 30
0.0
 11
2.5
 21
64.84999999999999
 31
0.0
  0
LINE
  5
36F1
330
A
100
AcDbEntity
  8
0
  6
Continuous
 62
     7
100
AcDbLine
 10
-26.5
 20
56.94999999999993
 30
0.0
 11
-26.5
 21
62.94999999999999
 31
0.0
  0
LINE
  5
36F2
330
A
100
AcDbEntity
  8
0
  6
Continuous
 62
     7
100
AcDbLine
 10
-26.5
 20
62.94999999999999
 30
0.0
 11
-24.5
 21
62.94999999999999
 31
0.0
  0
LINE
  5
36F3
330
A
100
AcDbEntity
  8
0
  6
Continuous
 62
     9
100
AcDbLine
 10
-24.5
 20
62.94999999999999
 30
0.0
 11
-24.5
 21
56.94999999999993
 31
0.0
  0
LINE
  5
36F4
330
A
100
AcDbEntity
  8
0
  6
Continuous
 62
     7
100
AcDbLine
 10
-24.5
 20
56.94999999999993
 30
0.0
 11
-26.5
 21
56.94999999999993
 31
0.0
  0
LINE
  5
36F5
330
A
100
AcDbEntity
  8
0
  6
Continuous
 62
     7
100
AcDbLine
 10
63.5
 20
56.94999999999993
 30
0.0
 11
63.5
 21
62.94999999999999
 31
0.0
  0
LINE
  5
36F6
330
A
100
AcDbEntity
  8
0
  6
Continuous
 62
     7
100
AcDbLine
 10
63.5
 20
62.94999999999999
 30
0.0
 11
-24.5
 21
62.94999999999999
 31
0.0
  0
LINE
  5
36F7
330
A
100
AcDbEntity
  8
0
  6
Continuous
 62
     7
100
AcDbLine
 10
63.5
 20
56.94999999999993
 30
0.0
 11
-24.5
 21
56.94999999999993
 31
0.0
  0
LINE
  5
36F8
330
A
100
AcDbEntity
  8
0
  6
Continuous
 62
     7
100
AcDbLine
 10
62.0
 20
73.55000000000003
 30
0.0
 11
62.0
 21
73.15000000000002
 31
0.0
  0
LINE
  5
36F9
330
A
100
AcDbEntity
  8
0
  6
Continuous
 62
     7
100
AcDbLine
 10
62.0
 20
73.15000000000002
 30
0.0
 11
60.0
 21
73.15000000000002
 31
0.0
  0
LINE
  5
36FA
330
A
100
AcDbEntity
  8
0
  6
Continuous
 62
     9
100
AcDbLine
 10
60.0
 20
73.15000000000002
 30
0.0
 11
60.0
 21
73.55000000000003
 31
0.0
  0
LINE
  5
36FB
330
A
100
AcDbEntity
  8
0
  6
Continuous
 62
     9
100
AcDbLine
 10
-24.0
 20
73.55000000000003
 30
0.0
 11
-24.0
 21
73.15000000000002
 31
0.0
  0
LINE
  5
36FC
330
A
100
AcDbEntity
  8
0
  6
Continuous
 62
     7
100
AcDbLine
 10
60.0
 20
73.15000000000002
 30
0.0
 11
-24.0
 21
73.15000000000002
 31
0.0
  0
LINE
  5
36FD
330
A
100
AcDbEntity
  8
0
  6
Continuous
 62
     7
100
AcDbLine
 10
-26.0
 20
73.15000000000002
 30
0.0
 11
-26.0
 21
73.55000000000003
 31
0.0
  0
LINE
  5
36FE
330
A
100
AcDbEntity
  8
0
  6
Continuous
 62
     7
100
AcDbLine
 10
-24.0
 20
73.15000000000002
 30
0.0
 11
-26.0
 21
73.15000000000002
 31
0.0
  0
LINE
  5
36FF
330
A
100
AcDbEntity
  8
0
  6
Continuous
 62
     7
100
AcDbLine
 10
63.5
 20
82.55
 30
0.0
 11
60.0
 21
82.55
 31
0.0
  0
ARC
  5
3700
330
A
100
AcDbEntity
  8
0
  6
Continuous
 62
     7
100
AcDbCircle
 10
63.5
 20
86.55000000000002
 30
0.0
 40
4.0
100
AcDbArc
 50
270.0
 51
0.0
  0
LINE
  5
3701
330
A
100
AcDbEntity
  8
0
  6
Continuous
 62
     7
100
AcDbLine
 10
67.5
 20
87.55
 30
0.0
 11
67.5
 21
86.55000000000002
 31
0.0
  0
ARC
  5
3702
330
A
100
AcDbEntity
  8
0
  6
Continuous
 62
     7
100
AcDbCircle
 10
65.76239600000008
 20
84.55000000000003
 30
0.0
 40
10.0
100
AcDbArc
 50
270.0
 51
330.0000000000027
  0
LINE
  5
3703
330
A
100
AcDbEntity
  8
0
  6
Continuous
 62
     7
100
AcDbLine
 10
63.5
 20
74.55000000000002
 30
0.0
 11
65.76239600000008
 21
74.55000000000002
 31
0.0
  0
ARC
  5
3704
330
A
100
AcDbEntity
  8
0
  6
Continuous
 62
     7
100
AcDbCircle
 10
63.5
 20
74.05000000000002
 30
0.0
 40
0.5
100
AcDbArc
 50
90.0
 51
180.0
  0
LINE
  5
3705
330
A
100
AcDbEntity
  8
0
  6
Continuous
 62
     7
100
AcDbLine
 10
63.0
 20
73.55000000000003
 30
0.0
 11
63.0
 21
74.05000000000002
 31
0.0
  0
LINE
  5
3706
330
A
100
AcDbEntity
  8
0
  6
Continuous
 62
     7
100
AcDbLine
 10
-24.5
 20
73.55000000000003
 30
0.0
 11
63.0
 21
73.55000000000003
 31
0.0
  0
LINE
  5
3707
330
A
100
AcDbEntity
  8
0
  6
Continuous
 62
     9
100
AcDbLine
 10
-24.5
 20
76.90264399999998
 30
0.0
 11
-24.5
 21
73.55000000000003
 31
0.0
  0
ARC
  5
3708
330
A
100
AcDbEntity
  8
0
  6
Continuous
 62
     7
100
AcDbCircle
 10
60.0
 20
-552.4499999999997
 30
0.0
 40
635.0
100
AcDbArc
 50
90.0
 51
97.6470820000042
  0
LINE
  5
3709
330
A
100
AcDbEntity
  8
0
  6
Continuous
 62
     7
100
AcDbLine
 10
79.04145199999994
 20
87.55
 30
0.0
 11
67.5
 21
87.55
 31
0.0
  0
LINE
  5
370A
330
A
100
AcDbEntity
  8
0
  6
Continuous
 62
     7
100
AcDbLine
 10
74.42264999999998
 20
79.55000000000002
 30
0.0
 11
79.04145199999994
 21
87.55
 31
0.0
  0
LINE
  5
370B
330
A
100
AcDbEntity
  8
0
  6
Continuous
 62
     7
100
AcDbLine
 10
-26.5
 20
73.55000000000003
 30
0.0
 11
-26.5
 21
76.630877
 31
0.0
  0
LINE
  5
370C
330
A
100
AcDbEntity
  8
0
  6
Continuous
 62
     7
100
AcDbLine
 10
-26.5
 20
76.630877
 30
0.0
 11
-24.5
 21
76.90264399999998
 31
0.0
  0
LINE
  5
370D
330
A
100
AcDbEntity
  8
0
  6
Continuous
 62
     7
100
AcDbLine
 10
-24.5
 20
73.55000000000003
 30
0.0
 11
-26.5
 21
73.55000000000003
 31
0.0
  0
LINE
  5
370E
330
A
100
AcDbEntity
  8
0
  6
Continuous
 62
     7
100
AcDbLine
 10
67.5
 20
87.55
 30
0.0
 11
67.5
 21
95.54999999999999
 31
0.0
  0
LINE
  5
370F
330
A
100
AcDbEntity
  8
0
  6
Continuous
 62
     7
100
AcDbLine
 10
79.04145199999994
 20
87.55
 30
0.0
 11
79.33012699999995
 21
88.05000000000003
 31
0.0
  0
CIRCLE
  5
3710
330
A
100
AcDbEntity
  8
0
  6
Continuous
 62
     7
100
AcDbCircle
 10
75.0
 20
95.54999999999999
 30
0.0
 40
5.299999999999998
  0
CIRCLE
  5
3711
330
A
100
AcDbEntity
  8
0
  6
Continuous
 62
     7
100
AcDbCircle
 10
75.0
 20
95.54999999999999
 30
0.0
 40
6.0
  0
ARC
  5
3712
330
A
100
AcDbEntity
  8
0
  6
Continuous
 62
     7
100
AcDbCircle
 10
75.0
 20
95.54999999999999
 30
0.0
 40
7.5
100
AcDbArc
 50
29.27761299999687
 51
180.0
  0
LINE
  5
3713
330
A
100
AcDbEntity
  8
0
  6
Continuous
 62
     7
100
AcDbLine
 10
81.54195299999992
 20
99.21781300000001
 30
0.0
 11
85.0
 21
93.04999999999999
 31
0.0
  0
LINE
  5
3714
330
A
100
AcDbEntity
  8
0
  6
Continuous
 62
     7
100
AcDbLine
 10
85.0
 20
65.55000000000001
 30
0.0
 11
81.0
 21
65.55000000000001
 31
0.0
  0
LINE
  5
3715
330
A
100
AcDbEntity
  8
0
  6
Continuous
 62
     7
100
AcDbLine
 10
81.0
 20
65.55000000000001
 30
0.0
 11
81.0
 21
87.05000000000003
 31
0.0
  0
ARC
  5
3716
330
A
100
AcDbEntity
  8
0
  6
Continuous
 62
     7
100
AcDbCircle
 10
80.0
 20
87.05000000000003
 30
0.0
 40
1.0
100
AcDbArc
 50
0.0
 51
90.0
  0
LINE
  5
3717
330
A
100
AcDbEntity
  8
0
  6
Continuous
 62
     7
100
AcDbLine
 10
80.0
 20
88.05000000000003
 30
0.0
 11
75.0
 21
88.05000000000003
 31
0.0
  0
ARC
  5
3718
330
A
100
AcDbEntity
  8
0
  6
Continuous
 62
     7
100
AcDbCircle
 10
75.0
 20
95.54999999999999
 30
0.0
 40
7.5
100
AcDbArc
 50
180.0
 51
270.0
  0
LINE
  5
3719
330
A
100
AcDbEntity
  8
0
  6
Continuous
 62
     7
100
AcDbLine
 10
85.0
 20
93.04999999999999
 30
0.0
 11
85.0
 21
65.55000000000001
 31
0.0
  0
LINE
  5
371A
330
A
100
AcDbEntity
  8
0
  6
Continuous
 62
     9
100
AcDbLine
 10
56.0
 20
62.94999999999999
 30
0.0
 11
56.0
 21
63.15000000000001
 31
0.0
  0
LINE
  5
371B
330
A
100
AcDbEntity
  8
0
  6
Continuous
 62
     7
100
AcDbLine
 10
58.0
 20
63.15000000000001
 30
0.0
 11
58.0
 21
62.94999999999999
 31
0.0
  0
LINE
  5
371C
330
A
100
AcDbEntity
  8
0
  6
Continuous
 62
     7
100
AcDbLine
 10
56.0
 20
63.15000000000001
 30
0.0
 11
58.0
 21
63.15000000000001
 31
0.0
  0
LINE
  5
371D
330
A
100
AcDbEntity
  8
0
  6
Continuous
 62
     9
100
AcDbLine
 10
-0.5
 20
62.94999999999999
 30
0.0
 11
-0.5
 21
63.15000000000001
 31
0.0
  0
LINE
  5
371E
330
A
100
AcDbEntity
  8
0
  6
Continuous
 62
     7
100
AcDbLine
 10
56.0
 20
63.15000000000001
 30
0.0
 11
-0.5
 21
63.15000000000001
 31
0.0
  0
LINE
  5
371F
330
A
100
AcDbEntity
  8
0
  6
Continuous
 62
     9
100
AcDbLine
 10
-17.58974399999988
 20
63.15000000000001
 30
0.0
 11
-17.58974399999988
 21
62.94999999999999
 31
0.0
  0
LINE
  5
3720
330
A
100
AcDbEntity
  8
0
  6
Continuous
 62
     7
100
AcDbLine
 10
-0.5
 20
63.15000000000001
 30
0.0
 11
-17.58974399999988
 21
63.15000000000001
 31
0.0
  0
LINE
  5
3721
330
A
100
AcDbEntity
  8
0
  6
Continuous
 62
     7
100
AcDbLine
 10
-18.0
 20
62.94999999999999
 30
0.0
 11
-18.0
 21
63.15000000000001
 31
0.0
  0
LINE
  5
3722
330
A
100
AcDbEntity
  8
0
  6
Continuous
 62
     7
100
AcDbLine
 10
-18.0
 20
63.15000000000001
 30
0.0
 11
-17.58974399999988
 21
63.15000000000001
 31
0.0
  0
LINE
  5
3723
330
A
100
AcDbEntity
  8
0
  6
Continuous
 62
     7
100
AcDbLine
 10
53.8499999999999
 20
64.90000000000001
 30
0.0
 11
36.1500000000001
 21
64.90000000000001
 31
0.0
  0
LINE
  5
3724
330
A
100
AcDbEntity
  8
0
  6
Continuous
 62
     7
100
AcDbLine
 10
53.8499999999999
 20
71.4
 30
0.0
 11
36.1500000000001
 21
71.4
 31
0.0
  0
LINE
  5
3725
330
A
100
AcDbEntity
  8
0
  6
Continuous
 62
     7
100
AcDbLine
 10
8.863589000000047
 20
64.90000000000001
 30
0.0
 11
-8.836410999999998
 21
64.90000000000001
 31
0.0
  0
LINE
  5
3726
330
A
100
AcDbEntity
  8
0
  6
Continuous
 62
     7
100
AcDbLine
 10
8.863589000000047
 20
71.4
 30
0.0
 11
-8.836410999999998
 21
71.4
 31
0.0
  0
LINE
  5
3727
330
A
100
AcDbEntity
  8
0
  6
Continuous
 62
     9
100
AcDbLine
 10
42.5
 20
64.90000000000001
 30
0.0
 11
42.5
 21
64.84999999999999
 31
0.0
  0
LINE
  5
3728
330
A
100
AcDbEntity
  8
0
  6
Continuous
 62
     9
100
AcDbLine
 10
47.5
 20
64.84999999999999
 30
0.0
 11
47.5
 21
64.90000000000001
 31
0.0
  0
LINE
  5
3729
330
A
100
AcDbEntity
  8
0
  6
Continuous
 62
     9
100
AcDbLine
 10
-2.5
 20
64.90000000000001
 30
0.0
 11
-2.5
 21
64.84999999999999
 31
0.0
  0
LINE
  5
372A
330
A
100
AcDbEntity
  8
0
  6
Continuous
 62
     9
100
AcDbLine
 10
2.5
 20
64.84999999999999
 30
0.0
 11
2.5
 21
64.90000000000001
 31
0.0
  0
LINE
  5
372B
330
A
100
AcDbEntity
  8
0
  6
Continuous
 62
     9
100
AcDbLine
 10
67.65153000000009
 20
97.04999500000004
 30
0.0
 11
67.65142200000013
 21
97.04999500000004
 31
0.0
  0
LINE
  5
372C
330
A
100
AcDbEntity
  8
0
  6
Continuous
 62
     7
100
AcDbLine
 10
49.90000000000009
 20
71.4
 30
0.0
 11
49.90000000000009
 21
73.15000000000002
 31
0.0
  0
LINE
  5
372D
330
A
100
AcDbEntity
  8
0
  6
Continuous
 62
     7
100
AcDbLine
 10
40.0999999999999
 20
73.15000000000002
 30
0.0
 11
40.0999999999999
 21
71.4
 31
0.0
  0
LINE
  5
372E
330
A
100
AcDbEntity
  8
0
  6
Continuous
 62
     7
100
AcDbLine
 10
4.90000000000009
 20
71.4
 30
0.0
 11
4.90000000000009
 21
73.15000000000002
 31
0.0
  0
LINE
  5
372F
330
A
100
AcDbEntity
  8
0
  6
Continuous
 62
     7
100
AcDbLine
 10
-4.90000000000009
 20
73.15000000000002
 30
0.0
 11
-4.90000000000009
 21
71.4
 31
0.0
  0
LINE
  5
3730
330
A
100
AcDbEntity
  8
0
  6
Continuous
 62
     7
100
AcDbLine
 10
42.0
 20
64.90000000000001
 30
0.0
 11
42.0
 21
64.84999999999999
 31
0.0
  0
LINE
  5
3731
330
A
100
AcDbEntity
  8
0
  6
Continuous
 62
     7
100
AcDbLine
 10
42.0
 20
64.84999999999999
 30
0.0
 11
42.0
 21
64.845
 31
0.0
  0
LINE
  5
3732
330
A
100
AcDbEntity
  8
0
  6
Continuous
 62
     7
100
AcDbLine
 10
48.0
 20
64.845
 30
0.0
 11
48.0
 21
64.84999999999999
 31
0.0
  0
LINE
  5
3733
330
A
100
AcDbEntity
  8
0
  6
Continuous
 62
     7
100
AcDbLine
 10
48.0
 20
64.84999999999999
 30
0.0
 11
48.0
 21
64.90000000000001
 31
0.0
  0
LINE
  5
3734
330
A
100
AcDbEntity
  8
0
  6
Continuous
 62
     7
100
AcDbLine
 10
42.0
 20
64.85499999999999
 30
0.0
 11
42.0
 21
64.84999999999999
 31
0.0
  0
LINE
  5
3735
330
A
100
AcDbEntity
  8
0
  6
Continuous
 62
     7
100
AcDbLine
 10
42.0
 20
64.84999999999999
 30
0.0
 11
42.0
 21
63.15000000000001
 31
0.0
  0
LINE
  5
3736
330
A
100
AcDbEntity
  8
0
  6
Continuous
 62
     7
100
AcDbLine
 10
48.0
 20
63.15000000000001
 30
0.0
 11
48.0
 21
64.84999999999999
 31
0.0
  0
LINE
  5
3737
330
A
100
AcDbEntity
  8
0
  6
Continuous
 62
     7
100
AcDbLine
 10
48.0
 20
64.84999999999999
 30
0.0
 11
48.0
 21
64.85499999999999
 31
0.0
  0
LINE
  5
3738
330
A
100
AcDbEntity
  8
0
  6
Continuous
 62
     7
100
AcDbLine
 10
-3.0
 20
64.85499999999999
 30
0.0
 11
-3.0
 21
64.84999999999999
 31
0.0
  0
LINE
  5
3739
330
A
100
AcDbEntity
  8
0
  6
Continuous
 62
     7
100
AcDbLine
 10
-3.0
 20
64.84999999999999
 30
0.0
 11
-3.0
 21
63.15000000000001
 31
0.0
  0
LINE
  5
373A
330
A
100
AcDbEntity
  8
0
  6
Continuous
 62
     7
100
AcDbLine
 10
3.0
 20
63.15000000000001
 30
0.0
 11
3.0
 21
64.84999999999999
 31
0.0
  0
LINE
  5
373B
330
A
100
AcDbEntity
  8
0
  6
Continuous
 62
     7
100
AcDbLine
 10
3.0
 20
64.84999999999999
 30
0.0
 11
3.0
 21
64.85499999999999
 31
0.0
  0
LINE
  5
373C
330
A
100
AcDbEntity
  8
0
  6
Continuous
 62
     7
100
AcDbLine
 10
-3.0
 20
64.90000000000001
 30
0.0
 11
-3.0
 21
64.84999999999999
 31
0.0
  0
LINE
  5
373D
330
A
100
AcDbEntity
  8
0
  6
Continuous
 62
     7
100
AcDbLine
 10
-3.0
 20
64.84999999999999
 30
0.0
 11
-3.0
 21
64.845
 31
0.0
  0
LINE
  5
373E
330
A
100
AcDbEntity
  8
0
  6
Continuous
 62
     7
100
AcDbLine
 10
3.0
 20
64.845
 30
0.0
 11
3.0
 21
64.84999999999999
 31
0.0
  0
LINE
  5
373F
330
A
100
AcDbEntity
  8
0
  6
Continuous
 62
     7
100
AcDbLine
 10
3.0
 20
64.84999999999999
 30
0.0
 11
3.0
 21
64.90000000000001
 31
0.0
  0
LINE
  5
3740
330
A
100
AcDbEntity
  8
0
  6
Continuous
 62
     7
100
AcDbLine
 10
53.8499999999999
 20
64.90000000000001
 30
0.0
 11
53.8499999999999
 21
71.4
 31
0.0
  0
LINE
  5
3741
330
A
100
AcDbEntity
  8
0
  6
Continuous
 62
     7
100
AcDbLine
 10
36.1500000000001
 20
71.4
 30
0.0
 11
36.1500000000001
 21
64.90000000000001
 31
0.0
  0
LINE
  5
3742
330
A
100
AcDbEntity
  8
0
  6
Continuous
 62
     7
100
AcDbLine
 10
8.863589000000047
 20
64.90000000000001
 30
0.0
 11
8.863589000000047
 21
71.4
 31
0.0
  0
LINE
  5
3743
330
A
100
AcDbEntity
  8
0
  6
Continuous
 62
     7
100
AcDbLine
 10
-8.836410999999998
 20
71.4
 30
0.0
 11
-8.836410999999998
 21
64.90000000000001
 31
0.0
  0
ARC
  5
405B
330
A
100
AcDbEntity
  8
0
  6
Continuous
 62
     9
100
AcDbCircle
 10
60.16979000000016
 20
19.49797000000001
 30
0.0
 40
7.481702999999997
100
AcDbArc
 50
348.4503410000018
 51
9.689840000000179
  0
LINE
  5
405C
330
A
100
AcDbEntity
  8
0
  6
Continuous
 62
     9
100
AcDbLine
 10
67.54475400000001
 20
20.75725
 30
0.0
 11
67.5
 21
20.99999499999999
 31
0.0
  0
LINE
  5
405D
330
A
100
AcDbEntity
  8
0
  6
Continuous
 62
     7
100
AcDbLine
 10
68.0
 20
-12.8
 30
0.0
 11
82.0
 21
-12.8
 31
0.0
  0
LINE
  5
405E
330
A
100
AcDbEntity
  8
0
  6
Continuous
 62
     7
100
AcDbLine
 10
82.0
 20
12.80000000000001
 30
0.0
 11
68.0
 21
12.80000000000001
 31
0.0
  0
LINE
  5
405F
330
A
100
AcDbEntity
  8
0
  6
Continuous
 62
     7
100
AcDbLine
 10
82.5
 20
11.0
 30
0.0
 11
67.5
 21
11.0
 31
0.0
  0
LINE
  5
4060
330
A
100
AcDbEntity
  8
0
  6
Continuous
 62
     7
100
AcDbLine
 10
82.5
 20
-11.0
 30
0.0
 11
67.5
 21
-11.0
 31
0.0
  0
LINE
  5
4061
330
A
100
AcDbEntity
  8
0
  6
Continuous
 62
     7
100
AcDbLine
 10
67.5
 20
11.0
 30
0.0
 11
67.5
 21
-11.0
 31
0.0
  0
LINE
  5
4062
330
A
100
AcDbEntity
  8
0
  6
Continuous
 62
     7
100
AcDbLine
 10
79.04145199999994
 20
12.98660700000002
 30
0.0
 11
79.04145199999994
 21
12.80000000000001
 31
0.0
  0
LINE
  5
4063
330
A
100
AcDbEntity
  8
0
  6
Continuous
 62
     7
100
AcDbLine
 10
67.5
 20
20.75
 30
0.0
 11
67.5
 21
18.25
 31
0.0
  0
LINE
  5
4064
330
A
100
AcDbEntity
  8
0
  6
Continuous
 62
     7
100
AcDbLine
 10
67.5
 20
13.0
 30
0.0
 11
67.5
 21
11.0
 31
0.0
  0
LINE
  5
4065
330
A
100
AcDbEntity
  8
0
  6
Continuous
 62
     7
100
AcDbLine
 10
79.04145199999994
 20
-12.8
 30
0.0
 11
79.04145199999994
 21
-12.98660700000001
 31
0.0
  0
LINE
  5
4066
330
A
100
AcDbEntity
  8
0
  6
Continuous
 62
     7
100
AcDbLine
 10
67.5
 20
-11.0
 30
0.0
 11
67.5
 21
-13.0
 31
0.0
  0
LINE
  5
4067
330
A
100
AcDbEntity
  8
0
  6
Continuous
 62
     9
100
AcDbLine
 10
63.5
 20
25.0
 30
0.0
 11
63.5
 21
-25.0
 31
0.0
  0
LINE
  5
4068
330
A
100
AcDbEntity
  8
0
  6
Continuous
 62
     7
100
AcDbLine
 10
63.5
 20
-25.0
 30
0.0
 11
67.5
 21
-25.0
 31
0.0
  0
LINE
  5
4069
330
A
100
AcDbEntity
  8
0
  6
Continuous
 62
     7
100
AcDbLine
 10
63.5
 20
25.0
 30
0.0
 11
67.5
 21
25.0
 31
0.0
  0
ARC
  5
406A
330
A
100
AcDbEntity
  8
0
  6
Continuous
 62
     7
100
AcDbCircle
 10
-24.5
 20
23.0
 30
0.0
 40
2.0
100
AcDbArc
 50
90.0
 51
180.0
  0
LINE
  5
406B
330
A
100
AcDbEntity
  8
0
  6
Continuous
 62
     9
100
AcDbLine
 10
60.0
 20
25.0
 30
0.0
 11
60.0
 21
-25.0
 31
0.0
  0
ARC
  5
406C
330
A
100
AcDbEntity
  8
0
  6
Continuous
 62
     7
100
AcDbCircle
 10
-24.49997200000007
 20
-22.999972
 30
0.0
 40
2.000027999999999
100
AcDbArc
 50
180.0008039999998
 51
269.999196000005
  0
LINE
  5
406D
330
A
100
AcDbEntity
  8
0
  6
Continuous
 62
     7
100
AcDbLine
 10
-26.5
 20
23.0
 30
0.0
 11
-26.5
 21
-23.0
 31
0.0
  0
LINE
  5
406E
330
A
100
AcDbEntity
  8
0
  6
Continuous
 62
     7
100
AcDbLine
 10
60.0
 20
-25.0
 30
0.0
 11
-24.5
 21
-25.0
 31
0.0
  0
LINE
  5
406F
330
A
100
AcDbEntity
  8
0
  6
Continuous
 62
     7
100
AcDbLine
 10
60.0
 20
25.0
 30
0.0
 11
-24.5
 21
25.0
 31
0.0
  0
LINE
  5
4070
330
A
100
AcDbEntity
  8
0
  6
Continuous
 62
     7
100
AcDbLine
 10
63.5
 20
-25.0
 30
0.0
 11
60.0
 21
-25.0
 31
0.0
  0
LINE
  5
4071
330
A
100
AcDbEntity
  8
0
  6
Continuous
 62
     7
100
AcDbLine
 10
63.5
 20
25.0
 30
0.0
 11
60.0
 21
25.0
 31
0.0
  0
LINE
  5
4072
330
A
100
AcDbEntity
  8
0
  6
Continuous
 62
     7
100
AcDbLine
 10
81.0
 20
25.6
 30
0.0
 11
69.0
 21
25.6
 31
0.0
  0
LINE
  5
4073
330
A
100
AcDbEntity
  8
0
  6
Continuous
 62
     7
100
AcDbLine
 10
69.70000000000005
 20
26.30000000000001
 30
0.0
 11
80.29999999999995
 21
26.30000000000001
 31
0.0
  0
LINE
  5
4074
330
A
100
AcDbEntity
  8
0
  6
Continuous
 62
     7
100
AcDbLine
 10
80.29999999999995
 20
-26.3
 30
0.0
 11
78.75464699999998
 21
-26.3
 31
0.0
  0
LINE
  5
4075
330
A
100
AcDbEntity
  8
0
  6
Continuous
 62
     7
100
AcDbLine
 10
69.0
 20
-25.6
 30
0.0
 11
79.25054399999997
 21
-25.6
 31
0.0
  0
LINE
  5
4076
330
A
100
AcDbEntity
  8
0
  6
Continuous
 62
     7
100
AcDbLine
 10
78.75464699999998
 20
-26.3
 30
0.0
 11
69.70000000000005
 21
-26.3
 31
0.0
  0
LINE
  5
4077
330
A
100
AcDbEntity
  8
0
  6
Continuous
 62
     7
100
AcDbLine
 10
79.25054399999997
 20
-25.6
 30
0.0
 11
81.0
 21
-25.6
 31
0.0
  0
LINE
  5
4078
330
A
100
AcDbEntity
  8
0
  6
Continuous
 62
     7
100
AcDbLine
 10
67.5
 20
25.0
 30
0.0
 11
81.54195299999992
 21
25.0
 31
0.0
  0
LINE
  5
4079
330
A
100
AcDbEntity
  8
0
  6
Continuous
 62
     9
100
AcDbLine
 10
81.54195299999992
 20
25.0
 30
0.0
 11
81.54195299999992
 21
13.0
 31
0.0
  0
LINE
  5
407A
330
A
100
AcDbEntity
  8
0
  6
Continuous
 62
     7
100
AcDbLine
 10
81.54195299999992
 20
13.0
 30
0.0
 11
67.5
 21
13.0
 31
0.0
  0
LINE
  5
407B
330
A
100
AcDbEntity
  8
0
  6
Continuous
 62
     7
100
AcDbLine
 10
67.5
 20
18.00000500000001
 30
0.0
 11
67.5
 21
13.0
 31
0.0
  0
ARC
  5
407C
330
A
100
AcDbEntity
  8
0
  6
Continuous
 62
     7
100
AcDbCircle
 10
60.10484100000008
 20
19.5
 30
0.0
 40
7.500058999999997
100
AcDbArc
 50
350.4060080000002
 51
9.593991999999849
  0
LINE
  5
407D
330
A
100
AcDbEntity
  8
0
  6
Continuous
 62
     7
100
AcDbLine
 10
67.5
 20
25.0
 30
0.0
 11
67.5
 21
20.99999499999999
 31
0.0
  0
LINE
  5
407E
330
A
100
AcDbEntity
  8
0
  6
Continuous
 62
     9
100
AcDbLine
 10
81.54195299999992
 20
-13.0
 30
0.0
 11
81.54195299999992
 21
-25.0
 31
0.0
  0
LINE
  5
407F
330
A
100
AcDbEntity
  8
0
  6
Continuous
 62
     7
100
AcDbLine
 10
67.5
 20
-25.0
 30
0.0
 11
81.54195299999992
 21
-25.0
 31
0.0
  0
LINE
  5
4080
330
A
100
AcDbEntity
  8
0
  6
Continuous
 62
     7
100
AcDbLine
 10
67.5
 20
-13.0
 30
0.0
 11
67.5
 21
-25.0
 31
0.0
  0
LINE
  5
4081
330
A
100
AcDbEntity
  8
0
  6
Continuous
 62
     7
100
AcDbLine
 10
67.5
 20
-13.0
 30
0.0
 11
81.54195299999992
 21
-13.0
 31
0.0
  0
LINE
  5
4082
330
A
100
AcDbEntity
  8
0
  6
Continuous
 62
     7
100
AcDbLine
 10
85.0
 20
25.0
 30
0.0
 11
85.0
 21
13.0
 31
0.0
  0
LINE
  5
4083
330
A
100
AcDbEntity
  8
0
  6
Continuous
 62
     7
100
AcDbLine
 10
85.0
 20
13.0
 30
0.0
 11
81.54195299999992
 21
13.0
 31
0.0
  0
LINE
  5
4084
330
A
100
AcDbEntity
  8
0
  6
Continuous
 62
     7
100
AcDbLine
 10
81.54195299999992
 20
25.0
 30
0.0
 11
85.0
 21
25.0
 31
0.0
  0
LINE
  5
4085
330
A
100
AcDbEntity
  8
0
  6
Continuous
 62
     7
100
AcDbLine
 10
85.0
 20
-13.0
 30
0.0
 11
85.0
 21
-25.0
 31
0.0
  0
LINE
  5
4086
330
A
100
AcDbEntity
  8
0
  6
Continuous
 62
     7
100
AcDbLine
 10
81.54195299999992
 20
-25.0
 30
0.0
 11
85.0
 21
-25.0
 31
0.0
  0
LINE
  5
4087
330
A
100
AcDbEntity
  8
0
  6
Continuous
 62
     7
100
AcDbLine
 10
81.54195299999992
 20
-13.0
 30
0.0
 11
85.0
 21
-13.0
 31
0.0
  0
LINE
  5
4088
330
A
100
AcDbEntity
  8
0
  6
Continuous
 62
     7
100
AcDbLine
 10
67.5
 20
18.25
 30
0.0
 11
67.50024800000004
 21
18.251486
 31
0.0
  0
LINE
  5
4090
330
A
100
AcDbEntity
  8
0
  6
Continuous
 62
     7
100
AcDbLine
 10
80.0
 20
12.98660700000002
 30
0.0
 11
79.0
 21
12.98660700000002
 31
0.0
  0
LINE
  5
4091
330
A
100
AcDbEntity
  8
0
  6
Continuous
 62
     9
100
AcDbLine
 10
85.0
 20
11.5
 30
0.0
 11
82.24999999999999
 21
11.5
 31
0.0
  0
LINE
  5
4092
330
A
100
AcDbEntity
  8
0
  6
Continuous
 62
     7
100
AcDbLine
 10
85.0
 20
11.5
 30
0.0
 11
85.0
 21
13.0
 31
0.0
  0
LINE
  5
4093
330
A
100
AcDbEntity
  8
0
  6
Continuous
 62
     7
100
AcDbLine
 10
79.0
 20
-12.98660700000001
 30
0.0
 11
80.0
 21
-12.98660700000001
 31
0.0
  0
LINE
  5
409B
330
A
100
AcDbEntity
  8
0
  6
Continuous
 62
     9
100
AcDbLine
 10
82.24999999999999
 20
-11.5
 30
0.0
 11
85.0
 21
-11.5
 31
0.0
  0
LINE
  5
409C
330
A
100
AcDbEntity
  8
0
  6
Continuous
 62
     7
100
AcDbLine
 10
85.0
 20
-13.0
 30
0.0
 11
85.0
 21
-11.5
 31
0.0
  0
LINE
  5
409D
330
A
100
AcDbEntity
  8
0
  6
Continuous
 62
     7
100
AcDbLine
 10
85.0
 20
-11.5
 30
0.0
 11
85.0
 21
11.5
 31
0.0
  0
LINE
  5
409E
330
A
100
AcDbEntity
  8
0
  6
Continuous
 62
     7
100
AcDbLine
 10
82.24999999999999
 20
12.30000000000001
 30
0.0
 11
67.75
 21
12.30000000000001
 31
0.0
  0
LINE
  5
409F
330
A
100
AcDbEntity
  8
0
  6
Continuous
 62
     7
100
AcDbLine
 10
67.75
 20
-12.29999999999999
 30
0.0
 11
75.03132499999992
 21
-12.29999999999999
 31
0.0
  0
LINE
  5
40A0
330
A
100
AcDbEntity
  8
0
  6
Continuous
 62
     7
100
AcDbLine
 10
75.03132499999992
 20
-12.29999999999999
 30
0.0
 11
82.24999999999999
 21
-12.29999999999999
 31
0.0
  0
LINE
  5
40A1
330
A
100
AcDbEntity
  8
0
  6
Continuous
 62
     7
100
AcDbLine
 10
68.0
 20
-12.29999999999999
 30
0.0
 11
68.0
 21
-12.8
 31
0.0
  0
LINE
  5
40A2
330
A
100
AcDbEntity
  8
0
  6
Continuous
 62
     7
100
AcDbLine
 10
82.0
 20
-12.8
 30
0.0
 11
82.0
 21
-12.29999999999999
 31
0.0
  0
LINE
  5
40A3
330
A
100
AcDbEntity
  8
0
  6
Continuous
 62
     7
100
AcDbLine
 10
82.0
 20
12.30000000000001
 30
0.0
 11
82.0
 21
12.80000000000001
 31
0.0
  0
LINE
  5
40A4
330
A
100
AcDbEntity
  8
0
  6
Continuous
 62
     7
100
AcDbLine
 10
68.0
 20
12.80000000000001
 30
0.0
 11
68.0
 21
12.30000000000001
 31
0.0
  0
LINE
  5
40A5
330
A
100
AcDbEntity
  8
0
  6
Continuous
 62
     7
100
AcDbLine
 10
82.5
 20
-11.0
 30
0.0
 11
82.5
 21
11.0
 31
0.0
  0
LINE
  5
40A6
330
A
100
AcDbEntity
  8
0
  6
Continuous
 62
     7
100
AcDbLine
 10
69.0
 20
25.6
 30
0.0
 11
69.0
 21
25.0
 31
0.0
  0
LINE
  5
40A7
330
A
100
AcDbEntity
  8
0
  6
Continuous
 62
     7
100
AcDbLine
 10
81.0
 20
25.0
 30
0.0
 11
81.0
 21
25.6
 31
0.0
  0
LINE
  5
40A8
330
A
100
AcDbEntity
  8
0
  6
Continuous
 62
     7
100
AcDbLine
 10
81.0
 20
25.6
 30
0.0
 11
80.29999999999995
 21
26.30000000000001
 31
0.0
  0
LINE
  5
40A9
330
A
100
AcDbEntity
  8
0
  6
Continuous
 62
     7
100
AcDbLine
 10
69.70000000000005
 20
26.30000000000001
 30
0.0
 11
69.0
 21
25.6
 31
0.0
  0
LINE
  5
40AA
330
A
100
AcDbEntity
  8
0
  6
Continuous
 62
     7
100
AcDbLine
 10
69.0
 20
-25.6
 30
0.0
 11
69.70000000000005
 21
-26.3
 31
0.0
  0
LINE
  5
40AB
330
A
100
AcDbEntity
  8
0
  6
Continuous
 62
     7
100
AcDbLine
 10
80.29999999999995
 20
-26.3
 30
0.0
 11
81.0
 21
-25.6
 31
0.0
  0
LINE
  5
40AC
330
A
100
AcDbEntity
  8
0
  6
Continuous
 62
     7
100
AcDbLine
 10
81.0
 20
-25.6
 30
0.0
 11
81.0
 21
-25.0
 31
0.0
  0
LINE
  5
40AD
330
A
100
AcDbEntity
  8
0
  6
Continuous
 62
     7
100
AcDbLine
 10
69.0
 20
-25.0
 30
0.0
 11
69.0
 21
-25.6
 31
0.0
  0
LINE
  5
40AE
330
A
100
AcDbEntity
  8
0
  6
Continuous
 62
     7
100
AcDbLine
 10
71.0
 20
13.0
 30
0.0
 11
71.0
 21
12.80000000000001
 31
0.0
  0
LINE
  5
40AF
330
A
100
AcDbEntity
  8
0
  6
Continuous
 62
     7
100
AcDbLine
 10
71.0
 20
-12.8
 30
0.0
 11
71.0
 21
-13.0
 31
0.0
  0
LINE
  5
40B0
330
A
100
AcDbEntity
  8
0
  6
Continuous
 62
     7
100
AcDbLine
 10
79.0
 20
-13.0
 30
0.0
 11
79.0
 21
-12.8
 31
0.0
  0
LINE
  5
40B1
330
A
100
AcDbEntity
  8
0
  6
Continuous
 62
     7
100
AcDbLine
 10
79.0
 20
12.80000000000001
 30
0.0
 11
79.0
 21
13.0
 31
0.0
  0
LINE
  5
40B2
330
A
100
AcDbEntity
  8
0
  6
Continuous
 62
     7
100
AcDbLine
 10
82.24999999999999
 20
11.0
 30
0.0
 11
82.24999999999999
 21
12.30000000000001
 31
0.0
  0
LINE
  5
40B3
330
A
100
AcDbEntity
  8
0
  6
Continuous
 62
     7
100
AcDbLine
 10
67.75
 20
12.30000000000001
 30
0.0
 11
67.75
 21
11.0
 31
0.0
  0
LINE
  5
40B4
330
A
100
AcDbEntity
  8
0
  6
Continuous
 62
     7
100
AcDbLine
 10
67.75
 20
-11.0
 30
0.0
 11
67.75
 21
-12.29999999999999
 31
0.0
  0
LINE
  5
40B5
330
A
100
AcDbEntity
  8
0
  6
Continuous
 62
     7
100
AcDbLine
 10
82.24999999999999
 20
-12.29999999999999
 30
0.0
 11
82.24999999999999
 21
-11.0
 31
0.0
  0
ARC
  5
43A4
330
A
100
AcDbEntity
  8
0
  6
Continuous
 62
     7
100
AcDbCircle
 10
143.979646219198
 20
-23.19601444228078
 30
0.0
 40
8.101140939856215
100
AcDbArc
 50
178.6135414173662
 51
191.7190546371544
  0
LINE
  5
43A5
330
A
100
AcDbEntity
  8
0
  6
Continuous
 62
     7
100
AcDbLine
 10
136.0473710000001
 20
-24.841461
 30
0.0
 11
136.09121
 21
-24.94725200000001
 31
0.0
  0
LINE
  5
43A6
330
A
100
AcDbEntity
  8
0
  6
Continuous
 62
     7
100
AcDbLine
 10
136.09121
 20
-24.94725200000001
 30
0.0
 11
136.152644
 21
-25.0
 31
0.0
  0
LINE
  5
43A7
330
A
100
AcDbEntity
  8
0
  6
Continuous
 62
     7
100
AcDbLine
 10
136.152644
 20
25.0
 30
0.0
 11
136.0739060000001
 21
24.912722
 31
0.0
  0
ARC
  5
43A8
330
A
100
AcDbEntity
  8
0
  6
Continuous
 62
     7
100
AcDbCircle
 10
142.9961089585279
 20
23.24804269116967
 30
0.0
 40
7.119554129319119
100
AcDbArc
 50
166.478046787466
 51
181.9965682828413
  0
TEXT
  5
4409
330
A
100
AcDbEntity
  8
0
  6
Continuous
 62
     7
370
     0
100
AcDbText
 10
103.4068572723281
 20
75.01464128843341
 30
0.0
 40
20.0
  1
8665
100
AcDbText
  0
ARC
  5
440A
330
A
100
AcDbEntity
  8
0
  6
Continuous
 62
     7
100
AcDbCircle
 10
80.05576115527809
 20
-9.289644402089592
 30
0.0
 40
3.697383095756573
100
AcDbArc
 50
269.1358753212099
 51
278.1420292346671
  0
LINE
  5
440B
330
A
100
AcDbEntity
  8
0
  6
Continuous
 62
     7
100
AcDbLine
 10
80.5794119999998
 20
-12.949758
 30
0.0
 11
80.70042899999998
 21
-12.91898700000001
 31
0.0
  0
LINE
  5
440C
330
A
100
AcDbEntity
  8
0
  6
Continuous
 62
     7
100
AcDbLine
 10
80.70042899999998
 20
-12.91898700000001
 30
0.0
 11
80.80274899999995
 21
-12.873152
 31
0.0
  0
LINE
  5
440D
330
A
100
AcDbEntity
  8
0
  6
Continuous
 62
     7
100
AcDbLine
 10
80.80274899999995
 20
-12.873152
 30
0.0
 11
80.89213300000007
 21
-12.80006000000001
 31
0.0
  0
LINE
  5
440E
330
A
100
AcDbEntity
  8
0
  6
Continuous
 62
     7
100
AcDbLine
 10
80.89210200000001
 20
12.80009599999999
 30
0.0
 11
80.80019700000002
 21
12.87465199999999
 31
0.0
  0
LINE
  5
440F
330
A
100
AcDbEntity
  8
0
  6
Continuous
 62
     7
100
AcDbLine
 10
80.80019700000002
 20
12.87465199999999
 30
0.0
 11
80.69868900000008
 21
12.91956899999999
 31
0.0
  0
LINE
  5
4410
330
A
100
AcDbEntity
  8
0
  6
Continuous
 62
     7
100
AcDbLine
 10
80.69868900000008
 20
12.91956899999999
 30
0.0
 11
80.58448499999986
 21
12.94878899999998
 31
0.0
  0
ARC
  5
4411
330
A
100
AcDbEntity
  8
0
  6
Continuous
 62
     7
100
AcDbCircle
 10
80.08348093930999
 20
9.741244967066279
 30
0.0
 40
3.246435551806883
100
AcDbArc
 50
81.12238704100546
 51
91.47350307909444
  0
CIRCLE
  5
4492
330
A
100
AcDbEntity
  8
0
  6
CENTER
 62
     1
100
AcDbCircle
 10
0.0
 20
0.0
 30
0.0
 40
9.0
  0
CIRCLE
  5
4493
330
A
100
AcDbEntity
  8
0
  6
CENTER
 62
     1
100
AcDbCircle
 10
45.0
 20
0.0
 30
0.0
 40
9.0
  0
LINE
  5
4494
330
A
100
AcDbEntity
  8
0
  6
CENTER
 62
     1
100
AcDbLine
 10
-11.20000000000004
 20
0.0
 30
0.0
 11
11.20000000000004
 21
0.0
 31
0.0
  0
LINE
  5
4495
330
A
100
AcDbEntity
  8
0
  6
CENTER
 62
     1
100
AcDbLine
 10
0.0
 20
-11.19999999999999
 30
0.0
 11
0.0
 21
11.19999999999999
 31
0.0
  0
LINE
  5
4496
330
A
100
AcDbEntity
  8
0
  6
CENTER
 62
     1
100
AcDbLine
 10
33.79999999999995
 20
0.0
 30
0.0
 11
56.20000000000004
 21
0.0
 31
0.0
  0
LINE
  5
4497
330
A
100
AcDbEntity
  8
0
  6
CENTER
 62
     1
100
AcDbLine
 10
45.0
 20
-11.19999999999999
 30
0.0
 11
45.0
 21
11.19999999999999
 31
0.0
  0
ENDSEC
  0
SECTION
  2
OBJECTS
  0
DICTIONARY
  5
19
330
0
100
AcDbDictionary
281
     1
  3
ACAD_COLOR
350
230F
  3
ACAD_GROUP
350
1A
  3
ACAD_LAYOUT
350
1E
  3
ACAD_MATERIAL
350
22E5
  3
ACAD_MLEADERSTYLE
350
2334
  3
ACAD_MLINESTYLE
350
1B
  3
ACAD_PLOTSETTINGS
350
22
  3
ACAD_PLOTSTYLENAME
350
1F
  3
ACAD_SCALELIST
350
2312
  3
ACAD_TABLESTYLE
350
2310
  3
ACAD_VISUALSTYLE
350
22FE
  3
ACAD_WIPEOUT_VARS
350
23
  3
ACDB_RECOMPOSE_DATA
350
444C
  3
AcDbVariableDictionary
350
4443
  3
ASE_INDEX_DICTIONARY
350
443E
  3
DWGPROPS
350
44B4
  0
DICTIONARY
  5
4441
330
14
100
AcDbDictionary
280
     1
281
     1
  3
ADSK_XREC_LAYER_RECONCILED
360
4442
  0
DICTIONARY
  5
233E
330
A
100
AcDbDictionary
280
     1
281
     1
  3
ACAD_SORTENTS
360
233F
  0
DICTIONARY
  5
230F
102
{ACAD_REACTORS
330
19
102
}
330
19
100
AcDbDictionary
281
     1
  0
DICTIONARY
  5
1A
102
{ACAD_REACTORS
330
19
102
}
330
19
100
AcDbDictionary
281
     1
  0
DICTIONARY
  5
1E
102
{ACAD_REACTORS
330
19
102
}
330
19
100
AcDbDictionary
281
     1
  3
Layout1
350
21
  3
Model
350
20
  0
DICTIONARY
  5
22E5
102
{ACAD_REACTORS
330
19
102
}
330
19
100
AcDbDictionary
281
     1
  3
ByBlock
350
22EE
  3
ByLayer
350
22E6
  3
Global
350
22F6
  0
DICTIONARY
  5
2334
102
{ACAD_REACTORS
330
19
102
}
330
19
100
AcDbDictionary
281
     1
  3
Standard
350
2335
  0
DICTIONARY
  5
1B
102
{ACAD_REACTORS
330
19
102
}
330
19
100
AcDbDictionary
281
     1
  3
Standard
350
1C
  0
DICTIONARY
  5
22
102
{ACAD_REACTORS
330
19
102
}
330
19
100
AcDbDictionary
281
     1
  0
ACDBDICTIONARYWDFLT
  5
1F
102
{ACAD_REACTORS
330
19
102
}
330
19
100
AcDbDictionary
281
     1
  3
Normal
350
1D
100
AcDbDictionaryWithDefault
340
1D
  0
DICTIONARY
  5
2312
102
{ACAD_REACTORS
330
19
102
}
330
19
100
AcDbDictionary
281
     1
  3
A0
350
2313
  3
A1
350
2314
  3
A2
350
2315
  3
A3
350
2316
  3
A4
350
2317
  3
A5
350
2318
  3
A6
350
2319
  3
A7
350
231A
  3
A8
350
231B
  3
A9
350
231C
  3
B0
350
231D
  3
B1
350
231E
  3
B2
350
231F
  3
B3
350
2320
  3
B4
350
2321
  3
B5
350
2322
  3
B6
350
2323
  3
B7
350
2324
  3
B8
350
2325
  3
B9
350
2326
  3
C0
350
2327
  3
C1
350
2328
  3
C2
350
2329
  3
C3
350
232A
  3
C4
350
232B
  3
C5
350
232C
  3
C6
350
232D
  3
C7
350
232E
  3
C8
350
232F
  3
C9
350
2330
  3
D0
350
2331
  3
D1
350
2332
  3
D2
350
2333
  0
DICTIONARY
  5
2310
102
{ACAD_REACTORS
330
19
102
}
330
19
100
AcDbDictionary
281
     1
  3
Standard
350
2311
  0
DICTIONARY
  5
22FE
102
{ACAD_REACTORS
330
19
102
}
330
19
100
AcDbDictionary
281
     1
  3
2dWireframe
350
2304
  3
3D Hidden
350
2306
  3
3dWireframe
350
2305
  3
Basic
350
2303
  3
Brighten
350
230A
  3
ColorChange
350
230E
  3
Conceptual
350
2307
  3
Dim
350
2309
  3
Facepattern
350
230D
  3
Flat
350
22FF
  3
FlatWithEdges
350
2300
  3
Gouraud
350
2301
  3
GouraudWithEdges
350
2302
  3
Linepattern
350
230C
  3
Realistic
350
2308
  3
Thicken
350
230B
  0
WIPEOUTVARIABLES
  5
23
330
19
100
AcDbWipeoutVariables
 70
     1
  0
XRECORD
  5
444C
102
{ACAD_REACTORS
330
19
102
}
330
19
100
AcDbXrecord
280
     1
 90
        1
330
2311
  0
DICTIONARY
  5
4443
102
{ACAD_REACTORS
330
19
102
}
330
19
100
AcDbDictionary
281
     1
  3
CANNOSCALE
350
4446
  3
CMLEADERSTYLE
350
4445
  3
CTABLESTYLE
350
4444
  3
DIMASSOC
350
4449
  3
INDEXCTL
350
4448
  3
SORTENTS
350
4447
  0
DICTIONARY
  5
443E
102
{ACAD_REACTORS
330
19
102
}
330
19
100
AcDbDictionary
281
     1
  3
ASEBlockHierarchyIndexRecord
350
4440
1001
DCO15
1040
1686558972.246
  0
XRECORD
  5
44B4
102
{ACAD_REACTORS
330
19
102
}
330
19
100
AcDbXrecord
280
     1
  1
DWGPROPS COOKIE
  2

  3

  4

  6

  7

  8
renzo.ceresoli
  9

300
=
301
=
302
=
303
=
304
=
305
=
306
=
307
=
308
=
309
=
 40
0.1342392708333333
 41
2455323.569860659
 42
2455324.618255509
  1

 90
        0
  0
XRECORD
  5
4442
102
{ACAD_REACTORS
330
4441
102
}
330
4441
100
AcDbXrecord
280
     1
290
     1
  0
SORTENTSTABLE
  5
233F
102
{ACAD_REACTORS
330
233E
102
}
330
233E
100
AcDbSortentsTable
330
A
331
36E8
  5
2E05
331
EB9
  5
2F2A
331
4076
  5
2350
331
40B5
  5
2383
331
36F0
  5
2D23
331
372F
  5
2D67
331
3580
  5
2E9D
331
363D
  5
2E54
331
3674
  5
2D80
331
3588
  5
2EA5
331
35C7
  5
2EDB
331
3737
  5
2D6F
331
407E
  5
2358
331
36F8
  5
2D2B
331
EC1
  5
2F32
331
35FE
  5
2F12
331
36B3
  5
2DBF
331
36BB
  5
2DC7
331
3645
  5
2E5C
331
367C
  5
2D88
331
35CF
  5
2EE3
331
373F
  5
2D77
331
4086
  5
2360
331
3700
  5
2D38
331
EC9
  5
2F3A
331
3606
  5
2F1A
331
36C3
  5
2DCF
331
360E
  5
2F22
331
364D
  5
2E64
331
35D7
  5
2EEB
331
3684
  5
2D90
331
368C
  5
2D98
331
3616
  5
2E1E
331
3708
  5
2D40
331
36C9
  5
2DD5
331
36D1
  5
2DDD
331
3710
  5
2D48
331
ED1
  5
2F42
331
35A0
  5
2EB4
331
3655
  5
2E6C
331
3694
  5
2DA0
331
35DF
  5
2EF3
331
361E
  5
2E26
331
409E
  5
236C
331
36D9
  5
2DE5
331
3718
  5
2D50
331
405F
  5
22E0
331
35A8
  5
2EBC
331
365D
  5
2E74
331
369C
  5
2DA8
331
35B0
  5
2EC4
331
35E7
  5
2EFB
331
4067
  5
2341
331
40A6
  5
2374
331
3571
  5
2E8E
331
36E1
  5
2DED
331
3720
  5
2D58
331
3626
  5
2E2E
331
362E
  5
2E45
331
3665
  5
2E7C
331
3579
  5
2E96
331
35B8
  5
2ECC
331
406F
  5
2349
331
40AE
  5
237C
331
35EF
  5
2F03
331
36A4
  5
2DB0
331
36AC
  5
2DB8
331
35F7
  5
2F0B
331
3636
  5
2E4D
331
366D
  5
2E84
331
3728
  5
2D60
331
36E9
  5
2E17
331
3581
  5
2E9E
331
35C0
  5
2ED4
331
3730
  5
2D68
331
4077
  5
2351
331
36F1
  5
2D24
331
EBA
  5
2F2B
331
36B4
  5
2DC0
331
35FF
  5
2F13
331
363E
  5
2E55
331
EC2
  5
2F33
331
3589
  5
2EA6
331
36F9
  5
2D2C
331
3738
  5
2D70
331
407F
  5
2359
331
35C8
  5
2EDC
331
3675
  5
2D81
331
367D
  5
2D89
331
36BC
  5
2DC8
331
35D0
  5
2EE4
331
3607
  5
2F1B
331
4087
  5
2361
331
3701
  5
2D39
331
ECA
  5
2F3B
331
3591
  5
2EAA
331
3646
  5
2E5D
331
364E
  5
2E65
331
3685
  5
2D91
331
360F
  5
2F23
331
36C4
  5
2DD0
331
368D
  5
2D99
331
3617
  5
2E1F
331
3740
  5
2D78
331
36CA
  5
2DD6
331
3709
  5
2D41
331
35A1
  5
2EB5
331
35D8
  5
2EEC
331
36D2
  5
2DDE
331
3711
  5
2D49
331
ED2
  5
2F43
331
361F
  5
2E27
331
3656
  5
2E6D
331
356A
  5
2E87
331
35A9
  5
2EBD
331
3719
  5
2D51
331
4060
  5
22E1
331
36DA
  5
2DE6
331
409F
  5
236D
331
35E0
  5
2EF4
331
3695
  5
2DA1
331
369D
  5
2DA9
331
35E8
  5
2EFC
331
3627
  5
2E2F
331
CCB
  5
2D1F
331
40A7
  5
2375
331
3572
  5
2E8F
331
36E2
  5
2DEE
331
3721
  5
2D59
331
4068
  5
2342
331
35B1
  5
2EC5
331
365E
  5
2E75
331
3666
  5
2E7D
331
36A5
  5
2DB1
331
35F0
  5
2F04
331
362F
  5
2E46
331
40AF
  5
237D
331
357A
  5
2E97
331
35B9
  5
2ECD
331
366E
  5
2E85
331
36AD
  5
2DB9
331
3637
  5
2E4E
331
36EA
  5
2E18
331
3729
  5
2D61
331
4070
  5
234A
331
35C1
  5
2ED5
331
35F8
  5
2F0C
331
4078
  5
2352
331
EBB
  5
2F2C
331
36F2
  5
2D25
331
3731
  5
2D69
331
3582
  5
2E9F
331
363F
  5
2E56
331
3676
  5
2D82
331
358A
  5
2EA7
331
35C9
  5
2EDD
331
3739
  5
2D71
331
4080
  5
235A
331
36FA
  5
2D2D
331
EC3
  5
2F34
331
3600
  5
2F14
331
36B5
  5
2DC1
331
36BD
  5
2DC9
331
3608
  5
2F1C
331
3647
  5
2E5E
331
3592
  5
2EAB
331
35D1
  5
2EE5
331
367E
  5
2D8A
331
4088
  5
2362
331
3702
  5
2D3A
331
ECB
  5
2F3C
331
36C5
  5
2DD1
331
3610
  5
2F24
331
359A
  5
2EAE
331
364F
  5
2E66
331
3686
  5
2D92
331
368E
  5
2D9A
331
370A
  5
2D42
331
3741
  5
2D79
331
36CB
  5
2DD7
331
4090
  5
2364
331
35D9
  5
2EED
331
3618
  5
2E20
331
36D3
  5
2DDF
331
3712
  5
2D4A
331
ED3
  5
2F44
331
35A2
  5
2EB6
331
3657
  5
2E6E
331
3696
  5
2DA2
331
35AA
  5
2EBE
331
35E1
  5
2EF5
331
4061
  5
22E2
331
40A0
  5
236E
331
356B
  5
2E88
331
36DB
  5
2DE7
331
371A
  5
2D52
331
3620
  5
2E28
331
365F
  5
2E76
331
369E
  5
2DAA
331
35B2
  5
2EC6
331
35E9
  5
2EFD
331
CCC
  5
2D20
331
4069
  5
2343
331
40A8
  5
2376
331
3573
  5
2E90
331
36E3
  5
2E00
331
3722
  5
2D5A
331
3628
  5
2E30
331
3630
  5
2E47
331
3667
  5
2E7E
331
357B
  5
2E98
331
35BA
  5
2ECE
331
35F1
  5
2F05
331
36A6
  5
2DB2
331
36AE
  5
2DBA
331
366F
  5
2E86
331
372A
  5
2D62
331
4071
  5
234B
331
36EB
  5
2E19
331
40B0
  5
237E
331
35F9
  5
2F0D
331
3638
  5
2E4F
331
3583
  5
2EA0
331
36F3
  5
2D26
331
3732
  5
2D6A
331
4079
  5
2353
331
35C2
  5
2ED6
331
3677
  5
2D83
331
36B6
  5
2DC2
331
3601
  5
2F15
331
3640
  5
2E57
331
EC4
  5
2F35
331
358B
  5
2EA8
331
36FB
  5
2D2E
331
373A
  5
2D72
331
4081
  5
235B
331
35CA
  5
2EDE
331
367F
  5
2D8B
331
36BE
  5
2DCA
331
35D2
  5
2EE6
331
3609
  5
2F1D
331
3703
  5
2D3B
331
ECC
  5
2F3D
331
3593
  5
2EAC
331
3648
  5
2E5F
331
3687
  5
2D93
331
359B
  5
2EAF
331
3611
  5
2F25
331
36C6
  5
2DD2
331
368F
  5
2D9B
331
3742
  5
2D7A
331
4091
  5
2365
331
36CC
  5
2DD8
331
370B
  5
2D43
331
3619
  5
2E21
331
3650
  5
2E67
331
35A3
  5
2EB7
331
35DA
  5
2EEE
331
36D4
  5
2DE0
331
3713
  5
2D4B
331
ED4
  5
2F45
331
3621
  5
2E29
331
3658
  5
2E6F
331
356C
  5
2E89
331
35AB
  5
2EBF
331
371B
  5
2D53
331
4062
  5
233A
331
36DC
  5
2DE8
331
40A1
  5
236F
331
35E2
  5
2EF6
331
3697
  5
2DA3
331
369F
  5
2DAB
331
35EA
  5
2EFE
331
3629
  5
2E31
331
40A9
  5
2377
331
3574
  5
2E91
331
36E4
  5
2E01
331
3723
  5
2D5B
331
406A
  5
2344
331
35B3
  5
2EC7
331
3660
  5
2E77
331
3668
  5
2E7F
331
36A7
  5
2DB3
331
35BB
  5
2ECF
331
35F2
  5
2F06
331
357C
  5
2E99
331
3631
  5
2E48
331
36AF
  5
2DBB
331
4072
  5
234C
331
40B1
  5
237F
331
36EC
  5
2E1A
331
372B
  5
2D63
331
3670
  5
2D7C
331
35C3
  5
2ED7
331
35FA
  5
2F0E
331
407A
  5
2354
331
EBD
  5
2F2E
331
36F4
  5
2D27
331
3733
  5
2D6B
331
3584
  5
2EA1
331
3639
  5
2E50
331
3641
  5
2E58
331
3678
  5
2D84
331
35CB
  5
2EDF
331
373B
  5
2D73
331
4082
  5
235C
331
36FC
  5
2D34
331
EC5
  5
2F36
331
3602
  5
2F16
331
36B7
  5
2DC3
331
36BF
  5
2DCB
331
360A
  5
2F1E
331
3649
  5
2E60
331
3704
  5
2D3C
331
ECD
  5
2F3E
331
35D3
  5
2EE7
331
3680
  5
2D8C
331
3688
  5
2D94
331
3612
  5
2F26
331
36C7
  5
2DD3
331
359C
  5
2EB0
331
370C
  5
2D44
331
3743
  5
2D7B
331
36CD
  5
2DD9
331
4092
  5
2366
331
3690
  5
2D9C
331
35DB
  5
2EEF
331
361A
  5
2E22
331
36D5
  5
2DE1
331
3714
  5
2D4C
331
405B
  5
22DC
331
35A4
  5
2EB8
331
3651
  5
2E68
331
3659
  5
2E70
331
3698
  5
2DA4
331
35AC
  5
2EC0
331
35E3
  5
2EF7
331
4063
  5
233B
331
40A2
  5
2370
331
356D
  5
2E8A
331
36DD
  5
2DE9
331
371C
  5
2D54
331
3622
  5
2E2A
331
362A
  5
2E32
331
3661
  5
2E78
331
35EB
  5
2EFF
331
36A0
  5
2DAC
331
406B
  5
2345
331
40AA
  5
2378
331
3575
  5
2E92
331
36E5
  5
2E02
331
3724
  5
2D5C
331
3632
  5
2E49
331
3669
  5
2E80
331
357D
  5
2E9A
331
35BC
  5
2ED0
331
35F3
  5
2F07
331
36A8
  5
2DB4
331
372C
  5
2D64
331
4073
  5
234D
331
36ED
  5
2E1B
331
40B2
  5
2380
331
36B0
  5
2DBC
331
35FB
  5
2F0F
331
363A
  5
2E51
331
EBE
  5
2F2F
331
3585
  5
2EA2
331
36F5
  5
2D28
331
3734
  5
2D6C
331
407B
  5
2355
331
35C4
  5
2ED8
331
3671
  5
2D7D
331
3679
  5
2D85
331
36B8
  5
2DC4
331
35CC
  5
2EE0
331
4083
  5
235D
331
EC6
  5
2F37
331
3603
  5
2F17
331
36FD
  5
2D35
331
373C
  5
2D74
331
3642
  5
2E59
331
3681
  5
2D8D
331
36C0
  5
2DCC
331
35D4
  5
2EE8
331
3705
  5
2D3D
331
ECE
  5
2F3F
331
360B
  5
2F1F
331
364A
  5
2E61
331
3689
  5
2D95
331
359D
  5
2EB1
331
3613
  5
2F27
331
4093
  5
2367
331
36CE
  5
2DDA
331
370D
  5
2D45
331
361B
  5
2E23
331
3652
  5
2E69
331
35A5
  5
2EB9
331
3715
  5
2D4D
331
405C
  5
22DD
331
36D6
  5
2DE2
331
409B
  5
2369
331
35DC
  5
2EF0
331
3691
  5
2D9D
331
3699
  5
2DA5
331
3623
  5
2E2B
331
365A
  5
2E71
331
356E
  5
2E8B
331
35AD
  5
2EC1
331
371D
  5
2D55
331
4064
  5
233C
331
36DE
  5
2DEA
331
40A3
  5
2371
331
35E4
  5
2EF8
331
36A1
  5
2DAD
331
35EC
  5
2F00
331
362B
  5
2E33
331
40AB
  5
2379
331
3576
  5
2E93
331
36E6
  5
2E03
331
3725
  5
2D5D
331
406C
  5
2346
331
35B5
  5
2EC9
331
3662
  5
2E79
331
366A
  5
2E81
331
36A9
  5
2DB5
331
35BD
  5
2ED1
331
35F4
  5
2F08
331
EB7
  5
2F28
331
357E
  5
2E9B
331
3633
  5
2E4A
331
4074
  5
234E
331
40B3
  5
2381
331
36EE
  5
2D21
331
372D
  5
2D65
331
363B
  5
2E52
331
3672
  5
2D7E
331
35C5
  5
2ED9
331
35FC
  5
2F10
331
36B1
  5
2DBD
331
407C
  5
2356
331
EBF
  5
2F30
331
36F6
  5
2D29
331
3735
  5
2D6D
331
3586
  5
2EA3
331
3643
  5
2E5A
331
367A
  5
2D86
331
35CD
  5
2EE1
331
373D
  5
2D75
331
4084
  5
235E
331
36FE
  5
2D36
331
EC7
  5
2F38
331
3604
  5
2F18
331
36B9
  5
2DC5
331
36C1
  5
2DCD
331
360C
  5
2F20
331
364B
  5
2E62
331
3706
  5
2D3E
331
ECF
  5
2F40
331
35D5
  5
2EE9
331
3682
  5
2D8E
331
368A
  5
2D96
331
3614
  5
2E1C
331
359E
  5
2EB2
331
370E
  5
2D46
331
36CF
  5
2DDB
331
3692
  5
2D9E
331
35DD
  5
2EF1
331
361C
  5
2E24
331
409C
  5
236A
331
36D7
  5
2DE3
331
3716
  5
2D4E
331
405D
  5
22DE
331
35A6
  5
2EBA
331
3653
  5
2E6A
331
365B
  5
2E72
331
369A
  5
2DA6
331
35AE
  5
2EC2
331
35E5
  5
2EF9
331
4065
  5
233D
331
40A4
  5
2372
331
356F
  5
2E8C
331
36DF
  5
2DEB
331
371E
  5
2D56
331
3624
  5
2E2C
331
362C
  5
2E34
331
3663
  5
2E7A
331
3577
  5
2E94
331
35B6
  5
2ECA
331
3726
  5
2D5E
331
406D
  5
2347
331
36E7
  5
2E04
331
40AC
  5
237A
331
35ED
  5
2F01
331
36A2
  5
2DAE
331
36AA
  5
2DB6
331
3634
  5
2E4B
331
366B
  5
2E82
331
357F
  5
2E9C
331
35BE
  5
2ED2
331
35F5
  5
2F09
331
EB8
  5
2F29
331
372E
  5
2D66
331
4075
  5
234F
331
36EF
  5
2D22
331
40B4
  5
2382
331
36B2
  5
2DBE
331
35FD
  5
2F11
331
363C
  5
2E53
331
EC0
  5
2F31
331
3587
  5
2EA4
331
36F7
  5
2D2A
331
3736
  5
2D6E
331
407D
  5
2357
331
35C6
  5
2EDA
331
3673
  5
2D7F
331
367B
  5
2D87
331
36BA
  5
2DC6
331
35CE
  5
2EE2
331
4085
  5
235F
331
EC8
  5
2F39
331
3605
  5
2F19
331
36FF
  5
2D37
331
373E
  5
2D76
331
3644
  5
2E5B
331
364C
  5
2E63
331
3683
  5
2D8F
331
35D6
  5
2EEA
331
3707
  5
2D3F
331
360D
  5
2F21
331
36C2
  5
2DCE
331
368B
  5
2D97
331
359F
  5
2EB3
331
3615
  5
2E1D
331
36C8
  5
2DD4
331
36D0
  5
2DDC
331
370F
  5
2D47
331
ED0
  5
2F41
331
361D
  5
2E25
331
3654
  5
2E6B
331
35A7
  5
2EBB
331
3717
  5
2D4F
331
405E
  5
22DF
331
36D8
  5
2DE4
331
409D
  5
236B
331
35DE
  5
2EF2
331
3693
  5
2D9F
331
369B
  5
2DA7
331
35E6
  5
2EFA
331
3625
  5
2E2D
331
40A5
  5
2373
331
3570
  5
2E8D
331
371F
  5
2D57
331
4066
  5
2340
331
35AF
  5
2EC3
331
365C
  5
2E73
331
36E0
  5
2DEC
331
36A3
  5
2DAF
331
35EE
  5
2F02
331
362D
  5
2E3C
331
40AD
  5
237B
331
3578
  5
2E95
331
3727
  5
2D5F
331
406E
  5
2348
331
35B7
  5
2ECB
331
3664
  5
2E7B
331
366C
  5
2E83
331
36AB
  5
2DB7
331
35F6
  5
2F0A
331
3635
  5
2E4C
  0
LAYOUT
  5
21
102
{ACAD_XDICTIONARY
360
44B7
102
}
102
{ACAD_REACTORS
330
1E
102
}
330
1E
100
AcDbPlotSettings
  1

  2

  4

  6

 40
0.0
 41
0.0
 42
0.0
 43
0.0
 44
0.0
 45
0.0
 46
0.0
 47
0.0
 48
0.0
 49
0.0
140
0.0
141
0.0
142
1.0
143
1.0
 70
     0
 72
     0
 73
     0
 74
     0
  7

 75
     0
147
1.0
148
0.0
149
0.0
100
AcDbLayout
  1
Layout1
 70
     0
 71
     1
 10
0.0
 20
0.0
 11
12.0
 21
9.0
 12
0.0
 22
0.0
 32
0.0
 14
1.000000000000000E+20
 24
1.000000000000000E+20
 34
1.000000000000000E+20
 15
-1.000000000000000E+20
 25
-1.000000000000000E+20
 35
-1.000000000000000E+20
146
0.0
 13
0.0
 23
0.0
 33
0.0
 16
1.0
 26
0.0
 36
0.0
 17
0.0
 27
1.0
 37
0.0
 76
     0
330
B
  0
LAYOUT
  5
20
102
{ACAD_XDICTIONARY
360
44B5
102
}
102
{ACAD_REACTORS
330
1E
102
}
330
1E
100
AcDbPlotSettings
  1

  2

  4

  6

 40
0.0
 41
0.0
 42
0.0
 43
0.0
 44
0.0
 45
0.0
 46
0.0
 47
0.0
 48
0.0
 49
0.0
140
0.0
141
0.0
142
1.0
143
1.0
 70
  1024
 72
     0
 73
     0
 74
     0
  7

 75
     0
147
1.0
148
0.0
149
0.0
100
AcDbLayout
  1
Model
 70
     0
 71
     0
 10
0.0
 20
0.0
 11
0.0
 21
0.0
 12
0.0
 22
0.0
 32
0.0
 14
0.0
 24
0.0
 34
0.0
 15
0.0
 25
0.0
 35
0.0
146
0.0
 13
0.0
 23
0.0
 33
0.0
 16
0.0
 26
0.0
 36
0.0
 17
0.0
 27
0.0
 37
0.0
 76
     0
330
A
331
15
  0
MATERIAL
  5
22EE
102
{ACAD_XDICTIONARY
360
22EF
102
}
102
{ACAD_REACTORS
330
22E5
102
}
330
22E5
100
AcDbMaterial
  1
ByBlock
 72
     0
 43
0.0208333333333333
 43
0.0
 43
0.0
 43
0.0
 43
0.0
 43
0.0208333333333333
 43
0.0
 43
0.0
 43
0.0
 43
0.0
 43
1.0
 43
0.0
 43
0.0
 43
0.0
 43
0.0
 43
1.0
 77
     0
 47
0.0208333333333333
 47
0.0
 47
0.0
 47
0.0
 47
0.0
 47
0.0208333333333333
 47
0.0
 47
0.0
 47
0.0
 47
0.0
 47
1.0
 47
0.0
 47
0.0
 47
0.0
 47
0.0
 47
1.0
171
     0
 49
0.0208333333333333
 49
0.0
 49
0.0
 49
0.0
 49
0.0
 49
0.0208333333333333
 49
0.0
 49
0.0
 49
0.0
 49
0.0
 49
1.0
 49
0.0
 49
0.0
 49
0.0
 49
0.0
 49
1.0
175
     0
142
0.0208333333333333
142
0.0
142
0.0
142
0.0
142
0.0
142
0.0208333333333333
142
0.0
142
0.0
142
0.0
142
0.0
142
1.0
142
0.0
142
0.0
142
0.0
142
0.0
142
1.0
179
     0
144
0.0208333333333333
144
0.0
144
0.0
144
0.0
144
0.0
144
0.0208333333333333
144
0.0
144
0.0
144
0.0
144
0.0
144
1.0
144
0.0
144
0.0
144
0.0
144
0.0
144
1.0
147
0.0208333333333333
147
0.0
147
0.0
147
0.0
147
0.0
147
0.0208333333333333
147
0.0
147
0.0
147
0.0
147
0.0
147
1.0
147
0.0
147
0.0
147
0.0
147
0.0
147
1.0
  0
MATERIAL
  5
22E6
102
{ACAD_XDICTIONARY
360
22E7
102
}
102
{ACAD_REACTORS
330
22E5
102
}
330
22E5
100
AcDbMaterial
  1
ByLayer
 72
     0
 43
0.0208333333333333
 43
0.0
 43
0.0
 43
0.0
 43
0.0
 43
0.0208333333333333
 43
0.0
 43
0.0
 43
0.0
 43
0.0
 43
1.0
 43
0.0
 43
0.0
 43
0.0
 43
0.0
 43
1.0
 77
     0
 47
0.0208333333333333
 47
0.0
 47
0.0
 47
0.0
 47
0.0
 47
0.0208333333333333
 47
0.0
 47
0.0
 47
0.0
 47
0.0
 47
1.0
 47
0.0
 47
0.0
 47
0.0
 47
0.0
 47
1.0
171
     0
 49
0.0208333333333333
 49
0.0
 49
0.0
 49
0.0
 49
0.0
 49
0.0208333333333333
 49
0.0
 49
0.0
 49
0.0
 49
0.0
 49
1.0
 49
0.0
 49
0.0
 49
0.0
 49
0.0
 49
1.0
175
     0
142
0.0208333333333333
142
0.0
142
0.0
142
0.0
142
0.0
142
0.0208333333333333
142
0.0
142
0.0
142
0.0
142
0.0
142
1.0
142
0.0
142
0.0
142
0.0
142
0.0
142
1.0
179
     0
144
0.0208333333333333
144
0.0
144
0.0
144
0.0
144
0.0
144
0.0208333333333333
144
0.0
144
0.0
144
0.0
144
0.0
144
1.0
144
0.0
144
0.0
144
0.0
144
0.0
144
1.0
147
0.0208333333333333
147
0.0
147
0.0
147
0.0
147
0.0
147
0.0208333333333333
147
0.0
147
0.0
147
0.0
147
0.0
147
1.0
147
0.0
147
0.0
147
0.0
147
0.0
147
1.0
  0
MATERIAL
  5
22F6
102
{ACAD_XDICTIONARY
360
22F7
102
}
102
{ACAD_REACTORS
330
22E5
102
}
330
22E5
100
AcDbMaterial
  1
Global
 72
     0
 43
0.0208333333333333
 43
0.0
 43
0.0
 43
0.0
 43
0.0
 43
0.0208333333333333
 43
0.0
 43
0.0
 43
0.0
 43
0.0
 43
1.0
 43
0.0
 43
0.0
 43
0.0
 43
0.0
 43
1.0
 77
     0
 47
0.0208333333333333
 47
0.0
 47
0.0
 47
0.0
 47
0.0
 47
0.0208333333333333
 47
0.0
 47
0.0
 47
0.0
 47
0.0
 47
1.0
 47
0.0
 47
0.0
 47
0.0
 47
0.0
 47
1.0
171
     0
 49
0.0208333333333333
 49
0.0
 49
0.0
 49
0.0
 49
0.0
 49
0.0208333333333333
 49
0.0
 49
0.0
 49
0.0
 49
0.0
 49
1.0
 49
0.0
 49
0.0
 49
0.0
 49
0.0
 49
1.0
175
     0
142
0.0208333333333333
142
0.0
142
0.0
142
0.0
142
0.0
142
0.0208333333333333
142
0.0
142
0.0
142
0.0
142
0.0
142
1.0
142
0.0
142
0.0
142
0.0
142
0.0
142
1.0
179
     0
144
0.0208333333333333
144
0.0
144
0.0
144
0.0
144
0.0
144
0.0208333333333333
144
0.0
144
0.0
144
0.0
144
0.0
144
1.0
144
0.0
144
0.0
144
0.0
144
0.0
144
1.0
147
0.0208333333333333
147
0.0
147
0.0
147
0.0
147
0.0
147
0.0208333333333333
147
0.0
147
0.0
147
0.0
147
0.0
147
1.0
147
0.0
147
0.0
147
0.0
147
0.0
147
1.0
  0
MLEADERSTYLE
  5
2335
102
{ACAD_REACTORS
330
2334
102
}
330
2334
100
AcDbMLeaderStyle
170
     2
171
     1
172
     0
 90
        2
 40
0.0
 41
0.0
173
     1
 91
-1056964608
340
11
 92
       -2
290
     1
 42
2.0
291
     1
 43
0.36
  3
Standard
 44
4.0
300

342
17
174
     1
178
     6
175
     1
176
     0
 93
-1056964608
 45
4.0
292
     0
297
     0
 46
4.0
 94
-1056964608
 47
1.0
 49
1.0
140
1.0
293
     1
141
0.0
294
     1
177
     0
142
1.0
295
     0
296
     0
143
0.125
1001
ACAD_MLEADERVER
1070
     2
  0
MLINESTYLE
  5
1C
102
{ACAD_REACTORS
330
1B
102
}
330
1B
100
AcDbMlineStyle
  2
STANDARD
 70
     0
  3

 62
     0
 51
90.0
 52
90.0
 71
     2
 49
0.5
 62
   256
  6
BYLAYER
 49
-0.5
 62
   256
  6
BYLAYER
  0
ACDBPLACEHOLDER
  5
1D
102
{ACAD_REACTORS
330
1F
102
}
330
1F
  0
SCALE
  5
2313
102
{ACAD_REACTORS
330
2312
102
}
330
2312
100
AcDbScale
 70
     0
300
1:1
140
1.0
141
1.0
290
     1
  0
SCALE
  5
2314
102
{ACAD_REACTORS
330
2312
102
}
330
2312
100
AcDbScale
 70
     0
300
1:2
140
1.0
141
2.0
290
     0
  0
SCALE
  5
2315
102
{ACAD_REACTORS
330
2312
102
}
330
2312
100
AcDbScale
 70
     0
300
1:4
140
1.0
141
4.0
290
     0
  0
SCALE
  5
2316
102
{ACAD_REACTORS
330
2312
102
}
330
2312
100
AcDbScale
 70
     0
300
1:5
140
1.0
141
5.0
290
     0
  0
SCALE
  5
2317
102
{ACAD_REACTORS
330
2312
102
}
330
2312
100
AcDbScale
 70
     0
300
1:8
140
1.0
141
8.0
290
     0
  0
SCALE
  5
2318
102
{ACAD_REACTORS
330
2312
102
}
330
2312
100
AcDbScale
 70
     0
300
1:10
140
1.0
141
10.0
290
     0
  0
SCALE
  5
2319
102
{ACAD_REACTORS
330
2312
102
}
330
2312
100
AcDbScale
 70
     0
300
1:16
140
1.0
141
16.0
290
     0
  0
SCALE
  5
231A
102
{ACAD_REACTORS
330
2312
102
}
330
2312
100
AcDbScale
 70
     0
300
1:20
140
1.0
141
20.0
290
     0
  0
SCALE
  5
231B
102
{ACAD_REACTORS
330
2312
102
}
330
2312
100
AcDbScale
 70
     0
300
1:30
140
1.0
141
30.0
290
     0
  0
SCALE
  5
231C
102
{ACAD_REACTORS
330
2312
102
}
330
2312
100
AcDbScale
 70
     0
300
1:40
140
1.0
141
40.0
290
     0
  0
SCALE
  5
231D
102
{ACAD_REACTORS
330
2312
102
}
330
2312
100
AcDbScale
 70
     0
300
1:50
140
1.0
141
50.0
290
     0
  0
SCALE
  5
231E
102
{ACAD_REACTORS
330
2312
102
}
330
2312
100
AcDbScale
 70
     0
300
1:100
140
1.0
141
100.0
290
     0
  0
SCALE
  5
231F
102
{ACAD_REACTORS
330
2312
102
}
330
2312
100
AcDbScale
 70
     0
300
2:1
140
2.0
141
1.0
290
     0
  0
SCALE
  5
2320
102
{ACAD_REACTORS
330
2312
102
}
330
2312
100
AcDbScale
 70
     0
300
4:1
140
4.0
141
1.0
290
     0
  0
SCALE
  5
2321
102
{ACAD_REACTORS
330
2312
102
}
330
2312
100
AcDbScale
 70
     0
300
8:1
140
8.0
141
1.0
290
     0
  0
SCALE
  5
2322
102
{ACAD_REACTORS
330
2312
102
}
330
2312
100
AcDbScale
 70
     0
300
10:1
140
10.0
141
1.0
290
     0
  0
SCALE
  5
2323
102
{ACAD_REACTORS
330
2312
102
}
330
2312
100
AcDbScale
 70
     0
300
100:1
140
100.0
141
1.0
290
     0
  0
SCALE
  5
2324
102
{ACAD_REACTORS
330
2312
102
}
330
2312
100
AcDbScale
 70
     0
300
1/128" = 1'-0"
140
0.0078125
141
12.0
290
     0
  0
SCALE
  5
2325
102
{ACAD_REACTORS
330
2312
102
}
330
2312
100
AcDbScale
 70
     0
300
1/64" = 1'-0"
140
0.015625
141
12.0
290
     0
  0
SCALE
  5
2326
102
{ACAD_REACTORS
330
2312
102
}
330
2312
100
AcDbScale
 70
     0
300
1/32" = 1'-0"
140
0.03125
141
12.0
290
     0
  0
SCALE
  5
2327
102
{ACAD_REACTORS
330
2312
102
}
330
2312
100
AcDbScale
 70
     0
300
1/16" = 1'-0"
140
0.0625
141
12.0
290
     0
  0
SCALE
  5
2328
102
{ACAD_REACTORS
330
2312
102
}
330
2312
100
AcDbScale
 70
     0
300
3/32" = 1'-0"
140
0.09375
141
12.0
290
     0
  0
SCALE
  5
2329
102
{ACAD_REACTORS
330
2312
102
}
330
2312
100
AcDbScale
 70
     0
300
1/8" = 1'-0"
140
0.125
141
12.0
290
     0
  0
SCALE
  5
232A
102
{ACAD_REACTORS
330
2312
102
}
330
2312
100
AcDbScale
 70
     0
300
3/16" = 1'-0"
140
0.1875
141
12.0
290
     0
  0
SCALE
  5
232B
102
{ACAD_REACTORS
330
2312
102
}
330
2312
100
AcDbScale
 70
     0
300
1/4" = 1'-0"
140
0.25
141
12.0
290
     0
  0
SCALE
  5
232C
102
{ACAD_REACTORS
330
2312
102
}
330
2312
100
AcDbScale
 70
     0
300
3/8" = 1'-0"
140
0.375
141
12.0
290
     0
  0
SCALE
  5
232D
102
{ACAD_REACTORS
330
2312
102
}
330
2312
100
AcDbScale
 70
     0
300
1/2" = 1'-0"
140
0.5
141
12.0
290
     0
  0
SCALE
  5
232E
102
{ACAD_REACTORS
330
2312
102
}
330
2312
100
AcDbScale
 70
     0
300
3/4" = 1'-0"
140
0.75
141
12.0
290
     0
  0
SCALE
  5
232F
102
{ACAD_REACTORS
330
2312
102
}
330
2312
100
AcDbScale
 70
     0
300
1" = 1'-0"
140
1.0
141
12.0
290
     0
  0
SCALE
  5
2330
102
{ACAD_REACTORS
330
2312
102
}
330
2312
100
AcDbScale
 70
     0
300
1-1/2" = 1'-0"
140
1.5
141
12.0
290
     0
  0
SCALE
  5
2331
102
{ACAD_REACTORS
330
2312
102
}
330
2312
100
AcDbScale
 70
     0
300
3" = 1'-0"
140
3.0
141
12.0
290
     0
  0
SCALE
  5
2332
102
{ACAD_REACTORS
330
2312
102
}
330
2312
100
AcDbScale
 70
     0
300
6" = 1'-0"
140
6.0
141
12.0
290
     0
  0
SCALE
  5
2333
102
{ACAD_REACTORS
330
2312
102
}
330
2312
100
AcDbScale
 70
     0
300
1'-0" = 1'-0"
140
12.0
141
12.0
290
     0
  0
TABLESTYLE
  5
2311
102
{ACAD_XDICTIONARY
360
444A
102
}
102
{ACAD_REACTORS
330
2310
102
}
330
2310
100
AcDbTableStyle
  3
Standard
 70
     0
 71
     0
 40
1.5
 41
1.5
280
     0
281
     0
  7
Standard
140
4.5
170
     2
 62
     0
 63
     7
283
     0
274
    -2
284
     1
 64
     0
275
    -2
285
     1
 65
     0
276
    -2
286
     1
 66
     0
277
    -2
287
     1
 67
     0
278
    -2
288
     1
 68
     0
279
    -2
289
     1
 69
     0
  7
Standard
140
6.0
170
     5
 62
     0
 63
     7
283
     0
274
    -2
284
     1
 64
     0
275
    -2
285
     1
 65
     0
276
    -2
286
     1
 66
     0
277
    -2
287
     1
 67
     0
278
    -2
288
     1
 68
     0
279
    -2
289
     1
 69
     0
  7
Standard
140
4.5
170
     5
 62
     0
 63
     7
283
     0
274
    -2
284
     1
 64
     0
275
    -2
285
     1
 65
     0
276
    -2
286
     1
 66
     0
277
    -2
287
     1
 67
     0
278
    -2
288
     1
 68
     0
279
    -2
289
     1
 69
     0
  0
VISUALSTYLE
  5
2304
102
{ACAD_REACTORS
330
22FE
102
}
330
22FE
100
AcDbVisualStyle
  2
2dWireframe
 70
     4
 71
     0
 72
     2
 73
     0
 90
        0
 40
-0.6
 41
-30.0
 62
     5
 63
     7
 74
     1
 91
        4
 64
     7
 65
   257
 75
     1
175
     1
 42
1.0
 92
        0
 66
   257
 43
1.0
 76
     1
 77
     6
 78
     2
 67
     7
 79
     5
170
     0
171
     0
290
     0
174
     0
 93
        1
 44
0.0
173
     0
291
     0
 45
0.0
1001
ACAD
1000
AcDbSavedByObjectVersion
1070
     0
1000
AcDbSavedByObjectVersion
1070
     0
1000
AcDbSavedByObjectVersion
1070
     0
1000
AcDbSavedByObjectVersion
1070
     0
  0
VISUALSTYLE
  5
2306
102
{ACAD_REACTORS
330
22FE
102
}
330
22FE
100
AcDbVisualStyle
  2
3D Hidden
 70
     6
 71
     1
 72
     2
 73
     2
 90
        0
 40
-0.6
 41
-30.0
 62
     5
 63
     7
 74
     2
 91
        2
 64
     7
 65
   257
 75
     2
175
     1
 42
40.0
 92
        0
 66
   257
 43
1.0
 76
     1
 77
     6
 78
     2
 67
     7
 79
     3
170
     0
171
     0
290
     0
174
     0
 93
        1
 44
0.0
173
     0
291
     0
 45
0.0
1001
ACAD
1000
AcDbSavedByObjectVersion
1070
     0
1000
AcDbSavedByObjectVersion
1070
     0
1000
AcDbSavedByObjectVersion
1070
     0
1000
AcDbSavedByObjectVersion
1070
     0
  0
VISUALSTYLE
  5
2305
102
{ACAD_REACTORS
330
22FE
102
}
330
22FE
100
AcDbVisualStyle
  2
3dWireframe
 70
     5
 71
     0
 72
     2
 73
     0
 90
        0
 40
-0.6
 41
-30.0
 62
     5
 63
     7
 74
     1
 91
        4
 64
     7
 65
   257
 75
     1
175
     1
 42
1.0
 92
        0
 66
   257
 43
1.0
 76
     1
 77
     6
 78
     2
 67
     7
 79
     5
170
     0
171
     0
290
     0
174
     0
 93
        1
 44
0.0
173
     0
291
     0
 45
0.0
1001
ACAD
1000
AcDbSavedByObjectVersion
1070
     0
1000
AcDbSavedByObjectVersion
1070
     0
1000
AcDbSavedByObjectVersion
1070
     0
1000
AcDbSavedByObjectVersion
1070
     0
  0
VISUALSTYLE
  5
2303
102
{ACAD_REACTORS
330
22FE
102
}
330
22FE
100
AcDbVisualStyle
  2
Basic
 70
     7
 71
     1
 72
     0
 73
     1
 90
        0
 40
-0.6
 41
-30.0
 62
     5
 63
     7
 74
     0
 91
        4
 64
     7
 65
   257
 75
     1
175
     1
 42
1.0
 92
        8
 66
     7
 43
1.0
 76
     1
 77
     6
 78
     2
 67
     7
 79
     5
170
     0
171
     0
290
     0
174
     0
 93
        1
 44
0.0
173
     0
291
     1
 45
0.0
1001
ACAD
1000
AcDbSavedByObjectVersion
1070
     0
1000
AcDbSavedByObjectVersion
1070
     0
1000
AcDbSavedByObjectVersion
1070
     0
1000
AcDbSavedByObjectVersion
1070
     0
  0
VISUALSTYLE
  5
230A
102
{ACAD_REACTORS
330
22FE
102
}
330
22FE
100
AcDbVisualStyle
  2
Brighten
 70
    12
 71
     2
 72
     2
 73
     0
 90
        0
 40
-0.6
 41
-30.0
 62
     5
 63
     7
 74
     1
 91
        4
 64
     7
 65
   257
 75
     1
175
     1
 42
1.0
 92
        8
 66
     7
 43
1.0
 76
     1
 77
     6
 78
     2
 67
     7
 79
     5
170
     0
171
     0
290
     0
174
     0
 93
        1
 44
50.0
173
     0
291
     1
 45
0.0
1001
ACAD
1000
AcDbSavedByObjectVersion
1070
     0
1000
AcDbSavedByObjectVersion
1070
     0
1000
AcDbSavedByObjectVersion
1070
     0
1000
AcDbSavedByObjectVersion
1070
     0
  0
VISUALSTYLE
  5
230E
102
{ACAD_REACTORS
330
22FE
102
}
330
22FE
100
AcDbVisualStyle
  2
ColorChange
 70
    16
 71
     2
 72
     2
 73
     3
 90
        0
 40
-0.6
 41
-30.0
 62
     5
 63
     8
 74
     1
 91
        4
 64
     7
 65
   257
 75
     1
175
     1
 42
1.0
 92
        8
 66
     8
 43
1.0
 76
     1
 77
     6
 78
     2
 67
     7
 79
     5
170
     0
171
     0
290
     0
174
     0
 93
        1
 44
0.0
173
     0
291
     1
 45
0.0
1001
ACAD
1000
AcDbSavedByObjectVersion
1070
     0
1000
AcDbSavedByObjectVersion
1070
     0
1000
AcDbSavedByObjectVersion
1070
     0
1000
AcDbSavedByObjectVersion
1070
     0
  0
VISUALSTYLE
  5
2307
102
{ACAD_REACTORS
330
22FE
102
}
330
22FE
100
AcDbVisualStyle
  2
Conceptual
 70
     9
 71
     3
 72
     2
 73
     0
 90
        0
 40
-0.6
 41
-30.0
 62
     5
 63
     7
 74
     2
 91
        2
 64
     7
 65
   257
 75
     1
175
     1
 42
40.0
 92
        8
 66
     7
 43
1.0
 76
     1
 77
     6
 78
     2
 67
     7
 79
     3
170
     0
171
     0
290
     0
174
     0
 93
        1
 44
0.0
173
     0
291
     0
 45
0.0
1001
ACAD
1000
AcDbSavedByObjectVersion
1070
     0
1000
AcDbSavedByObjectVersion
1070
     0
1000
AcDbSavedByObjectVersion
1070
     0
1000
AcDbSavedByObjectVersion
1070
     0
  0
VISUALSTYLE
  5
2309
102
{ACAD_REACTORS
330
22FE
102
}
330
22FE
100
AcDbVisualStyle
  2
Dim
 70
    11
 71
     2
 72
     2
 73
     0
 90
        0
 40
-0.6
 41
-30.0
 62
     5
 63
     7
 74
     1
 91
        4
 64
     7
 65
   257
 75
     1
175
     1
 42
1.0
 92
        8
 66
     7
 43
1.0
 76
     1
 77
     6
 78
     2
 67
     7
 79
     5
170
     0
171
     0
290
     0
174
     0
 93
        1
 44
-50.0
173
     0
291
     1
 45
0.0
1001
ACAD
1000
AcDbSavedByObjectVersion
1070
     0
1000
AcDbSavedByObjectVersion
1070
     0
1000
AcDbSavedByObjectVersion
1070
     0
1000
AcDbSavedByObjectVersion
1070
     0
  0
VISUALSTYLE
  5
230D
102
{ACAD_REACTORS
330
22FE
102
}
330
22FE
100
AcDbVisualStyle
  2
Facepattern
 70
    15
 71
     2
 72
     2
 73
     0
 90
        0
 40
-0.6
 41
-30.0
 62
     5
 63
     7
 74
     1
 91
        4
 64
     7
 65
   257
 75
     1
175
     1
 42
1.0
 92
        8
 66
     7
 43
1.0
 76
     1
 77
     6
 78
     2
 67
     7
 79
     5
170
     0
171
     0
290
     0
174
     0
 93
        1
 44
0.0
173
     0
291
     1
 45
0.0
1001
ACAD
1000
AcDbSavedByObjectVersion
1070
     0
1000
AcDbSavedByObjectVersion
1070
     0
1000
AcDbSavedByObjectVersion
1070
     0
1000
AcDbSavedByObjectVersion
1070
     0
  0
VISUALSTYLE
  5
22FF
102
{ACAD_REACTORS
330
22FE
102
}
330
22FE
100
AcDbVisualStyle
  2
Flat
 70
     0
 71
     2
 72
     1
 73
     1
 90
        2
 40
-0.6
 41
30.0
 62
     5
 63
     7
 74
     0
 91
        4
 64
     7
 65
   257
 75
     1
175
     1
 42
1.0
 92
        8
 66
     7
 43
1.0
 76
     1
 77
     6
 78
     2
 67
     7
 79
     5
170
     0
171
     0
290
     0
174
     0
 93
       13
 44
0.0
173
     0
291
     1
 45
0.0
1001
ACAD
1000
AcDbSavedByObjectVersion
1070
     0
1000
AcDbSavedByObjectVersion
1070
     0
1000
AcDbSavedByObjectVersion
1070
     0
1000
AcDbSavedByObjectVersion
1070
     0
  0
VISUALSTYLE
  5
2300
102
{ACAD_REACTORS
330
22FE
102
}
330
22FE
100
AcDbVisualStyle
  2
FlatWithEdges
 70
     1
 71
     2
 72
     1
 73
     1
 90
        2
 40
-0.6
 41
30.0
 62
     5
 63
     7
 74
     1
 91
        4
 64
     7
 65
   257
 75
     1
175
     1
 42
1.0
 92
        0
 66
   257
 43
1.0
 76
     1
 77
     6
 78
     2
 67
     7
 79
     5
170
     0
171
     0
290
     0
174
     0
 93
       13
 44
0.0
173
     0
291
     1
 45
0.0
1001
ACAD
1000
AcDbSavedByObjectVersion
1070
     0
1000
AcDbSavedByObjectVersion
1070
     0
1000
AcDbSavedByObjectVersion
1070
     0
1000
AcDbSavedByObjectVersion
1070
     0
  0
VISUALSTYLE
  5
2301
102
{ACAD_REACTORS
330
22FE
102
}
330
22FE
100
AcDbVisualStyle
  2
Gouraud
 70
     2
 71
     2
 72
     2
 73
     1
 90
        2
 40
-0.6
 41
30.0
 62
     5
 63
     7
 74
     0
 91
        4
 64
     7
 65
   257
 75
     1
175
     1
 42
1.0
 92
        0
 66
     7
 43
1.0
 76
     1
 77
     6
 78
     2
 67
     7
 79
     5
170
     0
171
     0
290
     0
174
     0
 93
       13
 44
0.0
173
     0
291
     1
 45
0.0
1001
ACAD
1000
AcDbSavedByObjectVersion
1070
     0
1000
AcDbSavedByObjectVersion
1070
     0
1000
AcDbSavedByObjectVersion
1070
     0
1000
AcDbSavedByObjectVersion
1070
     0
  0
VISUALSTYLE
  5
2302
102
{ACAD_REACTORS
330
22FE
102
}
330
22FE
100
AcDbVisualStyle
  2
GouraudWithEdges
 70
     3
 71
     2
 72
     2
 73
     1
 90
        2
 40
-0.6
 41
30.0
 62
     5
 63
     7
 74
     1
 91
        4
 64
     7
 65
   257
 75
     1
175
     1
 42
1.0
 92
        0
 66
   257
 43
1.0
 76
     1
 77
     6
 78
     2
 67
     7
 79
     5
170
     0
171
     0
290
     0
174
     0
 93
       13
 44
0.0
173
     0
291
     1
 45
0.0
1001
ACAD
1000
AcDbSavedByObjectVersion
1070
     0
1000
AcDbSavedByObjectVersion
1070
     0
1000
AcDbSavedByObjectVersion
1070
     0
1000
AcDbSavedByObjectVersion
1070
     0
  0
VISUALSTYLE
  5
230C
102
{ACAD_REACTORS
330
22FE
102
}
330
22FE
100
AcDbVisualStyle
  2
Linepattern
 70
    14
 71
     2
 72
     2
 73
     0
 90
        0
 40
-0.6
 41
-30.0
 62
     5
 63
     7
 74
     1
 91
        4
 64
     7
 65
   257
 75
     7
175
     7
 42
1.0
 92
        8
 66
     7
 43
1.0
 76
     1
 77
     6
 78
     2
 67
     7
 79
     5
170
     0
171
     0
290
     0
174
     0
 93
        1
 44
0.0
173
     0
291
     1
 45
0.0
1001
ACAD
1000
AcDbSavedByObjectVersion
1070
     0
1000
AcDbSavedByObjectVersion
1070
     0
1000
AcDbSavedByObjectVersion
1070
     0
1000
AcDbSavedByObjectVersion
1070
     0
  0
VISUALSTYLE
  5
2308
102
{ACAD_REACTORS
330
22FE
102
}
330
22FE
100
AcDbVisualStyle
  2
Realistic
 70
     8
 71
     2
 72
     2
 73
     0
 90
        0
 40
-0.6
 41
-30.0
 62
     5
 63
     7
 74
     1
 91
        0
 64
     7
 65
   257
 75
     1
175
     1
 42
1.0
 92
        8
 66
     8
 43
1.0
 76
     1
 77
     6
 78
     2
 67
     7
 79
     5
170
     0
171
     0
290
     0
174
     0
 93
       13
 44
0.0
173
     0
291
     0
 45
0.0
1001
ACAD
1000
AcDbSavedByObjectVersion
1070
     0
1000
AcDbSavedByObjectVersion
1070
     0
1000
AcDbSavedByObjectVersion
1070
     0
1000
AcDbSavedByObjectVersion
1070
     0
  0
VISUALSTYLE
  5
230B
102
{ACAD_REACTORS
330
22FE
102
}
330
22FE
100
AcDbVisualStyle
  2
Thicken
 70
    13
 71
     2
 72
     2
 73
     0
 90
        0
 40
-0.6
 41
-30.0
 62
     5
 63
     7
 74
     1
 91
        4
 64
     7
 65
   257
 75
     1
175
     1
 42
1.0
 92
       12
 66
     7
 43
1.0
 76
     1
 77
     6
 78
     2
 67
     7
 79
     5
170
     0
171
     0
290
     0
174
     0
 93
        1
 44
0.0
173
     0
291
     1
 45
0.0
1001
ACAD
1000
AcDbSavedByObjectVersion
1070
     0
1000
AcDbSavedByObjectVersion
1070
     0
1000
AcDbSavedByObjectVersion
1070
     0
1000
AcDbSavedByObjectVersion
1070
     0
  0
DICTIONARYVAR
  5
4446
102
{ACAD_REACTORS
330
4443
102
}
330
4443
100
DictionaryVariables
280
     0
  1
1:1
  0
DICTIONARYVAR
  5
4445
102
{ACAD_REACTORS
330
4443
102
}
330
4443
100
DictionaryVariables
280
     0
  1
STANDARD
  0
DICTIONARYVAR
  5
4444
102
{ACAD_REACTORS
330
4443
102
}
330
4443
100
DictionaryVariables
280
     0
  1
STANDARD
  0
DICTIONARYVAR
  5
4449
102
{ACAD_REACTORS
330
4443
102
}
330
4443
100
DictionaryVariables
280
     0
  1
1
  0
DICTIONARYVAR
  5
4448
102
{ACAD_REACTORS
330
4443
102
}
330
4443
100
DictionaryVariables
280
     0
  1
0
  0
DICTIONARYVAR
  5
4447
102
{ACAD_REACTORS
330
4443
102
}
330
4443
100
DictionaryVariables
280
     0
  1
127
  0
XRECORD
  5
4440
102
{ACAD_REACTORS
330
443E
102
}
330
443E
100
AcDbXrecord
280
     1
  0
DICTIONARY
  5
44B7
330
21
100
AcDbDictionary
280
     1
281
     1
  3
ACAD_XREC_ROUNDTRIP
360
44B8
  0
DICTIONARY
  5
44B5
330
20
100
AcDbDictionary
280
     1
281
     1
  3
ACAD_XREC_ROUNDTRIP
360
44B6
  0
DICTIONARY
  5
22EF
330
22EE
100
AcDbDictionary
280
     1
281
     1
  3
ACAD_XREC_ROUNDTRIP
360
4453
  3
BUMPTILE
360
22F1
  3
DIFFUSETILE
360
22F0
  3
OPACITYTILE
360
22F4
  3
REFLECTIONTILE
360
22F3
  3
REFRACTIONTILE
360
22F5
  3
SPECULARTILE
360
22F2
  0
DICTIONARY
  5
22E7
330
22E6
100
AcDbDictionary
280
     1
281
     1
  3
ACAD_XREC_ROUNDTRIP
360
4452
  3
BUMPTILE
360
22E9
  3
DIFFUSETILE
360
22E8
  3
OPACITYTILE
360
22EC
  3
REFLECTIONTILE
360
22EB
  3
REFRACTIONTILE
360
22ED
  3
SPECULARTILE
360
22EA
  0
DICTIONARY
  5
22F7
330
22F6
100
AcDbDictionary
280
     1
281
     1
  3
ACAD_XREC_ROUNDTRIP
360
4454
  3
BUMPTILE
360
22F9
  3
DIFFUSETILE
360
22F8
  3
OPACITYTILE
360
22FC
  3
REFLECTIONTILE
360
22FB
  3
REFRACTIONTILE
360
22FD
  3
SPECULARTILE
360
22FA
  0
DICTIONARY
  5
444A
330
2311
100
AcDbDictionary
280
     1
281
     1
  3
ACAD_ROUNDTRIP_2008_TABLESTYLE_CELLSTYLEMAP
360
44B3
  3
ACAD_XREC_ROUNDTRIP
360
44B9
  0
XRECORD
  5
44B8
102
{ACAD_REACTORS
330
44B7
102
}
330
44B7
100
AcDbXrecord
280
     1
102
SHADEPLOT
 70
     0
102
SHADEPLOTRESLEVEL
 70
     2
102
SHADEPLOTCUSTOMDPI
 70
   300
  0
XRECORD
  5
44B6
102
{ACAD_REACTORS
330
44B5
102
}
330
44B5
100
AcDbXrecord
280
     1
102
SHADEPLOT
 70
     0
102
SHADEPLOTRESLEVEL
 70
     2
102
SHADEPLOTCUSTOMDPI
 70
   300
  0
XRECORD
  5
4453
102
{ACAD_REACTORS
330
22EF
102
}
330
22EF
100
AcDbXrecord
280
     1
102
MATERIAL
148
0.0
149
0.0
149
0.0
 93
        0
 94
      127
282
     0
 72
     0
 77
     0
171
     0
175
     0
179
     0
273
     0
  0
XRECORD
  5
22F1
102
{ACAD_REACTORS
330
22EF
102
}
330
22EF
100
AcDbXrecord
280
     1
270
     1
271
     1
  0
XRECORD
  5
22F0
102
{ACAD_REACTORS
330
22EF
102
}
330
22EF
100
AcDbXrecord
280
     1
270
     1
271
     1
  0
XRECORD
  5
22F4
102
{ACAD_REACTORS
330
22EF
102
}
330
22EF
100
AcDbXrecord
280
     1
270
     1
271
     1
  0
XRECORD
  5
22F3
102
{ACAD_REACTORS
330
22EF
102
}
330
22EF
100
AcDbXrecord
280
     1
270
     1
271
     1
  0
XRECORD
  5
22F5
102
{ACAD_REACTORS
330
22EF
102
}
330
22EF
100
AcDbXrecord
280
     1
270
     1
271
     1
  0
XRECORD
  5
22F2
102
{ACAD_REACTORS
330
22EF
102
}
330
22EF
100
AcDbXrecord
280
     1
270
     1
271
     1
  0
XRECORD
  5
4452
102
{ACAD_REACTORS
330
22E7
102
}
330
22E7
100
AcDbXrecord
280
     1
102
MATERIAL
148
0.0
149
0.0
149
0.0
 93
        0
 94
      127
282
     0
 72
     0
 77
     0
171
     0
175
     0
179
     0
273
     0
  0
XRECORD
  5
22E9
102
{ACAD_REACTORS
330
22E7
102
}
330
22E7
100
AcDbXrecord
280
     1
270
     1
271
     1
  0
XRECORD
  5
22E8
102
{ACAD_REACTORS
330
22E7
102
}
330
22E7
100
AcDbXrecord
280
     1
270
     1
271
     1
  0
XRECORD
  5
22EC
102
{ACAD_REACTORS
330
22E7
102
}
330
22E7
100
AcDbXrecord
280
     1
270
     1
271
     1
  0
XRECORD
  5
22EB
102
{ACAD_REACTORS
330
22E7
102
}
330
22E7
100
AcDbXrecord
280
     1
270
     1
271
     1
  0
XRECORD
  5
22ED
102
{ACAD_REACTORS
330
22E7
102
}
330
22E7
100
AcDbXrecord
280
     1
270
     1
271
     1
  0
XRECORD
  5
22EA
102
{ACAD_REACTORS
330
22E7
102
}
330
22E7
100
AcDbXrecord
280
     1
270
     1
271
     1
  0
XRECORD
  5
4454
102
{ACAD_REACTORS
330
22F7
102
}
330
22F7
100
AcDbXrecord
280
     1
102
MATERIAL
148
0.0
149
0.0
149
0.0
 93
        0
 94
      127
282
     0
 72
     0
 77
     0
171
     0
175
     0
179
     0
273
     0
  0
XRECORD
  5
22F9
102
{ACAD_REACTORS
330
22F7
102
}
330
22F7
100
AcDbXrecord
280
     1
270
     1
271
     1
  0
XRECORD
  5
22F8
102
{ACAD_REACTORS
330
22F7
102
}
330
22F7
100
AcDbXrecord
280
     1
270
     1
271
     1
  0
XRECORD
  5
22FC
102
{ACAD_REACTORS
330
22F7
102
}
330
22F7
100
AcDbXrecord
280
     1
270
     1
271
     1
  0
XRECORD
  5
22FB
102
{ACAD_REACTORS
330
22F7
102
}
330
22F7
100
AcDbXrecord
280
     1
270
     1
271
     1
  0
XRECORD
  5
22FD
102
{ACAD_REACTORS
330
22F7
102
}
330
22F7
100
AcDbXrecord
280
     1
270
     1
271
     1
  0
XRECORD
  5
22FA
102
{ACAD_REACTORS
330
22F7
102
}
330
22F7
100
AcDbXrecord
280
     1
270
     1
271
     1
  0
CELLSTYLEMAP
  5
44B3
102
{ACAD_REACTORS
330
444A
102
}
330
444A
100
AcDbCellStyleMap
 90
        3
300
CELLSTYLE
  1
TABLEFORMAT_BEGIN
 90
        5
170
     1
 91
        0
 92
    32768
 62
   257
 93
        1
300
CONTENTFORMAT
  1
CONTENTFORMAT_BEGIN
 90
        0
 91
        0
 92
      512
 93
        0
300

 40
0.0
140
1.0
 94
        5
 62
     0
340
17
144
6.0
309
CONTENTFORMAT_END
171
     1
301
MARGIN
  1
CELLMARGIN_BEGIN
 40
1.5
 40
1.5
 40
1.5
 40
1.5
 40
0.18
 40
0.18
309
CELLMARGIN_END
 94
        6
 95
        1
302
GRIDFORMAT
  1
GRIDFORMAT_BEGIN
 90
        0
 91
        1
 62
     0
 92
       -2
340
0
 93
        0
 40
1.125
309
GRIDFORMAT_END
 95
        2
302
GRIDFORMAT
  1
GRIDFORMAT_BEGIN
 90
        0
 91
        1
 62
     0
 92
       -2
340
0
 93
        0
 40
1.125
309
GRIDFORMAT_END
 95
        4
302
GRIDFORMAT
  1
GRIDFORMAT_BEGIN
 90
        0
 91
        1
 62
     0
 92
       -2
340
0
 93
        0
 40
1.125
309
GRIDFORMAT_END
 95
        8
302
GRIDFORMAT
  1
GRIDFORMAT_BEGIN
 90
        0
 91
        1
 62
     0
 92
       -2
340
0
 93
        0
 40
1.125
309
GRIDFORMAT_END
 95
       16
302
GRIDFORMAT
  1
GRIDFORMAT_BEGIN
 90
        0
 91
        1
 62
     0
 92
       -2
340
0
 93
        0
 40
1.125
309
GRIDFORMAT_END
 95
       32
302
GRIDFORMAT
  1
GRIDFORMAT_BEGIN
 90
        0
 91
        1
 62
     0
 92
       -2
340
0
 93
        0
 40
1.125
309
GRIDFORMAT_END
309
TABLEFORMAT_END
  1
CELLSTYLE_BEGIN
 90
        1
 91
        1
300
_TITLE
309
CELLSTYLE_END
300
CELLSTYLE
  1
TABLEFORMAT_BEGIN
 90
        5
170
     1
 91
        0
 92
        0
 62
   257
 93
        1
300
CONTENTFORMAT
  1
CONTENTFORMAT_BEGIN
 90
        0
 91
        0
 92
      512
 93
        0
300

 40
0.0
140
1.0
 94
        5
 62
     0
340
17
144
4.5
309
CONTENTFORMAT_END
171
     1
301
MARGIN
  1
CELLMARGIN_BEGIN
 40
1.5
 40
1.5
 40
1.5
 40
1.5
 40
0.18
 40
0.18
309
CELLMARGIN_END
 94
        6
 95
        1
302
GRIDFORMAT
  1
GRIDFORMAT_BEGIN
 90
        0
 91
        1
 62
     0
 92
       -2
340
0
 93
        0
 40
1.125
309
GRIDFORMAT_END
 95
        2
302
GRIDFORMAT
  1
GRIDFORMAT_BEGIN
 90
        0
 91
        1
 62
     0
 92
       -2
340
0
 93
        0
 40
1.125
309
GRIDFORMAT_END
 95
        4
302
GRIDFORMAT
  1
GRIDFORMAT_BEGIN
 90
        0
 91
        1
 62
     0
 92
       -2
340
0
 93
        0
 40
1.125
309
GRIDFORMAT_END
 95
        8
302
GRIDFORMAT
  1
GRIDFORMAT_BEGIN
 90
        0
 91
        1
 62
     0
 92
       -2
340
0
 93
        0
 40
1.125
309
GRIDFORMAT_END
 95
       16
302
GRIDFORMAT
  1
GRIDFORMAT_BEGIN
 90
        0
 91
        1
 62
     0
 92
       -2
340
0
 93
        0
 40
1.125
309
GRIDFORMAT_END
 95
       32
302
GRIDFORMAT
  1
GRIDFORMAT_BEGIN
 90
        0
 91
        1
 62
     0
 92
       -2
340
0
 93
        0
 40
1.125
309
GRIDFORMAT_END
309
TABLEFORMAT_END
  1
CELLSTYLE_BEGIN
 90
        2
 91
        1
300
_HEADER
309
CELLSTYLE_END
300
CELLSTYLE
  1
TABLEFORMAT_BEGIN
 90
        5
170
     1
 91
        0
 92
        0
 62
   257
 93
        1
300
CONTENTFORMAT
  1
CONTENTFORMAT_BEGIN
 90
        0
 91
        0
 92
      512
 93
        0
300

 40
0.0
140
1.0
 94
        2
 62
     0
340
17
144
4.5
309
CONTENTFORMAT_END
171
     1
301
MARGIN
  1
CELLMARGIN_BEGIN
 40
1.5
 40
1.5
 40
1.5
 40
1.5
 40
0.18
 40
0.18
309
CELLMARGIN_END
 94
        6
 95
        1
302
GRIDFORMAT
  1
GRIDFORMAT_BEGIN
 90
        0
 91
        1
 62
     0
 92
       -2
340
0
 93
        0
 40
1.125
309
GRIDFORMAT_END
 95
        2
302
GRIDFORMAT
  1
GRIDFORMAT_BEGIN
 90
        0
 91
        1
 62
     0
 92
       -2
340
0
 93
        0
 40
1.125
309
GRIDFORMAT_END
 95
        4
302
GRIDFORMAT
  1
GRIDFORMAT_BEGIN
 90
        0
 91
        1
 62
     0
 92
       -2
340
0
 93
        0
 40
1.125
309
GRIDFORMAT_END
 95
        8
302
GRIDFORMAT
  1
GRIDFORMAT_BEGIN
 90
        0
 91
        1
 62
     0
 92
       -2
340
0
 93
        0
 40
1.125
309
GRIDFORMAT_END
 95
       16
302
GRIDFORMAT
  1
GRIDFORMAT_BEGIN
 90
        0
 91
        1
 62
     0
 92
       -2
340
0
 93
        0
 40
1.125
309
GRIDFORMAT_END
 95
       32
302
GRIDFORMAT
  1
GRIDFORMAT_BEGIN
 90
        0
 91
        1
 62
     0
 92
       -2
340
0
 93
        0
 40
1.125
309
GRIDFORMAT_END
309
TABLEFORMAT_END
  1
CELLSTYLE_BEGIN
 90
        3
 91
        2
300
_DATA
309
CELLSTYLE_END
  0
XRECORD
  5
44B9
102
{ACAD_REACTORS
330
444A
102
}
330
444A
100
AcDbXrecord
280
     1
102
ACAD_ROUNDTRIP_PRE2007_TABLESTYLE
 90
      512
 91
        0
  1

 92
      512
 93
        0
  2

 94
      512
 95
        0
  3

  0
ENDSEC
  0
EOF
