  0
SECTION
  2
HEADER
  9
$ACADVER
  1
AC1015
  9
$ACADMAINTVER
 70
    20
  9
$DWGCODEPAGE
  3
ANSI_1252
  9
$INSBASE
 10
0.0
 20
0.0
 30
0.0
  9
$EXTMIN
 10
-91.93355269984294
 20
-96.19767967937651
 30
-0.0000000000001873
  9
$EXTMAX
 10
223.4328403997734
 20
104.9245927744962
 30
0.0000000000041645
  9
$LIMMIN
 10
-334.35
 20
-4.849999999999974
  9
$LIMMAX
 10
791.3499999999998
 20
342.0054945054945
  9
$ORTHOMODE
 70
     1
  9
$REGENMODE
 70
     1
  9
$FILLMODE
 70
     1
  9
$QTEXTMODE
 70
     0
  9
$MIRRTEXT
 70
     1
  9
$LTSCALE
 40
10.0
  9
$ATTMODE
 70
     1
  9
$TEXTSIZE
 40
0.0
  9
$TRACEWID
 40
0.05
  9
$TEXTSTYLE
  7
Standard
  9
$CLAYER
  8
0
  9
$CELTYPE
  6
Continuous
  9
$CECOLOR
 62
   256
  9
$CELTSCALE
 40
1.0
  9
$DISPSILH
 70
     0
  9
$DIMSCALE
 40
1.0
  9
$DIMASZ
 40
1.25
  9
$DIMEXO
 40
0.0
  9
$DIMDLI
 40
0.38
  9
$DIMRND
 40
0.0
  9
$DIMDLE
 40
0.0
  9
$DIMEXE
 40
0.75
  9
$DIMTP
 40
0.0
  9
$DIMTM
 40
0.0
  9
$DIMTXT
 40
2.5
  9
$DIMCEN
 40
0.09
  9
$DIMTSZ
 40
0.0
  9
$DIMTOL
 70
     0
  9
$DIMLIM
 70
     0
  9
$DIMTIH
 70
     0
  9
$DIMTOH
 70
     0
  9
$DIMSE1
 70
     0
  9
$DIMSE2
 70
     0
  9
$DIMTAD
 70
     1
  9
$DIMZIN
 70
     0
  9
$DIMBLK
  1

  9
$DIMASO
 70
     1
  9
$DIMSHO
 70
     1
  9
$DIMPOST
  1

  9
$DIMAPOST
  1

  9
$DIMALT
 70
     0
  9
$DIMALTD
 70
     2
  9
$DIMALTF
 40
25.4
  9
$DIMLFAC
 40
1.0
  9
$DIMTOFL
 70
     0
  9
$DIMTVP
 40
0.0
  9
$DIMTIX
 70
     0
  9
$DIMSOXD
 70
     0
  9
$DIMSAH
 70
     0
  9
$DIMBLK1
  1

  9
$DIMBLK2
  1

  9
$DIMSTYLE
  2
Standard
  9
$DIMCLRD
 70
     7
  9
$DIMCLRE
 70
     7
  9
$DIMCLRT
 70
     7
  9
$DIMTFAC
 40
0.8
  9
$DIMGAP
 40
1.25
  9
$DIMJUST
 70
     0
  9
$DIMSD1
 70
     0
  9
$DIMSD2
 70
     0
  9
$DIMTOLJ
 70
     1
  9
$DIMTZIN
 70
     0
  9
$DIMALTZ
 70
     0
  9
$DIMALTTZ
 70
     0
  9
$DIMUPT
 70
     0
  9
$DIMDEC
 70
     2
  9
$DIMTDEC
 70
     4
  9
$DIMALTU
 70
     2
  9
$DIMALTTD
 70
     2
  9
$DIMTXSTY
  7
Standard
  9
$DIMAUNIT
 70
     0
  9
$DIMADEC
 70
     0
  9
$DIMALTRND
 40
0.0
  9
$DIMAZIN
 70
     0
  9
$DIMDSEP
 70
     0
  9
$DIMATFIT
 70
     3
  9
$DIMFRAC
 70
     0
  9
$DIMLDRBLK
  1

  9
$DIMLUNIT
 70
     2
  9
$DIMLWD
 70
     0
  9
$DIMLWE
 70
     0
  9
$DIMTMOVE
 70
     0
  9
$LUNITS
 70
     2
  9
$LUPREC
 70
     4
  9
$SKETCHINC
 40
0.1
  9
$FILLETRAD
 40
0.0
  9
$AUNITS
 70
     0
  9
$AUPREC
 70
     0
  9
$MENU
  1
acad
  9
$ELEVATION
 40
0.0
  9
$PELEVATION
 40
0.0
  9
$THICKNESS
 40
0.0
  9
$LIMCHECK
 70
     0
  9
$CHAMFERA
 40
0.0
  9
$CHAMFERB
 40
0.0
  9
$CHAMFERC
 40
0.0
  9
$CHAMFERD
 40
0.0
  9
$SKPOLY
 70
     0
  9
$TDCREATE
 40
2455383.581053241
  9
$TDUCREATE
 40
2455383.497719907
  9
$TDUPDATE
 40
2455383.563684792
  9
$TDUUPDATE
 40
2455383.480351458
  9
$TDINDWG
 40
0.0037834838
  9
$TDUSRTIMER
 40
0.0037834838
  9
$USRTIMER
 70
     1
  9
$ANGBASE
 50
0.0
  9
$ANGDIR
 70
     0
  9
$PDMODE
 70
     0
  9
$PDSIZE
 40
0.0
  9
$PLINEWID
 40
0.0
  9
$SPLFRAME
 70
     0
  9
$SPLINETYPE
 70
     6
  9
$SPLINESEGS
 70
     8
  9
$HANDSEED
  5
C22
  9
$SURFTAB1
 70
     6
  9
$SURFTAB2
 70
     6
  9
$SURFTYPE
 70
     6
  9
$SURFU
 70
     6
  9
$SURFV
 70
     6
  9
$UCSBASE
  2

  9
$UCSNAME
  2

  9
$UCSORG
 10
0.0
 20
0.0
 30
0.0
  9
$UCSXDIR
 10
1.0
 20
0.0
 30
0.0
  9
$UCSYDIR
 10
0.0
 20
1.0
 30
0.0
  9
$UCSORTHOREF
  2

  9
$UCSORTHOVIEW
 70
     0
  9
$UCSORGTOP
 10
0.0
 20
0.0
 30
0.0
  9
$UCSORGBOTTOM
 10
0.0
 20
0.0
 30
0.0
  9
$UCSORGLEFT
 10
0.0
 20
0.0
 30
0.0
  9
$UCSORGRIGHT
 10
0.0
 20
0.0
 30
0.0
  9
$UCSORGFRONT
 10
0.0
 20
0.0
 30
0.0
  9
$UCSORGBACK
 10
0.0
 20
0.0
 30
0.0
  9
$PUCSBASE
  2

  9
$PUCSNAME
  2

  9
$PUCSORG
 10
0.0
 20
0.0
 30
0.0
  9
$PUCSXDIR
 10
1.0
 20
0.0
 30
0.0
  9
$PUCSYDIR
 10
0.0
 20
1.0
 30
0.0
  9
$PUCSORTHOREF
  2

  9
$PUCSORTHOVIEW
 70
     0
  9
$PUCSORGTOP
 10
0.0
 20
0.0
 30
0.0
  9
$PUCSORGBOTTOM
 10
0.0
 20
0.0
 30
0.0
  9
$PUCSORGLEFT
 10
0.0
 20
0.0
 30
0.0
  9
$PUCSORGRIGHT
 10
0.0
 20
0.0
 30
0.0
  9
$PUCSORGFRONT
 10
0.0
 20
0.0
 30
0.0
  9
$PUCSORGBACK
 10
0.0
 20
0.0
 30
0.0
  9
$USERI1
 70
     0
  9
$USERI2
 70
     0
  9
$USERI3
 70
     0
  9
$USERI4
 70
     0
  9
$USERI5
 70
     0
  9
$USERR1
 40
0.0
  9
$USERR2
 40
0.0
  9
$USERR3
 40
0.0
  9
$USERR4
 40
0.0
  9
$USERR5
 40
0.0
  9
$WORLDVIEW
 70
     1
  9
$SHADEDGE
 70
     3
  9
$SHADEDIF
 70
    70
  9
$TILEMODE
 70
     1
  9
$MAXACTVP
 70
    16
  9
$PINSBASE
 10
0.0
 20
0.0
 30
0.0
  9
$PLIMCHECK
 70
     0
  9
$PEXTMIN
 10
1.000000000000000E+20
 20
1.000000000000000E+20
 30
1.000000000000000E+20
  9
$PEXTMAX
 10
-1.000000000000000E+20
 20
-1.000000000000000E+20
 30
-1.000000000000000E+20
  9
$PLIMMIN
 10
0.0
 20
0.0
  9
$PLIMMAX
 10
12.0
 20
9.0
  9
$UNITMODE
 70
     0
  9
$VISRETAIN
 70
     0
  9
$PLINEGEN
 70
     1
  9
$PSLTSCALE
 70
     0
  9
$TREEDEPTH
 70
  3020
  9
$CMLSTYLE
  2
Standard
  9
$CMLJUST
 70
     0
  9
$CMLSCALE
 40
1.0
  9
$PROXYGRAPHICS
 70
     0
  9
$MEASUREMENT
 70
     1
  9
$CELWEIGHT
370
     0
  9
$ENDCAPS
280
     0
  9
$JOINSTYLE
280
     0
  9
$LWDISPLAY
290
     0
  9
$INSUNITS
 70
     0
  9
$HYPERLINKBASE
  1

  9
$STYLESHEET
  1

  9
$XEDIT
290
     1
  9
$CEPSNTYPE
380
     0
  9
$PSTYLEMODE
290
     1
  9
$FINGERPRINTGUID
  2

  9
$VERSIONGUID
  2
{74A65409-DF0A-453A-948A-DF999E270E23}
  9
$EXTNAMES
290
     1
  9
$PSVPSCALE
 40
0.0
  9
$OLESTARTUP
290
     0
  0
ENDSEC
  0
SECTION
  2
CLASSES
  0
CLASS
  1
IMAGE
  2
AcDbRasterImage
  3
ISM
 90
    34943
280
     0
281
     1
  0
CLASS
  1
DICTIONARYVAR
  2
AcDbDictionaryVar
  3
ObjectDBX Classes
 90
        0
280
     0
281
     0
  0
CLASS
  1
RASTERVARIABLES
  2
AcDbRasterVariables
  3
ISM
 90
    32768
280
     0
281
     0
  0
CLASS
  1
IMAGEDEF
  2
AcDbRasterImageDef
  3
ISM
 90
    32768
280
     0
281
     0
  0
CLASS
  1
IMAGEDEF_REACTOR
  2
AcDbRasterImageDefReactor
  3
ISM
 90
    32769
280
     0
281
     0
  0
CLASS
  1
IDBUFFER
  2
AcDbIdBuffer
  3
ObjectDBX Classes
 90
    32768
280
     0
281
     0
  0
CLASS
  1
SPATIAL_FILTER
  2
AcDbSpatialFilter
  3
ObjectDBX Classes
 90
    32768
280
     0
281
     0
  0
CLASS
  1
SORTENTSTABLE
  2
AcDbSortentsTable
  3
ObjectDBX Classes
 90
        0
280
     0
281
     0
  0
CLASS
  1
LAYER_INDEX
  2
AcDbLayerIndex
  3
ObjectDBX Classes
 90
    32768
280
     0
281
     0
  0
CLASS
  1
SPATIAL_INDEX
  2
AcDbSpatialIndex
  3
ObjectDBX Classes
 90
    32768
280
     0
281
     0
  0
CLASS
  1
OBJECT_PTR
  2
CAseDLPNTableRecord
  3
ASE-LPNTableRecord
 90
    32769
280
     0
281
     0
  0
CLASS
  1
LAYOUT
  2
AcDbLayout
  3
ObjectDBX Classes
 90
        0
280
     0
281
     0
  0
CLASS
  1
PLOTSETTINGS
  2
AcDbPlotSettings
  3
ObjectDBX Classes
 90
    32768
280
     0
281
     0
  0
CLASS
  1
ACDBDICTIONARYWDFLT
  2
AcDbDictionaryWithDefault
  3
ObjectDBX Classes
 90
        0
280
     0
281
     0
  0
CLASS
  1
ACDBPLACEHOLDER
  2
AcDbPlaceHolder
  3
ObjectDBX Classes
 90
        0
280
     0
281
     0
  0
CLASS
  1
VBA_PROJECT
  2
AcDbVbaProject
  3
acad
 90
    32768
280
     0
281
     0
  0
CLASS
  1
WIPEOUT
  2
AcDbWipeout
  3
"WipeOut|Product Desc: Object Enabler for WipeOut entity                        |Company: Autodesk, Inc.                        |WEB Address: www.autodesk.com"
 90
    34943
280
     0
281
     1
  0
CLASS
  1
WIPEOUTVARIABLES
  2
AcDbWipeoutVariables
  3
"WipeOut|Product Desc:     WipeOut Dbx Application|Company:          Autodesk, Inc.|WEB Address:      www.autodesk.com"
 90
        0
280
     0
281
     0
  0
CLASS
  1
RTEXT
  2
RText
  3
RText|AutoCAD Express Tool|expresstools@autodesk.com
 90
    35839
280
     0
281
     1
  0
CLASS
  1
ARCALIGNEDTEXT
  2
AcDbArcAlignedText
  3
ATEXT|AutoCAD Express Tool|expresstools@autodesk.com
 90
    32768
280
     0
281
     1
  0
CLASS
  1
MATERIAL
  2
AcDbMaterial
  3
ObjectDBX Classes
 90
     1153
280
     0
281
     0
  0
CLASS
  1
VISUALSTYLE
  2
AcDbVisualStyle
  3
ObjectDBX Classes
 90
     4095
280
     0
281
     0
  0
CLASS
  1
TABLESTYLE
  2
AcDbTableStyle
  3
ObjectDBX Classes
 90
     4095
280
     0
281
     0
  0
CLASS
  1
SCALE
  2
AcDbScale
  3
ObjectDBX Classes
 90
     1153
280
     0
281
     0
  0
CLASS
  1
MLEADERSTYLE
  2
AcDbMLeaderStyle
  3
ACDB_MLEADERSTYLE_CLASS
 90
     4095
280
     0
281
     0
  0
CLASS
  1
CELLSTYLEMAP
  2
AcDbCellStyleMap
  3
ObjectDBX Classes
 90
     1152
280
     0
281
     0
  0
ENDSEC
  0
SECTION
  2
TABLES
  0
TABLE
  2
VPORT
  5
7
330
0
100
AcDbSymbolTable
 70
     1
  0
VPORT
  5
15
330
7
100
AcDbSymbolTableRecord
100
AcDbViewportTableRecord
  2
*ACTIVE
 70
     0
 10
0.0
 20
0.0
 11
1.0
 21
1.0
 12
58.74386161514684
 22
-3.264237610997469
 13
0.0
 23
0.0
 14
1.0
 24
1.0
 15
0.0
 25
0.0
 16
0.0
 26
0.0
 36
1.0
 17
0.0
 27
0.0
 37
0.0
 40
227.5522229620269
 41
1.611330698287219
 42
50.0
 43
0.0
 44
0.0
 50
0.0
 51
0.0
 71
     0
 72
   100
 73
     1
 74
     1
 75
     0
 76
     0
 77
     0
 78
     0
281
     0
 65
     0
110
0.0
120
0.0
130
0.0
111
1.0
121
0.0
131
0.0
112
0.0
122
1.0
132
0.0
 79
     0
146
0.0
  0
ENDTAB
  0
TABLE
  2
LTYPE
  5
4
330
0
100
AcDbSymbolTable
 70
     2
  0
LTYPE
  5
11
330
4
100
AcDbSymbolTableRecord
100
AcDbLinetypeTableRecord
  2
ByBlock
 70
     0
  3

 72
    65
 73
     0
 40
0.0
  0
LTYPE
  5
12
330
4
100
AcDbSymbolTableRecord
100
AcDbLinetypeTableRecord
  2
ByLayer
 70
     0
  3

 72
    65
 73
     0
 40
0.0
  0
LTYPE
  5
13
330
4
100
AcDbSymbolTableRecord
100
AcDbLinetypeTableRecord
  2
Continuous
 70
     0
  3
Solid line
 72
    65
 73
     0
 40
0.0
  0
LTYPE
  5
9A
330
4
100
AcDbSymbolTableRecord
100
AcDbLinetypeTableRecord
  2
CENTER
 70
     0
  3
____ _ ____ _ ____ _ ____ _ ____ _ ____ _ ____
 72
    65
 73
     4
 40
2.0
 49
1.25
 74
     0
 49
-0.25
 74
     0
 49
0.25
 74
     0
 49
-0.25
 74
     0
  0
ENDTAB
  0
TABLE
  2
LAYER
  5
2
330
0
100
AcDbSymbolTable
 70
     2
  0
LAYER
  5
14
102
{ACAD_XDICTIONARY
360
B99
102
}
330
2
100
AcDbSymbolTableRecord
100
AcDbLayerTableRecord
  2
0
 70
     0
 62
     7
  6
Continuous
370
    -3
390
1D
  0
LAYER
  5
BD3
330
2
100
AcDbSymbolTableRecord
100
AcDbLayerTableRecord
  2
Defpoints
 70
     0
 62
     7
  6
Continuous
290
     0
370
    -3
390
1D
  0
ENDTAB
  0
TABLE
  2
STYLE
  5
3
330
0
100
AcDbSymbolTable
 70
     1
  0
STYLE
  5
17
330
3
100
AcDbSymbolTableRecord
100
AcDbTextStyleTableRecord
  2
Standard
 70
     0
 40
0.0
 41
1.0
 50
0.0
 71
     0
 42
0.0
  3
I011000D.TTF
  4

1001
ACAD
1000
IsonormD
1071
        0
  0
ENDTAB
  0
TABLE
  2
VIEW
  5
5
330
0
100
AcDbSymbolTable
 70
     0
  0
ENDTAB
  0
TABLE
  2
UCS
  5
6
330
0
100
AcDbSymbolTable
 70
     0
  0
ENDTAB
  0
TABLE
  2
APPID
  5
8
330
0
100
AcDbSymbolTable
 70
     4
  0
APPID
  5
16
330
8
100
AcDbSymbolTableRecord
100
AcDbRegAppTableRecord
  2
ACAD
 70
     0
  0
APPID
  5
26
330
8
100
AcDbSymbolTableRecord
100
AcDbRegAppTableRecord
  2
TopSolid'Draft
 70
     0
  0
APPID
  5
B91
330
8
100
AcDbSymbolTableRecord
100
AcDbRegAppTableRecord
  2
ACAD_MLEADERVER
 70
     0
  0
APPID
  5
B97
330
8
100
AcDbSymbolTableRecord
100
AcDbRegAppTableRecord
  2
DCO15
 70
     0
  0
ENDTAB
  0
TABLE
  2
DIMSTYLE
  5
9
330
0
100
AcDbSymbolTable
 70
     1
100
AcDbDimStyleTable
 71
     1
340
18
  0
DIMSTYLE
105
18
330
9
100
AcDbSymbolTableRecord
100
AcDbDimStyleTableRecord
  2
Standard
 70
     0
 41
1.25
 42
0.0
 44
0.75
 73
     0
 74
     0
 77
     1
140
2.5
146
0.8
147
1.25
176
     7
177
     7
178
     7
271
     2
340
17
  0
ENDTAB
  0
TABLE
  2
BLOCK_RECORD
  5
1
330
0
100
AcDbSymbolTable
 70
     7
  0
BLOCK_RECORD
  5
A
102
{ACAD_XDICTIONARY
360
BC5
102
}
330
1
100
AcDbSymbolTableRecord
100
AcDbBlockTableRecord
  2
*MODEL_SPACE
340
20
  0
BLOCK_RECORD
  5
B
330
1
100
AcDbSymbolTableRecord
100
AcDbBlockTableRecord
  2
*PAPER_SPACE
340
21
  0
BLOCK_RECORD
  5
2B
330
1
100
AcDbSymbolTableRecord
100
AcDbBlockTableRecord
  2
AID311
340
0
102
{BLKREFS
331
99
102
}
  0
BLOCK_RECORD
  5
9D
330
1
100
AcDbSymbolTableRecord
100
AcDbBlockTableRecord
  2
AID615
340
0
102
{BLKREFS
331
F3
102
}
  0
BLOCK_RECORD
  5
F4
330
1
100
AcDbSymbolTableRecord
100
AcDbBlockTableRecord
  2
AID785
340
0
102
{BLKREFS
331
164
102
}
  0
BLOCK_RECORD
  5
165
330
1
100
AcDbSymbolTableRecord
100
AcDbBlockTableRecord
  2
AID1007
340
0
102
{BLKREFS
331
1CF
102
}
  0
BLOCK_RECORD
  5
1D0
330
1
100
AcDbSymbolTableRecord
100
AcDbBlockTableRecord
  2
AID1217
340
0
102
{BLKREFS
331
21F
102
}
  0
BLOCK_RECORD
  5
220
330
1
100
AcDbSymbolTableRecord
100
AcDbBlockTableRecord
  2
AID1373
340
0
102
{BLKREFS
331
2DB
102
}
  0
BLOCK_RECORD
  5
2EA
330
1
100
AcDbSymbolTableRecord
100
AcDbBlockTableRecord
  2
AID1871
340
0
102
{BLKREFS
331
2EE
102
}
  0
ENDTAB
  0
ENDSEC
  0
SECTION
  2
BLOCKS
  0
BLOCK
  5
D
330
A
100
AcDbEntity
  8
0
100
AcDbBlockBegin
  2
*MODEL_SPACE
 70
     0
 10
0.0
 20
0.0
 30
0.0
  3
*MODEL_SPACE
  1

  0
ENDBLK
  5
E
330
A
100
AcDbEntity
  8
0
100
AcDbBlockEnd
  0
BLOCK
  5
F
330
B
100
AcDbEntity
 67
     1
  8
0
100
AcDbBlockBegin
  2
*PAPER_SPACE
 70
     0
 10
0.0
 20
0.0
 30
0.0
  3
*PAPER_SPACE
  1

  0
ENDBLK
  5
10
330
B
100
AcDbEntity
 67
     1
  8
0
100
AcDbBlockEnd
  0
BLOCK
  5
2C
330
2B
100
AcDbEntity
  8
0
100
AcDbBlockBegin
  2
AID311
 70
     0
 10
0.0
 20
0.0
 30
0.0
  3
AID311
  1

  0
LINE
  5
2D
330
2B
100
AcDbEntity
  8
0
  6
Continuous
 62
     7
100
AcDbLine
 10
-189.4999999999865
 20
248.3000000000521
 30
0.0
 11
-203.4999999999866
 21
248.3000000000521
 31
0.0
  0
LINE
  5
2E
330
2B
100
AcDbEntity
  8
0
  6
Continuous
 62
     7
100
AcDbLine
 10
-189.4999999999865
 20
247.8000000000521
 30
0.0
 11
-196.4999999999866
 21
247.8000000000521
 31
0.0
  0
LINE
  5
2F
330
2B
100
AcDbEntity
  8
0
  6
Continuous
 62
     7
100
AcDbLine
 10
-196.4999999999866
 20
247.8000000000521
 30
0.0
 11
-203.4999999999866
 21
247.8000000000521
 31
0.0
  0
LINE
  5
30
330
2B
100
AcDbEntity
  8
0
  6
Continuous
 62
     7
100
AcDbLine
 10
-203.4999999999866
 20
223.2000000000539
 30
0.0
 11
-203.3980506965357
 21
223.2000000000538
 31
0.0
  0
LINE
  5
31
330
2B
100
AcDbEntity
  8
0
  6
Continuous
 62
     7
100
AcDbLine
 10
-203.3980506965357
 20
223.2000000000538
 30
0.0
 11
-202.5838042412085
 21
223.2000000000536
 31
0.0
  0
LINE
  5
32
330
2B
100
AcDbEntity
  8
0
  6
Continuous
 62
     7
100
AcDbLine
 10
-202.5838042412085
 20
223.2000000000536
 30
0.0
 11
-198.0173328852356
 21
223.2000000000524
 31
0.0
  0
LINE
  5
33
330
2B
100
AcDbEntity
  8
0
  6
Continuous
 62
     7
100
AcDbLine
 10
-198.0173328852356
 20
223.2000000000524
 30
0.0
 11
-196.6000243826086
 21
223.200000000052
 31
0.0
  0
LINE
  5
34
330
2B
100
AcDbEntity
  8
0
  6
Continuous
 62
     7
100
AcDbLine
 10
-196.6000243826086
 20
223.200000000052
 30
0.0
 11
-196.3999616458309
 21
223.200000000052
 31
0.0
  0
LINE
  5
35
330
2B
100
AcDbEntity
  8
0
  6
Continuous
 62
     7
100
AcDbLine
 10
-196.3999616458309
 20
223.200000000052
 30
0.0
 11
-195.1066885891697
 21
223.2000000000516
 31
0.0
  0
LINE
  5
36
330
2B
100
AcDbEntity
  8
0
  6
Continuous
 62
     7
100
AcDbLine
 10
-195.1066885891697
 20
223.2000000000516
 30
0.0
 11
-191.5952833372159
 21
223.2000000000507
 31
0.0
  0
LINE
  5
37
330
2B
100
AcDbEntity
  8
0
  6
Continuous
 62
     7
100
AcDbLine
 10
-191.5952833372159
 20
223.2000000000507
 30
0.0
 11
-191.3406198319036
 21
223.2000000000506
 31
0.0
  0
LINE
  5
38
330
2B
100
AcDbEntity
  8
0
  6
Continuous
 62
     7
100
AcDbLine
 10
-191.3406198319036
 20
223.2000000000506
 30
0.0
 11
-190.9863656277139
 21
223.2000000000505
 31
0.0
  0
LINE
  5
39
330
2B
100
AcDbEntity
  8
0
  6
Continuous
 62
     7
100
AcDbLine
 10
-190.9863656277139
 20
223.2000000000505
 30
0.0
 11
-190.8578931096549
 21
223.2000000000505
 31
0.0
  0
LINE
  5
3A
330
2B
100
AcDbEntity
  8
0
  6
Continuous
 62
     7
100
AcDbLine
 10
-190.8578931096549
 20
223.2000000000505
 30
0.0
 11
-190.7377634404254
 21
223.2000000000504
 31
0.0
  0
LINE
  5
3B
330
2B
100
AcDbEntity
  8
0
  6
Continuous
 62
     7
100
AcDbLine
 10
-190.7377634404254
 20
223.2000000000504
 30
0.0
 11
-190.3653576369102
 21
223.2000000000503
 31
0.0
  0
LINE
  5
3C
330
2B
100
AcDbEntity
  8
0
  6
Continuous
 62
     7
100
AcDbLine
 10
-190.3653576369102
 20
223.2000000000503
 30
0.0
 11
-189.609181402873
 21
223.2000000000501
 31
0.0
  0
LINE
  5
3D
330
2B
100
AcDbEntity
  8
0
  6
Continuous
 62
     7
100
AcDbLine
 10
-189.609181402873
 20
223.2000000000501
 30
0.0
 11
-189.5002870819256
 21
223.2000000000501
 31
0.0
  0
LINE
  5
3E
330
2B
100
AcDbEntity
  8
0
  6
Continuous
 62
     7
100
AcDbLine
 10
-203.4999999999867
 20
222.7000000000539
 30
0.0
 11
-189.5002870819258
 21
222.7000000000501
 31
0.0
  0
LINE
  5
3F
330
2B
100
AcDbEntity
  8
0
  6
Continuous
 62
     7
100
AcDbLine
 10
-189.5002870819256
 20
223.2000000000501
 30
0.0
 11
-189.4999999999865
 21
223.2000000000501
 31
0.0
  0
LINE
  5
40
330
2B
100
AcDbEntity
  8
0
  6
Continuous
 62
     7
100
AcDbLine
 10
-189.5002870819258
 20
222.7000000000501
 30
0.0
 11
-189.4999999999867
 21
222.7000000000501
 31
0.0
  0
LINE
  5
41
330
2B
100
AcDbEntity
  8
0
  6
Continuous
 62
     7
100
AcDbLine
 10
-205.9999999999866
 20
260.5000000000521
 30
0.0
 11
-204.9999999999866
 21
260.5000000000521
 31
0.0
  0
LINE
  5
42
330
2B
100
AcDbEntity
  8
0
  6
Continuous
 62
     7
100
AcDbLine
 10
-204.9999999999866
 20
210.5000000000521
 30
0.0
 11
-205.9999999999866
 21
210.5000000000521
 31
0.0
  0
LINE
  5
43
330
2B
100
AcDbEntity
  8
0
  6
Continuous
 62
     7
100
AcDbLine
 10
-204.9999999999866
 20
260.5000000000521
 30
0.0
 11
-204.9999999999866
 21
246.5000000000521
 31
0.0
  0
LINE
  5
44
330
2B
100
AcDbEntity
  8
0
  6
Continuous
 62
     7
100
AcDbLine
 10
-204.9999999999866
 20
224.5000000000521
 30
0.0
 11
-204.9999999999866
 21
210.5000000000521
 31
0.0
  0
LINE
  5
45
330
2B
100
AcDbEntity
  8
0
  6
Continuous
 62
     7
100
AcDbLine
 10
-188.0000000000149
 20
222.4999999999557
 30
0.0
 11
-188.0000000000149
 21
248.4999999999557
 31
0.0
  0
LINE
  5
46
330
2B
100
AcDbEntity
  8
0
  6
Continuous
 62
     7
100
AcDbLine
 10
-203.9999999999866
 20
222.500000000052
 30
0.0
 11
-188.9999999999865
 21
222.500000000052
 31
0.0
  0
LINE
  5
47
330
2B
100
AcDbEntity
  8
0
  6
Continuous
 62
     7
100
AcDbLine
 10
-188.9999999999903
 20
222.500000000052
 30
0.0
 11
-188.9999999999902
 21
210.500000000052
 31
0.0
  0
LINE
  5
48
330
2B
100
AcDbEntity
  8
0
  6
Continuous
 62
     7
100
AcDbLine
 10
-188.9999999999865
 20
210.500000000052
 30
0.0
 11
-203.9999999999866
 21
210.500000000052
 31
0.0
  0
LINE
  5
49
330
2B
100
AcDbEntity
  8
0
  6
Continuous
 62
     7
100
AcDbLine
 10
-203.9999999999866
 20
248.500000000052
 30
0.0
 11
-188.9999999999865
 21
248.500000000052
 31
0.0
  0
LINE
  5
4A
330
2B
100
AcDbEntity
  8
0
  6
Continuous
 62
     7
100
AcDbLine
 10
-188.9999999999865
 20
260.500000000052
 30
0.0
 11
-203.9999999999866
 21
260.500000000052
 31
0.0
  0
LINE
  5
4B
330
2B
100
AcDbEntity
  8
0
  6
Continuous
 62
     7
100
AcDbLine
 10
-188.9999999999902
 20
260.500000000052
 30
0.0
 11
-188.9999999999903
 21
248.500000000052
 31
0.0
  0
LINE
  5
4C
330
2B
100
AcDbEntity
  8
0
  6
Continuous
 62
     9
100
AcDbLine
 10
-187.9999999999908
 20
222.4999999999557
 30
0.0
 11
-187.9999999999908
 21
210.4999999999557
 31
0.0
  0
LINE
  5
4D
330
2B
100
AcDbEntity
  8
0
  6
Continuous
 62
     7
100
AcDbLine
 10
-188.9318888177541
 20
222.5000000000199
 30
0.0
 11
-188.9999999999908
 21
222.5000000000199
 31
0.0
  0
LINE
  5
4E
330
2B
100
AcDbEntity
  8
0
  6
Continuous
 62
     7
100
AcDbLine
 10
-187.9999999999908
 20
222.5000000000199
 30
0.0
 11
-188.9318888177541
 21
222.5000000000199
 31
0.0
  0
LINE
  5
4F
330
2B
100
AcDbEntity
  8
0
  6
Continuous
 62
     7
100
AcDbLine
 10
-188.9318888210245
 20
210.5000000000199
 30
0.0
 11
-187.9999999999908
 21
210.5000000000199
 31
0.0
  0
LINE
  5
50
330
2B
100
AcDbEntity
  8
0
  6
Continuous
 62
     7
100
AcDbLine
 10
-188.9999999999908
 20
210.5000000000199
 30
0.0
 11
-188.9318888210245
 21
210.5000000000199
 31
0.0
  0
LINE
  5
51
330
2B
100
AcDbEntity
  8
0
  6
Continuous
 62
     9
100
AcDbLine
 10
-187.9999999999908
 20
260.4999999999557
 30
0.0
 11
-187.9999999999908
 21
248.4999999999557
 31
0.0
  0
LINE
  5
52
330
2B
100
AcDbEntity
  8
0
  6
Continuous
 62
     7
100
AcDbLine
 10
-188.9318888210245
 20
260.5000000000199
 30
0.0
 11
-187.9999999999908
 21
260.5000000000199
 31
0.0
  0
LINE
  5
53
330
2B
100
AcDbEntity
  8
0
  6
Continuous
 62
     7
100
AcDbLine
 10
-188.9999999999908
 20
260.5000000000199
 30
0.0
 11
-188.9318888210245
 21
260.5000000000199
 31
0.0
  0
LINE
  5
54
330
2B
100
AcDbEntity
  8
0
  6
Continuous
 62
     7
100
AcDbLine
 10
-187.9999999999908
 20
248.5000000000199
 30
0.0
 11
-188.9999999999908
 21
248.5000000000199
 31
0.0
  0
LINE
  5
55
330
2B
100
AcDbEntity
  8
0
  6
Continuous
 62
     7
100
AcDbLine
 10
-186.9999999999913
 20
222.4999999999557
 30
0.0
 11
-186.9999999999913
 21
248.4999999999557
 31
0.0
  0
LINE
  5
56
330
2B
100
AcDbEntity
  8
0
  6
Continuous
 62
     7
100
AcDbLine
 10
-138.0000000000155
 20
260.4999999999557
 30
0.0
 11
-138.0000000000155
 21
210.4999999999557
 31
0.0
  0
LINE
  5
57
330
2B
100
AcDbEntity
  8
0
  6
Continuous
 62
     7
100
AcDbLine
 10
-138.0000000000155
 20
260.4999999999557
 30
0.0
 11
-187.9999999999908
 21
260.4999999999557
 31
0.0
  0
LINE
  5
58
330
2B
100
AcDbEntity
  8
0
  6
Continuous
 62
     7
100
AcDbLine
 10
-187.9999999999908
 20
248.4999999999557
 30
0.0
 11
-186.9999999999913
 21
248.4999999999557
 31
0.0
  0
LINE
  5
59
330
2B
100
AcDbEntity
  8
0
  6
Continuous
 62
     7
100
AcDbLine
 10
-187.9999999999908
 20
222.4999999999557
 30
0.0
 11
-186.9999999999913
 21
222.4999999999557
 31
0.0
  0
LINE
  5
5A
330
2B
100
AcDbEntity
  8
0
  6
Continuous
 62
     7
100
AcDbLine
 10
-138.0000000000155
 20
210.4999999999557
 30
0.0
 11
-187.9999999999908
 21
210.4999999999557
 31
0.0
  0
LINE
  5
5B
330
2B
100
AcDbEntity
  8
0
  6
Continuous
 62
     7
100
AcDbLine
 10
-203.7499999999866
 20
224.5000000000521
 30
0.0
 11
-196.4999999999866
 21
224.5000000000521
 31
0.0
  0
LINE
  5
5C
330
2B
100
AcDbEntity
  8
0
  6
Continuous
 62
     7
100
AcDbLine
 10
-203.7499999999866
 20
223.2000000000521
 30
0.0
 11
-203.3957755745188
 21
223.2000000000521
 31
0.0
  0
LINE
  5
5D
330
2B
100
AcDbEntity
  8
0
  6
Continuous
 62
     7
100
AcDbLine
 10
-203.3957755745188
 20
223.2000000000521
 30
0.0
 11
-202.6294792740223
 21
223.2000000000521
 31
0.0
  0
LINE
  5
5E
330
2B
100
AcDbEntity
  8
0
  6
Continuous
 62
     7
100
AcDbLine
 10
-202.6294792740223
 20
223.2000000000521
 30
0.0
 11
-198.1178210578706
 21
223.2000000000521
 31
0.0
  0
LINE
  5
5F
330
2B
100
AcDbEntity
  8
0
  6
Continuous
 62
     7
100
AcDbLine
 10
-198.1178210578706
 20
223.2000000000521
 30
0.0
 11
-196.4999999999866
 21
223.2000000000521
 31
0.0
  0
LINE
  5
60
330
2B
100
AcDbEntity
  8
0
  6
Continuous
 62
     7
100
AcDbLine
 10
-196.4999999999866
 20
224.5000000000521
 30
0.0
 11
-189.2499999999865
 21
224.5000000000521
 31
0.0
  0
LINE
  5
61
330
2B
100
AcDbEntity
  8
0
  6
Continuous
 62
     7
100
AcDbLine
 10
-196.4999999999866
 20
223.2000000000521
 30
0.0
 11
-195.0066101799172
 21
223.2000000000521
 31
0.0
  0
LINE
  5
62
330
2B
100
AcDbEntity
  8
0
  6
Continuous
 62
     7
100
AcDbLine
 10
-195.0066101799172
 20
223.2000000000521
 30
0.0
 11
-191.6609814171573
 21
223.2000000000521
 31
0.0
  0
LINE
  5
63
330
2B
100
AcDbEntity
  8
0
  6
Continuous
 62
     7
100
AcDbLine
 10
-191.6609814171573
 20
223.2000000000521
 30
0.0
 11
-191.3951395560598
 21
223.2000000000521
 31
0.0
  0
LINE
  5
64
330
2B
100
AcDbEntity
  8
0
  6
Continuous
 62
     7
100
AcDbLine
 10
-191.3951395560598
 20
223.2000000000521
 30
0.0
 11
-191.0287444691234
 21
223.2000000000521
 31
0.0
  0
LINE
  5
65
330
2B
100
AcDbEntity
  8
0
  6
Continuous
 62
     7
100
AcDbLine
 10
-191.0287444691234
 20
223.2000000000521
 30
0.0
 11
-190.9060988520959
 21
223.2000000000521
 31
0.0
  0
LINE
  5
66
330
2B
100
AcDbEntity
  8
0
  6
Continuous
 62
     7
100
AcDbLine
 10
-190.9060988520959
 20
223.2000000000521
 30
0.0
 11
-190.7872870154936
 21
223.2000000000521
 31
0.0
  0
LINE
  5
67
330
2B
100
AcDbEntity
  8
0
  6
Continuous
 62
     7
100
AcDbLine
 10
-190.7872870154936
 20
223.2000000000521
 30
0.0
 11
-190.4196384131321
 21
223.2000000000521
 31
0.0
  0
LINE
  5
68
330
2B
100
AcDbEntity
  8
0
  6
Continuous
 62
     7
100
AcDbLine
 10
-190.4196384131321
 20
223.2000000000521
 30
0.0
 11
-189.6103003379744
 21
223.2000000000521
 31
0.0
  0
LINE
  5
69
330
2B
100
AcDbEntity
  8
0
  6
Continuous
 62
     7
100
AcDbLine
 10
-189.6103003379744
 20
223.2000000000521
 30
0.0
 11
-189.2499999999866
 21
223.2000000000521
 31
0.0
  0
LINE
  5
6A
330
2B
100
AcDbEntity
  8
0
  6
Continuous
 62
     7
100
AcDbLine
 10
-189.2499999999865
 20
246.5000000000521
 30
0.0
 11
-203.7499999999866
 21
246.5000000000521
 31
0.0
  0
LINE
  5
6B
330
2B
100
AcDbEntity
  8
0
  6
Continuous
 62
     7
100
AcDbLine
 10
-189.2499999999865
 20
247.8000000000521
 30
0.0
 11
-203.7499999999866
 21
247.8000000000521
 31
0.0
  0
LINE
  5
6C
330
2B
100
AcDbEntity
  8
0
  6
Continuous
 62
     7
100
AcDbLine
 10
-191.1999999998917
 20
209.2000000008698
 30
0.0
 11
-199.5413401498645
 21
209.1999999995827
 31
0.0
  0
LINE
  5
6D
330
2B
100
AcDbEntity
  8
0
  6
Continuous
 62
     7
100
AcDbLine
 10
-202.4999999999998
 20
209.8999999991261
 30
0.0
 11
-199.9430265848746
 21
209.8999999995207
 31
0.0
  0
LINE
  5
6E
330
2B
100
AcDbEntity
  8
0
  6
Continuous
 62
     7
100
AcDbLine
 10
-199.5413401498645
 20
209.1999999995827
 30
0.0
 11
-201.7999999998917
 21
209.1999999992342
 31
0.0
  0
LINE
  5
6F
330
2B
100
AcDbEntity
  8
0
  6
Continuous
 62
     7
100
AcDbLine
 10
-199.9430265848746
 20
209.8999999995207
 30
0.0
 11
-190.4999999999997
 21
209.9000000009779
 31
0.0
  0
LINE
  5
70
330
2B
100
AcDbEntity
  8
0
  6
Continuous
 62
     7
100
AcDbLine
 10
-201.8000000026606
 20
261.80000000033
 30
0.0
 11
-194.1603703783312
 21
261.79999999993
 31
0.0
  0
LINE
  5
71
330
2B
100
AcDbEntity
  8
0
  6
Continuous
 62
     7
100
AcDbLine
 10
-190.5000000026973
 20
261.0999999997383
 30
0.0
 11
-193.8513626921357
 21
261.0999999999139
 31
0.0
  0
LINE
  5
72
330
2B
100
AcDbEntity
  8
0
  6
Continuous
 62
     7
100
AcDbLine
 10
-194.1603703783312
 20
261.79999999993
 30
0.0
 11
-191.2000000026606
 21
261.7999999997749
 31
0.0
  0
LINE
  5
73
330
2B
100
AcDbEntity
  8
0
  6
Continuous
 62
     7
100
AcDbLine
 10
-193.8513626921357
 20
261.0999999999139
 30
0.0
 11
-202.5000000026973
 21
261.1000000003667
 31
0.0
  0
LINE
  5
74
330
2B
100
AcDbEntity
  8
0
  6
Continuous
 62
     7
100
AcDbLine
 10
-203.9999999999866
 20
224.5000000000521
 30
0.0
 11
-188.9999999999865
 21
224.5000000000521
 31
0.0
  0
LINE
  5
75
330
2B
100
AcDbEntity
  8
0
  6
Continuous
 62
     7
100
AcDbLine
 10
-203.9999999999866
 20
224.5000000000521
 30
0.0
 11
-203.9999999999866
 21
246.5000000000521
 31
0.0
  0
LINE
  5
76
330
2B
100
AcDbEntity
  8
0
  6
Continuous
 62
     7
100
AcDbLine
 10
-203.9999999999866
 20
246.5000000000521
 30
0.0
 11
-188.9999999999865
 21
246.5000000000521
 31
0.0
  0
LINE
  5
77
330
2B
100
AcDbEntity
  8
0
  6
Continuous
 62
     9
100
AcDbLine
 10
-204.9999999999866
 20
224.5000000000521
 30
0.0
 11
-204.9999999999866
 21
246.5000000000521
 31
0.0
  0
LINE
  5
78
330
2B
100
AcDbEntity
  8
0
  6
Continuous
 62
     7
100
AcDbLine
 10
-203.9999999999866
 20
224.5000000000521
 30
0.0
 11
-204.9999999999866
 21
224.5000000000521
 31
0.0
  0
LINE
  5
79
330
2B
100
AcDbEntity
  8
0
  6
Continuous
 62
     7
100
AcDbLine
 10
-203.9999999999866
 20
246.5000000000521
 30
0.0
 11
-204.9999999999866
 21
246.5000000000521
 31
0.0
  0
LINE
  5
7A
330
2B
100
AcDbEntity
  8
0
  6
Continuous
 62
     7
100
AcDbLine
 10
-205.9999999999866
 20
210.5000000000521
 30
0.0
 11
-205.9999999999866
 21
224.5000000000521
 31
0.0
  0
LINE
  5
7B
330
2B
100
AcDbEntity
  8
0
  6
Continuous
 62
     7
100
AcDbLine
 10
-254.9999999999866
 20
210.5000000000521
 30
0.0
 11
-254.9999999999866
 21
260.5000000000521
 31
0.0
  0
LINE
  5
7C
330
2B
100
AcDbEntity
  8
0
  6
Continuous
 62
     7
100
AcDbLine
 10
-254.9999999999866
 20
260.5000000000521
 30
0.0
 11
-205.9999999999866
 21
260.5000000000521
 31
0.0
  0
LINE
  5
7D
330
2B
100
AcDbEntity
  8
0
  6
Continuous
 62
     7
100
AcDbLine
 10
-205.9999999999866
 20
260.5000000000521
 30
0.0
 11
-205.9999999999866
 21
246.5000000000521
 31
0.0
  0
LINE
  5
7E
330
2B
100
AcDbEntity
  8
0
  6
Continuous
 62
     7
100
AcDbLine
 10
-254.9999999999866
 20
210.5000000000521
 30
0.0
 11
-205.9999999999866
 21
210.5000000000521
 31
0.0
  0
LINE
  5
7F
330
2B
100
AcDbEntity
  8
0
  6
Continuous
 62
     7
100
AcDbLine
 10
-205.9999999999866
 20
224.5000000000521
 30
0.0
 11
-204.9999999999866
 21
224.5000000000521
 31
0.0
  0
LINE
  5
80
330
2B
100
AcDbEntity
  8
0
  6
Continuous
 62
     7
100
AcDbLine
 10
-205.9999999999866
 20
246.5000000000521
 30
0.0
 11
-204.9999999999866
 21
246.5000000000521
 31
0.0
  0
LINE
  5
81
330
2B
100
AcDbEntity
  8
0
  6
Continuous
 62
     7
100
AcDbLine
 10
-189.4999999999865
 20
247.8000000000521
 30
0.0
 11
-189.4999999999865
 21
248.3000000000521
 31
0.0
  0
LINE
  5
82
330
2B
100
AcDbEntity
  8
0
  6
Continuous
 62
     7
100
AcDbLine
 10
-203.4999999999866
 20
248.3000000000521
 30
0.0
 11
-203.4999999999866
 21
247.8000000000521
 31
0.0
  0
LINE
  5
83
330
2B
100
AcDbEntity
  8
0
  6
Continuous
 62
     7
100
AcDbLine
 10
-203.4999999999866
 20
223.2000000000539
 30
0.0
 11
-203.4999999999867
 21
222.7000000000539
 31
0.0
  0
LINE
  5
84
330
2B
100
AcDbEntity
  8
0
  6
Continuous
 62
     7
100
AcDbLine
 10
-189.4999999999867
 20
222.7000000000501
 30
0.0
 11
-189.4999999999865
 21
223.2000000000501
 31
0.0
  0
LINE
  5
85
330
2B
100
AcDbEntity
  8
0
  6
Continuous
 62
     7
100
AcDbLine
 10
-203.9999999999829
 20
222.500000000052
 30
0.0
 11
-203.9999999999829
 21
210.500000000052
 31
0.0
  0
LINE
  5
86
330
2B
100
AcDbEntity
  8
0
  6
Continuous
 62
     7
100
AcDbLine
 10
-203.9999999999829
 20
260.500000000052
 30
0.0
 11
-203.9999999999829
 21
248.500000000052
 31
0.0
  0
LINE
  5
87
330
2B
100
AcDbEntity
  8
0
  6
Continuous
 62
     7
100
AcDbLine
 10
-203.7499999999866
 20
224.5000000000521
 30
0.0
 11
-203.7499999999866
 21
223.2000000000521
 31
0.0
  0
LINE
  5
88
330
2B
100
AcDbEntity
  8
0
  6
Continuous
 62
     7
100
AcDbLine
 10
-189.2499999999865
 20
223.2000000000521
 30
0.0
 11
-189.2499999999865
 21
224.5000000000521
 31
0.0
  0
LINE
  5
89
330
2B
100
AcDbEntity
  8
0
  6
Continuous
 62
     7
100
AcDbLine
 10
-189.2499999999865
 20
246.5000000000521
 30
0.0
 11
-189.2499999999865
 21
247.8000000000521
 31
0.0
  0
LINE
  5
8A
330
2B
100
AcDbEntity
  8
0
  6
Continuous
 62
     7
100
AcDbLine
 10
-203.7499999999866
 20
247.8000000000521
 30
0.0
 11
-203.7499999999866
 21
246.5000000000521
 31
0.0
  0
LINE
  5
8B
330
2B
100
AcDbEntity
  8
0
  6
Continuous
 62
     7
100
AcDbLine
 10
-202.4999999999998
 20
209.8999999991261
 30
0.0
 11
-201.7999999998917
 21
209.1999999992342
 31
0.0
  0
LINE
  5
8C
330
2B
100
AcDbEntity
  8
0
  6
Continuous
 62
     7
100
AcDbLine
 10
-191.1999999998917
 20
209.2000000008698
 30
0.0
 11
-190.4999999999997
 21
209.9000000009779
 31
0.0
  0
LINE
  5
8D
330
2B
100
AcDbEntity
  8
0
  6
Continuous
 62
     7
100
AcDbLine
 10
-190.4999999999997
 20
209.9000000009779
 30
0.0
 11
-190.5000000000923
 21
210.5000000009778
 31
0.0
  0
LINE
  5
8E
330
2B
100
AcDbEntity
  8
0
  6
Continuous
 62
     7
100
AcDbLine
 10
-202.5000000000924
 20
210.4999999991262
 30
0.0
 11
-202.4999999999998
 21
209.8999999991261
 31
0.0
  0
LINE
  5
8F
330
2B
100
AcDbEntity
  8
0
  6
Continuous
 62
     7
100
AcDbLine
 10
-190.5000000026973
 20
261.0999999997383
 30
0.0
 11
-191.2000000026606
 21
261.7999999997749
 31
0.0
  0
LINE
  5
90
330
2B
100
AcDbEntity
  8
0
  6
Continuous
 62
     7
100
AcDbLine
 10
-201.8000000026606
 20
261.80000000033
 30
0.0
 11
-202.5000000026973
 21
261.1000000003667
 31
0.0
  0
LINE
  5
91
330
2B
100
AcDbEntity
  8
0
  6
Continuous
 62
     7
100
AcDbLine
 10
-202.5000000026973
 20
261.1000000003667
 30
0.0
 11
-202.5000000027287
 21
260.5000000003667
 31
0.0
  0
LINE
  5
92
330
2B
100
AcDbEntity
  8
0
  6
Continuous
 62
     7
100
AcDbLine
 10
-190.5000000027287
 20
260.4999999997383
 30
0.0
 11
-190.5000000026973
 21
261.0999999997383
 31
0.0
  0
LINE
  5
93
330
2B
100
AcDbEntity
  8
0
  6
Continuous
 62
     7
100
AcDbLine
 10
-192.5000000005919
 20
222.5000000004593
 30
0.0
 11
-192.5000000006024
 21
222.7000000007359
 31
0.0
  0
LINE
  5
94
330
2B
100
AcDbEntity
  8
0
  6
Continuous
 62
     7
100
AcDbLine
 10
-192.50000000195
 20
248.3000000000521
 30
0.0
 11
-192.5000000019606
 21
248.5000000004593
 31
0.0
  0
LINE
  5
95
330
2B
100
AcDbEntity
  8
0
  6
Continuous
 62
     7
100
AcDbLine
 10
-200.5000000019605
 20
248.5000000004593
 30
0.0
 11
-200.50000000195
 21
248.3000000000521
 31
0.0
  0
LINE
  5
96
330
2B
100
AcDbEntity
  8
0
  6
Continuous
 62
     7
100
AcDbLine
 10
-200.5000000006025
 20
222.7000000007381
 30
0.0
 11
-200.500000000592
 21
222.5000000004593
 31
0.0
  0
LINE
  5
97
330
2B
100
AcDbEntity
  8
0
  6
Continuous
 62
     7
100
AcDbLine
 10
-188.9999999999865
 20
224.5000000000521
 30
0.0
 11
-188.9999999999865
 21
246.5000000000521
 31
0.0
  0
ENDBLK
  5
98
330
2B
100
AcDbEntity
  8
0
100
AcDbBlockEnd
  0
BLOCK
  5
9E
330
9D
100
AcDbEntity
  8
0
100
AcDbBlockBegin
  2
AID615
 70
     0
 10
0.0
 20
0.0
 30
0.0
  3
AID615
  1

  0
LINE
  5
9F
330
9D
100
AcDbEntity
  8
0
  6
Continuous
 62
     7
100
AcDbLine
 10
-156.0000000000032
 20
303.4000000011364
 30
0.0
 11
-170.0000000000032
 21
303.4000000012075
 31
0.0
  0
LINE
  5
A0
330
9D
100
AcDbEntity
  8
0
  6
Continuous
 62
     7
100
AcDbLine
 10
-155.9999999999778
 20
308.4000000011365
 30
0.0
 11
-169.9999999999777
 21
308.4000000012075
 31
0.0
  0
LINE
  5
A1
330
9D
100
AcDbEntity
  8
0
  6
Continuous
 62
     7
100
AcDbLine
 10
-222.9999999999865
 20
308.4000000003864
 30
0.0
 11
-236.9999999999865
 21
308.4000000003864
 31
0.0
  0
LINE
  5
A2
330
9D
100
AcDbEntity
  8
0
  6
Continuous
 62
     7
100
AcDbLine
 10
-222.9999999999865
 20
303.4000000003865
 30
0.0
 11
-236.9999999999865
 21
303.4000000003865
 31
0.0
  0
LINE
  5
A3
330
9D
100
AcDbEntity
  8
0
  6
Continuous
 62
     7
100
AcDbLine
 10
-254.9999999999866
 20
295.1000000011017
 30
0.0
 11
-254.9999999999866
 21
301.1000000011017
 31
0.0
  0
LINE
  5
A4
330
9D
100
AcDbEntity
  8
0
  6
Continuous
 62
     7
100
AcDbLine
 10
-204.9999999999866
 20
301.1000000011017
 30
0.0
 11
-254.9999999999866
 21
301.1000000011017
 31
0.0
  0
LINE
  5
A5
330
9D
100
AcDbEntity
  8
0
  6
Continuous
 62
     7
100
AcDbLine
 10
-204.9999999999866
 20
295.1000000011017
 30
0.0
 11
-204.9999999999866
 21
301.1000000011017
 31
0.0
  0
LINE
  5
A6
330
9D
100
AcDbEntity
  8
0
  6
Continuous
 62
     7
100
AcDbLine
 10
-204.9999999999866
 20
295.1000000011017
 30
0.0
 11
-254.9999999999866
 21
295.1000000011017
 31
0.0
  0
LINE
  5
A7
330
9D
100
AcDbEntity
  8
0
  6
Continuous
 62
     7
100
AcDbLine
 10
-138.0000000000159
 20
301.1000000019842
 30
0.0
 11
-188.0000000000149
 21
301.1000000019763
 31
0.0
  0
LINE
  5
A8
330
9D
100
AcDbEntity
  8
0
  6
Continuous
 62
     7
100
AcDbLine
 10
-188.000000000014
 20
295.1000000019764
 30
0.0
 11
-188.0000000000149
 21
301.1000000019763
 31
0.0
  0
LINE
  5
A9
330
9D
100
AcDbEntity
  8
0
  6
Continuous
 62
     7
100
AcDbLine
 10
-138.0000000000149
 20
295.1000000019842
 30
0.0
 11
-138.0000000000159
 21
301.1000000019842
 31
0.0
  0
LINE
  5
AA
330
9D
100
AcDbEntity
  8
0
  6
Continuous
 62
     7
100
AcDbLine
 10
-138.0000000000149
 20
295.1000000019842
 30
0.0
 11
-188.000000000014
 21
295.1000000019764
 31
0.0
  0
LINE
  5
AB
330
9D
100
AcDbEntity
  8
0
  6
Continuous
 62
     9
100
AcDbLine
 10
-146.0000000000077
 20
301.1000000019829
 30
0.0
 11
-146.0000000000077
 21
301.9000000017846
 31
0.0
  0
LINE
  5
AC
330
9D
100
AcDbEntity
  8
0
  6
Continuous
 62
     9
100
AcDbLine
 10
-181.4999999999981
 20
301.9000000017846
 30
0.0
 11
-181.4999999999981
 21
301.1000000019774
 31
0.0
  0
LINE
  5
AD
330
9D
100
AcDbEntity
  8
0
  6
Continuous
 62
     7
100
AcDbLine
 10
-181.4999999999981
 20
301.9000000017846
 30
0.0
 11
-146.0000000000077
 21
301.9000000017846
 31
0.0
  0
LINE
  5
AE
330
9D
100
AcDbEntity
  8
0
  6
Continuous
 62
     7
100
AcDbLine
 10
-183.4999999999976
 20
301.1000000019771
 30
0.0
 11
-183.4999999999976
 21
301.9000000016561
 31
0.0
  0
LINE
  5
AF
330
9D
100
AcDbEntity
  8
0
  6
Continuous
 62
     7
100
AcDbLine
 10
-183.4999999999981
 20
301.9000000016561
 30
0.0
 11
-181.4999999999981
 21
301.9000000016561
 31
0.0
  0
LINE
  5
B0
330
9D
100
AcDbEntity
  8
0
  6
Continuous
 62
     7
100
AcDbLine
 10
-144.0000000000083
 20
301.9000000016561
 30
0.0
 11
-144.0000000000083
 21
301.1000000019832
 31
0.0
  0
LINE
  5
B1
330
9D
100
AcDbEntity
  8
0
  6
Continuous
 62
     7
100
AcDbLine
 10
-146.0000000000077
 20
301.9000000016561
 30
0.0
 11
-144.0000000000076
 21
301.9000000016561
 31
0.0
  0
LINE
  5
B2
330
9D
100
AcDbEntity
  8
0
  6
Continuous
 62
     9
100
AcDbLine
 10
-141.0000000000133
 20
309.9000000019092
 30
0.0
 11
-141.0000000000133
 21
310.9000000019092
 31
0.0
  0
LINE
  5
B3
330
9D
100
AcDbEntity
  8
0
  6
Continuous
 62
     9
100
AcDbLine
 10
-184.9999999999929
 20
310.9000000019092
 30
0.0
 11
-184.9999999999929
 21
309.9000000019092
 31
0.0
  0
LINE
  5
B4
330
9D
100
AcDbEntity
  8
0
  6
Continuous
 62
     7
100
AcDbLine
 10
-184.9999999999929
 20
309.9000000019092
 30
0.0
 11
-141.0000000000133
 21
309.9000000019092
 31
0.0
  0
LINE
  5
B5
330
9D
100
AcDbEntity
  8
0
  6
Continuous
 62
     7
100
AcDbLine
 10
-186.999999999992
 20
309.9000000017809
 30
0.0
 11
-186.999999999992
 21
310.9000000017809
 31
0.0
  0
LINE
  5
B6
330
9D
100
AcDbEntity
  8
0
  6
Continuous
 62
     7
100
AcDbLine
 10
-184.9999999999929
 20
309.9000000017809
 30
0.0
 11
-186.9999999999929
 21
309.9000000017809
 31
0.0
  0
LINE
  5
B7
330
9D
100
AcDbEntity
  8
0
  6
Continuous
 62
     7
100
AcDbLine
 10
-139.0000000000142
 20
310.9000000017809
 30
0.0
 11
-139.0000000000142
 21
309.9000000017809
 31
0.0
  0
LINE
  5
B8
330
9D
100
AcDbEntity
  8
0
  6
Continuous
 62
     7
100
AcDbLine
 10
-139.0000000000133
 20
309.9000000017809
 30
0.0
 11
-141.0000000000133
 21
309.9000000017809
 31
0.0
  0
ARC
  5
B9
330
9D
100
AcDbEntity
  8
0
  6
Continuous
 62
     7
100
AcDbCircle
 10
-196.4999999999866
 20
318.4000000019699
 30
0.0
 40
7.500000000000007
100
AcDbArc
 50
0.0
 51
270.0
  0
LINE
  5
BA
330
9D
100
AcDbEntity
  8
0
  6
Continuous
 62
     7
100
AcDbLine
 10
-188.9999999999902
 20
317.9000000019702
 30
0.0
 11
-188.9999999999902
 21
318.4000000019699
 31
0.0
  0
ARC
  5
BB
330
9D
100
AcDbEntity
  8
0
  6
Continuous
 62
     7
100
AcDbCircle
 10
-187.9999999999908
 20
317.9000000019702
 30
0.0
 40
1.0
100
AcDbArc
 50
179.9999999999984
 51
270.0
  0
LINE
  5
BC
330
9D
100
AcDbEntity
  8
0
  6
Continuous
 62
     7
100
AcDbLine
 10
-138.0000000000155
 20
316.9000000019707
 30
0.0
 11
-187.9999999999908
 21
316.9000000019707
 31
0.0
  0
LINE
  5
BD
330
9D
100
AcDbEntity
  8
0
  6
Continuous
 62
     7
100
AcDbLine
 10
-138.0000000000155
 20
310.9000000019737
 30
0.0
 11
-138.0000000000155
 21
316.9000000019707
 31
0.0
  0
LINE
  5
BE
330
9D
100
AcDbEntity
  8
0
  6
Continuous
 62
     7
100
AcDbLine
 10
-196.4999999999866
 20
310.9000000019737
 30
0.0
 11
-138.0000000000155
 21
310.9000000019737
 31
0.0
  0
LINE
  5
BF
330
9D
100
AcDbEntity
  8
0
  6
Continuous
 62
     7
100
AcDbLine
 10
-158.100000000008
 20
302.9000000011752
 30
0.0
 11
-167.8999999999983
 21
302.9000000011752
 31
0.0
  0
LINE
  5
C0
330
9D
100
AcDbEntity
  8
0
  6
Continuous
 62
     7
100
AcDbLine
 10
-158.0500000000081
 20
302.8999999995703
 30
0.0
 11
-158.1000000000079
 21
302.8999999995703
 31
0.0
  0
LINE
  5
C1
330
9D
100
AcDbEntity
  8
0
  6
Continuous
 62
     7
100
AcDbLine
 10
-158.1000000000079
 20
302.8999999995703
 30
0.0
 11
-160.0000000021851
 21
302.8999999995703
 31
0.0
  0
LINE
  5
C2
330
9D
100
AcDbEntity
  8
0
  6
Continuous
 62
     7
100
AcDbLine
 10
-166.0000000021844
 20
302.8999999995703
 30
0.0
 11
-167.899999999997
 21
302.8999999995703
 31
0.0
  0
LINE
  5
C3
330
9D
100
AcDbEntity
  8
0
  6
Continuous
 62
     7
100
AcDbLine
 10
-167.8999999999983
 20
302.8999999995703
 30
0.0
 11
-167.9499999999982
 21
302.8999999995703
 31
0.0
  0
LINE
  5
C4
330
9D
100
AcDbEntity
  8
0
  6
Continuous
 62
     9
100
AcDbLine
 10
-251.9999999999757
 20
310.9000000003844
 30
0.0
 11
-251.9999999999757
 21
309.9000000003844
 31
0.0
  0
LINE
  5
C5
330
9D
100
AcDbEntity
  8
0
  6
Continuous
 62
     9
100
AcDbLine
 10
-207.9999999999975
 20
309.9000000003844
 30
0.0
 11
-207.9999999999975
 21
310.9000000003844
 31
0.0
  0
LINE
  5
C6
330
9D
100
AcDbEntity
  8
0
  6
Continuous
 62
     7
100
AcDbLine
 10
-207.9999999999975
 20
309.9000000003844
 30
0.0
 11
-251.9999999999757
 21
309.9000000003844
 31
0.0
  0
LINE
  5
C7
330
9D
100
AcDbEntity
  8
0
  6
Continuous
 62
     7
100
AcDbLine
 10
-253.9999999999747
 20
309.9000000003844
 30
0.0
 11
-253.9999999999747
 21
310.9000000003844
 31
0.0
  0
LINE
  5
C8
330
9D
100
AcDbEntity
  8
0
  6
Continuous
 62
     7
100
AcDbLine
 10
-251.9999999999757
 20
309.9000000003844
 30
0.0
 11
-253.9999999999757
 21
309.9000000003844
 31
0.0
  0
LINE
  5
C9
330
9D
100
AcDbEntity
  8
0
  6
Continuous
 62
     7
100
AcDbLine
 10
-205.9999999999984
 20
310.9000000003844
 30
0.0
 11
-205.9999999999984
 21
309.9000000003844
 31
0.0
  0
LINE
  5
CA
330
9D
100
AcDbEntity
  8
0
  6
Continuous
 62
     7
100
AcDbLine
 10
-205.9999999999975
 20
309.9000000003844
 30
0.0
 11
-207.9999999999975
 21
309.9000000003844
 31
0.0
  0
LINE
  5
CB
330
9D
100
AcDbEntity
  8
0
  6
Continuous
 62
     9
100
AcDbLine
 10
-246.9999999999805
 20
301.8999999995699
 30
0.0
 11
-246.9999999999805
 21
301.1000000011017
 31
0.0
  0
LINE
  5
CC
330
9D
100
AcDbEntity
  8
0
  6
Continuous
 62
     7
100
AcDbLine
 10
-248.9999999999798
 20
301.1000000011017
 30
0.0
 11
-248.9999999999798
 21
301.8999999995699
 31
0.0
  0
LINE
  5
CD
330
9D
100
AcDbEntity
  8
0
  6
Continuous
 62
     7
100
AcDbLine
 10
-248.9999999999805
 20
301.8999999995699
 30
0.0
 11
-246.9999999999805
 21
301.8999999995699
 31
0.0
  0
LINE
  5
CE
330
9D
100
AcDbEntity
  8
0
  6
Continuous
 62
     9
100
AcDbLine
 10
-211.4999999999931
 20
301.1000000011017
 30
0.0
 11
-211.4999999999931
 21
301.8999999995699
 31
0.0
  0
LINE
  5
CF
330
9D
100
AcDbEntity
  8
0
  6
Continuous
 62
     7
100
AcDbLine
 10
-246.9999999999805
 20
301.8999999995699
 30
0.0
 11
-211.4999999999931
 21
301.8999999995699
 31
0.0
  0
LINE
  5
D0
330
9D
100
AcDbEntity
  8
0
  6
Continuous
 62
     7
100
AcDbLine
 10
-209.4999999999938
 20
301.8999999995699
 30
0.0
 11
-209.4999999999938
 21
301.1000000011017
 31
0.0
  0
LINE
  5
D1
330
9D
100
AcDbEntity
  8
0
  6
Continuous
 62
     7
100
AcDbLine
 10
-211.4999999999931
 20
301.8999999995699
 30
0.0
 11
-209.4999999999931
 21
301.8999999995699
 31
0.0
  0
CIRCLE
  5
D2
330
9D
100
AcDbEntity
  8
0
  6
Continuous
 62
     7
100
AcDbCircle
 10
-196.4999999998917
 20
318.400000001946
 30
0.0
 40
5.299999999999998
  0
CIRCLE
  5
D3
330
9D
100
AcDbEntity
  8
0
  6
Continuous
 62
     7
100
AcDbCircle
 10
-196.4999999999997
 20
318.4000000016504
 30
0.0
 40
6.000000000000004
  0
LINE
  5
D4
330
9D
100
AcDbEntity
  8
0
  6
Continuous
 62
     7
100
AcDbLine
 10
-254.9999999999866
 20
310.9000000003844
 30
0.0
 11
-254.9999999999866
 21
316.9000000003844
 31
0.0
  0
LINE
  5
D5
330
9D
100
AcDbEntity
  8
0
  6
Continuous
 62
     7
100
AcDbLine
 10
-254.9999999999866
 20
316.9000000003844
 30
0.0
 11
-205.9999999999866
 21
316.9000000003844
 31
0.0
  0
LINE
  5
D6
330
9D
100
AcDbEntity
  8
0
  6
Continuous
 62
     7
100
AcDbLine
 10
-205.9999999999866
 20
310.9000000003844
 30
0.0
 11
-205.9999999999866
 21
316.9000000003844
 31
0.0
  0
LINE
  5
D7
330
9D
100
AcDbEntity
  8
0
  6
Continuous
 62
     7
100
AcDbLine
 10
-205.9999999999866
 20
310.9000000003844
 30
0.0
 11
-254.9999999999866
 21
310.9000000003844
 31
0.0
  0
LINE
  5
D8
330
9D
100
AcDbEntity
  8
0
  6
Continuous
 62
     7
100
AcDbLine
 10
-225.0999999999866
 20
302.9000000003843
 30
0.0
 11
-234.8999999999866
 21
302.9000000003843
 31
0.0
  0
ARC
  5
D9
330
9D
100
AcDbEntity
  8
0
  6
Continuous
 62
     7
100
AcDbCircle
 10
-204.9999999999866
 20
317.9000000003843
 30
0.0
 40
1.0
100
AcDbArc
 50
270.0
 51
0.0000000000007958
  0
LINE
  5
DA
330
9D
100
AcDbEntity
  8
0
  6
Continuous
 62
     7
100
AcDbLine
 10
-203.9999999999866
 20
317.9000000003843
 30
0.0
 11
-203.9999999999866
 21
318.4000000003844
 31
0.0
  0
LINE
  5
DB
330
9D
100
AcDbEntity
  8
0
  6
Continuous
 62
     7
100
AcDbLine
 10
-197.4999999999845
 20
310.9000000010022
 30
0.0
 11
-205.9999999999866
 21
310.9000000003844
 31
0.0
  0
LINE
  5
DC
330
9D
100
AcDbEntity
  8
0
  6
Continuous
 62
     7
100
AcDbLine
 10
-205.9999999999866
 20
316.9000000003844
 30
0.0
 11
-204.9999999999866
 21
316.9000000003844
 31
0.0
  0
LINE
  5
DD
330
9D
100
AcDbEntity
  8
0
  6
Continuous
 62
     9
100
AcDbLine
 10
-197.9999949899866
 20
311.0515297509639
 30
0.0
 11
-197.9999949899866
 21
311.0514219541741
 31
0.0
  0
LINE
  5
DE
330
9D
100
AcDbEntity
  8
0
  6
Continuous
 62
     7
100
AcDbLine
 10
-156.0000000000028
 20
303.4000000011364
 30
0.0
 11
-155.9999999999774
 21
308.4000000011365
 31
0.0
  0
LINE
  5
DF
330
9D
100
AcDbEntity
  8
0
  6
Continuous
 62
     7
100
AcDbLine
 10
-169.999999999978
 20
308.4000000012075
 30
0.0
 11
-170.0000000000036
 21
303.4000000012075
 31
0.0
  0
LINE
  5
E0
330
9D
100
AcDbEntity
  8
0
  6
Continuous
 62
     7
100
AcDbLine
 10
-222.9999999999865
 20
303.4000000003865
 30
0.0
 11
-222.9999999999865
 21
308.4000000003864
 31
0.0
  0
LINE
  5
E1
330
9D
100
AcDbEntity
  8
0
  6
Continuous
 62
     7
100
AcDbLine
 10
-236.9999999999865
 20
308.4000000003864
 30
0.0
 11
-236.9999999999865
 21
303.4000000003865
 31
0.0
  0
LINE
  5
E2
330
9D
100
AcDbEntity
  8
0
  6
Continuous
 62
     7
100
AcDbLine
 10
-166.0000000021849
 20
302.8999856492143
 30
0.0
 11
-166.0000000021849
 21
301.9000000017846
 31
0.0
  0
LINE
  5
E3
330
9D
100
AcDbEntity
  8
0
  6
Continuous
 62
     7
100
AcDbLine
 10
-160.0000000021849
 20
301.9000000017846
 30
0.0
 11
-160.0000000021849
 21
302.8999856480853
 31
0.0
  0
LINE
  5
E4
330
9D
100
AcDbEntity
  8
0
  6
Continuous
 62
     7
100
AcDbLine
 10
-158.1000000000055
 20
302.9000000011752
 30
0.0
 11
-158.1000000000055
 21
303.3999999999721
 31
0.0
  0
LINE
  5
E5
330
9D
100
AcDbEntity
  8
0
  6
Continuous
 62
     7
100
AcDbLine
 10
-158.1000000000055
 20
308.3999999999671
 30
0.0
 11
-158.1000000000055
 21
309.9000000019092
 31
0.0
  0
LINE
  5
E6
330
9D
100
AcDbEntity
  8
0
  6
Continuous
 62
     7
100
AcDbLine
 10
-167.9000000000007
 20
309.9000000019092
 30
0.0
 11
-167.9000000000007
 21
308.3999999999682
 31
0.0
  0
LINE
  5
E7
330
9D
100
AcDbEntity
  8
0
  6
Continuous
 62
     7
100
AcDbLine
 10
-167.9000000000007
 20
303.3999999999732
 30
0.0
 11
-167.9000000000007
 21
302.9000000011752
 31
0.0
  0
LINE
  5
E8
330
9D
100
AcDbEntity
  8
0
  6
Continuous
 62
     7
100
AcDbLine
 10
-158.0500000000055
 20
302.8999999995703
 30
0.0
 11
-158.0500000000055
 21
303.3999999999689
 31
0.0
  0
LINE
  5
E9
330
9D
100
AcDbEntity
  8
0
  6
Continuous
 62
     7
100
AcDbLine
 10
-158.0500000000055
 20
308.3999999999639
 30
0.0
 11
-158.0500000000055
 21
309.9000000019092
 31
0.0
  0
LINE
  5
EA
330
9D
100
AcDbEntity
  8
0
  6
Continuous
 62
     7
100
AcDbLine
 10
-167.9500000000007
 20
309.9000000019092
 30
0.0
 11
-167.9500000000007
 21
308.399999999965
 31
0.0
  0
LINE
  5
EB
330
9D
100
AcDbEntity
  8
0
  6
Continuous
 62
     7
100
AcDbLine
 10
-167.9500000000007
 20
303.39999999997
 30
0.0
 11
-167.9500000000007
 21
302.8999999995703
 31
0.0
  0
LINE
  5
EC
330
9D
100
AcDbEntity
  8
0
  6
Continuous
 62
     7
100
AcDbLine
 10
-232.9999999999866
 20
302.8999856480524
 30
0.0
 11
-232.9999999999866
 21
301.8999999995699
 31
0.0
  0
LINE
  5
ED
330
9D
100
AcDbEntity
  8
0
  6
Continuous
 62
     7
100
AcDbLine
 10
-226.9999999999866
 20
301.8999999995699
 30
0.0
 11
-226.9999999999866
 21
302.8999856480524
 31
0.0
  0
LINE
  5
EE
330
9D
100
AcDbEntity
  8
0
  6
Continuous
 62
     7
100
AcDbLine
 10
-225.0999999999866
 20
302.9000000003843
 30
0.0
 11
-225.0999999999866
 21
303.4000000007168
 31
0.0
  0
LINE
  5
EF
330
9D
100
AcDbEntity
  8
0
  6
Continuous
 62
     7
100
AcDbLine
 10
-225.0999999999866
 20
308.4000000007169
 30
0.0
 11
-225.0999999999866
 21
309.9000000003844
 31
0.0
  0
LINE
  5
F0
330
9D
100
AcDbEntity
  8
0
  6
Continuous
 62
     7
100
AcDbLine
 10
-234.8999999999866
 20
309.9000000003844
 30
0.0
 11
-234.8999999999866
 21
308.4000000007169
 31
0.0
  0
LINE
  5
F1
330
9D
100
AcDbEntity
  8
0
  6
Continuous
 62
     7
100
AcDbLine
 10
-234.8999999999866
 20
303.4000000007168
 30
0.0
 11
-234.8999999999866
 21
302.9000000003843
 31
0.0
  0
ENDBLK
  5
F2
330
9D
100
AcDbEntity
  8
0
100
AcDbBlockEnd
  0
BLOCK
  5
F5
330
F4
100
AcDbEntity
  8
0
100
AcDbBlockBegin
  2
AID785
 70
     0
 10
0.0
 20
0.0
 30
0.0
  3
AID785
  1

  0
LINE
  5
F6
330
F4
100
AcDbEntity
  8
0
  6
Continuous
 62
     7
100
AcDbLine
 10
-299.4000000007226
 20
229.9999999990891
 30
0.0
 11
-299.4000000010843
 21
224.3663589757426
 31
0.0
  0
LINE
  5
F7
330
F4
100
AcDbEntity
  8
0
  6
Continuous
 62
     7
100
AcDbLine
 10
-304.4000000007226
 20
229.9999999994101
 30
0.0
 11
-304.4000000010843
 21
224.3663589760636
 31
0.0
  0
LINE
  5
F8
330
F4
100
AcDbEntity
  8
0
  6
Continuous
 62
     7
100
AcDbLine
 10
-299.4000000010843
 20
224.3663589757426
 30
0.0
 11
-299.4000000016214
 21
215.9999999990891
 31
0.0
  0
LINE
  5
F9
330
F4
100
AcDbEntity
  8
0
  6
Continuous
 62
     7
100
AcDbLine
 10
-304.4000000010843
 20
224.3663589760636
 30
0.0
 11
-304.4000000016213
 21
215.9999999994101
 31
0.0
  0
LINE
  5
FA
330
F4
100
AcDbEntity
  8
0
  6
Continuous
 62
     7
100
AcDbLine
 10
-304.4000000000163
 20
240.9999999994101
 30
0.0
 11
-304.3999999995711
 21
247.9366043284451
 31
0.0
  0
LINE
  5
FB
330
F4
100
AcDbEntity
  8
0
  6
Continuous
 62
     7
100
AcDbLine
 10
-299.4000000000164
 20
240.9999999990891
 30
0.0
 11
-299.399999999571
 21
247.9366043281241
 31
0.0
  0
LINE
  5
FC
330
F4
100
AcDbEntity
  8
0
  6
Continuous
 62
     7
100
AcDbLine
 10
-304.3999999995711
 20
247.9366043284451
 30
0.0
 11
-304.3999999991176
 21
254.9999999994101
 31
0.0
  0
LINE
  5
FD
330
F4
100
AcDbEntity
  8
0
  6
Continuous
 62
     7
100
AcDbLine
 10
-299.399999999571
 20
247.9366043281241
 30
0.0
 11
-299.3999999991176
 21
254.9999999990891
 31
0.0
  0
LINE
  5
FE
330
F4
100
AcDbEntity
  8
0
  6
Continuous
 62
     7
100
AcDbLine
 10
-312.8999999995763
 20
247.8000000000521
 30
0.0
 11
-314.4000000011546
 21
247.8000000000521
 31
0.0
  0
LINE
  5
FF
330
F4
100
AcDbEntity
  8
0
  6
Continuous
 62
     7
100
AcDbLine
 10
-312.8999999995441
 20
248.3000000000521
 30
0.0
 11
-314.4000000011546
 21
248.3000000000521
 31
0.0
  0
LINE
  5
100
330
F4
100
AcDbEntity
  8
0
  6
Continuous
 62
     7
100
AcDbLine
 10
-314.4000000011546
 20
247.8000000000521
 30
0.0
 11
-321.4000000011546
 21
247.8000000000521
 31
0.0
  0
LINE
  5
101
330
F4
100
AcDbEntity
  8
0
  6
Continuous
 62
     7
100
AcDbLine
 10
-314.4000000011546
 20
248.3000000000521
 30
0.0
 11
-321.4000000011546
 21
248.3000000000521
 31
0.0
  0
LINE
  5
102
330
F4
100
AcDbEntity
  8
0
  6
Continuous
 62
     7
100
AcDbLine
 10
-321.4000000011546
 20
223.2000000008866
 30
0.0
 11
-314.4633960951281
 21
223.2000000000595
 31
0.0
  0
LINE
  5
103
330
F4
100
AcDbEntity
  8
0
  6
Continuous
 62
     7
100
AcDbLine
 10
-321.4000000012143
 20
222.7000000008866
 30
0.0
 11
-314.4633960951878
 21
222.7000000000595
 31
0.0
  0
LINE
  5
104
330
F4
100
AcDbEntity
  8
0
  6
Continuous
 62
     7
100
AcDbLine
 10
-314.4633960951281
 20
223.2000000000595
 30
0.0
 11
-312.9000000011554
 21
223.1999999998731
 31
0.0
  0
LINE
  5
105
330
F4
100
AcDbEntity
  8
0
  6
Continuous
 62
     7
100
AcDbLine
 10
-314.4633960951878
 20
222.7000000000595
 30
0.0
 11
-312.9000000011875
 21
222.6999999998731
 31
0.0
  0
LINE
  5
106
330
F4
100
AcDbEntity
  8
0
  6
Continuous
 62
     7
100
AcDbLine
 10
-291.0999999987744
 20
260.499999998544
 30
0.0
 11
-297.0999999987744
 21
260.4999999989292
 31
0.0
  0
LINE
  5
107
330
F4
100
AcDbEntity
  8
0
  6
Continuous
 62
     7
100
AcDbLine
 10
-291.1000000019841
 20
210.4999999985449
 30
0.0
 11
-297.1000000019841
 21
210.4999999989301
 31
0.0
  0
LINE
  5
108
330
F4
100
AcDbEntity
  8
0
  6
Continuous
 62
     7
100
AcDbLine
 10
-297.0999999987744
 20
260.4999999989292
 30
0.0
 11
-297.1000000019841
 21
210.4999999989301
 31
0.0
  0
LINE
  5
109
330
F4
100
AcDbEntity
  8
0
  6
Continuous
 62
     7
100
AcDbLine
 10
-291.0999999987744
 20
260.499999998544
 30
0.0
 11
-291.1000000019841
 21
210.4999999985449
 31
0.0
  0
LINE
  5
10A
330
F4
100
AcDbEntity
  8
0
  6
Continuous
 62
     9
100
AcDbLine
 10
-297.9000000016561
 20
215.4999999989949
 30
0.0
 11
-297.1000000016632
 21
215.4999999989436
 31
0.0
  0
LINE
  5
10B
330
F4
100
AcDbEntity
  8
0
  6
Continuous
 62
     7
100
AcDbLine
 10
-297.1000000017916
 20
213.4999999989441
 30
0.0
 11
-297.9000000017846
 21
213.4999999989954
 31
0.0
  0
LINE
  5
10C
330
F4
100
AcDbEntity
  8
0
  6
Continuous
 62
     7
100
AcDbLine
 10
-297.9000000017846
 20
213.4999999989949
 30
0.0
 11
-297.9000000016561
 21
215.4999999989949
 31
0.0
  0
LINE
  5
10D
330
F4
100
AcDbEntity
  8
0
  6
Continuous
 62
     9
100
AcDbLine
 10
-297.0999999990953
 20
255.4999999989327
 30
0.0
 11
-297.8999999990884
 21
255.499999998984
 31
0.0
  0
LINE
  5
10E
330
F4
100
AcDbEntity
  8
0
  6
Continuous
 62
     7
100
AcDbLine
 10
-297.9000000016561
 20
215.4999999989949
 30
0.0
 11
-297.8999999990884
 21
255.499999998984
 31
0.0
  0
LINE
  5
10F
330
F4
100
AcDbEntity
  8
0
  6
Continuous
 62
     7
100
AcDbLine
 10
-297.89999999896
 20
257.4999999989834
 30
0.0
 11
-297.0999999989669
 21
257.4999999989322
 31
0.0
  0
LINE
  5
110
330
F4
100
AcDbEntity
  8
0
  6
Continuous
 62
     7
100
AcDbLine
 10
-297.8999999990884
 20
255.499999998984
 30
0.0
 11
-297.89999999896
 21
257.499999998984
 31
0.0
  0
LINE
  5
111
330
F4
100
AcDbEntity
  8
0
  6
Continuous
 62
     9
100
AcDbLine
 10
-306.9000000017809
 20
213.4999999995865
 30
0.0
 11
-305.9000000017809
 21
213.4999999995224
 31
0.0
  0
LINE
  5
112
330
F4
100
AcDbEntity
  8
0
  6
Continuous
 62
     7
100
AcDbLine
 10
-305.9000000017809
 20
213.4999999995224
 30
0.0
 11
-305.9000000019092
 21
211.4999999995224
 31
0.0
  0
LINE
  5
113
330
F4
100
AcDbEntity
  8
0
  6
Continuous
 62
     7
100
AcDbLine
 10
-305.9000000019092
 20
211.4999999995232
 30
0.0
 11
-306.9000000019092
 21
211.4999999995875
 31
0.0
  0
LINE
  5
114
330
F4
100
AcDbEntity
  8
0
  6
Continuous
 62
     9
100
AcDbLine
 10
-305.8999999989565
 20
257.4999999995019
 30
0.0
 11
-306.8999999989565
 21
257.499999999566
 31
0.0
  0
LINE
  5
115
330
F4
100
AcDbEntity
  8
0
  6
Continuous
 62
     7
100
AcDbLine
 10
-305.9000000017809
 20
213.4999999995224
 30
0.0
 11
-305.8999999989565
 21
257.4999999995019
 31
0.0
  0
LINE
  5
116
330
F4
100
AcDbEntity
  8
0
  6
Continuous
 62
     7
100
AcDbLine
 10
-306.8999999988282
 20
259.4999999995652
 30
0.0
 11
-305.8999999988281
 21
259.499999999501
 31
0.0
  0
LINE
  5
117
330
F4
100
AcDbEntity
  8
0
  6
Continuous
 62
     7
100
AcDbLine
 10
-305.8999999988281
 20
259.4999999995019
 30
0.0
 11
-305.8999999989565
 21
257.4999999995019
 31
0.0
  0
LINE
  5
118
330
F4
100
AcDbEntity
  8
0
  6
Continuous
 62
     7
100
AcDbLine
 10
-312.8999999987609
 20
260.4999999999557
 30
0.0
 11
-312.9000000019707
 21
210.4999999999557
 31
0.0
  0
LINE
  5
119
330
F4
100
AcDbEntity
  8
0
  6
Continuous
 62
     7
100
AcDbLine
 10
-306.8999999987639
 20
260.4999999995706
 30
0.0
 11
-306.9000000019737
 21
210.4999999995706
 31
0.0
  0
LINE
  5
11A
330
F4
100
AcDbEntity
  8
0
  6
Continuous
 62
     7
100
AcDbLine
 10
-306.9000000019737
 20
210.4999999995706
 30
0.0
 11
-312.9000000019707
 21
210.4999999999557
 31
0.0
  0
LINE
  5
11B
330
F4
100
AcDbEntity
  8
0
  6
Continuous
 62
     7
100
AcDbLine
 10
-306.8999999987639
 20
260.4999999995706
 30
0.0
 11
-312.8999999987609
 21
260.4999999999557
 31
0.0
  0
LINE
  5
11C
330
F4
100
AcDbEntity
  8
0
  6
Continuous
 62
     7
100
AcDbLine
 10
-298.8999999992526
 20
252.9499999990521
 30
0.0
 11
-298.8999999998881
 21
243.0499999990619
 31
0.0
  0
LINE
  5
11D
330
F4
100
AcDbEntity
  8
0
  6
Continuous
 62
     7
100
AcDbLine
 10
-298.9000000008606
 20
227.8999999990522
 30
0.0
 11
-298.9000000014897
 21
218.0999999990619
 31
0.0
  0
LINE
  5
11E
330
F4
100
AcDbEntity
  8
0
  6
Continuous
 62
     9
100
AcDbLine
 10
-313.9000000011998
 20
222.5000000000199
 30
0.0
 11
-313.9000000019702
 21
210.5000000000199
 31
0.0
  0
LINE
  5
11F
330
F4
100
AcDbEntity
  8
0
  6
Continuous
 62
     7
100
AcDbLine
 10
-312.9000000011998
 20
222.4999999999557
 30
0.0
 11
-313.9000000011998
 21
222.5000000000199
 31
0.0
  0
LINE
  5
120
330
F4
100
AcDbEntity
  8
0
  6
Continuous
 62
     7
100
AcDbLine
 10
-313.9000000019702
 20
210.5000000000199
 30
0.0
 11
-312.9000000019702
 21
210.4999999999557
 31
0.0
  0
LINE
  5
121
330
F4
100
AcDbEntity
  8
0
  6
Continuous
 62
     9
100
AcDbLine
 10
-313.8999999987605
 20
260.5000000000199
 30
0.0
 11
-313.8999999995308
 21
248.5000000000199
 31
0.0
  0
LINE
  5
122
330
F4
100
AcDbEntity
  8
0
  6
Continuous
 62
     7
100
AcDbLine
 10
-312.8999999995309
 20
248.4999999999557
 30
0.0
 11
-313.8999999995308
 21
248.5000000000199
 31
0.0
  0
LINE
  5
123
330
F4
100
AcDbEntity
  8
0
  6
Continuous
 62
     7
100
AcDbLine
 10
-313.8999999987605
 20
260.5000000000199
 30
0.0
 11
-312.8999999987605
 21
260.4999999999557
 31
0.0
  0
LINE
  5
124
330
F4
100
AcDbEntity
  8
0
  6
Continuous
 62
     7
100
AcDbLine
 10
-321.9000000011996
 20
222.5000000005335
 30
0.0
 11
-314.4000000011996
 21
222.500000000052
 31
0.0
  0
LINE
  5
125
330
F4
100
AcDbEntity
  8
0
  6
Continuous
 62
     9
100
AcDbLine
 10
-314.4000000011996
 20
222.500000000052
 30
0.0
 11
-314.4000000019699
 21
210.500000000052
 31
0.0
  0
LINE
  5
126
330
F4
100
AcDbEntity
  8
0
  6
Continuous
 62
     7
100
AcDbLine
 10
-314.4000000019699
 20
210.500000000052
 30
0.0
 11
-321.9000000019699
 21
210.5000000005335
 31
0.0
  0
LINE
  5
127
330
F4
100
AcDbEntity
  8
0
  6
Continuous
 62
     7
100
AcDbLine
 10
-321.8999999995306
 20
248.5000000005335
 30
0.0
 11
-314.3999999995306
 21
248.500000000052
 31
0.0
  0
LINE
  5
128
330
F4
100
AcDbEntity
  8
0
  6
Continuous
 62
     9
100
AcDbLine
 10
-314.3999999987602
 20
260.500000000052
 30
0.0
 11
-314.3999999995306
 21
248.500000000052
 31
0.0
  0
LINE
  5
129
330
F4
100
AcDbEntity
  8
0
  6
Continuous
 62
     7
100
AcDbLine
 10
-314.3999999987602
 20
260.500000000052
 30
0.0
 11
-321.8999999987602
 21
260.5000000005335
 31
0.0
  0
LINE
  5
12A
330
F4
100
AcDbEntity
  8
0
  6
Continuous
 62
     7
100
AcDbLine
 10
-314.3999999995306
 20
248.500000000052
 30
0.0
 11
-313.8999999995308
 21
248.5000000000199
 31
0.0
  0
LINE
  5
12B
330
F4
100
AcDbEntity
  8
0
  6
Continuous
 62
     7
100
AcDbLine
 10
-313.8999999987605
 20
260.5000000000199
 30
0.0
 11
-314.3999999987602
 21
260.500000000052
 31
0.0
  0
LINE
  5
12C
330
F4
100
AcDbEntity
  8
0
  6
Continuous
 62
     7
100
AcDbLine
 10
-314.4000000011996
 20
222.500000000052
 30
0.0
 11
-313.9000000011998
 21
222.5000000000199
 31
0.0
  0
LINE
  5
12D
330
F4
100
AcDbEntity
  8
0
  6
Continuous
 62
     7
100
AcDbLine
 10
-313.9000000019702
 20
210.5000000000199
 30
0.0
 11
-314.4000000019699
 21
210.500000000052
 31
0.0
  0
LINE
  5
12E
330
F4
100
AcDbEntity
  8
0
  6
Continuous
 62
     7
100
AcDbLine
 10
-321.6500000010712
 20
224.5000000005175
 30
0.0
 11
-312.9000000010719
 21
224.4999999999558
 31
0.0
  0
LINE
  5
12F
330
F4
100
AcDbEntity
  8
0
  6
Continuous
 62
     7
100
AcDbLine
 10
-321.6500000011546
 20
223.2000000005175
 30
0.0
 11
-312.9000000011554
 21
223.1999999999558
 31
0.0
  0
LINE
  5
130
330
F4
100
AcDbEntity
  8
0
  6
Continuous
 62
     7
100
AcDbLine
 10
-312.8999999996596
 20
246.5000000001484
 30
0.0
 11
-321.6500000010712
 21
246.4999999995867
 31
0.0
  0
LINE
  5
131
330
F4
100
AcDbEntity
  8
0
  6
Continuous
 62
     7
100
AcDbLine
 10
-312.8999999995763
 20
247.8000000001484
 30
0.0
 11
-321.6500000011546
 21
247.7999999995867
 31
0.0
  0
LINE
  5
132
330
F4
100
AcDbEntity
  8
0
  6
Continuous
 62
     7
100
AcDbLine
 10
-305.9000000003844
 20
213.5000000000692
 30
0.0
 11
-305.9000000003844
 21
211.5000000000692
 31
0.0
  0
LINE
  5
133
330
F4
100
AcDbEntity
  8
0
  6
Continuous
 62
     7
100
AcDbLine
 10
-305.9000000003844
 20
259.5000000000474
 30
0.0
 11
-305.9000000003844
 21
257.5000000000474
 31
0.0
  0
LINE
  5
134
330
F4
100
AcDbEntity
  8
0
  6
Continuous
 62
     7
100
AcDbLine
 10
-297.8999999995699
 20
213.5000000000637
 30
0.0
 11
-297.8999999995699
 21
215.5000000000637
 31
0.0
  0
LINE
  5
135
330
F4
100
AcDbEntity
  8
0
  6
Continuous
 62
     7
100
AcDbLine
 10
-297.8999999995699
 20
255.5000000000494
 30
0.0
 11
-297.8999999995699
 21
257.5000000000494
 31
0.0
  0
LINE
  5
136
330
F4
100
AcDbEntity
  8
0
  6
Continuous
 62
     7
100
AcDbLine
 10
-309.1000000019461
 20
209.199999997813
 30
0.0
 11
-319.700000001946
 21
209.200000002291
 31
0.0
  0
LINE
  5
137
330
F4
100
AcDbEntity
  8
0
  6
Continuous
 62
     7
100
AcDbLine
 10
-320.4000000016504
 20
209.9000000025867
 30
0.0
 11
-308.4000000016504
 21
209.8999999975173
 31
0.0
  0
LINE
  5
138
330
F4
100
AcDbEntity
  8
0
  6
Continuous
 62
     7
100
AcDbLine
 10
-319.7000000017009
 20
261.7999999977903
 30
0.0
 11
-319.1556422528548
 21
261.7999999980227
 31
0.0
  0
LINE
  5
139
330
F4
100
AcDbEntity
  8
0
  6
Continuous
 62
     7
100
AcDbLine
 10
-308.4000000014021
 20
261.1000000026134
 30
0.0
 11
-319.7837459461047
 21
261.0999999977546
 31
0.0
  0
LINE
  5
13A
330
F4
100
AcDbEntity
  8
0
  6
Continuous
 62
     7
100
AcDbLine
 10
-319.1556422528548
 20
261.7999999980227
 30
0.0
 11
-309.1000000017008
 21
261.8000000023146
 31
0.0
  0
LINE
  5
13B
330
F4
100
AcDbEntity
  8
0
  6
Continuous
 62
     7
100
AcDbLine
 10
-319.7837459461047
 20
261.0999999977546
 30
0.0
 11
-320.4000000014021
 21
261.0999999974916
 31
0.0
  0
LINE
  5
13C
330
F4
100
AcDbEntity
  8
0
  6
Continuous
 62
     7
100
AcDbLine
 10
-321.9000000003843
 20
224.5000000000521
 30
0.0
 11
-312.9000000010719
 21
224.5000000000521
 31
0.0
  0
LINE
  5
13D
330
F4
100
AcDbEntity
  8
0
  6
Continuous
 62
     7
100
AcDbLine
 10
-321.9000000003843
 20
246.5000000000521
 30
0.0
 11
-312.8999999996596
 21
246.5000000000521
 31
0.0
  0
LINE
  5
13E
330
F4
100
AcDbEntity
  8
0
  6
Continuous
 62
     7
100
AcDbLine
 10
-298.9000000003843
 20
227.9000000000521
 30
0.0
 11
-298.9000000003843
 21
226.0024009656028
 31
0.0
  0
LINE
  5
13F
330
F4
100
AcDbEntity
  8
0
  6
Continuous
 62
     7
100
AcDbLine
 10
-298.9000000003843
 20
219.9975990345019
 30
0.0
 11
-298.9000000003843
 21
218.1000000000521
 31
0.0
  0
LINE
  5
140
330
F4
100
AcDbEntity
  8
0
  6
Continuous
 62
     7
100
AcDbLine
 10
-298.9000000003843
 20
252.9000000000521
 30
0.0
 11
-298.9000000003843
 21
251.0024008927002
 31
0.0
  0
LINE
  5
141
330
F4
100
AcDbEntity
  8
0
  6
Continuous
 62
     7
100
AcDbLine
 10
-298.9000000003843
 20
244.9975991074039
 30
0.0
 11
-298.9000000003843
 21
243.1000000000521
 31
0.0
  0
LINE
  5
142
330
F4
100
AcDbEntity
  8
0
  6
Continuous
 62
     7
100
AcDbLine
 10
-299.4000000007226
 20
229.9999999990895
 30
0.0
 11
-304.4000000007226
 21
229.9999999994105
 31
0.0
  0
LINE
  5
143
330
F4
100
AcDbEntity
  8
0
  6
Continuous
 62
     7
100
AcDbLine
 10
-304.4000000016213
 20
215.9999999994097
 30
0.0
 11
-299.4000000016214
 21
215.9999999990886
 31
0.0
  0
LINE
  5
144
330
F4
100
AcDbEntity
  8
0
  6
Continuous
 62
     7
100
AcDbLine
 10
-304.4000000000163
 20
240.9999999994086
 30
0.0
 11
-299.4000000000164
 21
240.9999999990875
 31
0.0
  0
LINE
  5
145
330
F4
100
AcDbEntity
  8
0
  6
Continuous
 62
     7
100
AcDbLine
 10
-299.3999999991176
 20
254.9999999990907
 30
0.0
 11
-304.3999999991176
 21
254.9999999994117
 31
0.0
  0
LINE
  5
146
330
F4
100
AcDbEntity
  8
0
  6
Continuous
 62
     7
100
AcDbLine
 10
-321.4000000011546
 20
248.3000000000521
 30
0.0
 11
-321.4000000011546
 21
247.8000000000521
 31
0.0
  0
LINE
  5
147
330
F4
100
AcDbEntity
  8
0
  6
Continuous
 62
     7
100
AcDbLine
 10
-321.4000000011546
 20
223.2000000008866
 30
0.0
 11
-321.4000000012143
 21
222.7000000008866
 31
0.0
  0
LINE
  5
148
330
F4
100
AcDbEntity
  8
0
  6
Continuous
 62
     7
100
AcDbLine
 10
-298.9000017482397
 20
245.0000017479074
 30
0.0
 11
-297.8999999997625
 21
245.0000017476293
 31
0.0
  0
LINE
  5
149
330
F4
100
AcDbEntity
  8
0
  6
Continuous
 62
     7
100
AcDbLine
 10
-297.8999999993773
 20
251.0000017476293
 30
0.0
 11
-298.8999982525289
 21
251.0000017479074
 31
0.0
  0
LINE
  5
14A
330
F4
100
AcDbEntity
  8
0
  6
Continuous
 62
     7
100
AcDbLine
 10
-298.9000017484869
 20
220.0000017481546
 30
0.0
 11
-297.9000000013673
 21
220.0000017480138
 31
0.0
  0
LINE
  5
14B
330
F4
100
AcDbEntity
  8
0
  6
Continuous
 62
     7
100
AcDbLine
 10
-297.9000000009822
 20
226.0000017480138
 30
0.0
 11
-298.8999982522818
 21
226.0000017481546
 31
0.0
  0
LINE
  5
14C
330
F4
100
AcDbEntity
  8
0
  6
Continuous
 62
     7
100
AcDbLine
 10
-298.8999999992526
 20
252.949999999057
 30
0.0
 11
-299.4000000001433
 21
252.9499999990891
 31
0.0
  0
LINE
  5
14D
330
F4
100
AcDbEntity
  8
0
  6
Continuous
 62
     7
100
AcDbLine
 10
-304.4000000001383
 20
252.94999999941
 30
0.0
 11
-305.8999999992486
 21
252.9499999995064
 31
0.0
  0
LINE
  5
14E
330
F4
100
AcDbEntity
  8
0
  6
Continuous
 62
     7
100
AcDbLine
 10
-305.899999999884
 20
243.0499999995064
 30
0.0
 11
-304.4000000007932
 21
243.0499999994101
 31
0.0
  0
LINE
  5
14F
330
F4
100
AcDbEntity
  8
0
  6
Continuous
 62
     7
100
AcDbLine
 10
-299.400000000798
 20
243.0499999990891
 30
0.0
 11
-298.8999999998881
 21
243.049999999057
 31
0.0
  0
LINE
  5
150
330
F4
100
AcDbEntity
  8
0
  6
Continuous
 62
     7
100
AcDbLine
 10
-298.9000000008606
 20
227.8999999990571
 30
0.0
 11
-299.4000000001473
 21
227.8999999990891
 31
0.0
  0
LINE
  5
151
330
F4
100
AcDbEntity
  8
0
  6
Continuous
 62
     7
100
AcDbLine
 10
-304.4000000001422
 20
227.8999999994101
 30
0.0
 11
-305.9000000008566
 21
227.8999999995064
 31
0.0
  0
LINE
  5
152
330
F4
100
AcDbEntity
  8
0
  6
Continuous
 62
     7
100
AcDbLine
 10
-305.9000000014856
 20
218.0999999995064
 30
0.0
 11
-304.40000000079
 21
218.0999999994101
 31
0.0
  0
LINE
  5
153
330
F4
100
AcDbEntity
  8
0
  6
Continuous
 62
     7
100
AcDbLine
 10
-299.4000000007952
 20
218.0999999990891
 30
0.0
 11
-298.9000000014897
 21
218.099999999057
 31
0.0
  0
LINE
  5
154
330
F4
100
AcDbEntity
  8
0
  6
Continuous
 62
     7
100
AcDbLine
 10
-321.9000000011959
 20
222.5000000005335
 30
0.0
 11
-321.9000000019662
 21
210.5000000005335
 31
0.0
  0
LINE
  5
155
330
F4
100
AcDbEntity
  8
0
  6
Continuous
 62
     7
100
AcDbLine
 10
-321.8999999987565
 20
260.5000000005335
 30
0.0
 11
-321.8999999995269
 21
248.5000000005335
 31
0.0
  0
LINE
  5
156
330
F4
100
AcDbEntity
  8
0
  6
Continuous
 62
     7
100
AcDbLine
 10
-321.6500000010712
 20
224.5000000005175
 30
0.0
 11
-321.6500000011546
 21
223.2000000005175
 31
0.0
  0
LINE
  5
157
330
F4
100
AcDbEntity
  8
0
  6
Continuous
 62
     7
100
AcDbLine
 10
-321.6500000011546
 20
247.7999999995867
 30
0.0
 11
-321.6500000010712
 21
246.4999999995867
 31
0.0
  0
LINE
  5
158
330
F4
100
AcDbEntity
  8
0
  6
Continuous
 62
     7
100
AcDbLine
 10
-320.4000000016503
 20
209.9000000025867
 30
0.0
 11
-319.700000001946
 21
209.200000002291
 31
0.0
  0
LINE
  5
159
330
F4
100
AcDbEntity
  8
0
  6
Continuous
 62
     7
100
AcDbLine
 10
-309.1000000019461
 20
209.199999997813
 30
0.0
 11
-308.4000000016504
 21
209.8999999975173
 31
0.0
  0
LINE
  5
15A
330
F4
100
AcDbEntity
  8
0
  6
Continuous
 62
     7
100
AcDbLine
 10
-308.4000000016504
 20
209.8999999975173
 30
0.0
 11
-308.4000000013968
 21
210.4999999975173
 31
0.0
  0
LINE
  5
15B
330
F4
100
AcDbEntity
  8
0
  6
Continuous
 62
     7
100
AcDbLine
 10
-320.4000000013969
 20
210.5000000025867
 30
0.0
 11
-320.4000000016503
 21
209.9000000025867
 31
0.0
  0
LINE
  5
15C
330
F4
100
AcDbEntity
  8
0
  6
Continuous
 62
     7
100
AcDbLine
 10
-308.4000000014021
 20
261.1000000026134
 30
0.0
 11
-309.1000000017008
 21
261.8000000023147
 31
0.0
  0
LINE
  5
15D
330
F4
100
AcDbEntity
  8
0
  6
Continuous
 62
     7
100
AcDbLine
 10
-319.7000000017009
 20
261.7999999977903
 30
0.0
 11
-320.4000000014021
 21
261.0999999974916
 31
0.0
  0
LINE
  5
15E
330
F4
100
AcDbEntity
  8
0
  6
Continuous
 62
     7
100
AcDbLine
 10
-320.4000000014021
 20
261.0999999974916
 30
0.0
 11
-320.4000000011461
 21
260.4999999974916
 31
0.0
  0
LINE
  5
15F
330
F4
100
AcDbEntity
  8
0
  6
Continuous
 62
     7
100
AcDbLine
 10
-308.4000000011461
 20
260.5000000026134
 30
0.0
 11
-308.4000000014021
 21
261.1000000026134
 31
0.0
  0
LINE
  5
160
330
F4
100
AcDbEntity
  8
0
  6
Continuous
 62
     7
100
AcDbLine
 10
-318.4000000017629
 20
248.5000000003088
 30
0.0
 11
-318.4000000017639
 21
248.3000000000521
 31
0.0
  0
LINE
  5
161
330
F4
100
AcDbEntity
  8
0
  6
Continuous
 62
     7
100
AcDbLine
 10
-318.4000000018832
 20
222.7000000005274
 30
0.0
 11
-318.4000000018841
 21
222.5000000003088
 31
0.0
  0
LINE
  5
162
330
F4
100
AcDbEntity
  8
0
  6
Continuous
 62
     7
100
AcDbLine
 10
-321.9000000003843
 20
246.5000000000521
 30
0.0
 11
-321.9000000003843
 21
224.5000000000521
 31
0.0
  0
ENDBLK
  5
163
330
F4
100
AcDbEntity
  8
0
100
AcDbBlockEnd
  0
BLOCK
  5
166
330
165
100
AcDbEntity
  8
0
100
AcDbBlockBegin
  2
AID1007
 70
     0
 10
0.0
 20
0.0
 30
0.0
  3
AID1007
  1

  0
LINE
  5
167
330
165
100
AcDbEntity
  8
0
  6
Continuous
 62
     7
100
AcDbLine
 10
-86.09999999915086
 20
216.0000000000521
 30
0.0
 11
-86.1000000000762
 21
230.0000000000521
 31
0.0
  0
LINE
  5
168
330
165
100
AcDbEntity
  8
0
  6
Continuous
 62
     7
100
AcDbLine
 10
-81.09999999915087
 20
216.0000000003826
 30
0.0
 11
-81.1000000000762
 21
230.0000000003826
 31
0.0
  0
LINE
  5
169
330
165
100
AcDbEntity
  8
0
  6
Continuous
 62
     7
100
AcDbLine
 10
-86.09999999915098
 20
241.0000000000521
 30
0.0
 11
-86.10000000007691
 21
255.0000000000521
 31
0.0
  0
LINE
  5
16A
330
165
100
AcDbEntity
  8
0
  6
Continuous
 62
     7
100
AcDbLine
 10
-81.09999999915098
 20
241.0000000003828
 30
0.0
 11
-81.10000000007691
 21
255.0000000003828
 31
0.0
  0
LINE
  5
16B
330
165
100
AcDbEntity
  8
0
  6
Continuous
 62
     7
100
AcDbLine
 10
-64.09999999884536
 20
247.8000000000521
 30
0.0
 11
-72.59999999961569
 21
247.8000000000521
 31
0.0
  0
LINE
  5
16C
330
165
100
AcDbEntity
  8
0
  6
Continuous
 62
     7
100
AcDbLine
 10
-64.09999999884536
 20
248.3000000000521
 30
0.0
 11
-72.59999999961569
 21
248.3000000000521
 31
0.0
  0
LINE
  5
16D
330
165
100
AcDbEntity
  8
0
  6
Continuous
 62
     7
100
AcDbLine
 10
-72.59999999961569
 20
223.1999999998731
 30
0.0
 11
-64.09999999884536
 21
223.2000000008866
 31
0.0
  0
LINE
  5
16E
330
165
100
AcDbEntity
  8
0
  6
Continuous
 62
     7
100
AcDbLine
 10
-72.59999999961569
 20
222.6999999998731
 30
0.0
 11
-64.09999999878571
 21
222.7000000008866
 31
0.0
  0
LINE
  5
16F
330
165
100
AcDbEntity
  8
0
  6
Continuous
 62
     7
100
AcDbLine
 10
-94.39999999889831
 20
210.4999999996836
 30
0.0
 11
-88.39999999889831
 21
210.5000000000521
 31
0.0
  0
LINE
  5
170
330
165
100
AcDbEntity
  8
0
  6
Continuous
 62
     7
100
AcDbLine
 10
-94.39999999889831
 20
210.4999999996836
 30
0.0
 11
-94.40000000196873
 21
260.4999999996837
 31
0.0
  0
LINE
  5
171
330
165
100
AcDbEntity
  8
0
  6
Continuous
 62
     7
100
AcDbLine
 10
-94.40000000196873
 20
260.4999999996837
 30
0.0
 11
-88.40000000196869
 21
260.5000000000521
 31
0.0
  0
LINE
  5
172
330
165
100
AcDbEntity
  8
0
  6
Continuous
 62
     7
100
AcDbLine
 10
-88.39999999889831
 20
210.5000000000521
 30
0.0
 11
-88.40000000196869
 21
260.5000000000521
 31
0.0
  0
LINE
  5
173
330
165
100
AcDbEntity
  8
0
  6
Continuous
 62
     7
100
AcDbLine
 10
-87.60000000103998
 20
257.499999998984
 30
0.0
 11
-87.60000000091158
 21
255.499999998984
 31
0.0
  0
LINE
  5
174
330
165
100
AcDbEntity
  8
0
  6
Continuous
 62
     7
100
AcDbLine
 10
-87.59999999834379
 20
215.4999999989949
 30
0.0
 11
-87.59999999821539
 21
213.4999999989949
 31
0.0
  0
LINE
  5
175
330
165
100
AcDbEntity
  8
0
  6
Continuous
 62
     7
100
AcDbLine
 10
-79.60000000104348
 20
257.4999999995019
 30
0.0
 11
-79.60000000117188
 21
259.4999999995019
 31
0.0
  0
LINE
  5
176
330
165
100
AcDbEntity
  8
0
  6
Continuous
 62
     7
100
AcDbLine
 10
-79.59999999809077
 20
211.4999999995223
 30
0.0
 11
-79.59999999821913
 21
213.4999999995223
 31
0.0
  0
LINE
  5
177
330
165
100
AcDbEntity
  8
0
  6
Continuous
 62
     7
100
AcDbLine
 10
-63.60000000123978
 20
260.5000000005335
 30
0.0
 11
-72.59999999961569
 21
260.4999999999557
 31
0.0
  0
LINE
  5
178
330
165
100
AcDbEntity
  8
0
  6
Continuous
 62
     7
100
AcDbLine
 10
-72.59999999961642
 20
248.4999999999557
 30
0.0
 11
-63.60000000046944
 21
248.5000000005335
 31
0.0
  0
LINE
  5
179
330
165
100
AcDbEntity
  8
0
  6
Continuous
 62
     7
100
AcDbLine
 10
-63.59999999803009
 20
210.5000000005335
 30
0.0
 11
-72.59999999961569
 21
210.4999999999559
 31
0.0
  0
LINE
  5
17A
330
165
100
AcDbEntity
  8
0
  6
Continuous
 62
     7
100
AcDbLine
 10
-72.59999999961642
 20
222.4999999999557
 30
0.0
 11
-63.5999999988004
 21
222.5000000005335
 31
0.0
  0
LINE
  5
17B
330
165
100
AcDbEntity
  8
0
  6
Continuous
 62
     7
100
AcDbLine
 10
-86.60000000011191
 20
243.0499999990619
 30
0.0
 11
-86.60000000011512
 21
243.1000000000521
 31
0.0
  0
LINE
  5
17C
330
165
100
AcDbEntity
  8
0
  6
Continuous
 62
     7
100
AcDbLine
 10
-86.60000000011512
 20
243.1000000000521
 30
0.0
 11
-86.6000000002371
 21
245.0000000000527
 31
0.0
  0
LINE
  5
17D
330
165
100
AcDbEntity
  8
0
  6
Continuous
 62
     7
100
AcDbLine
 10
-86.60000000062224
 20
251.0000000000511
 30
0.0
 11
-86.60000000074424
 21
252.9000000000507
 31
0.0
  0
LINE
  5
17E
330
165
100
AcDbEntity
  8
0
  6
Continuous
 62
     7
100
AcDbLine
 10
-86.60000000074424
 20
252.900000000052
 30
0.0
 11
-86.60000000074745
 21
252.9499999990521
 31
0.0
  0
LINE
  5
17F
330
165
100
AcDbEntity
  8
0
  6
Continuous
 62
     7
100
AcDbLine
 10
-86.59999999851029
 20
218.0999999990619
 30
0.0
 11
-86.59999999863225
 21
220.0000000000532
 31
0.0
  0
LINE
  5
180
330
165
100
AcDbEntity
  8
0
  6
Continuous
 62
     7
100
AcDbLine
 10
-86.5999999990174
 20
226.0000000000514
 30
0.0
 11
-86.59999999913939
 21
227.8999999990507
 31
0.0
  0
LINE
  5
181
330
165
100
AcDbEntity
  8
0
  6
Continuous
 62
     7
100
AcDbLine
 10
-72.59999999961569
 20
224.4999999999558
 30
0.0
 11
-71.59999999961567
 21
224.50000000002
 31
0.0
  0
LINE
  5
182
330
165
100
AcDbEntity
  8
0
  6
Continuous
 62
     7
100
AcDbLine
 10
-71.09999999961567
 20
224.5000000000521
 30
0.0
 11
-63.8499999989288
 21
224.5000000005175
 31
0.0
  0
LINE
  5
183
330
165
100
AcDbEntity
  8
0
  6
Continuous
 62
     7
100
AcDbLine
 10
-72.59999999961569
 20
223.1999999999558
 30
0.0
 11
-63.84999999884533
 21
223.2000000005175
 31
0.0
  0
LINE
  5
184
330
165
100
AcDbEntity
  8
0
  6
Continuous
 62
     7
100
AcDbLine
 10
-63.8499999989288
 20
246.4999999995867
 30
0.0
 11
-71.09999999961567
 21
246.5000000000521
 31
0.0
  0
LINE
  5
185
330
165
100
AcDbEntity
  8
0
  6
Continuous
 62
     7
100
AcDbLine
 10
-71.59999999961566
 20
246.5000000000842
 30
0.0
 11
-72.59999999961566
 21
246.5000000001484
 31
0.0
  0
LINE
  5
186
330
165
100
AcDbEntity
  8
0
  6
Continuous
 62
     7
100
AcDbLine
 10
-63.84999999884534
 20
247.7999999995867
 30
0.0
 11
-72.59999999961569
 21
247.8000000001484
 31
0.0
  0
LINE
  5
187
330
165
100
AcDbEntity
  8
0
  6
Continuous
 62
     7
100
AcDbLine
 10
-79.59999999961569
 20
259.5000000000464
 30
0.0
 11
-78.59999999961569
 21
259.5000000000464
 31
0.0
  0
LINE
  5
188
330
165
100
AcDbEntity
  8
0
  6
Continuous
 62
     9
100
AcDbLine
 10
-78.59999999961569
 20
257.5000000000474
 30
0.0
 11
-79.59999999961569
 21
257.5000000000474
 31
0.0
  0
LINE
  5
189
330
165
100
AcDbEntity
  8
0
  6
Continuous
 62
     7
100
AcDbLine
 10
-79.59999999961569
 20
257.5000000000474
 30
0.0
 11
-79.59999999961569
 21
259.5000000000474
 31
0.0
  0
LINE
  5
18A
330
165
100
AcDbEntity
  8
0
  6
Continuous
 62
     9
100
AcDbLine
 10
-79.59999999961569
 20
213.5000000000691
 30
0.0
 11
-78.59999999961569
 21
213.5000000000691
 31
0.0
  0
LINE
  5
18B
330
165
100
AcDbEntity
  8
0
  6
Continuous
 62
     7
100
AcDbLine
 10
-79.59999999961569
 20
213.5000000000691
 30
0.0
 11
-79.59999999961569
 21
257.5000000000474
 31
0.0
  0
LINE
  5
18C
330
165
100
AcDbEntity
  8
0
  6
Continuous
 62
     7
100
AcDbLine
 10
-78.59999999961569
 20
211.5000000000701
 30
0.0
 11
-79.59999999961569
 21
211.5000000000701
 31
0.0
  0
LINE
  5
18D
330
165
100
AcDbEntity
  8
0
  6
Continuous
 62
     7
100
AcDbLine
 10
-79.59999999961569
 20
211.5000000000692
 30
0.0
 11
-79.59999999961569
 21
213.5000000000691
 31
0.0
  0
LINE
  5
18E
330
165
100
AcDbEntity
  8
0
  6
Continuous
 62
     9
100
AcDbLine
 10
-87.60000000043012
 20
255.5000000000494
 30
0.0
 11
-88.40000000166167
 21
255.5000000000494
 31
0.0
  0
LINE
  5
18F
330
165
100
AcDbEntity
  8
0
  6
Continuous
 62
     7
100
AcDbLine
 10
-88.40000000104081
 20
257.5000000000486
 30
0.0
 11
-87.60000000043012
 21
257.5000000000486
 31
0.0
  0
LINE
  5
190
330
165
100
AcDbEntity
  8
0
  6
Continuous
 62
     7
100
AcDbLine
 10
-87.60000000043012
 20
257.5000000000494
 30
0.0
 11
-87.60000000043012
 21
255.5000000000494
 31
0.0
  0
LINE
  5
191
330
165
100
AcDbEntity
  8
0
  6
Continuous
 62
     9
100
AcDbLine
 10
-88.39999999920534
 20
215.5000000000636
 30
0.0
 11
-87.60000000043012
 21
215.5000000000636
 31
0.0
  0
LINE
  5
192
330
165
100
AcDbEntity
  8
0
  6
Continuous
 62
     7
100
AcDbLine
 10
-87.60000000043012
 20
255.5000000000494
 30
0.0
 11
-87.60000000043012
 21
215.5000000000636
 31
0.0
  0
LINE
  5
193
330
165
100
AcDbEntity
  8
0
  6
Continuous
 62
     7
100
AcDbLine
 10
-87.60000000043012
 20
213.5000000000643
 30
0.0
 11
-88.39999999821619
 21
213.5000000000643
 31
0.0
  0
LINE
  5
194
330
165
100
AcDbEntity
  8
0
  6
Continuous
 62
     7
100
AcDbLine
 10
-87.60000000043012
 20
215.5000000000636
 30
0.0
 11
-87.60000000043012
 21
213.5000000000636
 31
0.0
  0
LINE
  5
195
330
165
100
AcDbEntity
  8
0
  6
Continuous
 62
     7
100
AcDbLine
 10
-77.09999999834966
 20
209.8999999975173
 30
0.0
 11
-66.18618600758392
 21
209.9000000021278
 31
0.0
  0
LINE
  5
196
330
165
100
AcDbEntity
  8
0
  6
Continuous
 62
     7
100
AcDbLine
 10
-66.18618600758392
 20
209.9000000021278
 30
0.0
 11
-65.09999999834963
 21
209.9000000025867
 31
0.0
  0
LINE
  5
197
330
165
100
AcDbEntity
  8
0
  6
Continuous
 62
     7
100
AcDbLine
 10
-65.79999999805394
 20
209.200000002291
 30
0.0
 11
-66.75946430621088
 21
209.2000000018856
 31
0.0
  0
LINE
  5
198
330
165
100
AcDbEntity
  8
0
  6
Continuous
 62
     7
100
AcDbLine
 10
-66.75946430621088
 20
209.2000000018856
 30
0.0
 11
-76.39999999805394
 21
209.199999997813
 31
0.0
  0
LINE
  5
199
330
165
100
AcDbEntity
  8
0
  6
Continuous
 62
     7
100
AcDbLine
 10
-65.09999999859788
 20
261.0999999974916
 30
0.0
 11
-77.09999999859788
 21
261.1000000026134
 31
0.0
  0
LINE
  5
19A
330
165
100
AcDbEntity
  8
0
  6
Continuous
 62
     7
100
AcDbLine
 10
-76.39999999829909
 20
261.8000000023147
 30
0.0
 11
-65.79999999829913
 21
261.7999999977903
 31
0.0
  0
LINE
  5
19B
330
165
100
AcDbEntity
  8
0
  6
Continuous
 62
     7
100
AcDbLine
 10
-78.59999999961569
 20
210.5000000000521
 30
0.0
 11
-72.59999999961569
 21
210.5000000000521
 31
0.0
  0
LINE
  5
19C
330
165
100
AcDbEntity
  8
0
  6
Continuous
 62
     7
100
AcDbLine
 10
-78.59999999961569
 20
210.5000000000521
 30
0.0
 11
-78.59999999961569
 21
260.5000000000521
 31
0.0
  0
LINE
  5
19D
330
165
100
AcDbEntity
  8
0
  6
Continuous
 62
     7
100
AcDbLine
 10
-78.59999999961569
 20
260.5000000000521
 30
0.0
 11
-72.59999999961569
 21
260.5000000000521
 31
0.0
  0
LINE
  5
19E
330
165
100
AcDbEntity
  8
0
  6
Continuous
 62
     7
100
AcDbLine
 10
-72.59999999961569
 20
210.5000000000521
 30
0.0
 11
-72.59999999961569
 21
260.5000000000521
 31
0.0
  0
LINE
  5
19F
330
165
100
AcDbEntity
  8
0
  6
Continuous
 62
     7
100
AcDbLine
 10
-86.59999999961568
 20
243.1000000000521
 30
0.0
 11
-86.59999999961568
 21
252.9000000000521
 31
0.0
  0
LINE
  5
1A0
330
165
100
AcDbEntity
  8
0
  6
Continuous
 62
     7
100
AcDbLine
 10
-86.59999999961568
 20
218.1000000000521
 30
0.0
 11
-86.59999999961568
 21
227.9000000000521
 31
0.0
  0
LINE
  5
1A1
330
165
100
AcDbEntity
  8
0
  6
Continuous
 62
     9
100
AcDbLine
 10
-71.59999999961566
 20
224.5000000000521
 30
0.0
 11
-71.59999999961566
 21
246.5000000000521
 31
0.0
  0
LINE
  5
1A2
330
165
100
AcDbEntity
  8
0
  6
Continuous
 62
     7
100
AcDbLine
 10
-71.59999999961566
 20
246.5000000000521
 30
0.0
 11
-72.59999999961569
 21
246.5000000000521
 31
0.0
  0
LINE
  5
1A3
330
165
100
AcDbEntity
  8
0
  6
Continuous
 62
     7
100
AcDbLine
 10
-71.59999999961566
 20
224.5000000000521
 30
0.0
 11
-72.59999999961569
 21
224.5000000000521
 31
0.0
  0
LINE
  5
1A4
330
165
100
AcDbEntity
  8
0
  6
Continuous
 62
     9
100
AcDbLine
 10
-71.09999999961567
 20
224.5000000000521
 30
0.0
 11
-71.09999999961567
 21
246.5000000000521
 31
0.0
  0
LINE
  5
1A5
330
165
100
AcDbEntity
  8
0
  6
Continuous
 62
     7
100
AcDbLine
 10
-71.09999999961567
 20
246.5000000000521
 30
0.0
 11
-63.59999999961567
 21
246.5000000000521
 31
0.0
  0
LINE
  5
1A6
330
165
100
AcDbEntity
  8
0
  6
Continuous
 62
     7
100
AcDbLine
 10
-71.09999999961567
 20
224.5000000000521
 30
0.0
 11
-63.59999999961567
 21
224.5000000000521
 31
0.0
  0
LINE
  5
1A7
330
165
100
AcDbEntity
  8
0
  6
Continuous
 62
     7
100
AcDbLine
 10
-71.59999999961566
 20
246.5000000000521
 30
0.0
 11
-71.09999999961567
 21
246.5000000000521
 31
0.0
  0
LINE
  5
1A8
330
165
100
AcDbEntity
  8
0
  6
Continuous
 62
     7
100
AcDbLine
 10
-71.59999999961566
 20
224.5000000000521
 30
0.0
 11
-71.09999999961567
 21
224.5000000000521
 31
0.0
  0
LINE
  5
1A9
330
165
100
AcDbEntity
  8
0
  6
Continuous
 62
     7
100
AcDbLine
 10
-86.09999999915086
 20
216.0000000000521
 30
0.0
 11
-81.09999999915087
 21
216.0000000003826
 31
0.0
  0
LINE
  5
1AA
330
165
100
AcDbEntity
  8
0
  6
Continuous
 62
     7
100
AcDbLine
 10
-81.1000000000762
 20
230.0000000003826
 30
0.0
 11
-86.1000000000762
 21
230.0000000000521
 31
0.0
  0
LINE
  5
1AB
330
165
100
AcDbEntity
  8
0
  6
Continuous
 62
     7
100
AcDbLine
 10
-86.09999999915098
 20
241.0000000000521
 30
0.0
 11
-81.09999999915098
 21
241.0000000003828
 31
0.0
  0
LINE
  5
1AC
330
165
100
AcDbEntity
  8
0
  6
Continuous
 62
     7
100
AcDbLine
 10
-81.10000000007691
 20
255.0000000003828
 30
0.0
 11
-86.10000000007691
 21
255.0000000000521
 31
0.0
  0
LINE
  5
1AD
330
165
100
AcDbEntity
  8
0
  6
Continuous
 62
     7
100
AcDbLine
 10
-64.09999999884535
 20
247.8000000000521
 30
0.0
 11
-64.09999999884535
 21
248.3000000000521
 31
0.0
  0
LINE
  5
1AE
330
165
100
AcDbEntity
  8
0
  6
Continuous
 62
     7
100
AcDbLine
 10
-64.09999999878571
 20
222.7000000008866
 30
0.0
 11
-64.09999999884535
 21
223.2000000008866
 31
0.0
  0
LINE
  5
1AF
330
165
100
AcDbEntity
  8
0
  6
Continuous
 62
     7
100
AcDbLine
 10
-63.60000000047318
 20
248.5000000005335
 30
0.0
 11
-63.60000000124349
 21
260.5000000005335
 31
0.0
  0
LINE
  5
1B0
330
165
100
AcDbEntity
  8
0
  6
Continuous
 62
     7
100
AcDbLine
 10
-63.5999999980338
 20
210.5000000005335
 30
0.0
 11
-63.59999999880413
 21
222.5000000005335
 31
0.0
  0
LINE
  5
1B1
330
165
100
AcDbEntity
  8
0
  6
Continuous
 62
     7
100
AcDbLine
 10
-86.60000000011191
 20
243.049999999057
 30
0.0
 11
-86.09999999920191
 21
243.0499999990891
 31
0.0
  0
LINE
  5
1B2
330
165
100
AcDbEntity
  8
0
  6
Continuous
 62
     7
100
AcDbLine
 10
-81.09999999920685
 20
243.0499999994101
 30
0.0
 11
-79.59999999961569
 21
243.0499999995064
 31
0.0
  0
LINE
  5
1B3
330
165
100
AcDbEntity
  8
0
  6
Continuous
 62
     7
100
AcDbLine
 10
-79.59999999961569
 20
252.9499999995064
 30
0.0
 11
-81.09999999986161
 21
252.94999999941
 31
0.0
  0
LINE
  5
1B4
330
165
100
AcDbEntity
  8
0
  6
Continuous
 62
     7
100
AcDbLine
 10
-86.09999999985666
 20
252.9499999990891
 30
0.0
 11
-86.60000000074743
 21
252.949999999057
 31
0.0
  0
LINE
  5
1B5
330
165
100
AcDbEntity
  8
0
  6
Continuous
 62
     7
100
AcDbLine
 10
-63.84999999884534
 20
223.2000000005175
 30
0.0
 11
-63.84999999892881
 21
224.5000000005175
 31
0.0
  0
LINE
  5
1B6
330
165
100
AcDbEntity
  8
0
  6
Continuous
 62
     7
100
AcDbLine
 10
-63.84999999892881
 20
246.4999999995867
 30
0.0
 11
-63.84999999884534
 21
247.7999999995867
 31
0.0
  0
LINE
  5
1B7
330
165
100
AcDbEntity
  8
0
  6
Continuous
 62
     7
100
AcDbLine
 10
-86.60001435194772
 20
251.000000000052
 30
0.0
 11
-87.60000000043012
 21
251.000000000052
 31
0.0
  0
LINE
  5
1B8
330
165
100
AcDbEntity
  8
0
  6
Continuous
 62
     7
100
AcDbLine
 10
-87.60000000043012
 20
245.000000000052
 30
0.0
 11
-86.6000143519477
 21
245.000000000052
 31
0.0
  0
LINE
  5
1B9
330
165
100
AcDbEntity
  8
0
  6
Continuous
 62
     7
100
AcDbLine
 10
-86.60001435194763
 20
226.0000000000523
 30
0.0
 11
-87.60000000043012
 21
226.0000000000523
 31
0.0
  0
LINE
  5
1BA
330
165
100
AcDbEntity
  8
0
  6
Continuous
 62
     7
100
AcDbLine
 10
-87.60000000043012
 20
220.0000000000523
 30
0.0
 11
-86.60001435194777
 21
220.0000000000523
 31
0.0
  0
LINE
  5
1BB
330
165
100
AcDbEntity
  8
0
  6
Continuous
 62
     7
100
AcDbLine
 10
-65.09999999834966
 20
209.9000000025867
 30
0.0
 11
-65.09999999860311
 21
210.5000000025867
 31
0.0
  0
LINE
  5
1BC
330
165
100
AcDbEntity
  8
0
  6
Continuous
 62
     7
100
AcDbLine
 10
-77.09999999860312
 20
210.4999999975173
 30
0.0
 11
-77.09999999834966
 21
209.8999999975173
 31
0.0
  0
LINE
  5
1BD
330
165
100
AcDbEntity
  8
0
  6
Continuous
 62
     7
100
AcDbLine
 10
-77.09999999834966
 20
209.8999999975173
 30
0.0
 11
-76.39999999805394
 21
209.199999997813
 31
0.0
  0
LINE
  5
1BE
330
165
100
AcDbEntity
  8
0
  6
Continuous
 62
     7
100
AcDbLine
 10
-65.79999999805394
 20
209.200000002291
 30
0.0
 11
-65.09999999834966
 21
209.9000000025867
 31
0.0
  0
LINE
  5
1BF
330
165
100
AcDbEntity
  8
0
  6
Continuous
 62
     7
100
AcDbLine
 10
-77.09999999859788
 20
261.1000000026134
 30
0.0
 11
-77.09999999885397
 21
260.5000000026134
 31
0.0
  0
LINE
  5
1C0
330
165
100
AcDbEntity
  8
0
  6
Continuous
 62
     7
100
AcDbLine
 10
-65.09999999885398
 20
260.4999999974916
 30
0.0
 11
-65.0999999985979
 21
261.0999999974916
 31
0.0
  0
LINE
  5
1C1
330
165
100
AcDbEntity
  8
0
  6
Continuous
 62
     7
100
AcDbLine
 10
-65.0999999985979
 20
261.0999999974916
 30
0.0
 11
-65.79999999829913
 21
261.7999999977903
 31
0.0
  0
LINE
  5
1C2
330
165
100
AcDbEntity
  8
0
  6
Continuous
 62
     7
100
AcDbLine
 10
-76.39999999829909
 20
261.8000000023147
 30
0.0
 11
-77.09999999859788
 21
261.1000000026134
 31
0.0
  0
LINE
  5
1C3
330
165
100
AcDbEntity
  8
0
  6
Continuous
 62
     7
100
AcDbLine
 10
-67.09999999811588
 20
222.5000000003088
 30
0.0
 11
-67.0999999981168
 21
222.7000000005305
 31
0.0
  0
LINE
  5
1C4
330
165
100
AcDbEntity
  8
0
  6
Continuous
 62
     7
100
AcDbLine
 10
-67.09999999823613
 20
248.3000000000521
 30
0.0
 11
-67.09999999823705
 21
248.5000000003088
 31
0.0
  0
LINE
  5
1C5
330
165
100
AcDbEntity
  8
0
  6
Continuous
 62
     7
100
AcDbLine
 10
-86.59999999961568
 20
243.1000000000521
 30
0.0
 11
-86.09999999928986
 21
243.1000000000521
 31
0.0
  0
LINE
  5
1C6
330
165
100
AcDbEntity
  8
0
  6
Continuous
 62
     7
100
AcDbLine
 10
-81.09999999928986
 20
243.1000000000521
 30
0.0
 11
-79.59999999961569
 21
243.1000000000521
 31
0.0
  0
LINE
  5
1C7
330
165
100
AcDbEntity
  8
0
  6
Continuous
 62
     7
100
AcDbLine
 10
-79.59999999961569
 20
252.9000000000521
 30
0.0
 11
-81.09999999993801
 21
252.9000000000521
 31
0.0
  0
LINE
  5
1C8
330
165
100
AcDbEntity
  8
0
  6
Continuous
 62
     7
100
AcDbLine
 10
-86.09999999993801
 20
252.9000000000521
 30
0.0
 11
-86.59999999961568
 21
252.9000000000521
 31
0.0
  0
LINE
  5
1C9
330
165
100
AcDbEntity
  8
0
  6
Continuous
 62
     7
100
AcDbLine
 10
-86.59999999961568
 20
218.1000000000521
 30
0.0
 11
-86.09999999928964
 21
218.1000000000521
 31
0.0
  0
LINE
  5
1CA
330
165
100
AcDbEntity
  8
0
  6
Continuous
 62
     7
100
AcDbLine
 10
-81.09999999928964
 20
218.1000000000521
 30
0.0
 11
-79.59999999961569
 21
218.1000000000521
 31
0.0
  0
LINE
  5
1CB
330
165
100
AcDbEntity
  8
0
  6
Continuous
 62
     7
100
AcDbLine
 10
-79.59999999961569
 20
227.9000000000521
 30
0.0
 11
-81.09999999993741
 21
227.9000000000521
 31
0.0
  0
LINE
  5
1CC
330
165
100
AcDbEntity
  8
0
  6
Continuous
 62
     7
100
AcDbLine
 10
-86.09999999993739
 20
227.9000000000521
 30
0.0
 11
-86.59999999961568
 21
227.9000000000521
 31
0.0
  0
LINE
  5
1CD
330
165
100
AcDbEntity
  8
0
  6
Continuous
 62
     7
100
AcDbLine
 10
-63.59999999961567
 20
224.5000000000521
 30
0.0
 11
-63.59999999961567
 21
246.5000000000521
 31
0.0
  0
ENDBLK
  5
1CE
330
165
100
AcDbEntity
  8
0
100
AcDbBlockEnd
  0
BLOCK
  5
1D1
330
1D0
100
AcDbEntity
  8
0
100
AcDbBlockBegin
  2
AID1217
 70
     0
 10
0.0
 20
0.0
 30
0.0
  3
AID1217
  1

  0
LINE
  5
1D2
330
1D0
100
AcDbEntity
  8
0
  6
Continuous
 62
     7
100
AcDbLine
 10
-156.0000000000031
 20
167.6000000004338
 30
0.0
 11
-170.0000000000031
 21
167.6000000004322
 31
0.0
  0
LINE
  5
1D3
330
1D0
100
AcDbEntity
  8
0
  6
Continuous
 62
     7
100
AcDbLine
 10
-156.0000000000037
 20
172.6000000004338
 30
0.0
 11
-170.0000000000036
 21
172.6000000004322
 31
0.0
  0
LINE
  5
1D4
330
1D0
100
AcDbEntity
  8
0
  6
Continuous
 62
     7
100
AcDbLine
 10
-236.9999999999866
 20
172.5999999996139
 30
0.0
 11
-222.9999999999866
 21
172.5999999996139
 31
0.0
  0
LINE
  5
1D5
330
1D0
100
AcDbEntity
  8
0
  6
Continuous
 62
     7
100
AcDbLine
 10
-236.9999999999866
 20
167.5999999996139
 30
0.0
 11
-222.9999999999866
 21
167.5999999996139
 31
0.0
  0
LINE
  5
1D6
330
1D0
100
AcDbEntity
  8
0
  6
Continuous
 62
     7
100
AcDbLine
 10
-254.9999999999866
 20
180.9000000019686
 30
0.0
 11
-254.9999999999866
 21
174.9000000019687
 31
0.0
  0
LINE
  5
1D7
330
1D0
100
AcDbEntity
  8
0
  6
Continuous
 62
     7
100
AcDbLine
 10
-254.9999999999866
 20
180.9000000019686
 30
0.0
 11
-204.9999999999866
 21
180.9000000019686
 31
0.0
  0
LINE
  5
1D8
330
1D0
100
AcDbEntity
  8
0
  6
Continuous
 62
     7
100
AcDbLine
 10
-254.9999999999866
 20
174.9000000019687
 30
0.0
 11
-204.9999999999866
 21
174.9000000019687
 31
0.0
  0
LINE
  5
1D9
330
1D0
100
AcDbEntity
  8
0
  6
Continuous
 62
     7
100
AcDbLine
 10
-204.9999999999866
 20
180.9000000019686
 30
0.0
 11
-204.9999999999866
 21
174.9000000019687
 31
0.0
  0
LINE
  5
1DA
330
1D0
100
AcDbEntity
  8
0
  6
Continuous
 62
     7
100
AcDbLine
 10
-188.000000000014
 20
180.9000000012334
 30
0.0
 11
-138.0000000000149
 21
180.9000000012257
 31
0.0
  0
LINE
  5
1DB
330
1D0
100
AcDbEntity
  8
0
  6
Continuous
 62
     7
100
AcDbLine
 10
-188.000000000014
 20
180.9000000012334
 30
0.0
 11
-188.0000000000149
 21
174.9000000012334
 31
0.0
  0
LINE
  5
1DC
330
1D0
100
AcDbEntity
  8
0
  6
Continuous
 62
     7
100
AcDbLine
 10
-188.0000000000149
 20
174.9000000012334
 30
0.0
 11
-138.0000000000159
 21
174.9000000012257
 31
0.0
  0
LINE
  5
1DD
330
1D0
100
AcDbEntity
  8
0
  6
Continuous
 62
     7
100
AcDbLine
 10
-138.0000000000149
 20
180.9000000012257
 30
0.0
 11
-138.0000000000159
 21
174.9000000012257
 31
0.0
  0
LINE
  5
1DE
330
1D0
100
AcDbEntity
  8
0
  6
Continuous
 62
     9
100
AcDbLine
 10
-146.0000000000078
 20
174.10000000104
 30
0.0
 11
-146.0000000000078
 21
174.9000000012269
 31
0.0
  0
LINE
  5
1DF
330
1D0
100
AcDbEntity
  8
0
  6
Continuous
 62
     7
100
AcDbLine
 10
-144.0000000000083
 20
174.9000000012266
 30
0.0
 11
-144.0000000000083
 21
174.1000000009116
 31
0.0
  0
LINE
  5
1E0
330
1D0
100
AcDbEntity
  8
0
  6
Continuous
 62
     7
100
AcDbLine
 10
-144.0000000000078
 20
174.1000000009116
 30
0.0
 11
-146.0000000000078
 21
174.1000000009116
 31
0.0
  0
LINE
  5
1E1
330
1D0
100
AcDbEntity
  8
0
  6
Continuous
 62
     9
100
AcDbLine
 10
-181.4999999999981
 20
174.9000000012324
 30
0.0
 11
-181.4999999999981
 21
174.10000000104
 31
0.0
  0
LINE
  5
1E2
330
1D0
100
AcDbEntity
  8
0
  6
Continuous
 62
     7
100
AcDbLine
 10
-146.0000000000078
 20
174.10000000104
 30
0.0
 11
-181.4999999999981
 21
174.10000000104
 31
0.0
  0
LINE
  5
1E3
330
1D0
100
AcDbEntity
  8
0
  6
Continuous
 62
     7
100
AcDbLine
 10
-183.4999999999976
 20
174.1000000009116
 30
0.0
 11
-183.4999999999976
 21
174.9000000012328
 31
0.0
  0
LINE
  5
1E4
330
1D0
100
AcDbEntity
  8
0
  6
Continuous
 62
     7
100
AcDbLine
 10
-181.4999999999981
 20
174.1000000009116
 30
0.0
 11
-183.4999999999981
 21
174.1000000009116
 31
0.0
  0
LINE
  5
1E5
330
1D0
100
AcDbEntity
  8
0
  6
Continuous
 62
     9
100
AcDbLine
 10
-141.0000000000133
 20
165.1000000011719
 30
0.0
 11
-141.0000000000133
 21
166.1000000011719
 31
0.0
  0
LINE
  5
1E6
330
1D0
100
AcDbEntity
  8
0
  6
Continuous
 62
     7
100
AcDbLine
 10
-141.0000000000133
 20
166.1000000010435
 30
0.0
 11
-139.0000000000133
 21
166.1000000010435
 31
0.0
  0
LINE
  5
1E7
330
1D0
100
AcDbEntity
  8
0
  6
Continuous
 62
     7
100
AcDbLine
 10
-139.0000000000142
 20
166.1000000010435
 30
0.0
 11
-139.0000000000142
 21
165.1000000010435
 31
0.0
  0
LINE
  5
1E8
330
1D0
100
AcDbEntity
  8
0
  6
Continuous
 62
     9
100
AcDbLine
 10
-184.999999999993
 20
166.1000000011719
 30
0.0
 11
-184.999999999993
 21
165.1000000011719
 31
0.0
  0
LINE
  5
1E9
330
1D0
100
AcDbEntity
  8
0
  6
Continuous
 62
     7
100
AcDbLine
 10
-141.0000000000133
 20
166.1000000011719
 30
0.0
 11
-184.999999999993
 21
166.1000000011719
 31
0.0
  0
LINE
  5
1EA
330
1D0
100
AcDbEntity
  8
0
  6
Continuous
 62
     7
100
AcDbLine
 10
-186.9999999999921
 20
165.1000000010435
 30
0.0
 11
-186.9999999999921
 21
166.1000000010435
 31
0.0
  0
LINE
  5
1EB
330
1D0
100
AcDbEntity
  8
0
  6
Continuous
 62
     7
100
AcDbLine
 10
-186.999999999993
 20
166.1000000010435
 30
0.0
 11
-184.999999999993
 21
166.1000000010435
 31
0.0
  0
LINE
  5
1EC
330
1D0
100
AcDbEntity
  8
0
  6
Continuous
 62
     7
100
AcDbLine
 10
-138.0000000000155
 20
165.1000000012361
 30
0.0
 11
-138.0000000000155
 21
159.1000000012391
 31
0.0
  0
LINE
  5
1ED
330
1D0
100
AcDbEntity
  8
0
  6
Continuous
 62
     7
100
AcDbLine
 10
-138.0000000000155
 20
159.1000000012391
 30
0.0
 11
-187.9999999999908
 21
159.1000000012391
 31
0.0
  0
ARC
  5
1EE
330
1D0
100
AcDbEntity
  8
0
  6
Continuous
 62
     7
100
AcDbCircle
 10
-187.9999999999908
 20
158.1000000012396
 30
0.0
 40
1.0
100
AcDbArc
 50
90.0
 51
180.0000000000008
  0
LINE
  5
1EF
330
1D0
100
AcDbEntity
  8
0
  6
Continuous
 62
     7
100
AcDbLine
 10
-188.9999999999902
 20
158.1000000012396
 30
0.0
 11
-188.9999999999902
 21
157.6000000012398
 31
0.0
  0
LINE
  5
1F0
330
1D0
100
AcDbEntity
  8
0
  6
Continuous
 62
     7
100
AcDbLine
 10
-196.4999999999866
 20
165.1000000012361
 30
0.0
 11
-138.0000000000155
 21
165.1000000012361
 31
0.0
  0
ARC
  5
1F1
330
1D0
100
AcDbEntity
  8
0
  6
Continuous
 62
     7
100
AcDbCircle
 10
-196.4999999999866
 20
157.6000000012398
 30
0.0
 40
7.500000000000007
100
AcDbArc
 50
90.0
 51
360.0
  0
LINE
  5
1F2
330
1D0
100
AcDbEntity
  8
0
  6
Continuous
 62
     7
100
AcDbLine
 10
-167.9499999999982
 20
173.1000000004297
 30
0.0
 11
-158.0500000000081
 21
173.1000000004297
 31
0.0
  0
LINE
  5
1F3
330
1D0
100
AcDbEntity
  8
0
  6
Continuous
 62
     7
100
AcDbLine
 10
-167.8999999999983
 20
173.0999999988249
 30
0.0
 11
-166.0000000021844
 21
173.0999999988249
 31
0.0
  0
LINE
  5
1F4
330
1D0
100
AcDbEntity
  8
0
  6
Continuous
 62
     7
100
AcDbLine
 10
-160.0000000021854
 20
173.0999999988249
 30
0.0
 11
-158.1000000000095
 21
173.0999999988249
 31
0.0
  0
LINE
  5
1F5
330
1D0
100
AcDbEntity
  8
0
  6
Continuous
 62
     7
100
AcDbLine
 10
-205.9999999999984
 20
166.0999999996157
 30
0.0
 11
-205.9999999999984
 21
165.0999999996157
 31
0.0
  0
LINE
  5
1F6
330
1D0
100
AcDbEntity
  8
0
  6
Continuous
 62
     9
100
AcDbLine
 10
-207.9999999999975
 20
165.0999999996157
 30
0.0
 11
-207.9999999999975
 21
166.0999999996157
 31
0.0
  0
LINE
  5
1F7
330
1D0
100
AcDbEntity
  8
0
  6
Continuous
 62
     7
100
AcDbLine
 10
-207.9999999999975
 20
166.0999999996157
 30
0.0
 11
-205.9999999999975
 21
166.0999999996157
 31
0.0
  0
LINE
  5
1F8
330
1D0
100
AcDbEntity
  8
0
  6
Continuous
 62
     9
100
AcDbLine
 10
-251.9999999999757
 20
166.0999999996157
 30
0.0
 11
-251.9999999999757
 21
165.0999999996157
 31
0.0
  0
LINE
  5
1F9
330
1D0
100
AcDbEntity
  8
0
  6
Continuous
 62
     7
100
AcDbLine
 10
-251.9999999999757
 20
166.0999999996157
 30
0.0
 11
-207.9999999999975
 21
166.0999999996157
 31
0.0
  0
LINE
  5
1FA
330
1D0
100
AcDbEntity
  8
0
  6
Continuous
 62
     7
100
AcDbLine
 10
-253.9999999999747
 20
165.0999999996157
 30
0.0
 11
-253.9999999999747
 21
166.0999999996157
 31
0.0
  0
LINE
  5
1FB
330
1D0
100
AcDbEntity
  8
0
  6
Continuous
 62
     7
100
AcDbLine
 10
-253.9999999999757
 20
166.0999999996157
 30
0.0
 11
-251.9999999999757
 21
166.0999999996157
 31
0.0
  0
LINE
  5
1FC
330
1D0
100
AcDbEntity
  8
0
  6
Continuous
 62
     9
100
AcDbLine
 10
-211.4999999999931
 20
174.1000000004301
 30
0.0
 11
-211.4999999999931
 21
174.9000000019687
 31
0.0
  0
LINE
  5
1FD
330
1D0
100
AcDbEntity
  8
0
  6
Continuous
 62
     7
100
AcDbLine
 10
-209.4999999999938
 20
174.9000000019687
 30
0.0
 11
-209.4999999999938
 21
174.1000000004301
 31
0.0
  0
LINE
  5
1FE
330
1D0
100
AcDbEntity
  8
0
  6
Continuous
 62
     7
100
AcDbLine
 10
-209.4999999999931
 20
174.1000000004301
 30
0.0
 11
-211.4999999999931
 21
174.1000000004301
 31
0.0
  0
LINE
  5
1FF
330
1D0
100
AcDbEntity
  8
0
  6
Continuous
 62
     9
100
AcDbLine
 10
-246.9999999999806
 20
174.9000000019687
 30
0.0
 11
-246.9999999999806
 21
174.1000000004301
 31
0.0
  0
LINE
  5
200
330
1D0
100
AcDbEntity
  8
0
  6
Continuous
 62
     7
100
AcDbLine
 10
-211.4999999999931
 20
174.1000000004301
 30
0.0
 11
-246.9999999999806
 21
174.1000000004301
 31
0.0
  0
LINE
  5
201
330
1D0
100
AcDbEntity
  8
0
  6
Continuous
 62
     7
100
AcDbLine
 10
-248.9999999999799
 20
174.1000000004301
 30
0.0
 11
-248.9999999999799
 21
174.9000000019687
 31
0.0
  0
LINE
  5
202
330
1D0
100
AcDbEntity
  8
0
  6
Continuous
 62
     7
100
AcDbLine
 10
-246.9999999999806
 20
174.1000000004301
 30
0.0
 11
-248.9999999999806
 21
174.1000000004301
 31
0.0
  0
CIRCLE
  5
203
330
1D0
100
AcDbEntity
  8
0
  6
Continuous
 62
     7
100
AcDbCircle
 10
-196.5000000026607
 20
157.5999999982991
 30
0.0
 40
5.299999999999998
  0
CIRCLE
  5
204
330
1D0
100
AcDbEntity
  8
0
  6
Continuous
 62
     7
100
AcDbCircle
 10
-196.5000000026973
 20
157.5999999985979
 30
0.0
 40
6.000000000000004
  0
LINE
  5
205
330
1D0
100
AcDbEntity
  8
0
  6
Continuous
 62
     7
100
AcDbLine
 10
-205.9999999999866
 20
159.0999999996157
 30
0.0
 11
-205.9999999999866
 21
165.0999999996157
 31
0.0
  0
LINE
  5
206
330
1D0
100
AcDbEntity
  8
0
  6
Continuous
 62
     7
100
AcDbLine
 10
-205.9999999999866
 20
165.0999999996157
 30
0.0
 11
-254.9999999999866
 21
165.0999999996157
 31
0.0
  0
LINE
  5
207
330
1D0
100
AcDbEntity
  8
0
  6
Continuous
 62
     7
100
AcDbLine
 10
-254.9999999999866
 20
165.0999999996157
 30
0.0
 11
-254.9999999999866
 21
159.0999999996157
 31
0.0
  0
LINE
  5
208
330
1D0
100
AcDbEntity
  8
0
  6
Continuous
 62
     7
100
AcDbLine
 10
-254.9999999999866
 20
159.0999999996157
 30
0.0
 11
-205.9999999999866
 21
159.0999999996157
 31
0.0
  0
LINE
  5
209
330
1D0
100
AcDbEntity
  8
0
  6
Continuous
 62
     7
100
AcDbLine
 10
-234.8999999999866
 20
173.0999999996156
 30
0.0
 11
-225.0999999999866
 21
173.0999999996156
 31
0.0
  0
LINE
  5
20A
330
1D0
100
AcDbEntity
  8
0
  6
Continuous
 62
     7
100
AcDbLine
 10
-203.9999999999866
 20
158.0999999996157
 30
0.0
 11
-203.9999999999866
 21
157.5999999996156
 31
0.0
  0
ARC
  5
20B
330
1D0
100
AcDbEntity
  8
0
  6
Continuous
 62
     7
100
AcDbCircle
 10
-204.9999999999866
 20
158.0999999996157
 30
0.0
 40
1.0
100
AcDbArc
 50
359.9999999999992
 51
90.0
  0
LINE
  5
20C
330
1D0
100
AcDbEntity
  8
0
  6
Continuous
 62
     7
100
AcDbLine
 10
-196.4999999999866
 20
165.0999999996157
 30
0.0
 11
-205.9999999999866
 21
165.0999999996157
 31
0.0
  0
LINE
  5
20D
330
1D0
100
AcDbEntity
  8
0
  6
Continuous
 62
     7
100
AcDbLine
 10
-205.9999999999866
 20
159.0999999996157
 30
0.0
 11
-204.9999999999866
 21
159.0999999996157
 31
0.0
  0
LINE
  5
20E
330
1D0
100
AcDbEntity
  8
0
  6
Continuous
 62
     7
100
AcDbLine
 10
-156.0000000000015
 20
167.6000000004338
 30
0.0
 11
-156.0000000000021
 21
172.6000000004338
 31
0.0
  0
LINE
  5
20F
330
1D0
100
AcDbEntity
  8
0
  6
Continuous
 62
     7
100
AcDbLine
 10
-170.0000000000052
 20
172.6000000004322
 30
0.0
 11
-170.0000000000047
 21
167.6000000004322
 31
0.0
  0
LINE
  5
210
330
1D0
100
AcDbEntity
  8
0
  6
Continuous
 62
     7
100
AcDbLine
 10
-236.9999999999866
 20
172.5999999996139
 30
0.0
 11
-236.9999999999866
 21
167.5999999996139
 31
0.0
  0
LINE
  5
211
330
1D0
100
AcDbEntity
  8
0
  6
Continuous
 62
     7
100
AcDbLine
 10
-222.9999999999866
 20
167.5999999996139
 30
0.0
 11
-222.9999999999866
 21
172.5999999996139
 31
0.0
  0
LINE
  5
212
330
1D0
100
AcDbEntity
  8
0
  6
Continuous
 62
     7
100
AcDbLine
 10
-160.000000002188
 20
173.1000143535204
 30
0.0
 11
-160.000000002188
 21
174.10000000104
 31
0.0
  0
LINE
  5
213
330
1D0
100
AcDbEntity
  8
0
  6
Continuous
 62
     7
100
AcDbLine
 10
-166.0000000021881
 20
174.10000000104
 30
0.0
 11
-166.0000000021881
 21
173.1000143523898
 31
0.0
  0
LINE
  5
214
330
1D0
100
AcDbEntity
  8
0
  6
Continuous
 62
     7
100
AcDbLine
 10
-167.9500000000007
 20
173.1000000004297
 30
0.0
 11
-167.9500000000007
 21
172.6000000006656
 31
0.0
  0
LINE
  5
215
330
1D0
100
AcDbEntity
  8
0
  6
Continuous
 62
     7
100
AcDbLine
 10
-167.9500000000007
 20
167.6000000006705
 30
0.0
 11
-167.9500000000007
 21
166.1000000011719
 31
0.0
  0
LINE
  5
216
330
1D0
100
AcDbEntity
  8
0
  6
Continuous
 62
     7
100
AcDbLine
 10
-158.0500000000055
 20
166.1000000011719
 30
0.0
 11
-158.0500000000055
 21
167.6000000006716
 31
0.0
  0
LINE
  5
217
330
1D0
100
AcDbEntity
  8
0
  6
Continuous
 62
     7
100
AcDbLine
 10
-158.0500000000055
 20
172.6000000006665
 30
0.0
 11
-158.0500000000055
 21
173.1000000004297
 31
0.0
  0
LINE
  5
218
330
1D0
100
AcDbEntity
  8
0
  6
Continuous
 62
     7
100
AcDbLine
 10
-226.9999999999866
 20
173.1000143519476
 30
0.0
 11
-226.9999999999866
 21
174.1000000004301
 31
0.0
  0
LINE
  5
219
330
1D0
100
AcDbEntity
  8
0
  6
Continuous
 62
     7
100
AcDbLine
 10
-232.9999999999865
 20
174.1000000004301
 30
0.0
 11
-232.9999999999865
 21
173.1000143519476
 31
0.0
  0
LINE
  5
21A
330
1D0
100
AcDbEntity
  8
0
  6
Continuous
 62
     7
100
AcDbLine
 10
-234.8999999999866
 20
173.0999999996156
 30
0.0
 11
-234.8999999999866
 21
172.5999999999446
 31
0.0
  0
LINE
  5
21B
330
1D0
100
AcDbEntity
  8
0
  6
Continuous
 62
     7
100
AcDbLine
 10
-234.8999999999866
 20
167.5999999999446
 30
0.0
 11
-234.8999999999866
 21
166.0999999996157
 31
0.0
  0
LINE
  5
21C
330
1D0
100
AcDbEntity
  8
0
  6
Continuous
 62
     7
100
AcDbLine
 10
-225.0999999999866
 20
166.0999999996157
 30
0.0
 11
-225.0999999999866
 21
167.5999999999446
 31
0.0
  0
LINE
  5
21D
330
1D0
100
AcDbEntity
  8
0
  6
Continuous
 62
     7
100
AcDbLine
 10
-225.0999999999866
 20
172.5999999999446
 30
0.0
 11
-225.0999999999866
 21
173.0999999996156
 31
0.0
  0
ENDBLK
  5
21E
330
1D0
100
AcDbEntity
  8
0
100
AcDbBlockEnd
  0
BLOCK
  5
221
330
220
100
AcDbEntity
  8
0
100
AcDbBlockBegin
  2
AID1373
 70
     0
 10
0.0
 20
0.0
 30
0.0
  3
AID1373
  1

  0
ELLIPSE
  5
222
330
220
100
AcDbEntity
  8
0
  6
Continuous
 62
     7
100
AcDbEllipse
 10
-56.82638992396322
 20
162.1749122338284
 30
0.0
 11
5.59999999999999
 21
0.0
 31
0.0
210
0.0
220
0.0
230
0.9999999999999998
 40
0.4082482904638628
 41
5.819537698178777
 42
6.059156266799929
  0
ELLIPSE
  5
223
330
220
100
AcDbEntity
  8
0
  6
Continuous
 62
     7
100
AcDbEllipse
 10
-56.82638992396322
 20
162.1749122338284
 30
0.0
 11
5.59999999999999
 21
0.0
 31
0.0
210
0.0
220
0.0
230
0.9999999999999998
 40
0.4082482904638628
 41
4.405821004063375
 42
5.819537698178779
  0
ELLIPSE
  5
224
330
220
100
AcDbEntity
  8
0
  6
Continuous
 62
     7
100
AcDbEllipse
 10
-56.82638992396322
 20
162.1749122338284
 30
0.0
 11
5.59999999999999
 21
0.0
 31
0.0
210
0.0
220
0.0
230
0.9999999999999998
 40
0.408248290463863
 41
4.091661738704393
 42
4.405821004063375
  0
ELLIPSE
  5
225
330
220
100
AcDbEntity
  8
0
  6
Continuous
 62
     7
100
AcDbEllipse
 10
-56.82638992396322
 20
162.1749122338284
 30
0.0
 11
5.59999999999999
 21
0.0
 31
0.0
210
0.0
220
0.0
230
0.9999999999999998
 40
0.408248290463863
 41
3.362426598533781
 42
4.091661738704393
  0
ELLIPSE
  5
226
330
220
100
AcDbEntity
  8
0
  6
Continuous
 62
     7
100
AcDbEllipse
 10
-56.82638992398464
 20
143.8444639759714
 30
0.0
 11
-5.59999999999999
 21
0.000000000328626
 31
0.0000000000000003
210
0.0000000000000001
220
0.0
230
0.9999999999999998
 40
0.4082482903666155
 41
0.1482830140961332
 42
2.668888335948886
  0
ELLIPSE
  5
227
330
220
100
AcDbEntity
  8
0
  6
Continuous
 62
     7
100
AcDbEllipse
 10
-56.82638992398464
 20
143.8444639759714
 30
0.0
 11
-5.59999999999999
 21
0.0000000003285983
 31
0.0000000000000004
210
0.0000000000000001
220
0.0
230
0.9999999999999998
 40
0.4082482903666163
 41
2.668888335948885
 42
2.993309639354851
  0
LINE
  5
228
330
220
100
AcDbEntity
  8
0
  6
Continuous
 62
     7
100
AcDbLine
 10
-90.34952104152266
 20
186.800518419904
 30
0.0
 11
-92.49614629992242
 21
185.0478062361565
 31
0.0
  0
LINE
  5
229
330
220
100
AcDbEntity
  8
0
  6
Continuous
 62
     7
100
AcDbLine
 10
-90.34952104152266
 20
186.800518419904
 30
0.0
 11
-54.57243340152601
 21
179.4975509865018
 31
0.0
  0
LINE
  5
22A
330
220
100
AcDbEntity
  8
0
  6
Continuous
 62
     7
100
AcDbLine
 10
-54.57243340152601
 20
179.4975509865018
 30
0.0
 11
-56.71905865992584
 21
177.7448388027543
 31
0.0
  0
LINE
  5
22B
330
220
100
AcDbEntity
  8
0
  6
Continuous
 62
     7
100
AcDbLine
 10
-92.49614629992242
 20
185.0478062361566
 30
0.0
 11
-56.71905865992584
 21
177.7448388027544
 31
0.0
  0
ELLIPSE
  5
22C
330
220
100
AcDbEntity
  8
0
  6
Continuous
 62
     7
100
AcDbEllipse
 10
-59.76011110941886
 20
175.2618298753213
 30
0.0
 11
-1.264911063950866
 21
1.549193338578113
 31
0.0000000000000001
210
0.0
220
-0.0000000000000001
230
1.0
 40
0.8164965809527952
 41
3.926990817048638
 42
5.497787143843566
  0
LINE
  5
22D
330
220
100
AcDbEntity
  8
0
  6
Continuous
 62
     7
100
AcDbLine
 10
-63.33781987336362
 20
177.817868477057
 30
0.0
 11
-59.76011110936397
 21
177.0875717337167
 31
0.0
  0
ELLIPSE
  5
22E
330
220
100
AcDbEntity
  8
0
  6
Continuous
 62
     7
100
AcDbEllipse
 10
-63.33781987341852
 20
175.9921266186616
 30
0.0
 11
-1.264911063950866
 21
1.549193338578142
 31
0.0
210
0.0000000000000001
220
0.0
230
1.0
 40
0.8164965809527956
 41
5.497787143843565
 42
6.141288252636824
  0
LINE
  5
22F
330
220
100
AcDbEntity
  8
0
  6
Continuous
 62
     7
100
AcDbLine
 10
-64.41113250257451
 20
177.6718091283799
 30
0.0
 11
-84.86131579759661
 21
181.8461853133126
 31
0.0
  0
ELLIPSE
  5
230
330
220
100
AcDbEntity
  8
0
  6
Continuous
 62
     7
100
AcDbEllipse
 10
-85.9346284268404
 20
180.6046808495984
 30
0.0
 11
-1.264911063950838
 21
1.549193338578086
 31
0.0000000000000001
210
0.0
220
-0.0000000000000001
230
1.0
 40
0.8164965809527952
 41
4.854286035050268
 42
5.497787143843586
  0
LINE
  5
231
330
220
100
AcDbEntity
  8
0
  6
Continuous
 62
     7
100
AcDbLine
 10
-89.51233719078516
 20
183.160719451334
 30
0.0
 11
-85.93462842678551
 21
182.4304227079938
 31
0.0
  0
ELLIPSE
  5
232
330
220
100
AcDbEntity
  8
0
  6
Continuous
 62
     7
100
AcDbEllipse
 10
-89.51233719084013
 20
181.3349775929385
 30
0.0
 11
-1.264911063950837
 21
1.549193338578113
 31
-0.0000000000000001
210
0.0
220
0.0000000000000001
230
1.0
 40
0.8164965809527958
 41
0.0
 42
0.7853981634588645
  0
LINE
  5
233
330
220
100
AcDbEntity
  8
0
  6
Continuous
 62
     7
100
AcDbLine
 10
-91.30119157285419
 20
181.2254330806766
 30
0.0
 11
-91.30119157283994
 21
181.7001259646087
 31
0.0
  0
LINE
  5
234
330
220
100
AcDbEntity
  8
0
  6
Continuous
 62
     7
100
AcDbLine
 10
-57.97125672741904
 20
174.8966815036512
 30
0.0
 11
-57.97125672744402
 21
174.0657439758373
 31
0.0
  0
LINE
  5
235
330
220
100
AcDbEntity
  8
0
  6
Continuous
 62
     7
100
AcDbLine
 10
-92.49614630003007
 20
181.4693521929523
 30
0.0
 11
-92.49614629992242
 21
185.0478062361566
 31
0.0
  0
LINE
  5
236
330
220
100
AcDbEntity
  8
0
  6
Continuous
 62
     7
100
AcDbLine
 10
-56.71905865992584
 20
177.7448388027543
 30
0.0
 11
-56.71905866003457
 21
174.1294847036128
 31
0.0
  0
LINE
  5
237
330
220
100
AcDbEntity
  8
0
  6
Continuous
 62
     7
100
AcDbLine
 10
-54.57243340152601
 20
179.4975509865018
 30
0.0
 11
-54.57243340169544
 21
173.8651998779927
 31
0.0
  0
LINE
  5
238
330
220
100
AcDbEntity
  8
0
  6
Continuous
 62
     7
100
AcDbLine
 10
-89.69122262910378
 20
180.8967995461836
 30
0.0
 11
-89.69122262904006
 21
183.0146601024193
 31
0.0
  0
ELLIPSE
  5
239
330
220
100
AcDbEntity
  8
0
  6
Continuous
 62
     7
100
AcDbEllipse
 10
-87.90236824704022
 20
182.6495117307492
 30
0.0
 11
-1.264911063950838
 21
1.549193338578086
 31
-0.0000000000000001
210
0.0
220
0.0000000000000001
230
1.0
 40
0.8164965809527958
 41
0.689817090112527
 42
0.7853981634588635
  0
ELLIPSE
  5
23A
330
220
100
AcDbEntity
  8
0
  6
Continuous
 62
     7
100
AcDbEllipse
 10
-89.51233719084013
 20
181.3349775929385
 30
0.0
 11
-1.264911063950838
 21
1.549193338578086
 31
-0.0000000000000001
210
0.0
220
0.0000000000000001
230
1.0
 40
0.8164965809527956
 41
5.497787143843532
 42
6.283185307179585
  0
LINE
  5
23B
330
220
100
AcDbEntity
  8
0
  6
Continuous
 62
     9
100
AcDbLine
 10
-91.30119157283994
 20
181.7001259646087
 30
0.0
 11
-89.69122262904006
 21
183.0146601024193
 31
0.0
  0
LINE
  5
23C
330
220
100
AcDbEntity
  8
0
  6
Continuous
 62
     7
100
AcDbLine
 10
-11.76157033290076
 20
133.3311120578386
 30
0.0
 11
-12.2839158123284
 21
133.4377353823425
 31
0.0
  0
ELLIPSE
  5
23D
330
220
100
AcDbEntity
  8
0
  6
Continuous
 62
     7
100
AcDbEllipse
 10
-11.7615703328433
 20
135.156853916236
 30
0.0
 11
-1.264911063945264
 21
1.549193338582665
 31
0.0
210
0.0
220
0.0
230
1.0
 40
0.8164965809538704
 41
3.141592653589821
 42
3.926990817051581
  0
LINE
  5
23E
330
220
100
AcDbEntity
  8
0
  6
Continuous
 62
     7
100
AcDbLine
 10
-9.97271595074417
 20
137.9538904433101
 30
0.0
 11
-9.972715950843646
 21
134.7917055445658
 31
0.0
  0
ELLIPSE
  5
23F
330
220
100
AcDbEntity
  8
0
  6
Continuous
 62
     7
100
AcDbEllipse
 10
-11.76157033274388
 20
138.3190388149803
 30
0.0
 11
-1.264911063945239
 21
1.549193338582638
 31
0.0
210
-0.0000000000000001
220
0.0
230
1.0
 40
0.8164965809538692
 41
3.926990817051611
 42
5.497787143846468
  0
LINE
  5
240
330
220
100
AcDbEntity
  8
0
  6
Continuous
 62
     7
100
AcDbLine
 10
-12.1408074616704
 20
140.2221921281718
 30
0.0
 11
-11.76157033268643
 21
140.1447806733777
 31
0.0
  0
LINE
  5
241
330
220
100
AcDbEntity
  8
0
  6
Continuous
 62
     7
100
AcDbLine
 10
-12.1408074616704
 20
140.2221921281718
 30
0.0
 11
-12.14080746103096
 21
160.5536534632852
 31
0.0
  0
LINE
  5
242
330
220
100
AcDbEntity
  8
0
  6
Continuous
 62
     7
100
AcDbLine
 10
-11.761570332047
 20
160.4762420084912
 30
0.0
 11
-12.14080746103096
 21
160.5536534632853
 31
0.0
  0
ELLIPSE
  5
243
330
220
100
AcDbEntity
  8
0
  6
Continuous
 62
     7
100
AcDbEllipse
 10
-11.7615703319896
 20
162.3019838668886
 30
0.0
 11
-1.264911063945264
 21
1.549193338582665
 31
0.0
210
0.0
220
0.0
230
1.0
 40
0.8164965809538704
 41
3.141592653589774
 42
3.926990817051598
  0
LINE
  5
244
330
220
100
AcDbEntity
  8
0
  6
Continuous
 62
     7
100
AcDbLine
 10
-9.972715949890519
 20
165.0990203939627
 30
0.0
 11
-9.97271594998994
 21
161.9368354952184
 31
0.0
  0
ELLIPSE
  5
245
330
220
100
AcDbEntity
  8
0
  6
Continuous
 62
     7
100
AcDbEllipse
 10
-11.76157033189012
 20
165.4641687656329
 30
0.0
 11
-1.264911063945278
 21
1.549193338582665
 31
0.0
210
-0.0000000000000001
220
0.0
230
1.0
 40
0.8164965809538692
 41
3.926990817051551
 42
5.497787143846474
  0
LINE
  5
246
330
220
100
AcDbEntity
  8
0
  6
Continuous
 62
     7
100
AcDbLine
 10
-15.33927909583205
 20
168.0202073673707
 30
0.0
 11
-11.76157033183272
 21
167.2899106240303
 31
0.0
  0
ELLIPSE
  5
247
330
220
100
AcDbEntity
  8
0
  6
Continuous
 62
     7
100
AcDbEllipse
 10
-15.33927909588945
 20
166.1944655089733
 30
0.0
 11
-1.264911063945285
 21
1.549193338582693
 31
-0.0000000000000001
210
0.0
220
0.0
230
1.0
 40
0.8164965809538704
 41
5.497787143846481
 42
6.141288252639756
  0
LINE
  5
248
330
220
100
AcDbEntity
  8
0
  6
Continuous
 62
     7
100
AcDbLine
 10
-16.41259172504333
 20
167.8741480186934
 30
0.0
 11
-36.86277502006347
 21
172.0485242036273
 31
0.0
  0
ELLIPSE
  5
249
330
220
100
AcDbEntity
  8
0
  6
Continuous
 62
     7
100
AcDbEllipse
 10
-37.93608764930918
 20
170.8070197399115
 30
0.0
 11
-1.264911063945225
 21
1.549193338582665
 31
0.0000000000000001
210
0.0
220
-0.0000000000000001
230
1.0
 40
0.8164965809538738
 41
4.854286035053247
 42
5.497787143846528
  0
LINE
  5
24A
330
220
100
AcDbEntity
  8
0
  6
Continuous
 62
     7
100
AcDbLine
 10
-41.51379641325109
 20
173.3630583416493
 30
0.0
 11
-37.93608764925178
 21
172.6327615983089
 31
0.0
  0
ELLIPSE
  5
24B
330
220
100
AcDbEntity
  8
0
  6
Continuous
 62
     7
100
AcDbEllipse
 10
-41.51379641330849
 20
171.5373164832519
 30
0.0
 11
-1.264911063945265
 21
1.549193338582665
 31
0.0
210
0.0
220
0.0
230
0.9999999999999998
 40
0.8164965809538704
 41
0.0
 42
0.7853981634617893
  0
LINE
  5
24C
330
220
100
AcDbEntity
  8
0
  6
Continuous
 62
     7
100
AcDbLine
 10
-43.30265079532307
 20
171.4277719723231
 30
0.0
 11
-43.30265079530819
 21
171.9024648549221
 31
0.0
  0
LINE
  5
24D
330
220
100
AcDbEntity
  8
0
  6
Continuous
 62
     7
100
AcDbLine
 10
-44.55484886261035
 20
175.2618298743669
 30
0.0
 11
-8.777761222617142
 21
167.9588624409625
 31
0.0
  0
LINE
  5
24E
330
220
100
AcDbEntity
  8
0
  6
Continuous
 62
     7
100
AcDbLine
 10
-8.777761222617142
 20
167.9588624409625
 30
0.0
 11
-8.777761223765503
 21
131.4440252730144
 31
0.0
  0
LINE
  5
24F
330
220
100
AcDbEntity
  8
0
  6
Continuous
 62
     7
100
AcDbLine
 10
-8.777761223765503
 20
131.4440252730144
 30
0.0
 11
-12.28391581236859
 21
132.1597160814643
 31
0.0
  0
LINE
  5
250
330
220
100
AcDbEntity
  8
0
  6
Continuous
 62
     7
100
AcDbLine
 10
-44.55484886272281
 20
171.6833758324921
 30
0.0
 11
-44.55484886261035
 21
175.2618298743669
 31
0.0
  0
LINE
  5
251
330
220
100
AcDbEntity
  8
0
  6
Continuous
 62
     7
100
AcDbLine
 10
-42.40822360420986
 20
177.014542058102
 30
0.0
 11
-44.55484886261035
 21
175.2618298743669
 31
0.0
  0
LINE
  5
252
330
220
100
AcDbEntity
  8
0
  6
Continuous
 62
     7
100
AcDbLine
 10
-42.40822360420986
 20
177.014542058102
 30
0.0
 11
-6.631135964216659
 21
169.7115746246976
 31
0.0
  0
LINE
  5
253
330
220
100
AcDbEntity
  8
0
  6
Continuous
 62
     7
100
AcDbLine
 10
-6.631135964216659
 20
169.7115746246976
 30
0.0
 11
-8.777761222617142
 21
167.9588624409625
 31
0.0
  0
LINE
  5
254
330
220
100
AcDbEntity
  8
0
  6
Continuous
 62
     7
100
AcDbLine
 10
-6.631135964216659
 20
169.7115746246976
 30
0.0
 11
-6.63113596536502
 21
133.1967374567495
 31
0.0
  0
LINE
  5
255
330
220
100
AcDbEntity
  8
0
  6
Continuous
 62
     7
100
AcDbLine
 10
-6.63113596536502
 20
133.1967374567496
 30
0.0
 11
-8.777761223765503
 21
131.4440252730145
 31
0.0
  0
ELLIPSE
  5
256
330
220
100
AcDbEntity
  8
0
  6
Continuous
 62
     7
100
AcDbEllipse
 10
-11.7615703319896
 20
162.3019838668886
 30
0.0
 11
-1.264911063945274
 21
1.549193338582638
 31
0.0
210
0.0000000000000001
220
0.0
230
1.0
 40
0.8164965809538703
 41
2.35619449025671
 42
3.141592653589776
  0
LINE
  5
257
330
220
100
AcDbEntity
  8
0
  6
Continuous
 62
     9
100
AcDbLine
 10
-11.761570332047
 20
160.4762420084912
 30
0.0
 11
-11.22245105025482
 21
160.916431058716
 31
0.0
  0
ELLIPSE
  5
258
330
220
100
AcDbEntity
  8
0
  6
Continuous
 62
     7
100
AcDbEllipse
 10
-11.22245105019737
 20
162.7421729171134
 30
0.0
 11
3.282857002308896
 21
1.215513325148881
 31
0.0
210
0.0
220
0.0
230
1.0
 40
0.4973154683955688
 41
4.530292332372688
 42
4.879404712675438
  0
LINE
  5
259
330
220
100
AcDbEntity
  8
0
  6
Continuous
 62
     7
100
AcDbLine
 10
-41.69268185151203
 20
173.0831112566673
 30
0.0
 11
-41.69268185150782
 21
173.2169989927235
 31
0.0
  0
ELLIPSE
  5
25A
330
220
100
AcDbEntity
  8
0
  6
Continuous
 62
     7
100
AcDbEllipse
 10
-39.90382746950816
 20
172.8518506210533
 30
0.0
 11
-1.264911063945258
 21
1.549193338582665
 31
0.0
210
0.0
220
0.0
230
1.0
 40
0.8164965809538704
 41
0.6898170894244808
 42
0.7853981634617853
  0
LINE
  5
25B
330
220
100
AcDbEntity
  8
0
  6
Continuous
 62
     7
100
AcDbLine
 10
-11.93011716699721
 20
160.7256813679708
 30
0.0
 11
-12.14080746103096
 21
160.5536534632852
 31
0.0
  0
LINE
  5
25C
330
220
100
AcDbEntity
  8
0
  6
Continuous
 62
     7
100
AcDbLine
 10
-11.93011716699721
 20
160.7256813679708
 30
0.0
 11
-11.22245105025482
 21
160.9164310587159
 31
0.0
  0
ELLIPSE
  5
25D
330
220
100
AcDbEntity
  8
0
  6
Continuous
 62
     7
100
AcDbEllipse
 10
-11.7615703328433
 20
135.156853916236
 30
0.0
 11
-1.26491106394528
 21
1.549193338582665
 31
0.0
210
0.0000000000000001
220
0.0
230
1.0
 40
0.8164965809538703
 41
2.356194490256659
 42
3.141592653589801
  0
ELLIPSE
  5
25E
330
220
100
AcDbEntity
  8
0
  6
Continuous
 62
     7
100
AcDbEllipse
 10
-10.15160138904297
 20
136.4713880540373
 30
0.0
 11
-1.264911063945262
 21
1.549193338582665
 31
0.0
210
0.0
220
0.0
230
1.0
 40
0.8164965809538699
 41
2.403284266363796
 42
2.451775563537239
  0
LINE
  5
25F
330
220
100
AcDbEntity
  8
0
  6
Continuous
 62
     9
100
AcDbLine
 10
-11.76157033290076
 20
133.3311120578386
 30
0.0
 11
-10.22082531052032
 21
134.5891251004912
 31
0.0
  0
ELLIPSE
  5
260
330
220
100
AcDbEntity
  8
0
  6
Continuous
 62
     7
100
AcDbEllipse
 10
-41.51379641330849
 20
171.5373164832519
 30
0.0
 11
-1.264911063945252
 21
1.549193338582693
 31
0.0000000000000001
210
0.0
220
-0.0000000000000001
230
1.0
 40
0.8164965809538703
 41
5.497787143846506
 42
6.283185307179588
  0
LINE
  5
261
330
220
100
AcDbEntity
  8
0
  6
Continuous
 62
     9
100
AcDbLine
 10
-43.30265079530819
 20
171.9024648549221
 30
0.0
 11
-41.97889855257336
 21
172.9833040349366
 31
0.0
  0
LINE
  5
262
330
220
100
AcDbEntity
  8
0
  6
Continuous
 62
     9
100
AcDbLine
 10
-41.8894558333906
 20
173.0563337093265
 30
0.0
 11
-41.69268185150782
 21
173.2169989927235
 31
0.0
  0
LINE
  5
263
330
220
100
AcDbEntity
  8
0
  6
Continuous
 62
     7
100
AcDbLine
 10
-12.23015796849042
 20
166.9108677916534
 30
0.0
 11
-12.23015796952381
 21
134.0475143404996
 31
0.0
  0
LINE
  5
264
330
220
100
AcDbEntity
  8
0
  6
Continuous
 62
     7
100
AcDbLine
 10
-11.33774608754295
 20
167.1514152564545
 30
0.0
 11
-12.23015796849042
 21
166.9108677916534
 31
0.0
  0
LINE
  5
265
330
220
100
AcDbEntity
  8
0
  6
Continuous
 62
     7
100
AcDbLine
 10
-9.977843101970639
 20
134.6546203673139
 30
0.0
 11
-12.23015796952381
 21
134.0475143404997
 31
0.0
  0
LINE
  5
266
330
220
100
AcDbEntity
  8
0
  6
Continuous
 62
     7
100
AcDbLine
 10
-12.23015796849042
 20
166.9108677916534
 30
0.0
 11
-41.97889855257336
 21
172.9833040351058
 31
0.0
  0
LINE
  5
267
330
220
100
AcDbEntity
  8
0
  6
Continuous
 62
     7
100
AcDbLine
 10
-41.97889855257336
 20
172.9833040351058
 30
0.0
 11
-41.88945583347342
 21
173.0563337094281
 31
0.0
  0
LINE
  5
268
330
220
100
AcDbEntity
  8
0
  6
Continuous
 62
     7
100
AcDbLine
 10
-41.88945583347342
 20
173.0563337094281
 30
0.0
 11
-40.76247757261352
 21
173.2096960255075
 31
0.0
  0
LINE
  5
269
330
220
100
AcDbEntity
  8
0
  6
Continuous
 62
     7
100
AcDbLine
 10
-41.97889855257336
 20
172.9833040351058
 30
0.0
 11
-41.9788985526308
 21
171.1575621772847
 31
0.0
  0
LINE
  5
26A
330
220
100
AcDbEntity
  8
0
  6
Continuous
 62
     7
100
AcDbLine
 10
-12.23015796952381
 20
134.0475143404996
 30
0.0
 11
-12.28391581230892
 21
134.0584876142076
 31
0.0
  0
LINE
  5
26B
330
220
100
AcDbEntity
  8
0
  6
Continuous
 62
     9
100
AcDbLine
 10
-14.78831194619717
 20
166.7027520424016
 30
0.0
 11
-14.43054106979718
 21
166.9948707396908
 31
0.0
  0
ELLIPSE
  5
26C
330
220
100
AcDbEntity
  8
0
  6
Continuous
 62
     7
100
AcDbEllipse
 10
-14.43054106984315
 20
165.5342772529732
 30
0.0
 11
-1.01192885115643
 21
1.239354670865943
 31
-0.0000000000000001
210
-0.0000000000000001
220
0.0
230
0.9999999999999998
 40
0.8164965809539349
 41
3.926990817051446
 42
5.497787143846301
  0
ELLIPSE
  5
26D
330
220
100
AcDbEntity
  8
0
  6
Continuous
 62
     7
100
AcDbEllipse
 10
-14.78831194624314
 20
165.242158555684
 30
0.0
 11
1.011928851156422
 21
-1.239354670865915
 31
0.0
210
0.0
220
0.0
230
1.0
 40
0.8164965809539308
 41
1.038078418982202
 42
2.356194490256502
  0
ELLIPSE
  5
26E
330
220
100
AcDbEntity
  8
0
  6
Continuous
 62
     7
100
AcDbEllipse
 10
-40.1900441706338
 20
170.4272654333982
 30
0.0
 11
1.011928851156425
 21
-1.239354670865916
 31
0.0000000000000001
210
-0.0000000000000001
220
0.0
230
1.0
 40
0.8164965809539349
 41
2.356194490256571
 42
3.141592653589786
  0
LINE
  5
26F
330
220
100
AcDbEntity
  8
0
  6
Continuous
 62
     7
100
AcDbLine
 10
-14.78831194619717
 20
166.7027520424016
 30
0.0
 11
-40.19004417058789
 21
171.8878589201158
 31
0.0
  0
LINE
  5
270
330
220
100
AcDbEntity
  8
0
  6
Continuous
 62
     9
100
AcDbLine
 10
-39.83227329418794
 20
172.179977617405
 30
0.0
 11
-40.19004417058789
 21
171.8878589201158
 31
0.0
  0
LINE
  5
271
330
220
100
AcDbEntity
  8
0
  6
Continuous
 62
     7
100
AcDbLine
 10
-14.43054106979718
 20
166.9948707396908
 30
0.0
 11
-39.83227329418794
 21
172.179977617405
 31
0.0
  0
ELLIPSE
  5
272
330
220
100
AcDbEntity
  8
0
  6
Continuous
 62
     7
100
AcDbEllipse
 10
-39.83227329423384
 20
170.7193841306874
 30
0.0
 11
-1.011928851156452
 21
1.23935467086597
 31
0.0
210
0.0
220
0.0
230
0.9999999999999996
 40
0.8164965809539335
 41
5.497787143846343
 42
6.283185307179585
  0
ELLIPSE
  5
273
330
220
100
AcDbEntity
  8
0
  6
Continuous
 62
     7
100
AcDbEllipse
 10
-40.1900441706338
 20
170.4272654333982
 30
0.0
 11
1.011928851156425
 21
-1.239354670865916
 31
0.0
210
0.0
220
0.0
230
1.0
 40
0.8164965809539335
 41
3.141592653589786
 42
3.674310561530888
  0
LINE
  5
274
330
220
100
AcDbEntity
  8
0
  6
Continuous
 62
     7
100
AcDbLine
 10
-12.28391581133281
 20
165.0960992075403
 30
0.0
 11
-14.43054106973157
 21
163.3433870238059
 31
0.0
  0
LINE
  5
275
330
220
100
AcDbEntity
  8
0
  6
Continuous
 62
     7
100
AcDbLine
 10
-14.43054106973157
 20
163.3433870238059
 30
0.0
 11
-50.20762870971046
 21
170.6463544572045
 31
0.0
  0
ELLIPSE
  5
276
330
220
100
AcDbEntity
  8
0
  6
Continuous
 62
     7
100
AcDbEllipse
 10
-50.56539958611022
 20
170.3542357599154
 30
0.0
 11
-0.8000000000000229
 21
0.0000000000251743
 31
0.0
210
0.0
220
0.0000000000000001
230
1.0
 40
0.4082482904114452
 41
4.248741371396738
 42
5.819537698191642
  0
LINE
  5
277
330
220
100
AcDbEntity
  8
0
  6
Continuous
 62
     7
100
AcDbLine
 10
-51.28094133890982
 20
170.5002951085834
 30
0.0
 11
-51.4598267771097
 21
170.3542357599388
 31
0.0
  0
ELLIPSE
  5
278
330
220
100
AcDbEntity
  8
0
  6
Continuous
 62
     7
100
AcDbEllipse
 10
-56.82638992310657
 20
171.4496808749486
 30
0.0
 11
6.000000000000004
 21
-0.0000000001886824
 31
0.0
210
0.0
220
0.0
230
1.0
 40
0.4082482904114489
 41
3.141592653589788
 42
5.819537698191617
  0
LINE
  5
279
330
220
100
AcDbEntity
  8
0
  6
Continuous
 62
     7
100
AcDbLine
 10
-53.62798913575767
 20
173.5354228352948
 30
0.0
 11
-12.28391581133281
 21
165.0960992075403
 31
0.0
  0
LINE
  5
27A
330
220
100
AcDbEntity
  8
0
  6
Continuous
 62
     7
100
AcDbLine
 10
-14.43054106973157
 20
163.3433870238059
 30
0.0
 11
-14.43054107087987
 21
126.8285498558572
 31
0.0
  0
LINE
  5
27B
330
220
100
AcDbEntity
  8
0
  6
Continuous
 62
     7
100
AcDbLine
 10
-12.28391581133281
 20
165.0960992075403
 30
0.0
 11
-12.28391581248117
 21
128.5812620395916
 31
0.0
  0
LINE
  5
27C
330
220
100
AcDbEntity
  8
0
  6
Continuous
 62
     7
100
AcDbLine
 10
-12.28391581248117
 20
128.5812620395916
 30
0.0
 11
-14.43054107087987
 21
126.8285498558572
 31
0.0
  0
LINE
  5
27D
330
220
100
AcDbEntity
  8
0
  6
Continuous
 62
     7
100
AcDbLine
 10
-14.43054107087987
 20
126.8285498558572
 30
0.0
 11
-50.20762871085875
 21
134.1315172892558
 31
0.0
  0
LINE
  5
27E
330
220
100
AcDbEntity
  8
0
  6
Continuous
 62
     9
100
AcDbLine
 10
-50.2076287105832
 20
142.8950782095635
 30
0.0
 11
-50.20762871085875
 21
134.1315172892557
 31
0.0
  0
LINE
  5
27F
330
220
100
AcDbEntity
  8
0
  6
Continuous
 62
     7
100
AcDbLine
 10
-50.2076287105832
 20
142.8950782095635
 30
0.0
 11
-49.49208695778361
 21
142.7490188608955
 31
0.0
  0
LINE
  5
280
330
220
100
AcDbEntity
  8
0
  6
Continuous
 62
     7
100
AcDbLine
 10
-49.49208695778361
 20
142.7490188608955
 30
0.0
 11
-49.49208695718649
 21
161.7367341882288
 31
0.0
  0
LINE
  5
281
330
220
100
AcDbEntity
  8
0
  6
Continuous
 62
     7
100
AcDbLine
 10
-50.20762870998602
 20
161.8827935368968
 30
0.0
 11
-49.49208695718649
 21
161.7367341882288
 31
0.0
  0
LINE
  5
282
330
220
100
AcDbEntity
  8
0
  6
Continuous
 62
     9
100
AcDbLine
 10
-50.20762870971046
 20
170.6463544572045
 30
0.0
 11
-50.20762870998602
 21
161.8827935368968
 31
0.0
  0
ELLIPSE
  5
283
330
220
100
AcDbEntity
  8
0
  6
Continuous
 62
     7
100
AcDbEllipse
 10
-56.82638992310657
 20
171.4496808749486
 30
0.0
 11
6.000000000000004
 21
-0.0000000001887102
 31
-0.0000000000000003
210
0.0000000000000001
220
0.0000000000000001
230
1.0
 40
0.4082482904114489
 41
2.145018869432524
 42
3.141592653589792
  0
ELLIPSE
  5
284
330
220
100
AcDbEntity
  8
0
  6
Continuous
 62
     7
100
AcDbEllipse
 10
-56.82638992338212
 20
162.6861199546409
 30
0.0
 11
-6.000000000000004
 21
0.0000000001887102
 31
0.0000000000000003
210
0.0000000000000001
220
0.0000000000000001
230
1.0
 40
0.408248290411449
 41
0.0000000000000023
 42
2.677945044601832
  0
LINE
  5
285
330
220
100
AcDbEntity
  8
0
  6
Continuous
 62
     9
100
AcDbLine
 10
-51.4598267771097
 20
170.3542357599388
 30
0.0
 11
-51.45982677738531
 21
161.5906748396312
 31
0.0
  0
LINE
  5
286
330
220
100
AcDbEntity
  8
0
  6
Continuous
 62
     9
100
AcDbLine
 10
-51.28094133890982
 20
170.5002951085834
 30
0.0
 11
-51.28094133918541
 21
161.7367341882756
 31
0.0
  0
LINE
  5
287
330
220
100
AcDbEntity
  8
0
  6
Continuous
 62
     7
100
AcDbLine
 10
-51.45982677738531
 20
161.5906748396312
 30
0.0
 11
-51.28094133918541
 21
161.7367341882756
 31
0.0
  0
ELLIPSE
  5
288
330
220
100
AcDbEntity
  8
0
  6
Continuous
 62
     7
100
AcDbEllipse
 10
-50.56539958638584
 20
161.5906748396078
 30
0.0
 11
0.8000000000000229
 21
-0.0000000000251466
 31
0.0
210
0.0
220
0.0
230
1.0
 40
0.4082482904114489
 41
1.107148717806875
 42
2.677945044601881
  0
ELLIPSE
  5
289
330
220
100
AcDbEntity
  8
0
  6
Continuous
 62
     7
100
AcDbEllipse
 10
-50.56539958698296
 20
142.6029595122744
 30
0.0
 11
0.8000000000000229
 21
-0.0000000000251466
 31
0.0
210
0.0
220
0.0
230
1.0
 40
0.4082482904114489
 41
1.107148717806899
 42
2.677945044601808
  0
LINE
  5
28A
330
220
100
AcDbEntity
  8
0
  6
Continuous
 62
     7
100
AcDbLine
 10
-51.45982677798244
 20
142.6029595122978
 30
0.0
 11
-51.28094133978255
 21
142.7490188609423
 31
0.0
  0
ELLIPSE
  5
28B
330
220
100
AcDbEntity
  8
0
  6
Continuous
 62
     7
100
AcDbEllipse
 10
-56.82638992397931
 20
143.6984046273076
 30
0.0
 11
-6.000000000000004
 21
0.0000000001886824
 31
0.0
210
0.0
220
0.0000000000000001
230
1.0
 40
0.408248290411449
 41
6.020895618786461
 42
6.283185307179588
  0
LINE
  5
28C
330
220
100
AcDbEntity
  8
0
  6
Continuous
 62
     7
100
AcDbLine
 10
-49.49208695771472
 20
144.9399090906196
 30
0.0
 11
-50.82638992368766
 21
145.2122725430294
 31
0.0
  0
ELLIPSE
  5
28D
330
220
100
AcDbEntity
  8
0
  6
Continuous
 62
     7
100
AcDbEllipse
 10
-56.82638992397931
 20
143.6984046273076
 30
0.0
 11
-6.000000000000004
 21
0.0000000001887102
 31
0.0000000000000003
210
0.0000000000000001
220
0.0000000000000001
230
1.0
 40
0.408248290411449
 41
6.283185307179584
 42
8.961130351781418
  0
LINE
  5
28E
330
220
100
AcDbEntity
  8
0
  6
Continuous
 62
     9
100
AcDbLine
 10
-51.45982677798244
 20
142.6029595122978
 30
0.0
 11
-51.45982677825807
 21
133.8393985919902
 31
0.0
  0
ELLIPSE
  5
28F
330
220
100
AcDbEntity
  8
0
  6
Continuous
 62
     7
100
AcDbEllipse
 10
-56.82638992425487
 20
134.934843707
 30
0.0
 11
6.000000000000004
 21
-0.0000000001886824
 31
0.0
210
0.0
220
0.0
230
1.0
 40
0.4082482904114489
 41
3.141592653589796
 42
5.819537698191611
  0
LINE
  5
290
330
220
100
AcDbEntity
  8
0
  6
Continuous
 62
     9
100
AcDbLine
 10
-51.28094133978255
 20
142.7490188609424
 30
0.0
 11
-51.28094134005817
 21
133.9854579406347
 31
0.0
  0
LINE
  5
291
330
220
100
AcDbEntity
  8
0
  6
Continuous
 62
     7
100
AcDbLine
 10
-51.28094134005817
 20
133.9854579406347
 30
0.0
 11
-51.45982677825807
 21
133.8393985919902
 31
0.0
  0
ELLIPSE
  5
292
330
220
100
AcDbEntity
  8
0
  6
Continuous
 62
     7
100
AcDbEllipse
 10
-50.56539958725853
 20
133.8393985919667
 30
0.0
 11
-0.8000000000000229
 21
0.0000000000251743
 31
0.0
210
0.0
220
0.0000000000000001
230
1.0
 40
0.4082482904114452
 41
4.248741371396836
 42
5.819537698191667
  0
ELLIPSE
  5
293
330
220
100
AcDbEntity
  8
0
  6
Continuous
 62
     7
100
AcDbEllipse
 10
-56.82638992396322
 20
144.209612347659
 30
0.0
 11
-5.800000000000027
 21
0.0000000001824096
 31
0.0000000000000003
210
0.0000000000000001
220
0.0000000000000001
230
1.0
 40
0.408248290411449
 41
6.283185307179584
 42
7.390334024986522
  0
ELLIPSE
  5
294
330
220
100
AcDbEntity
  8
0
  6
Continuous
 62
     7
100
AcDbEllipse
 10
-56.82638992396322
 20
144.209612347659
 30
0.0
 11
-5.800000000000027
 21
0.0000000001824096
 31
0.0
210
0.0
220
0.0
230
1.0
 40
0.408248290411449
 41
1.107148717806935
 42
3.141592653589797
  0
ELLIPSE
  5
295
330
220
100
AcDbEntity
  8
0
  6
Continuous
 62
     7
100
AcDbEllipse
 10
-56.82638992393336
 20
161.2255264675105
 30
0.0
 11
5.800000000000027
 21
0.0000000001824096
 31
0.0000000000000003
210
-0.0000000000000001
220
0.0
230
1.0
 40
0.408248290516277
 41
3.141592653589797
 42
6.28318530717959
  0
ELLIPSE
  5
296
330
220
100
AcDbEntity
  8
0
  6
Continuous
 62
     7
100
AcDbEllipse
 10
-56.82638992396322
 20
162.1749122338284
 30
0.0
 11
5.800000000000027
 21
0.0000000001823819
 31
0.0000000000000001
210
0.0
220
0.0
230
1.0
 40
0.4082482905162772
 41
4.405821004050534
 42
6.140835884949802
  0
ELLIPSE
  5
297
330
220
100
AcDbEntity
  8
0
  6
Continuous
 62
     7
100
AcDbEllipse
 10
-56.82638992396322
 20
162.1749122338284
 30
0.0
 11
5.800000000000027
 21
0.0000000001824096
 31
0.0
210
0.0
220
0.0000000000000001
230
1.0
 40
0.4082482905162785
 41
4.104330156413768
 42
4.405821004050531
  0
ELLIPSE
  5
298
330
220
100
AcDbEntity
  8
0
  6
Continuous
 62
     7
100
AcDbEllipse
 10
-56.82638992396322
 20
162.1749122338284
 30
0.0
 11
5.800000000000027
 21
0.0000000001823819
 31
0.0
210
0.0
220
0.0
230
1.0
 40
0.4082482905162756
 41
3.196144517219083
 42
4.104330156413763
  0
ELLIPSE
  5
299
330
220
100
AcDbEntity
  8
0
  6
Continuous
 62
     7
100
AcDbEllipse
 10
-62.01406763149492
 20
173.421482081491
 30
0.0
 11
-1.011928851253895
 21
1.239354670786396
 31
-0.0000000000000001
210
-0.0000000000000001
220
0.0
230
1.0
 40
0.8164965809277259
 41
4.079207887044101
 42
4.649725064791851
  0
LINE
  5
29A
330
220
100
AcDbEntity
  8
0
  6
Continuous
 62
     9
100
AcDbLine
 10
-61.6562967548005
 20
176.2696393807562
 30
0.0
 11
-61.2985258784005
 21
176.5617580780923
 31
0.0
  0
ELLIPSE
  5
29B
330
220
100
AcDbEntity
  8
0
  6
Continuous
 62
     7
100
AcDbEllipse
 10
-61.2985258784005
 20
175.1011645914123
 30
0.0
 11
-1.011928851253875
 21
1.239354670786367
 31
0.0
210
0.0
220
0.0
230
1.0
 40
0.8164965809277259
 41
3.926990816987214
 42
5.497787143782121
  0
LINE
  5
29C
330
220
100
AcDbEntity
  8
0
  6
Continuous
 62
     9
100
AcDbLine
 10
-59.86744237280117
 20
174.8090458940763
 30
0.0
 11
-60.22521324920109
 21
174.5169271967403
 31
0.0
  0
ELLIPSE
  5
29D
330
220
100
AcDbEntity
  8
0
  6
Continuous
 62
     7
100
AcDbEllipse
 10
-61.6562967548005
 20
174.8090458940762
 30
0.0
 11
1.011928851253889
 21
-1.239354670786396
 31
0.0
210
0.0
220
0.0
230
1.0
 40
0.816496580927726
 41
0.7853981633974447
 42
2.356194490192338
  0
ELLIPSE
  5
29E
330
220
100
AcDbEntity
  8
0
  6
Continuous
 62
     7
100
AcDbEllipse
 10
-87.05802897918907
 20
179.9941527717899
 30
0.0
 11
1.011928851253868
 21
-1.23935467078634
 31
0.0
210
0.0
220
0.0
230
0.9999999999999998
 40
0.8164965809277259
 41
2.356194490192359
 42
3.141592653589818
  0
LINE
  5
29F
330
220
100
AcDbEntity
  8
0
  6
Continuous
 62
     7
100
AcDbLine
 10
-61.6562967548005
 20
176.2696393807562
 30
0.0
 11
-87.05802897918907
 21
181.4547462584699
 31
0.0
  0
LINE
  5
2A0
330
220
100
AcDbEntity
  8
0
  6
Continuous
 62
     7
100
AcDbLine
 10
-60.22521324920109
 20
173.4682612339027
 30
0.0
 11
-60.22521324920109
 21
174.5169271967403
 31
0.0
  0
LINE
  5
2A1
330
220
100
AcDbEntity
  8
0
  6
Continuous
 62
     7
100
AcDbLine
 10
-59.86744237280117
 20
173.6052728162595
 30
0.0
 11
-59.86744237280117
 21
174.8090458940763
 31
0.0
  0
LINE
  5
2A2
330
220
100
AcDbEntity
  8
0
  6
Continuous
 62
     9
100
AcDbLine
 10
-86.70025810278913
 20
181.746864955806
 30
0.0
 11
-87.05802897918907
 21
181.4547462584699
 31
0.0
  0
LINE
  5
2A3
330
220
100
AcDbEntity
  8
0
  6
Continuous
 62
     7
100
AcDbLine
 10
-61.2985258784005
 20
176.5617580780923
 30
0.0
 11
-86.70025810278913
 21
181.746864955806
 31
0.0
  0
ELLIPSE
  5
2A4
330
220
100
AcDbEntity
  8
0
  6
Continuous
 62
     7
100
AcDbEllipse
 10
-86.70025810278913
 20
180.286271469126
 30
0.0
 11
-1.011928851253868
 21
1.23935467078634
 31
-0.0000000000000001
210
-0.0000000000000001
220
0.0
230
0.9999999999999998
 40
0.8164965809277264
 41
5.497787143782153
 42
6.28318530717958
  0
ELLIPSE
  5
2A5
330
220
100
AcDbEntity
  8
0
  6
Continuous
 62
     7
100
AcDbEllipse
 10
-87.05802897918907
 20
179.9941527717899
 30
0.0
 11
1.011928851253868
 21
-1.23935467078634
 31
0.0000000000000001
210
-0.0000000000000001
220
0.0
230
0.9999999999999998
 40
0.8164965809277264
 41
3.141592653589818
 42
3.674310562053995
  0
ELLIPSE
  5
2A6
330
220
100
AcDbEntity
  8
0
  6
Continuous
 62
     7
100
AcDbEllipse
 10
-56.82638992417849
 20
133.9854579406507
 30
0.0
 11
4.240000000000021
 21
-0.000000000236422
 31
0.0000000000000001
210
0.0
220
0.0
230
1.0
 40
0.4082482900559416
 41
3.835654662597038
 42
5.589123298463726
  0
ELLIPSE
  5
2A7
330
220
100
AcDbEntity
  8
0
  6
Continuous
 62
     7
100
AcDbEllipse
 10
-56.82638992607208
 20
172.3990666408228
 30
0.0
 11
-4.239999999999966
 21
-0.0000000006690204
 31
0.0000000000000001
210
0.0
220
0.0000000000000001
230
1.0
 40
0.4082482908337447
 41
5.819537697635161
 42
7.847536397365572
  0
ELLIPSE
  5
2A8
330
220
100
AcDbEntity
  8
0
  6
Continuous
 62
     7
100
AcDbEllipse
 10
-56.82638992607208
 20
172.3990666408228
 30
0.0
 11
-4.239999999999966
 21
-0.0000000006690204
 31
0.0000000000000001
210
0.0
220
0.0000000000000001
230
1.0
 40
0.4082482908337444
 41
3.605240263134213
 42
5.81953769763516
  0
ELLIPSE
  5
2A9
330
220
100
AcDbEntity
  8
0
  6
Continuous
 62
     7
100
AcDbEllipse
 10
-56.82638992599136
 20
171.8878589205773
 30
0.0
 11
4.799999999999969
 21
0.0000000007573941
 31
-0.0000000000000003
210
0.0000000000000001
220
0.0
230
1.0
 40
0.4082482908337452
 41
0.000000000000003
 42
0.46364760954442
  0
ELLIPSE
  5
2AA
330
220
100
AcDbEntity
  8
0
  6
Continuous
 62
     7
100
AcDbEllipse
 10
-56.82638992607208
 20
172.3990666408228
 30
0.0
 11
-4.239999999999966
 21
-0.0000000006690204
 31
0.0000000000000004
210
0.0000000000000001
220
0.0000000000000001
230
1.0
 40
0.4082482908337435
 41
1.564351090185982
 42
3.605240263134213
  0
ELLIPSE
  5
2AB
330
220
100
AcDbEntity
  8
0
  6
Continuous
 62
     7
100
AcDbEllipse
 10
-56.82638992599136
 20
171.8878589205773
 30
0.0
 11
4.799999999999969
 21
0.0000000007573941
 31
-0.0000000000000002
210
0.0
220
0.0
230
1.0
 40
0.4082482908337435
 41
3.14159265358979
 42
4.705943743775761
  0
ELLIPSE
  5
2AC
330
220
100
AcDbEntity
  8
0
  6
Continuous
 62
     7
100
AcDbEllipse
 10
-56.82638992592226
 20
171.4496808746526
 30
0.0
 11
-4.799999999999969
 21
-0.0000000007573941
 31
0.0000000000000002
210
0.0
220
0.0000000000000001
230
1.0
 40
0.4082482908337444
 41
0.0000000000000087
 42
1.564351090185965
  0
ELLIPSE
  5
2AD
330
220
100
AcDbEntity
  8
0
  6
Continuous
 62
     7
100
AcDbEllipse
 10
-56.82638992599136
 20
171.8878589205773
 30
0.0
 11
4.799999999999969
 21
0.0000000007573941
 31
0.0
210
0.0
220
0.0
230
1.0
 40
0.4082482908337444
 41
4.705943743775761
 42
6.283185307179585
  0
ELLIPSE
  5
2AE
330
220
100
AcDbEntity
  8
0
  6
Continuous
 62
     7
100
AcDbEllipse
 10
-56.82638992599136
 20
171.8878589205773
 30
0.0
 11
4.799999999999969
 21
0.0000000007573941
 31
-0.0000000000000002
210
0.0
220
0.0000000000000001
230
1.0
 40
0.4082482908337444
 41
2.677945044045376
 42
3.14159265358979
  0
ELLIPSE
  5
2AF
330
220
100
AcDbEntity
  8
0
  6
Continuous
 62
     7
100
AcDbEllipse
 10
-56.82638992592226
 20
171.4496808746526
 30
0.0
 11
-4.799999999999969
 21
-0.0000000007573941
 31
0.0000000000000001
210
0.0
220
0.0000000000000001
230
1.0
 40
0.4082482908337458
 41
1.564351090185977
 42
3.141592653589778
  0
LINE
  5
2B0
330
220
100
AcDbEntity
  8
0
  6
Continuous
 62
     7
100
AcDbLine
 10
-59.15190061999603
 20
173.8464550953569
 30
0.0
 11
-59.15190061999603
 21
176.4887284037597
 31
0.0
  0
LINE
  5
2B1
330
220
100
AcDbEntity
  8
0
  6
Continuous
 62
     7
100
AcDbLine
 10
-59.15190061999603
 20
176.4887284037597
 30
0.0
 11
-59.06245790089598
 21
176.5617580780937
 31
0.0
  0
LINE
  5
2B2
330
220
100
AcDbEntity
  8
0
  6
Continuous
 62
     7
100
AcDbLine
 10
-59.06245790089598
 20
173.8697580898978
 30
0.0
 11
-59.06245790089598
 21
176.5617580780937
 31
0.0
  0
LINE
  5
2B3
330
220
100
AcDbEntity
  8
0
  6
Continuous
 62
     7
100
AcDbLine
 10
-88.90064120409212
 20
182.5611646472148
 30
0.0
 11
-59.15190061999603
 21
176.4887284037597
 31
0.0
  0
LINE
  5
2B4
330
220
100
AcDbEntity
  8
0
  6
Continuous
 62
     7
100
AcDbLine
 10
-88.97259275552549
 20
183.0505445798429
 30
0.0
 11
-88.90064120409212
 21
182.5611646472148
 31
0.0
  0
LINE
  5
2B5
330
220
100
AcDbEntity
  8
0
  6
Continuous
 62
     7
100
AcDbLine
 10
-59.06245790089598
 20
176.5617580780937
 30
0.0
 11
-59.40188140275681
 21
176.9774652712276
 31
0.0
  0
LINE
  5
2B6
330
220
100
AcDbEntity
  8
0
  6
Continuous
 62
     7
100
AcDbLine
 10
-88.90064120409212
 20
180.7354227885668
 30
0.0
 11
-88.90064120409212
 21
182.5611646472148
 31
0.0
  0
LINE
  5
2B7
330
220
100
AcDbEntity
  8
0
  6
Continuous
 62
     7
100
AcDbLine
 10
-89.13310006231318
 20
180.7828732543028
 30
0.0
 11
-89.13310006231318
 21
183.0833079966444
 31
0.0
  0
ELLIPSE
  5
2B8
330
220
100
AcDbEntity
  8
0
  6
Continuous
 62
     7
100
AcDbEllipse
 10
-56.8263899236876
 20
145.1589981142262
 30
0.0
 11
-6.000000000000004
 21
0.0
 31
0.0
210
0.0
220
0.0
230
1.0
 40
0.408248290463863
 41
0.0
 42
0.9623152220567233
  0
ELLIPSE
  5
2B9
330
220
100
AcDbEntity
  8
0
  6
Continuous
 62
     7
100
AcDbEllipse
 10
-56.8263899236876
 20
145.1589981142262
 30
0.0
 11
-6.000000000000004
 21
0.0
 31
0.0
210
0.0
220
0.0
230
1.0
 40
0.4082482904638631
 41
0.9623152220567231
 42
1.112137223831505
  0
ELLIPSE
  5
2BA
330
220
100
AcDbEntity
  8
0
  6
Continuous
 62
     7
100
AcDbEllipse
 10
-56.8263899236876
 20
145.1589981142262
 30
0.0
 11
-6.000000000000004
 21
0.0
 31
0.0
210
0.0
220
0.0
230
1.0
 40
0.4082482904638631
 41
1.112137223831505
 42
1.264228350473573
  0
ELLIPSE
  5
2BB
330
220
100
AcDbEntity
  8
0
  6
Continuous
 62
     7
100
AcDbEllipse
 10
-56.8263899236876
 20
145.1589981142262
 30
0.0
 11
-6.000000000000004
 21
0.0
 31
0.0
210
0.0
220
0.0
230
1.0
 40
0.4082482904638631
 41
1.264228350473574
 42
3.141592653589792
  0
ELLIPSE
  5
2BC
330
220
100
AcDbEntity
  8
0
  6
Continuous
 62
     7
100
AcDbEllipse
 10
-56.8263899236876
 20
161.2255264677111
 30
0.0
 11
-6.000000000000004
 21
0.0
 31
0.0
210
0.0
220
0.0
230
1.0
 40
0.408248290463863
 41
3.141592653589792
 42
3.400514195768816
  0
ELLIPSE
  5
2BD
330
220
100
AcDbEntity
  8
0
  6
Continuous
 62
     7
100
AcDbEllipse
 10
-56.8263899236876
 20
161.2255264677111
 30
0.0
 11
-6.000000000000004
 21
0.0
 31
0.0
210
0.0
220
0.0
230
1.0
 40
0.408248290463863
 41
0.0
 42
3.141592653589792
  0
ELLIPSE
  5
2BE
330
220
100
AcDbEntity
  8
0
  6
Continuous
 62
     7
100
AcDbEllipse
 10
-56.8263899236876
 20
161.2255264677111
 30
0.0
 11
-6.000000000000004
 21
0.0
 31
0.0
210
0.0
220
0.0
230
1.0
 40
0.4082482904638633
 41
6.02426376534617
 42
6.283185307179585
  0
LINE
  5
2BF
330
220
100
AcDbEntity
  8
0
  6
Continuous
 62
     7
100
AcDbLine
 10
-63.087380260687
 20
163.0512683260617
 30
0.0
 11
-62.82638992336936
 21
162.997993896543
 31
0.0
  0
LINE
  5
2C0
330
220
100
AcDbEntity
  8
0
  6
Continuous
 62
     7
100
AcDbLine
 10
-62.82638992336103
 20
163.2643660441436
 30
0.0
 11
-63.087380260687
 21
163.0512683260617
 31
0.0
  0
LINE
  5
2C1
330
220
100
AcDbEntity
  8
0
  6
Continuous
 62
     7
100
AcDbLine
 10
-63.087380260687
 20
146.9847399725768
 30
0.0
 11
-62.8263899236876
 21
146.931465543123
 31
0.0
  0
LINE
  5
2C2
330
220
100
AcDbEntity
  8
0
  6
Continuous
 62
     7
100
AcDbLine
 10
-63.087380260687
 20
136.7605855658138
 30
0.0
 11
-63.087380260687
 21
146.9847399725768
 31
0.0
  0
LINE
  5
2C3
330
220
100
AcDbEntity
  8
0
  6
Continuous
 62
     7
100
AcDbLine
 10
-98.14892614788371
 20
143.9174936505479
 30
0.0
 11
-63.087380260687
 21
136.7605855658138
 31
0.0
  0
LINE
  5
2C4
330
220
100
AcDbEntity
  8
0
  6
Continuous
 62
     7
100
AcDbLine
 10
-98.14892614788371
 20
143.9174936505479
 30
0.0
 11
-98.14892614788371
 21
180.432330817559
 31
0.0
  0
LINE
  5
2C5
330
220
100
AcDbEntity
  8
0
  6
Continuous
 62
     7
100
AcDbLine
 10
-98.14892614788371
 20
180.432330817559
 30
0.0
 11
-63.087380260687
 21
173.2754227328248
 31
0.0
  0
LINE
  5
2C6
330
220
100
AcDbEntity
  8
0
  6
Continuous
 62
     7
100
AcDbLine
 10
-63.087380260687
 20
173.2754227328248
 30
0.0
 11
-63.087380260687
 21
163.0512683260617
 31
0.0
  0
LINE
  5
2C7
330
220
100
AcDbEntity
  8
0
  6
Continuous
 62
     7
100
AcDbLine
 10
-63.087380260687
 20
173.2754227328248
 30
0.0
 11
-60.94075500228725
 21
175.0281349168413
 31
0.0
  0
LINE
  5
2C8
330
220
100
AcDbEntity
  8
0
  6
Continuous
 62
     7
100
AcDbLine
 10
-60.94075500228725
 20
173.2325624373167
 30
0.0
 11
-60.94075500228725
 21
175.0281349168413
 31
0.0
  0
LINE
  5
2C9
330
220
100
AcDbEntity
  8
0
  6
Continuous
 62
     7
100
AcDbLine
 10
-96.00230088948393
 20
182.1850430015755
 30
0.0
 11
-98.14892614788371
 21
180.432330817559
 31
0.0
  0
LINE
  5
2CA
330
220
100
AcDbEntity
  8
0
  6
Continuous
 62
     7
100
AcDbLine
 10
-60.94075500228725
 20
175.0281349168413
 30
0.0
 11
-96.00230088948393
 21
182.1850430015755
 31
0.0
  0
LINE
  5
2CB
330
220
100
AcDbEntity
  8
0
  6
Continuous
 62
     7
100
AcDbLine
 10
-62.82638992418782
 20
136.9736832832205
 30
0.0
 11
-63.087380260687
 21
136.7605855658138
 31
0.0
  0
LINE
  5
2CC
330
220
100
AcDbEntity
  8
0
  6
Continuous
 62
     7
100
AcDbLine
 10
-40.84420214539003
 20
171.958738801553
 30
0.0
 11
-41.20197302179001
 21
171.6666201042638
 31
0.0
  0
LINE
  5
2CD
330
220
100
AcDbEntity
  8
0
  6
Continuous
 62
     7
100
AcDbLine
 10
-62.82638992310356
 20
171.4496808751373
 30
0.0
 11
-62.82638992337918
 21
162.6861199548297
 31
0.0
  0
LINE
  5
2CE
330
220
100
AcDbEntity
  8
0
  6
Continuous
 62
     7
100
AcDbLine
 10
-62.82638992397632
 20
143.6984046274963
 30
0.0
 11
-62.82638992425193
 21
134.9348437071886
 31
0.0
  0
LINE
  5
2CF
330
220
100
AcDbEntity
  8
0
  6
Continuous
 62
     7
100
AcDbLine
 10
-62.62638992395308
 20
144.5318351905611
 30
0.0
 11
-62.62638992396325
 21
144.2096123478414
 31
0.0
  0
LINE
  5
2D0
330
220
100
AcDbEntity
  8
0
  6
Continuous
 62
     7
100
AcDbLine
 10
-51.02638992396318
 20
144.2096123474766
 30
0.0
 11
-51.02638992395307
 21
144.5318351897429
 31
0.0
  0
LINE
  5
2D1
330
220
100
AcDbEntity
  8
0
  6
Continuous
 62
     7
100
AcDbLine
 10
-51.02638992393332
 20
161.2255264676929
 30
0.0
 11
-51.0263899239532
 21
161.8575980210032
 31
0.0
  0
LINE
  5
2D2
330
220
100
AcDbEntity
  8
0
  6
Continuous
 62
     7
100
AcDbLine
 10
-62.62638992395958
 20
162.0589570316939
 30
0.0
 11
-62.62638992393338
 21
161.2255264673281
 31
0.0
  0
LINE
  5
2D3
330
220
100
AcDbEntity
  8
0
  6
Continuous
 62
     7
100
AcDbLine
 10
-87.71218695404266
 20
181.5256261399119
 30
0.0
 11
-88.06995783044262
 21
181.2335074425758
 31
0.0
  0
LINE
  5
2D4
330
220
100
AcDbEntity
  8
0
  6
Continuous
 62
     7
100
AcDbLine
 10
-52.53313941049704
 20
172.7642150150098
 30
0.0
 11
-53.03401863738539
 21
173.1731811909049
 31
0.0
  0
LINE
  5
2D5
330
220
100
AcDbEntity
  8
0
  6
Continuous
 62
     7
100
AcDbLine
 10
-60.61876121500303
 20
173.1731811897081
 30
0.0
 11
-61.11964044176232
 21
172.7642150136549
 31
0.0
  0
LINE
  5
2D6
330
220
100
AcDbEntity
  8
0
  6
Continuous
 62
     7
100
AcDbLine
 10
-61.6263899259914
 20
171.8878589198199
 30
0.0
 11
-61.62638992592222
 21
171.4496808738952
 31
0.0
  0
LINE
  5
2D7
330
220
100
AcDbEntity
  8
0
  6
Continuous
 62
     7
100
AcDbLine
 10
-52.02638992592229
 20
171.44968087541
 30
0.0
 11
-52.0263899259914
 21
171.8878589213347
 31
0.0
  0
LINE
  5
2D8
330
220
100
AcDbEntity
  8
0
  6
Continuous
 62
     7
100
AcDbLine
 10
-62.8263899236876
 20
161.2255264677111
 30
0.0
 11
-62.8263899236876
 21
145.1589981142262
 31
0.0
  0
LINE
  5
2D9
330
220
100
AcDbEntity
  8
0
  6
Continuous
 62
     7
100
AcDbLine
 10
-50.8263899236876
 20
145.1589981142262
 30
0.0
 11
-50.8263899236876
 21
161.2255264677111
 31
0.0
  0
ENDBLK
  5
2DA
330
220
100
AcDbEntity
  8
0
100
AcDbBlockEnd
  0
BLOCK
  5
2EB
330
2EA
100
AcDbEntity
  8
0
100
AcDbBlockBegin
  2
AID1871
 70
     0
 10
0.0
 20
0.0
 30
0.0
  3
AID1871
  1

  0
MTEXT
  5
2EC
330
2EA
100
AcDbEntity
  8
0
 62
     7
100
AcDbMText
 10
-122.1930402930403
 20
304.0
 30
0.0
 40
8.0
 41
40.19340659340659
 71
     7
 72
     1
  1
8655
 73
     1
 44
1.0
1001
ACAD
1000
MTEXTBEGIN
1070
    73
1070
     1
1070
    44
1040
1.0
1070
    74
1070
     0
1000
MTEXTEND
  0
ENDBLK
  5
2ED
330
2EA
100
AcDbEntity
  8
0
100
AcDbBlockEnd
  0
ENDSEC
  0
SECTION
  2
ENTITIES
  0
INSERT
  5
99
330
A
100
AcDbEntity
  8
0
100
AcDbBlockReference
  2
AID311
 10
230.0000000058778
 20
-223.0000000000521
 30
0.0
  0
LINE
  5
9B
330
A
100
AcDbEntity
  8
0
  6
CENTER
 62
     1
100
AcDbLine
 10
30.50000000589327
 20
-7.000000000481477
 30
0.0
 11
36.50000000589326
 21
-7.000000000481477
 31
0.0
  0
LINE
  5
9C
330
A
100
AcDbEntity
  8
0
  6
CENTER
 62
     1
100
AcDbLine
 10
33.50000000629463
 20
-15.80000000000008
 30
0.0
 11
33.49999999756237
 21
40.8000000000004
 31
0.0
  0
INSERT
  5
F3
330
A
100
AcDbEntity
  8
0
100
AcDbBlockReference
  2
AID615
 10
230.0000000058778
 20
-223.0000000000521
 30
0.0
  0
INSERT
  5
164
330
A
100
AcDbEntity
  8
0
100
AcDbBlockReference
  2
AID785
 10
230.0000000058778
 20
-223.0000000000521
 30
0.0
  0
INSERT
  5
1CF
330
A
100
AcDbEntity
  8
0
100
AcDbBlockReference
  2
AID1007
 10
230.0000000058778
 20
-223.0000000000521
 30
0.0
  0
INSERT
  5
21F
330
A
100
AcDbEntity
  8
0
100
AcDbBlockReference
  2
AID1217
 10
230.0000000058778
 20
-223.0000000000521
 30
0.0
  0
INSERT
  5
2DB
330
A
100
AcDbEntity
  8
0
100
AcDbBlockReference
  2
AID1373
 10
230.0000000058778
 20
-223.0000000000521
 30
0.0
  0
LINE
  5
2DC
330
A
100
AcDbEntity
  8
0
  6
CENTER
 62
     1
100
AcDbLine
 10
-78.89999999521619
 20
-0.0000000003531824
 30
0.0
 11
-64.3000004696891
 21
-0.0000000012904451
 31
0.0
  0
LINE
  5
2DD
330
A
100
AcDbEntity
  8
0
  6
CENTER
 62
     1
100
AcDbLine
 10
-78.89999999361127
 20
24.99999999964685
 30
0.0
 11
-64.30000046803939
 21
24.9999999987097
 31
0.0
  0
LINE
  5
2DE
330
A
100
AcDbEntity
  8
0
  6
CENTER
 62
     1
100
AcDbLine
 10
-84.39999999691314
 20
-15.80000000000008
 30
0.0
 11
-84.39999997300303
 21
40.8000000000004
 31
0.0
  0
LINE
  5
2DF
330
A
100
AcDbEntity
  8
0
  6
CENTER
 62
     1
100
AcDbLine
 10
24.00000000589121
 20
95.40000000191779
 30
0.0
 11
43.00000000589125
 21
95.40000000191779
 31
0.0
  0
LINE
  5
2E0
330
A
100
AcDbEntity
  8
0
  6
CENTER
 62
     1
100
AcDbLine
 10
33.50000000589121
 20
85.9000000019178
 30
0.0
 11
33.50000000589121
 21
104.9000000019178
 31
0.0
  0
LINE
  5
2E1
330
A
100
AcDbEntity
  8
0
  6
CENTER
 62
     1
100
AcDbLine
 10
0.0000000058912129
 20
89.90000000033219
 30
0.0
 11
0.0000000058912129
 21
75.29999999951404
 31
0.0
  0
LINE
  5
2E2
330
A
100
AcDbEntity
  8
0
  6
CENTER
 62
     1
100
AcDbLine
 10
67.00000000587464
 20
89.9000000010419
 30
0.0
 11
67.00000000587464
 21
75.30000047551481
 31
0.0
  0
LINE
  5
2E3
330
A
100
AcDbEntity
  8
0
  6
CENTER
 62
     1
100
AcDbLine
 10
153.4000000062621
 20
25.00000000000002
 30
0.0
 11
138.8000000054439
 21
25.00000000000002
 31
0.0
  0
LINE
  5
2E4
330
A
100
AcDbEntity
  8
0
  6
CENTER
 62
     1
100
AcDbLine
 10
153.4000000062621
 20
0.0000000000000142
 30
0.0
 11
138.800000005444
 21
0.0000000000000142
 31
0.0
  0
LINE
  5
2E5
330
A
100
AcDbEntity
  8
0
  6
CENTER
 62
     1
100
AcDbLine
 10
158.9000000086687
 20
-15.80000000000008
 30
0.0
 11
158.8999999847586
 21
40.8000000000004
 31
0.0
  0
LINE
  5
2E6
330
A
100
AcDbEntity
  8
0
  6
CENTER
 62
     1
100
AcDbLine
 10
24.00000000589121
 20
-65.39999999881224
 30
0.0
 11
43.00000000589125
 21
-65.39999999881224
 31
0.0
  0
LINE
  5
2E7
330
A
100
AcDbEntity
  8
0
  6
CENTER
 62
     1
100
AcDbLine
 10
33.50000000589121
 20
-74.89999999881225
 30
0.0
 11
33.50000000589121
 21
-55.89999999881225
 31
0.0
  0
LINE
  5
2E8
330
A
100
AcDbEntity
  8
0
  6
CENTER
 62
     1
100
AcDbLine
 10
67.00000000587461
 20
-59.89999999954112
 30
0.0
 11
67.00000000587461
 21
-45.30000047396923
 31
0.0
  0
LINE
  5
2E9
330
A
100
AcDbEntity
  8
0
  6
CENTER
 62
     1
100
AcDbLine
 10
0.0000000058911844
 20
-59.90000000043636
 30
0.0
 11
0.0000000058911844
 21
-45.29999999961815
 31
0.0
  0
INSERT
  5
2EE
330
A
100
AcDbEntity
  8
0
100
AcDbBlockReference
  2
AID1871
 10
230.0000000058778
 20
-223.0000000000521
 30
0.0
  0
LINE
  5
BC2
330
A
100
AcDbEntity
  8
0
  6
CENTER
 62
     1
370
     0
100
AcDbLine
 10
0.0000000062946306
 20
-15.80000000000008
 30
0.0
 11
-0.000000002437627
 21
40.8000000000004
 31
0.0
  0
CIRCLE
  5
BC8
330
A
100
AcDbEntity
  8
0
  6
CENTER
 62
     1
370
     0
100
AcDbCircle
 10
0.0
 20
25.0
 30
0.0
 40
9.0
  0
CIRCLE
  5
BC9
330
A
100
AcDbEntity
  8
0
  6
CENTER
 62
     1
370
     0
100
AcDbCircle
 10
0.0
 20
0.0
 30
0.0
 40
9.0
  0
LINE
  5
BCA
330
A
100
AcDbEntity
  8
0
  6
CENTER
 62
     1
370
     0
100
AcDbLine
 10
15.80000000000039
 20
25.00000000243763
 30
0.0
 11
-15.80000000000039
 21
24.99999999756238
 31
0.0
  0
LINE
  5
BCC
330
A
100
AcDbEntity
  8
0
  6
CENTER
 62
     1
370
     0
100
AcDbLine
 10
15.80000000000039
 20
0.000000002437627
 30
0.0
 11
-15.80000000000039
 21
-0.000000002437627
 31
0.0
  0
LINE
  5
BCD
330
A
100
AcDbEntity
  8
0
  6
CENTER
 62
     1
370
     0
100
AcDbLine
 10
66.99999998883011
 20
-15.80000000000008
 30
0.0
 11
66.99999999756236
 21
40.8000000000004
 31
0.0
  0
CIRCLE
  5
BCE
330
A
100
AcDbEntity
  8
0
  6
CENTER
 62
     1
370
     0
100
AcDbCircle
 10
66.99999999512474
 20
25.0
 30
0.0
 40
9.0
  0
CIRCLE
  5
BCF
330
A
100
AcDbEntity
  8
0
  6
CENTER
 62
     1
370
     0
100
AcDbCircle
 10
66.99999999512474
 20
0.0
 30
0.0
 40
9.0
  0
LINE
  5
BD0
330
A
100
AcDbEntity
  8
0
  6
CENTER
 62
     1
370
     0
100
AcDbLine
 10
51.19999999512433
 20
25.00000000243763
 30
0.0
 11
82.79999999512511
 21
24.99999999756238
 31
0.0
  0
LINE
  5
BD1
330
A
100
AcDbEntity
  8
0
  6
CENTER
 62
     1
370
     0
100
AcDbLine
 10
51.19999999512433
 20
0.000000002437627
 30
0.0
 11
82.79999999512511
 21
-0.000000002437627
 31
0.0
  0
ENDSEC
  0
SECTION
  2
OBJECTS
  0
DICTIONARY
  5
19
330
0
100
AcDbDictionary
281
     1
  3
ACAD_COLOR
350
B6A
  3
ACAD_GROUP
350
1A
  3
ACAD_LAYOUT
350
1E
  3
ACAD_MATERIAL
350
B40
  3
ACAD_MLEADERSTYLE
350
B8F
  3
ACAD_MLINESTYLE
350
1B
  3
ACAD_PLOTSETTINGS
350
22
  3
ACAD_PLOTSTYLENAME
350
1F
  3
ACAD_SCALELIST
350
B6D
  3
ACAD_TABLESTYLE
350
B6B
  3
ACAD_VISUALSTYLE
350
B59
  3
ACAD_WIPEOUT_VARS
350
23
  3
ACDB_RECOMPOSE_DATA
350
B9D
  3
AcDbVariableDictionary
350
B9E
  3
ASE_INDEX_DICTIONARY
350
B96
  3
DWGPROPS
350
C1C
  0
DICTIONARY
  5
B99
330
14
100
AcDbDictionary
280
     1
281
     1
  3
ADSK_XREC_LAYER_RECONCILED
360
B9A
  0
DICTIONARY
  5
BC5
330
A
100
AcDbDictionary
280
     1
281
     1
  3
ACAD_SORTENTS
360
BC6
  0
DICTIONARY
  5
B6A
102
{ACAD_REACTORS
330
19
102
}
330
19
100
AcDbDictionary
281
     1
  0
DICTIONARY
  5
1A
102
{ACAD_REACTORS
330
19
102
}
330
19
100
AcDbDictionary
281
     1
  0
DICTIONARY
  5
1E
102
{ACAD_REACTORS
330
19
102
}
330
19
100
AcDbDictionary
281
     1
  3
Layout1
350
21
  3
Model
350
20
  0
DICTIONARY
  5
B40
102
{ACAD_REACTORS
330
19
102
}
330
19
100
AcDbDictionary
281
     1
  3
ByBlock
350
B49
  3
ByLayer
350
B41
  3
Global
350
B51
  0
DICTIONARY
  5
B8F
102
{ACAD_REACTORS
330
19
102
}
330
19
100
AcDbDictionary
281
     1
  3
Standard
350
B90
  0
DICTIONARY
  5
1B
102
{ACAD_REACTORS
330
19
102
}
330
19
100
AcDbDictionary
281
     1
  3
Standard
350
1C
  0
DICTIONARY
  5
22
102
{ACAD_REACTORS
330
19
102
}
330
19
100
AcDbDictionary
281
     1
  0
ACDBDICTIONARYWDFLT
  5
1F
102
{ACAD_REACTORS
330
19
102
}
330
19
100
AcDbDictionary
281
     1
  3
Normal
350
1D
100
AcDbDictionaryWithDefault
340
1D
  0
DICTIONARY
  5
B6D
102
{ACAD_REACTORS
330
19
102
}
330
19
100
AcDbDictionary
281
     1
  3
A0
350
B6E
  3
A1
350
B6F
  3
A2
350
B70
  3
A3
350
B71
  3
A4
350
B72
  3
A5
350
B73
  3
A6
350
B74
  3
A7
350
B75
  3
A8
350
B76
  3
A9
350
B77
  3
B0
350
B78
  3
B1
350
B79
  3
B2
350
B7A
  3
B3
350
B7B
  3
B4
350
B7C
  3
B5
350
B7D
  3
B6
350
B7E
  3
B7
350
B7F
  3
B8
350
B80
  3
B9
350
B81
  3
C0
350
B82
  3
C1
350
B83
  3
C2
350
B84
  3
C3
350
B85
  3
C4
350
B86
  3
C5
350
B87
  3
C6
350
B88
  3
C7
350
B89
  3
C8
350
B8A
  3
C9
350
B8B
  3
D0
350
B8C
  3
D1
350
B8D
  3
D2
350
B8E
  0
DICTIONARY
  5
B6B
102
{ACAD_REACTORS
330
19
102
}
330
19
100
AcDbDictionary
281
     1
  3
Standard
350
B6C
  0
DICTIONARY
  5
B59
102
{ACAD_REACTORS
330
19
102
}
330
19
100
AcDbDictionary
281
     1
  3
2dWireframe
350
B5F
  3
3D Hidden
350
B61
  3
3dWireframe
350
B60
  3
Basic
350
B5E
  3
Brighten
350
B65
  3
ColorChange
350
B69
  3
Conceptual
350
B62
  3
Dim
350
B64
  3
Facepattern
350
B68
  3
Flat
350
B5A
  3
FlatWithEdges
350
B5B
  3
Gouraud
350
B5C
  3
GouraudWithEdges
350
B5D
  3
Linepattern
350
B67
  3
Realistic
350
B63
  3
Thicken
350
B66
  0
WIPEOUTVARIABLES
  5
23
330
19
100
AcDbWipeoutVariables
 70
     1
  0
XRECORD
  5
B9D
102
{ACAD_REACTORS
330
19
102
}
330
19
100
AcDbXrecord
280
     1
 90
        1
330
B6C
  0
DICTIONARY
  5
B9E
102
{ACAD_REACTORS
330
19
102
}
330
19
100
AcDbDictionary
281
     1
  3
CANNOSCALE
350
BA2
  3
CMLEADERSTYLE
350
BA0
  3
CTABLESTYLE
350
B9F
  3
DIMASSOC
350
BAC
  3
INDEXCTL
350
BAB
  3
LIGHTINGUNITS
350
BA3
  3
MSLTSCALE
350
BA1
  3
SORTENTS
350
BAA
  0
DICTIONARY
  5
B96
102
{ACAD_REACTORS
330
19
102
}
330
19
100
AcDbDictionary
281
     1
  3
ASEBlockHierarchyIndexRecord
350
B98
1001
DCO15
1040
1691736819.794
  0
XRECORD
  5
C1C
102
{ACAD_REACTORS
330
19
102
}
330
19
100
AcDbXrecord
280
     1
  1
DWGPROPS COOKIE
  2

  3

  4

  6

  7

  8
renzo.ceresoli
  9

300
=
301
=
302
=
303
=
304
=
305
=
306
=
307
=
308
=
309
=
 40
0.0037834837962963
 41
2455383.581053241
 42
2455383.563684792
  1

 90
        0
  0
XRECORD
  5
B9A
102
{ACAD_REACTORS
330
B99
102
}
330
B99
100
AcDbXrecord
280
     1
290
     1
  0
SORTENTSTABLE
  5
BC6
102
{ACAD_REACTORS
330
BC5
102
}
330
BC5
100
AcDbSortentsTable
330
A
331
2DC
  5
2DC
331
BC2
  5
BC2
331
21F
  5
21F
331
2E8
  5
2E8
331
2DF
  5
2DF
331
9B
  5
9B
331
2E4
  5
2E4
331
2E7
  5
2E7
331
2EE
  5
2EE
331
2E1
  5
2E1
331
2DD
  5
2DD
331
2E9
  5
2E9
331
99
  5
99
331
2E2
  5
2E2
331
2E5
  5
2E5
331
9C
  5
9C
331
1CF
  5
1CF
331
164
  5
164
331
2DE
  5
2DE
331
2E3
  5
2E3
331
F3
  5
F3
331
2E0
  5
2E0
331
2E6
  5
2E6
331
2DB
  5
2DB
  0
LAYOUT
  5
21
102
{ACAD_XDICTIONARY
360
C1F
102
}
102
{ACAD_REACTORS
330
1E
102
}
330
1E
100
AcDbPlotSettings
  1

  2

  4

  6

 40
0.0
 41
0.0
 42
0.0
 43
0.0
 44
0.0
 45
0.0
 46
0.0
 47
0.0
 48
0.0
 49
0.0
140
0.0
141
0.0
142
1.0
143
1.0
 70
     0
 72
     0
 73
     0
 74
     0
  7

 75
     0
147
1.0
148
0.0
149
0.0
100
AcDbLayout
  1
Layout1
 70
     0
 71
     1
 10
0.0
 20
0.0
 11
12.0
 21
9.0
 12
0.0
 22
0.0
 32
0.0
 14
1.000000000000000E+20
 24
1.000000000000000E+20
 34
1.000000000000000E+20
 15
-1.000000000000000E+20
 25
-1.000000000000000E+20
 35
-1.000000000000000E+20
146
0.0
 13
0.0
 23
0.0
 33
0.0
 16
1.0
 26
0.0
 36
0.0
 17
0.0
 27
1.0
 37
0.0
 76
     0
330
B
  0
LAYOUT
  5
20
102
{ACAD_XDICTIONARY
360
C1D
102
}
102
{ACAD_REACTORS
330
1E
102
}
330
1E
100
AcDbPlotSettings
  1

  2

  4

  6

 40
0.0
 41
0.0
 42
0.0
 43
0.0
 44
0.0
 45
0.0
 46
0.0
 47
0.0
 48
0.0
 49
0.0
140
0.0
141
0.0
142
1.0
143
1.0
 70
  1024
 72
     0
 73
     0
 74
     0
  7

 75
     0
147
1.0
148
0.0
149
0.0
100
AcDbLayout
  1
Model
 70
     0
 71
     0
 10
0.0
 20
0.0
 11
0.0
 21
0.0
 12
0.0
 22
0.0
 32
0.0
 14
0.0
 24
0.0
 34
0.0
 15
0.0
 25
0.0
 35
0.0
146
0.0
 13
0.0
 23
0.0
 33
0.0
 16
0.0
 26
0.0
 36
0.0
 17
0.0
 27
0.0
 37
0.0
 76
     0
330
A
331
15
  0
MATERIAL
  5
B49
102
{ACAD_XDICTIONARY
360
B4A
102
}
102
{ACAD_REACTORS
330
B40
102
}
330
B40
100
AcDbMaterial
  1
ByBlock
 72
     0
 43
0.0208333333333333
 43
0.0
 43
0.0
 43
0.0
 43
0.0
 43
0.0208333333333333
 43
0.0
 43
0.0
 43
0.0
 43
0.0
 43
1.0
 43
0.0
 43
0.0
 43
0.0
 43
0.0
 43
1.0
 77
     0
 47
0.0208333333333333
 47
0.0
 47
0.0
 47
0.0
 47
0.0
 47
0.0208333333333333
 47
0.0
 47
0.0
 47
0.0
 47
0.0
 47
1.0
 47
0.0
 47
0.0
 47
0.0
 47
0.0
 47
1.0
171
     0
 49
0.0208333333333333
 49
0.0
 49
0.0
 49
0.0
 49
0.0
 49
0.0208333333333333
 49
0.0
 49
0.0
 49
0.0
 49
0.0
 49
1.0
 49
0.0
 49
0.0
 49
0.0
 49
0.0
 49
1.0
175
     0
142
0.0208333333333333
142
0.0
142
0.0
142
0.0
142
0.0
142
0.0208333333333333
142
0.0
142
0.0
142
0.0
142
0.0
142
1.0
142
0.0
142
0.0
142
0.0
142
0.0
142
1.0
179
     0
144
0.0208333333333333
144
0.0
144
0.0
144
0.0
144
0.0
144
0.0208333333333333
144
0.0
144
0.0
144
0.0
144
0.0
144
1.0
144
0.0
144
0.0
144
0.0
144
0.0
144
1.0
147
0.0208333333333333
147
0.0
147
0.0
147
0.0
147
0.0
147
0.0208333333333333
147
0.0
147
0.0
147
0.0
147
0.0
147
1.0
147
0.0
147
0.0
147
0.0
147
0.0
147
1.0
  0
MATERIAL
  5
B41
102
{ACAD_XDICTIONARY
360
B42
102
}
102
{ACAD_REACTORS
330
B40
102
}
330
B40
100
AcDbMaterial
  1
ByLayer
 72
     0
 43
0.0208333333333333
 43
0.0
 43
0.0
 43
0.0
 43
0.0
 43
0.0208333333333333
 43
0.0
 43
0.0
 43
0.0
 43
0.0
 43
1.0
 43
0.0
 43
0.0
 43
0.0
 43
0.0
 43
1.0
 77
     0
 47
0.0208333333333333
 47
0.0
 47
0.0
 47
0.0
 47
0.0
 47
0.0208333333333333
 47
0.0
 47
0.0
 47
0.0
 47
0.0
 47
1.0
 47
0.0
 47
0.0
 47
0.0
 47
0.0
 47
1.0
171
     0
 49
0.0208333333333333
 49
0.0
 49
0.0
 49
0.0
 49
0.0
 49
0.0208333333333333
 49
0.0
 49
0.0
 49
0.0
 49
0.0
 49
1.0
 49
0.0
 49
0.0
 49
0.0
 49
0.0
 49
1.0
175
     0
142
0.0208333333333333
142
0.0
142
0.0
142
0.0
142
0.0
142
0.0208333333333333
142
0.0
142
0.0
142
0.0
142
0.0
142
1.0
142
0.0
142
0.0
142
0.0
142
0.0
142
1.0
179
     0
144
0.0208333333333333
144
0.0
144
0.0
144
0.0
144
0.0
144
0.0208333333333333
144
0.0
144
0.0
144
0.0
144
0.0
144
1.0
144
0.0
144
0.0
144
0.0
144
0.0
144
1.0
147
0.0208333333333333
147
0.0
147
0.0
147
0.0
147
0.0
147
0.0208333333333333
147
0.0
147
0.0
147
0.0
147
0.0
147
1.0
147
0.0
147
0.0
147
0.0
147
0.0
147
1.0
  0
MATERIAL
  5
B51
102
{ACAD_XDICTIONARY
360
B52
102
}
102
{ACAD_REACTORS
330
B40
102
}
330
B40
100
AcDbMaterial
  1
Global
 72
     0
 43
0.0208333333333333
 43
0.0
 43
0.0
 43
0.0
 43
0.0
 43
0.0208333333333333
 43
0.0
 43
0.0
 43
0.0
 43
0.0
 43
1.0
 43
0.0
 43
0.0
 43
0.0
 43
0.0
 43
1.0
 77
     0
 47
0.0208333333333333
 47
0.0
 47
0.0
 47
0.0
 47
0.0
 47
0.0208333333333333
 47
0.0
 47
0.0
 47
0.0
 47
0.0
 47
1.0
 47
0.0
 47
0.0
 47
0.0
 47
0.0
 47
1.0
171
     0
 49
0.0208333333333333
 49
0.0
 49
0.0
 49
0.0
 49
0.0
 49
0.0208333333333333
 49
0.0
 49
0.0
 49
0.0
 49
0.0
 49
1.0
 49
0.0
 49
0.0
 49
0.0
 49
0.0
 49
1.0
175
     0
142
0.0208333333333333
142
0.0
142
0.0
142
0.0
142
0.0
142
0.0208333333333333
142
0.0
142
0.0
142
0.0
142
0.0
142
1.0
142
0.0
142
0.0
142
0.0
142
0.0
142
1.0
179
     0
144
0.0208333333333333
144
0.0
144
0.0
144
0.0
144
0.0
144
0.0208333333333333
144
0.0
144
0.0
144
0.0
144
0.0
144
1.0
144
0.0
144
0.0
144
0.0
144
0.0
144
1.0
147
0.0208333333333333
147
0.0
147
0.0
147
0.0
147
0.0
147
0.0208333333333333
147
0.0
147
0.0
147
0.0
147
0.0
147
1.0
147
0.0
147
0.0
147
0.0
147
0.0
147
1.0
  0
MLEADERSTYLE
  5
B90
102
{ACAD_REACTORS
330
B8F
102
}
330
B8F
100
AcDbMLeaderStyle
170
     2
171
     1
172
     0
 90
        2
 40
0.0
 41
0.0
173
     1
 91
-1056964608
340
11
 92
       -2
290
     1
 42
2.0
291
     1
 43
0.36
  3
Standard
 44
4.0
300

342
17
174
     1
178
     6
175
     1
176
     0
 93
-1056964608
 45
4.0
292
     0
297
     0
 46
4.0
 94
-1056964608
 47
1.0
 49
1.0
140
1.0
293
     1
141
0.0
294
     1
177
     0
142
1.0
295
     0
296
     0
143
0.125
1001
ACAD_MLEADERVER
1070
     2
  0
MLINESTYLE
  5
1C
102
{ACAD_REACTORS
330
1B
102
}
330
1B
100
AcDbMlineStyle
  2
STANDARD
 70
     0
  3

 62
     0
 51
90.0
 52
90.0
 71
     2
 49
0.5
 62
   256
  6
BYLAYER
 49
-0.5
 62
   256
  6
BYLAYER
  0
ACDBPLACEHOLDER
  5
1D
102
{ACAD_REACTORS
330
1F
102
}
330
1F
  0
SCALE
  5
B6E
102
{ACAD_REACTORS
330
B6D
102
}
330
B6D
100
AcDbScale
 70
     0
300
1:1
140
1.0
141
1.0
290
     1
  0
SCALE
  5
B6F
102
{ACAD_REACTORS
330
B6D
102
}
330
B6D
100
AcDbScale
 70
     0
300
1:2
140
1.0
141
2.0
290
     0
  0
SCALE
  5
B70
102
{ACAD_REACTORS
330
B6D
102
}
330
B6D
100
AcDbScale
 70
     0
300
1:4
140
1.0
141
4.0
290
     0
  0
SCALE
  5
B71
102
{ACAD_REACTORS
330
B6D
102
}
330
B6D
100
AcDbScale
 70
     0
300
1:5
140
1.0
141
5.0
290
     0
  0
SCALE
  5
B72
102
{ACAD_REACTORS
330
B6D
102
}
330
B6D
100
AcDbScale
 70
     0
300
1:8
140
1.0
141
8.0
290
     0
  0
SCALE
  5
B73
102
{ACAD_REACTORS
330
B6D
102
}
330
B6D
100
AcDbScale
 70
     0
300
1:10
140
1.0
141
10.0
290
     0
  0
SCALE
  5
B74
102
{ACAD_REACTORS
330
B6D
102
}
330
B6D
100
AcDbScale
 70
     0
300
1:16
140
1.0
141
16.0
290
     0
  0
SCALE
  5
B75
102
{ACAD_REACTORS
330
B6D
102
}
330
B6D
100
AcDbScale
 70
     0
300
1:20
140
1.0
141
20.0
290
     0
  0
SCALE
  5
B76
102
{ACAD_REACTORS
330
B6D
102
}
330
B6D
100
AcDbScale
 70
     0
300
1:30
140
1.0
141
30.0
290
     0
  0
SCALE
  5
B77
102
{ACAD_REACTORS
330
B6D
102
}
330
B6D
100
AcDbScale
 70
     0
300
1:40
140
1.0
141
40.0
290
     0
  0
SCALE
  5
B78
102
{ACAD_REACTORS
330
B6D
102
}
330
B6D
100
AcDbScale
 70
     0
300
1:50
140
1.0
141
50.0
290
     0
  0
SCALE
  5
B79
102
{ACAD_REACTORS
330
B6D
102
}
330
B6D
100
AcDbScale
 70
     0
300
1:100
140
1.0
141
100.0
290
     0
  0
SCALE
  5
B7A
102
{ACAD_REACTORS
330
B6D
102
}
330
B6D
100
AcDbScale
 70
     0
300
2:1
140
2.0
141
1.0
290
     0
  0
SCALE
  5
B7B
102
{ACAD_REACTORS
330
B6D
102
}
330
B6D
100
AcDbScale
 70
     0
300
4:1
140
4.0
141
1.0
290
     0
  0
SCALE
  5
B7C
102
{ACAD_REACTORS
330
B6D
102
}
330
B6D
100
AcDbScale
 70
     0
300
8:1
140
8.0
141
1.0
290
     0
  0
SCALE
  5
B7D
102
{ACAD_REACTORS
330
B6D
102
}
330
B6D
100
AcDbScale
 70
     0
300
10:1
140
10.0
141
1.0
290
     0
  0
SCALE
  5
B7E
102
{ACAD_REACTORS
330
B6D
102
}
330
B6D
100
AcDbScale
 70
     0
300
100:1
140
100.0
141
1.0
290
     0
  0
SCALE
  5
B7F
102
{ACAD_REACTORS
330
B6D
102
}
330
B6D
100
AcDbScale
 70
     0
300
1/128" = 1'-0"
140
0.0078125
141
12.0
290
     0
  0
SCALE
  5
B80
102
{ACAD_REACTORS
330
B6D
102
}
330
B6D
100
AcDbScale
 70
     0
300
1/64" = 1'-0"
140
0.015625
141
12.0
290
     0
  0
SCALE
  5
B81
102
{ACAD_REACTORS
330
B6D
102
}
330
B6D
100
AcDbScale
 70
     0
300
1/32" = 1'-0"
140
0.03125
141
12.0
290
     0
  0
SCALE
  5
B82
102
{ACAD_REACTORS
330
B6D
102
}
330
B6D
100
AcDbScale
 70
     0
300
1/16" = 1'-0"
140
0.0625
141
12.0
290
     0
  0
SCALE
  5
B83
102
{ACAD_REACTORS
330
B6D
102
}
330
B6D
100
AcDbScale
 70
     0
300
3/32" = 1'-0"
140
0.09375
141
12.0
290
     0
  0
SCALE
  5
B84
102
{ACAD_REACTORS
330
B6D
102
}
330
B6D
100
AcDbScale
 70
     0
300
1/8" = 1'-0"
140
0.125
141
12.0
290
     0
  0
SCALE
  5
B85
102
{ACAD_REACTORS
330
B6D
102
}
330
B6D
100
AcDbScale
 70
     0
300
3/16" = 1'-0"
140
0.1875
141
12.0
290
     0
  0
SCALE
  5
B86
102
{ACAD_REACTORS
330
B6D
102
}
330
B6D
100
AcDbScale
 70
     0
300
1/4" = 1'-0"
140
0.25
141
12.0
290
     0
  0
SCALE
  5
B87
102
{ACAD_REACTORS
330
B6D
102
}
330
B6D
100
AcDbScale
 70
     0
300
3/8" = 1'-0"
140
0.375
141
12.0
290
     0
  0
SCALE
  5
B88
102
{ACAD_REACTORS
330
B6D
102
}
330
B6D
100
AcDbScale
 70
     0
300
1/2" = 1'-0"
140
0.5
141
12.0
290
     0
  0
SCALE
  5
B89
102
{ACAD_REACTORS
330
B6D
102
}
330
B6D
100
AcDbScale
 70
     0
300
3/4" = 1'-0"
140
0.75
141
12.0
290
     0
  0
SCALE
  5
B8A
102
{ACAD_REACTORS
330
B6D
102
}
330
B6D
100
AcDbScale
 70
     0
300
1" = 1'-0"
140
1.0
141
12.0
290
     0
  0
SCALE
  5
B8B
102
{ACAD_REACTORS
330
B6D
102
}
330
B6D
100
AcDbScale
 70
     0
300
1-1/2" = 1'-0"
140
1.5
141
12.0
290
     0
  0
SCALE
  5
B8C
102
{ACAD_REACTORS
330
B6D
102
}
330
B6D
100
AcDbScale
 70
     0
300
3" = 1'-0"
140
3.0
141
12.0
290
     0
  0
SCALE
  5
B8D
102
{ACAD_REACTORS
330
B6D
102
}
330
B6D
100
AcDbScale
 70
     0
300
6" = 1'-0"
140
6.0
141
12.0
290
     0
  0
SCALE
  5
B8E
102
{ACAD_REACTORS
330
B6D
102
}
330
B6D
100
AcDbScale
 70
     0
300
1'-0" = 1'-0"
140
12.0
141
12.0
290
     0
  0
TABLESTYLE
  5
B6C
102
{ACAD_XDICTIONARY
360
B9B
102
}
102
{ACAD_REACTORS
330
B6B
102
}
330
B6B
100
AcDbTableStyle
  3
Standard
 70
     0
 71
     0
 40
1.5
 41
1.5
280
     0
281
     0
  7
Standard
140
4.5
170
     2
 62
     0
 63
     7
283
     0
274
    -2
284
     1
 64
     0
275
    -2
285
     1
 65
     0
276
    -2
286
     1
 66
     0
277
    -2
287
     1
 67
     0
278
    -2
288
     1
 68
     0
279
    -2
289
     1
 69
     0
  7
Standard
140
6.0
170
     5
 62
     0
 63
     7
283
     0
274
    -2
284
     1
 64
     0
275
    -2
285
     1
 65
     0
276
    -2
286
     1
 66
     0
277
    -2
287
     1
 67
     0
278
    -2
288
     1
 68
     0
279
    -2
289
     1
 69
     0
  7
Standard
140
4.5
170
     5
 62
     0
 63
     7
283
     0
274
    -2
284
     1
 64
     0
275
    -2
285
     1
 65
     0
276
    -2
286
     1
 66
     0
277
    -2
287
     1
 67
     0
278
    -2
288
     1
 68
     0
279
    -2
289
     1
 69
     0
  0
VISUALSTYLE
  5
B5F
102
{ACAD_REACTORS
330
B59
102
}
330
B59
100
AcDbVisualStyle
  2
2dWireframe
 70
     4
 71
     0
 72
     2
 73
     0
 90
        0
 40
-0.6
 41
-30.0
 62
     5
 63
     7
 74
     1
 91
        4
 64
     7
 65
   257
 75
     1
175
     1
 42
1.0
 92
        0
 66
   257
 43
1.0
 76
     1
 77
     6
 78
     2
 67
     7
 79
     5
170
     0
171
     0
290
     0
174
     0
 93
        1
 44
0.0
173
     0
291
     0
 45
0.0
1001
ACAD
1000
AcDbSavedByObjectVersion
1070
     0
1000
AcDbSavedByObjectVersion
1070
     0
  0
VISUALSTYLE
  5
B61
102
{ACAD_REACTORS
330
B59
102
}
330
B59
100
AcDbVisualStyle
  2
3D Hidden
 70
     6
 71
     1
 72
     2
 73
     2
 90
        0
 40
-0.6
 41
-30.0
 62
     5
 63
     7
 74
     2
 91
        2
 64
     7
 65
   257
 75
     2
175
     1
 42
40.0
 92
        0
 66
   257
 43
1.0
 76
     1
 77
     6
 78
     2
 67
     7
 79
     3
170
     0
171
     0
290
     0
174
     0
 93
        1
 44
0.0
173
     0
291
     0
 45
0.0
1001
ACAD
1000
AcDbSavedByObjectVersion
1070
     0
1000
AcDbSavedByObjectVersion
1070
     0
  0
VISUALSTYLE
  5
B60
102
{ACAD_REACTORS
330
B59
102
}
330
B59
100
AcDbVisualStyle
  2
3dWireframe
 70
     5
 71
     0
 72
     2
 73
     0
 90
        0
 40
-0.6
 41
-30.0
 62
     5
 63
     7
 74
     1
 91
        4
 64
     7
 65
   257
 75
     1
175
     1
 42
1.0
 92
        0
 66
   257
 43
1.0
 76
     1
 77
     6
 78
     2
 67
     7
 79
     5
170
     0
171
     0
290
     0
174
     0
 93
        1
 44
0.0
173
     0
291
     0
 45
0.0
1001
ACAD
1000
AcDbSavedByObjectVersion
1070
     0
1000
AcDbSavedByObjectVersion
1070
     0
  0
VISUALSTYLE
  5
B5E
102
{ACAD_REACTORS
330
B59
102
}
330
B59
100
AcDbVisualStyle
  2
Basic
 70
     7
 71
     1
 72
     0
 73
     1
 90
        0
 40
-0.6
 41
-30.0
 62
     5
 63
     7
 74
     0
 91
        4
 64
     7
 65
   257
 75
     1
175
     1
 42
1.0
 92
        8
 66
     7
 43
1.0
 76
     1
 77
     6
 78
     2
 67
     7
 79
     5
170
     0
171
     0
290
     0
174
     0
 93
        1
 44
0.0
173
     0
291
     1
 45
0.0
1001
ACAD
1000
AcDbSavedByObjectVersion
1070
     0
1000
AcDbSavedByObjectVersion
1070
     0
  0
VISUALSTYLE
  5
B65
102
{ACAD_REACTORS
330
B59
102
}
330
B59
100
AcDbVisualStyle
  2
Brighten
 70
    12
 71
     2
 72
     2
 73
     0
 90
        0
 40
-0.6
 41
-30.0
 62
     5
 63
     7
 74
     1
 91
        4
 64
     7
 65
   257
 75
     1
175
     1
 42
1.0
 92
        8
 66
     7
 43
1.0
 76
     1
 77
     6
 78
     2
 67
     7
 79
     5
170
     0
171
     0
290
     0
174
     0
 93
        1
 44
50.0
173
     0
291
     1
 45
0.0
1001
ACAD
1000
AcDbSavedByObjectVersion
1070
     0
1000
AcDbSavedByObjectVersion
1070
     0
  0
VISUALSTYLE
  5
B69
102
{ACAD_REACTORS
330
B59
102
}
330
B59
100
AcDbVisualStyle
  2
ColorChange
 70
    16
 71
     2
 72
     2
 73
     3
 90
        0
 40
-0.6
 41
-30.0
 62
     5
 63
     8
 74
     1
 91
        4
 64
     7
 65
   257
 75
     1
175
     1
 42
1.0
 92
        8
 66
     8
 43
1.0
 76
     1
 77
     6
 78
     2
 67
     7
 79
     5
170
     0
171
     0
290
     0
174
     0
 93
        1
 44
0.0
173
     0
291
     1
 45
0.0
1001
ACAD
1000
AcDbSavedByObjectVersion
1070
     0
1000
AcDbSavedByObjectVersion
1070
     0
  0
VISUALSTYLE
  5
B62
102
{ACAD_REACTORS
330
B59
102
}
330
B59
100
AcDbVisualStyle
  2
Conceptual
 70
     9
 71
     3
 72
     2
 73
     0
 90
        0
 40
-0.6
 41
-30.0
 62
     5
 63
     7
 74
     2
 91
        2
 64
     7
 65
   257
 75
     1
175
     1
 42
40.0
 92
        8
 66
     7
 43
1.0
 76
     1
 77
     6
 78
     2
 67
     7
 79
     3
170
     0
171
     0
290
     0
174
     0
 93
        1
 44
0.0
173
     0
291
     0
 45
0.0
1001
ACAD
1000
AcDbSavedByObjectVersion
1070
     0
1000
AcDbSavedByObjectVersion
1070
     0
  0
VISUALSTYLE
  5
B64
102
{ACAD_REACTORS
330
B59
102
}
330
B59
100
AcDbVisualStyle
  2
Dim
 70
    11
 71
     2
 72
     2
 73
     0
 90
        0
 40
-0.6
 41
-30.0
 62
     5
 63
     7
 74
     1
 91
        4
 64
     7
 65
   257
 75
     1
175
     1
 42
1.0
 92
        8
 66
     7
 43
1.0
 76
     1
 77
     6
 78
     2
 67
     7
 79
     5
170
     0
171
     0
290
     0
174
     0
 93
        1
 44
-50.0
173
     0
291
     1
 45
0.0
1001
ACAD
1000
AcDbSavedByObjectVersion
1070
     0
1000
AcDbSavedByObjectVersion
1070
     0
  0
VISUALSTYLE
  5
B68
102
{ACAD_REACTORS
330
B59
102
}
330
B59
100
AcDbVisualStyle
  2
Facepattern
 70
    15
 71
     2
 72
     2
 73
     0
 90
        0
 40
-0.6
 41
-30.0
 62
     5
 63
     7
 74
     1
 91
        4
 64
     7
 65
   257
 75
     1
175
     1
 42
1.0
 92
        8
 66
     7
 43
1.0
 76
     1
 77
     6
 78
     2
 67
     7
 79
     5
170
     0
171
     0
290
     0
174
     0
 93
        1
 44
0.0
173
     0
291
     1
 45
0.0
1001
ACAD
1000
AcDbSavedByObjectVersion
1070
     0
1000
AcDbSavedByObjectVersion
1070
     0
  0
VISUALSTYLE
  5
B5A
102
{ACAD_REACTORS
330
B59
102
}
330
B59
100
AcDbVisualStyle
  2
Flat
 70
     0
 71
     2
 72
     1
 73
     1
 90
        2
 40
-0.6
 41
30.0
 62
     5
 63
     7
 74
     0
 91
        4
 64
     7
 65
   257
 75
     1
175
     1
 42
1.0
 92
        8
 66
     7
 43
1.0
 76
     1
 77
     6
 78
     2
 67
     7
 79
     5
170
     0
171
     0
290
     0
174
     0
 93
       13
 44
0.0
173
     0
291
     1
 45
0.0
1001
ACAD
1000
AcDbSavedByObjectVersion
1070
     0
1000
AcDbSavedByObjectVersion
1070
     0
  0
VISUALSTYLE
  5
B5B
102
{ACAD_REACTORS
330
B59
102
}
330
B59
100
AcDbVisualStyle
  2
FlatWithEdges
 70
     1
 71
     2
 72
     1
 73
     1
 90
        2
 40
-0.6
 41
30.0
 62
     5
 63
     7
 74
     1
 91
        4
 64
     7
 65
   257
 75
     1
175
     1
 42
1.0
 92
        0
 66
   257
 43
1.0
 76
     1
 77
     6
 78
     2
 67
     7
 79
     5
170
     0
171
     0
290
     0
174
     0
 93
       13
 44
0.0
173
     0
291
     1
 45
0.0
1001
ACAD
1000
AcDbSavedByObjectVersion
1070
     0
1000
AcDbSavedByObjectVersion
1070
     0
  0
VISUALSTYLE
  5
B5C
102
{ACAD_REACTORS
330
B59
102
}
330
B59
100
AcDbVisualStyle
  2
Gouraud
 70
     2
 71
     2
 72
     2
 73
     1
 90
        2
 40
-0.6
 41
30.0
 62
     5
 63
     7
 74
     0
 91
        4
 64
     7
 65
   257
 75
     1
175
     1
 42
1.0
 92
        0
 66
     7
 43
1.0
 76
     1
 77
     6
 78
     2
 67
     7
 79
     5
170
     0
171
     0
290
     0
174
     0
 93
       13
 44
0.0
173
     0
291
     1
 45
0.0
1001
ACAD
1000
AcDbSavedByObjectVersion
1070
     0
1000
AcDbSavedByObjectVersion
1070
     0
  0
VISUALSTYLE
  5
B5D
102
{ACAD_REACTORS
330
B59
102
}
330
B59
100
AcDbVisualStyle
  2
GouraudWithEdges
 70
     3
 71
     2
 72
     2
 73
     1
 90
        2
 40
-0.6
 41
30.0
 62
     5
 63
     7
 74
     1
 91
        4
 64
     7
 65
   257
 75
     1
175
     1
 42
1.0
 92
        0
 66
   257
 43
1.0
 76
     1
 77
     6
 78
     2
 67
     7
 79
     5
170
     0
171
     0
290
     0
174
     0
 93
       13
 44
0.0
173
     0
291
     1
 45
0.0
1001
ACAD
1000
AcDbSavedByObjectVersion
1070
     0
1000
AcDbSavedByObjectVersion
1070
     0
  0
VISUALSTYLE
  5
B67
102
{ACAD_REACTORS
330
B59
102
}
330
B59
100
AcDbVisualStyle
  2
Linepattern
 70
    14
 71
     2
 72
     2
 73
     0
 90
        0
 40
-0.6
 41
-30.0
 62
     5
 63
     7
 74
     1
 91
        4
 64
     7
 65
   257
 75
     7
175
     7
 42
1.0
 92
        8
 66
     7
 43
1.0
 76
     1
 77
     6
 78
     2
 67
     7
 79
     5
170
     0
171
     0
290
     0
174
     0
 93
        1
 44
0.0
173
     0
291
     1
 45
0.0
1001
ACAD
1000
AcDbSavedByObjectVersion
1070
     0
1000
AcDbSavedByObjectVersion
1070
     0
  0
VISUALSTYLE
  5
B63
102
{ACAD_REACTORS
330
B59
102
}
330
B59
100
AcDbVisualStyle
  2
Realistic
 70
     8
 71
     2
 72
     2
 73
     0
 90
        0
 40
-0.6
 41
-30.0
 62
     5
 63
     7
 74
     1
 91
        0
 64
     7
 65
   257
 75
     1
175
     1
 42
1.0
 92
        8
 66
     8
 43
1.0
 76
     1
 77
     6
 78
     2
 67
     7
 79
     5
170
     0
171
     0
290
     0
174
     0
 93
       13
 44
0.0
173
     0
291
     0
 45
0.0
1001
ACAD
1000
AcDbSavedByObjectVersion
1070
     0
1000
AcDbSavedByObjectVersion
1070
     0
  0
VISUALSTYLE
  5
B66
102
{ACAD_REACTORS
330
B59
102
}
330
B59
100
AcDbVisualStyle
  2
Thicken
 70
    13
 71
     2
 72
     2
 73
     0
 90
        0
 40
-0.6
 41
-30.0
 62
     5
 63
     7
 74
     1
 91
        4
 64
     7
 65
   257
 75
     1
175
     1
 42
1.0
 92
       12
 66
     7
 43
1.0
 76
     1
 77
     6
 78
     2
 67
     7
 79
     5
170
     0
171
     0
290
     0
174
     0
 93
        1
 44
0.0
173
     0
291
     1
 45
0.0
1001
ACAD
1000
AcDbSavedByObjectVersion
1070
     0
1000
AcDbSavedByObjectVersion
1070
     0
  0
DICTIONARYVAR
  5
BA2
102
{ACAD_REACTORS
330
B9E
102
}
330
B9E
100
DictionaryVariables
280
     0
  1
1:1
  0
DICTIONARYVAR
  5
BA0
102
{ACAD_REACTORS
330
B9E
102
}
330
B9E
100
DictionaryVariables
280
     0
  1
STANDARD
  0
DICTIONARYVAR
  5
B9F
102
{ACAD_REACTORS
330
B9E
102
}
330
B9E
100
DictionaryVariables
280
     0
  1
STANDARD
  0
DICTIONARYVAR
  5
BAC
102
{ACAD_REACTORS
330
B9E
102
}
330
B9E
100
DictionaryVariables
280
     0
  1
1
  0
DICTIONARYVAR
  5
BAB
102
{ACAD_REACTORS
330
B9E
102
}
330
B9E
100
DictionaryVariables
280
     0
  1
0
  0
DICTIONARYVAR
  5
BA3
102
{ACAD_REACTORS
330
B9E
102
}
330
B9E
100
DictionaryVariables
280
     0
  1
0
  0
DICTIONARYVAR
  5
BA1
102
{ACAD_REACTORS
330
B9E
102
}
330
B9E
100
DictionaryVariables
280
     0
  1
0
  0
DICTIONARYVAR
  5
BAA
102
{ACAD_REACTORS
330
B9E
102
}
330
B9E
100
DictionaryVariables
280
     0
  1
127
  0
XRECORD
  5
B98
102
{ACAD_REACTORS
330
B96
102
}
330
B96
100
AcDbXrecord
280
     1
330
99
330
F3
330
164
330
1CF
330
21F
330
2DB
330
2EE
330
37C
330
42F
330
4C9
330
56A
330
61C
330
6EE
330
760
330
7C2
330
822
330
8A5
330
920
330
9D9
330
9E5
330
9EB
330
A99
330
A9E
330
B37
  0
DICTIONARY
  5
C1F
330
21
100
AcDbDictionary
280
     1
281
     1
  3
ACAD_XREC_ROUNDTRIP
360
C20
  0
DICTIONARY
  5
C1D
330
20
100
AcDbDictionary
280
     1
281
     1
  3
ACAD_XREC_ROUNDTRIP
360
C1E
  0
DICTIONARY
  5
B4A
330
B49
100
AcDbDictionary
280
     1
281
     1
  3
ACAD_XREC_ROUNDTRIP
360
C0C
  3
BUMPTILE
360
B4C
  3
DIFFUSETILE
360
B4B
  3
OPACITYTILE
360
B4F
  3
REFLECTIONTILE
360
B4E
  3
REFRACTIONTILE
360
B50
  3
SPECULARTILE
360
B4D
  0
DICTIONARY
  5
B42
330
B41
100
AcDbDictionary
280
     1
281
     1
  3
ACAD_XREC_ROUNDTRIP
360
C0B
  3
BUMPTILE
360
B44
  3
DIFFUSETILE
360
B43
  3
OPACITYTILE
360
B47
  3
REFLECTIONTILE
360
B46
  3
REFRACTIONTILE
360
B48
  3
SPECULARTILE
360
B45
  0
DICTIONARY
  5
B52
330
B51
100
AcDbDictionary
280
     1
281
     1
  3
ACAD_XREC_ROUNDTRIP
360
C0D
  3
BUMPTILE
360
B54
  3
DIFFUSETILE
360
B53
  3
OPACITYTILE
360
B57
  3
REFLECTIONTILE
360
B56
  3
REFRACTIONTILE
360
B58
  3
SPECULARTILE
360
B55
  0
DICTIONARY
  5
B9B
330
B6C
100
AcDbDictionary
280
     1
281
     1
  3
ACAD_ROUNDTRIP_2008_TABLESTYLE_CELLSTYLEMAP
360
C1B
  3
ACAD_XREC_ROUNDTRIP
360
C21
  0
XRECORD
  5
C20
102
{ACAD_REACTORS
330
C1F
102
}
330
C1F
100
AcDbXrecord
280
     1
102
SHADEPLOT
 70
     0
102
SHADEPLOTRESLEVEL
 70
     2
102
SHADEPLOTCUSTOMDPI
 70
   300
  0
XRECORD
  5
C1E
102
{ACAD_REACTORS
330
C1D
102
}
330
C1D
100
AcDbXrecord
280
     1
102
SHADEPLOT
 70
     0
102
SHADEPLOTRESLEVEL
 70
     2
102
SHADEPLOTCUSTOMDPI
 70
   300
  0
XRECORD
  5
C0C
102
{ACAD_REACTORS
330
B4A
102
}
330
B4A
100
AcDbXrecord
280
     1
102
MATERIAL
148
0.0
149
0.0
149
0.0
 93
        0
 94
      127
282
     0
 72
     0
 77
     0
171
     0
175
     0
179
     0
273
     0
  0
XRECORD
  5
B4C
102
{ACAD_REACTORS
330
B4A
102
}
330
B4A
100
AcDbXrecord
280
     1
270
     1
271
     1
  0
XRECORD
  5
B4B
102
{ACAD_REACTORS
330
B4A
102
}
330
B4A
100
AcDbXrecord
280
     1
270
     1
271
     1
  0
XRECORD
  5
B4F
102
{ACAD_REACTORS
330
B4A
102
}
330
B4A
100
AcDbXrecord
280
     1
270
     1
271
     1
  0
XRECORD
  5
B4E
102
{ACAD_REACTORS
330
B4A
102
}
330
B4A
100
AcDbXrecord
280
     1
270
     1
271
     1
  0
XRECORD
  5
B50
102
{ACAD_REACTORS
330
B4A
102
}
330
B4A
100
AcDbXrecord
280
     1
270
     1
271
     1
  0
XRECORD
  5
B4D
102
{ACAD_REACTORS
330
B4A
102
}
330
B4A
100
AcDbXrecord
280
     1
270
     1
271
     1
  0
XRECORD
  5
C0B
102
{ACAD_REACTORS
330
B42
102
}
330
B42
100
AcDbXrecord
280
     1
102
MATERIAL
148
0.0
149
0.0
149
0.0
 93
        0
 94
      127
282
     0
 72
     0
 77
     0
171
     0
175
     0
179
     0
273
     0
  0
XRECORD
  5
B44
102
{ACAD_REACTORS
330
B42
102
}
330
B42
100
AcDbXrecord
280
     1
270
     1
271
     1
  0
XRECORD
  5
B43
102
{ACAD_REACTORS
330
B42
102
}
330
B42
100
AcDbXrecord
280
     1
270
     1
271
     1
  0
XRECORD
  5
B47
102
{ACAD_REACTORS
330
B42
102
}
330
B42
100
AcDbXrecord
280
     1
270
     1
271
     1
  0
XRECORD
  5
B46
102
{ACAD_REACTORS
330
B42
102
}
330
B42
100
AcDbXrecord
280
     1
270
     1
271
     1
  0
XRECORD
  5
B48
102
{ACAD_REACTORS
330
B42
102
}
330
B42
100
AcDbXrecord
280
     1
270
     1
271
     1
  0
XRECORD
  5
B45
102
{ACAD_REACTORS
330
B42
102
}
330
B42
100
AcDbXrecord
280
     1
270
     1
271
     1
  0
XRECORD
  5
C0D
102
{ACAD_REACTORS
330
B52
102
}
330
B52
100
AcDbXrecord
280
     1
102
MATERIAL
148
0.0
149
0.0
149
0.0
 93
        0
 94
      127
282
     0
 72
     0
 77
     0
171
     0
175
     0
179
     0
273
     0
  0
XRECORD
  5
B54
102
{ACAD_REACTORS
330
B52
102
}
330
B52
100
AcDbXrecord
280
     1
270
     1
271
     1
  0
XRECORD
  5
B53
102
{ACAD_REACTORS
330
B52
102
}
330
B52
100
AcDbXrecord
280
     1
270
     1
271
     1
  0
XRECORD
  5
B57
102
{ACAD_REACTORS
330
B52
102
}
330
B52
100
AcDbXrecord
280
     1
270
     1
271
     1
  0
XRECORD
  5
B56
102
{ACAD_REACTORS
330
B52
102
}
330
B52
100
AcDbXrecord
280
     1
270
     1
271
     1
  0
XRECORD
  5
B58
102
{ACAD_REACTORS
330
B52
102
}
330
B52
100
AcDbXrecord
280
     1
270
     1
271
     1
  0
XRECORD
  5
B55
102
{ACAD_REACTORS
330
B52
102
}
330
B52
100
AcDbXrecord
280
     1
270
     1
271
     1
  0
CELLSTYLEMAP
  5
C1B
102
{ACAD_REACTORS
330
B9B
102
}
330
B9B
100
AcDbCellStyleMap
 90
        3
300
CELLSTYLE
  1
TABLEFORMAT_BEGIN
 90
        5
170
     1
 91
        0
 92
    32768
 62
   257
 93
        1
300
CONTENTFORMAT
  1
CONTENTFORMAT_BEGIN
 90
        0
 91
        0
 92
      512
 93
        0
300

 40
0.0
140
1.0
 94
        5
 62
     0
340
17
144
6.0
309
CONTENTFORMAT_END
171
     1
301
MARGIN
  1
CELLMARGIN_BEGIN
 40
1.5
 40
1.5
 40
1.5
 40
1.5
 40
0.18
 40
0.18
309
CELLMARGIN_END
 94
        6
 95
        1
302
GRIDFORMAT
  1
GRIDFORMAT_BEGIN
 90
        0
 91
        1
 62
     0
 92
       -2
340
0
 93
        0
 40
1.125
309
GRIDFORMAT_END
 95
        2
302
GRIDFORMAT
  1
GRIDFORMAT_BEGIN
 90
        0
 91
        1
 62
     0
 92
       -2
340
0
 93
        0
 40
1.125
309
GRIDFORMAT_END
 95
        4
302
GRIDFORMAT
  1
GRIDFORMAT_BEGIN
 90
        0
 91
        1
 62
     0
 92
       -2
340
0
 93
        0
 40
1.125
309
GRIDFORMAT_END
 95
        8
302
GRIDFORMAT
  1
GRIDFORMAT_BEGIN
 90
        0
 91
        1
 62
     0
 92
       -2
340
0
 93
        0
 40
1.125
309
GRIDFORMAT_END
 95
       16
302
GRIDFORMAT
  1
GRIDFORMAT_BEGIN
 90
        0
 91
        1
 62
     0
 92
       -2
340
0
 93
        0
 40
1.125
309
GRIDFORMAT_END
 95
       32
302
GRIDFORMAT
  1
GRIDFORMAT_BEGIN
 90
        0
 91
        1
 62
     0
 92
       -2
340
0
 93
        0
 40
1.125
309
GRIDFORMAT_END
309
TABLEFORMAT_END
  1
CELLSTYLE_BEGIN
 90
        1
 91
        1
300
_TITLE
309
CELLSTYLE_END
300
CELLSTYLE
  1
TABLEFORMAT_BEGIN
 90
        5
170
     1
 91
        0
 92
        0
 62
   257
 93
        1
300
CONTENTFORMAT
  1
CONTENTFORMAT_BEGIN
 90
        0
 91
        0
 92
      512
 93
        0
300

 40
0.0
140
1.0
 94
        5
 62
     0
340
17
144
4.5
309
CONTENTFORMAT_END
171
     1
301
MARGIN
  1
CELLMARGIN_BEGIN
 40
1.5
 40
1.5
 40
1.5
 40
1.5
 40
0.18
 40
0.18
309
CELLMARGIN_END
 94
        6
 95
        1
302
GRIDFORMAT
  1
GRIDFORMAT_BEGIN
 90
        0
 91
        1
 62
     0
 92
       -2
340
0
 93
        0
 40
1.125
309
GRIDFORMAT_END
 95
        2
302
GRIDFORMAT
  1
GRIDFORMAT_BEGIN
 90
        0
 91
        1
 62
     0
 92
       -2
340
0
 93
        0
 40
1.125
309
GRIDFORMAT_END
 95
        4
302
GRIDFORMAT
  1
GRIDFORMAT_BEGIN
 90
        0
 91
        1
 62
     0
 92
       -2
340
0
 93
        0
 40
1.125
309
GRIDFORMAT_END
 95
        8
302
GRIDFORMAT
  1
GRIDFORMAT_BEGIN
 90
        0
 91
        1
 62
     0
 92
       -2
340
0
 93
        0
 40
1.125
309
GRIDFORMAT_END
 95
       16
302
GRIDFORMAT
  1
GRIDFORMAT_BEGIN
 90
        0
 91
        1
 62
     0
 92
       -2
340
0
 93
        0
 40
1.125
309
GRIDFORMAT_END
 95
       32
302
GRIDFORMAT
  1
GRIDFORMAT_BEGIN
 90
        0
 91
        1
 62
     0
 92
       -2
340
0
 93
        0
 40
1.125
309
GRIDFORMAT_END
309
TABLEFORMAT_END
  1
CELLSTYLE_BEGIN
 90
        2
 91
        1
300
_HEADER
309
CELLSTYLE_END
300
CELLSTYLE
  1
TABLEFORMAT_BEGIN
 90
        5
170
     1
 91
        0
 92
        0
 62
   257
 93
        1
300
CONTENTFORMAT
  1
CONTENTFORMAT_BEGIN
 90
        0
 91
        0
 92
      512
 93
        0
300

 40
0.0
140
1.0
 94
        2
 62
     0
340
17
144
4.5
309
CONTENTFORMAT_END
171
     1
301
MARGIN
  1
CELLMARGIN_BEGIN
 40
1.5
 40
1.5
 40
1.5
 40
1.5
 40
0.18
 40
0.18
309
CELLMARGIN_END
 94
        6
 95
        1
302
GRIDFORMAT
  1
GRIDFORMAT_BEGIN
 90
        0
 91
        1
 62
     0
 92
       -2
340
0
 93
        0
 40
1.125
309
GRIDFORMAT_END
 95
        2
302
GRIDFORMAT
  1
GRIDFORMAT_BEGIN
 90
        0
 91
        1
 62
     0
 92
       -2
340
0
 93
        0
 40
1.125
309
GRIDFORMAT_END
 95
        4
302
GRIDFORMAT
  1
GRIDFORMAT_BEGIN
 90
        0
 91
        1
 62
     0
 92
       -2
340
0
 93
        0
 40
1.125
309
GRIDFORMAT_END
 95
        8
302
GRIDFORMAT
  1
GRIDFORMAT_BEGIN
 90
        0
 91
        1
 62
     0
 92
       -2
340
0
 93
        0
 40
1.125
309
GRIDFORMAT_END
 95
       16
302
GRIDFORMAT
  1
GRIDFORMAT_BEGIN
 90
        0
 91
        1
 62
     0
 92
       -2
340
0
 93
        0
 40
1.125
309
GRIDFORMAT_END
 95
       32
302
GRIDFORMAT
  1
GRIDFORMAT_BEGIN
 90
        0
 91
        1
 62
     0
 92
       -2
340
0
 93
        0
 40
1.125
309
GRIDFORMAT_END
309
TABLEFORMAT_END
  1
CELLSTYLE_BEGIN
 90
        3
 91
        2
300
_DATA
309
CELLSTYLE_END
  0
XRECORD
  5
C21
102
{ACAD_REACTORS
330
B9B
102
}
330
B9B
100
AcDbXrecord
280
     1
102
ACAD_ROUNDTRIP_PRE2007_TABLESTYLE
 90
      512
 91
        0
  1

 92
      512
 93
        0
  2

 94
      512
 95
        0
  3

  0
ENDSEC
  0
EOF
