  0
SECTION
  2
HEADER
  9
$ACADVER
  1
AC1018
  9
$ACADMAINTVER
 70
   104
  9
$DWGCODEPAGE
  3
ANSI_1252
  9
$LASTSAVEDBY
  1
renzo.ceresoli
  9
$INSBASE
 10
0.0
 20
0.0
 30
0.0
  9
$EXTMIN
 10
-90.90168063499914
 20
-110.5254803381108
 30
-0.0015258207003583
  9
$EXTMAX
 10
210.8394206778494
 20
96.63946665240155
 30
0.0000000349246037
  9
$LIMMIN
 10
-656.3500000000002
 20
-384.3499999999999
  9
$LIMMAX
 10
2061.85
 20
268.8500000000001
  9
$ORTHOMODE
 70
     1
  9
$REGENMODE
 70
     1
  9
$FILLMODE
 70
     1
  9
$QTEXTMODE
 70
     0
  9
$MIRRTEXT
 70
     1
  9
$LTSCALE
 40
10.0
  9
$ATTMODE
 70
     1
  9
$TEXTSIZE
 40
0.0
  9
$TRACEWID
 40
0.05
  9
$TEXTSTYLE
  7
Standard
  9
$CLAYER
  8
0
  9
$CELTYPE
  6
Continuous
  9
$CECOLOR
 62
   256
  9
$CELTSCALE
 40
1.0
  9
$DISPSILH
 70
     0
  9
$DIMSCALE
 40
1.0
  9
$DIMASZ
 40
1.25
  9
$DIMEXO
 40
0.0
  9
$DIMDLI
 40
0.38
  9
$DIMRND
 40
0.0
  9
$DIMDLE
 40
0.0
  9
$DIMEXE
 40
0.75
  9
$DIMTP
 40
0.0
  9
$DIMTM
 40
0.0
  9
$DIMTXT
 40
2.5
  9
$DIMCEN
 40
0.09
  9
$DIMTSZ
 40
0.0
  9
$DIMTOL
 70
     0
  9
$DIMLIM
 70
     0
  9
$DIMTIH
 70
     0
  9
$DIMTOH
 70
     0
  9
$DIMSE1
 70
     0
  9
$DIMSE2
 70
     0
  9
$DIMTAD
 70
     1
  9
$DIMZIN
 70
     0
  9
$DIMBLK
  1

  9
$DIMASO
 70
     1
  9
$DIMSHO
 70
     1
  9
$DIMPOST
  1

  9
$DIMAPOST
  1

  9
$DIMALT
 70
     0
  9
$DIMALTD
 70
     2
  9
$DIMALTF
 40
25.4
  9
$DIMLFAC
 40
1.0
  9
$DIMTOFL
 70
     0
  9
$DIMTVP
 40
0.0
  9
$DIMTIX
 70
     0
  9
$DIMSOXD
 70
     0
  9
$DIMSAH
 70
     0
  9
$DIMBLK1
  1

  9
$DIMBLK2
  1

  9
$DIMSTYLE
  2
Standard
  9
$DIMCLRD
 70
     7
  9
$DIMCLRE
 70
     7
  9
$DIMCLRT
 70
     7
  9
$DIMTFAC
 40
0.8
  9
$DIMGAP
 40
1.25
  9
$DIMJUST
 70
     0
  9
$DIMSD1
 70
     0
  9
$DIMSD2
 70
     0
  9
$DIMTOLJ
 70
     1
  9
$DIMTZIN
 70
     0
  9
$DIMALTZ
 70
     0
  9
$DIMALTTZ
 70
     0
  9
$DIMUPT
 70
     0
  9
$DIMDEC
 70
     2
  9
$DIMTDEC
 70
     4
  9
$DIMALTU
 70
     2
  9
$DIMALTTD
 70
     2
  9
$DIMTXSTY
  7
Standard
  9
$DIMAUNIT
 70
     0
  9
$DIMADEC
 70
     0
  9
$DIMALTRND
 40
0.0
  9
$DIMAZIN
 70
     0
  9
$DIMDSEP
 70
     0
  9
$DIMATFIT
 70
     3
  9
$DIMFRAC
 70
     0
  9
$DIMLDRBLK
  1

  9
$DIMLUNIT
 70
     2
  9
$DIMLWD
 70
     0
  9
$DIMLWE
 70
     0
  9
$DIMTMOVE
 70
     0
  9
$LUNITS
 70
     2
  9
$LUPREC
 70
     4
  9
$SKETCHINC
 40
0.1
  9
$FILLETRAD
 40
0.0
  9
$AUNITS
 70
     0
  9
$AUPREC
 70
     0
  9
$MENU
  1
acad
  9
$ELEVATION
 40
0.0
  9
$PELEVATION
 40
0.0
  9
$THICKNESS
 40
0.0
  9
$LIMCHECK
 70
     0
  9
$CHAMFERA
 40
0.0
  9
$CHAMFERB
 40
0.0
  9
$CHAMFERC
 40
0.0
  9
$CHAMFERD
 40
0.0
  9
$SKPOLY
 70
     0
  9
$TDCREATE
 40
2455323.560590278
  9
$TDUCREATE
 40
2455323.477256944
  9
$TDUPDATE
 40
2455383.566975452
  9
$TDUUPDATE
 40
2455383.483642118
  9
$TDINDWG
 40
0.0061214931
  9
$TDUSRTIMER
 40
0.0061196875
  9
$USRTIMER
 70
     1
  9
$ANGBASE
 50
0.0
  9
$ANGDIR
 70
     0
  9
$PDMODE
 70
     0
  9
$PDSIZE
 40
0.0
  9
$PLINEWID
 40
0.0
  9
$SPLFRAME
 70
     0
  9
$SPLINETYPE
 70
     6
  9
$SPLINESEGS
 70
     8
  9
$HANDSEED
  5
5AB0
  9
$SURFTAB1
 70
     6
  9
$SURFTAB2
 70
     6
  9
$SURFTYPE
 70
     6
  9
$SURFU
 70
     6
  9
$SURFV
 70
     6
  9
$UCSBASE
  2

  9
$UCSNAME
  2

  9
$UCSORG
 10
0.0
 20
0.0
 30
0.0
  9
$UCSXDIR
 10
1.0
 20
0.0
 30
0.0
  9
$UCSYDIR
 10
0.0
 20
1.0
 30
0.0
  9
$UCSORTHOREF
  2

  9
$UCSORTHOVIEW
 70
     0
  9
$UCSORGTOP
 10
0.0
 20
0.0
 30
0.0
  9
$UCSORGBOTTOM
 10
0.0
 20
0.0
 30
0.0
  9
$UCSORGLEFT
 10
0.0
 20
0.0
 30
0.0
  9
$UCSORGRIGHT
 10
0.0
 20
0.0
 30
0.0
  9
$UCSORGFRONT
 10
0.0
 20
0.0
 30
0.0
  9
$UCSORGBACK
 10
0.0
 20
0.0
 30
0.0
  9
$PUCSBASE
  2

  9
$PUCSNAME
  2

  9
$PUCSORG
 10
0.0
 20
0.0
 30
0.0
  9
$PUCSXDIR
 10
1.0
 20
0.0
 30
0.0
  9
$PUCSYDIR
 10
0.0
 20
1.0
 30
0.0
  9
$PUCSORTHOREF
  2

  9
$PUCSORTHOVIEW
 70
     0
  9
$PUCSORGTOP
 10
0.0
 20
0.0
 30
0.0
  9
$PUCSORGBOTTOM
 10
0.0
 20
0.0
 30
0.0
  9
$PUCSORGLEFT
 10
0.0
 20
0.0
 30
0.0
  9
$PUCSORGRIGHT
 10
0.0
 20
0.0
 30
0.0
  9
$PUCSORGFRONT
 10
0.0
 20
0.0
 30
0.0
  9
$PUCSORGBACK
 10
0.0
 20
0.0
 30
0.0
  9
$USERI1
 70
     0
  9
$USERI2
 70
     0
  9
$USERI3
 70
     0
  9
$USERI4
 70
     0
  9
$USERI5
 70
     0
  9
$USERR1
 40
0.0
  9
$USERR2
 40
0.0
  9
$USERR3
 40
0.0
  9
$USERR4
 40
0.0
  9
$USERR5
 40
0.0
  9
$WORLDVIEW
 70
     1
  9
$SHADEDGE
 70
     3
  9
$SHADEDIF
 70
    70
  9
$TILEMODE
 70
     1
  9
$MAXACTVP
 70
    16
  9
$PINSBASE
 10
0.0
 20
0.0
 30
0.0
  9
$PLIMCHECK
 70
     0
  9
$PEXTMIN
 10
1.000000000000000E+20
 20
1.000000000000000E+20
 30
1.000000000000000E+20
  9
$PEXTMAX
 10
-1.000000000000000E+20
 20
-1.000000000000000E+20
 30
-1.000000000000000E+20
  9
$PLIMMIN
 10
0.0
 20
0.0
  9
$PLIMMAX
 10
12.0
 20
9.0
  9
$UNITMODE
 70
     0
  9
$VISRETAIN
 70
     0
  9
$PLINEGEN
 70
     1
  9
$PSLTSCALE
 70
     0
  9
$TREEDEPTH
 70
  3020
  9
$CMLSTYLE
  2
Standard
  9
$CMLJUST
 70
     0
  9
$CMLSCALE
 40
1.0
  9
$PROXYGRAPHICS
 70
     0
  9
$MEASUREMENT
 70
     1
  9
$CELWEIGHT
370
     0
  9
$ENDCAPS
280
     0
  9
$JOINSTYLE
280
     0
  9
$LWDISPLAY
290
     0
  9
$INSUNITS
 70
     0
  9
$HYPERLINKBASE
  1

  9
$STYLESHEET
  1

  9
$XEDIT
290
     1
  9
$CEPSNTYPE
380
     0
  9
$PSTYLEMODE
290
     1
  9
$FINGERPRINTGUID
  2

  9
$VERSIONGUID
  2
{38C6AE5E-7A09-49BA-BF95-B35CC3A065F0}
  9
$EXTNAMES
290
     1
  9
$PSVPSCALE
 40
0.0
  9
$OLESTARTUP
290
     0
  9
$SORTENTS
280
   127
  9
$INDEXCTL
280
     0
  9
$HIDETEXT
280
     0
  9
$XCLIPFRAME
290
     0
  9
$HALOGAP
280
     0
  9
$OBSCOLOR
 70
   257
  9
$OBSLTYPE
280
     0
  9
$INTERSECTIONDISPLAY
280
     0
  9
$INTERSECTIONCOLOR
 70
   257
  9
$DIMASSOC
280
     1
  9
$PROJECTNAME
  1

  0
ENDSEC
  0
SECTION
  2
CLASSES
  0
CLASS
  1
IMAGE
  2
AcDbRasterImage
  3
ISM
 90
     2175
 91
        0
280
     0
281
     1
  0
CLASS
  1
DICTIONARYVAR
  2
AcDbDictionaryVar
  3
ObjectDBX Classes
 90
        0
 91
        6
280
     0
281
     0
  0
CLASS
  1
RASTERVARIABLES
  2
AcDbRasterVariables
  3
ISM
 90
        0
 91
        0
280
     0
281
     0
  0
CLASS
  1
IMAGEDEF
  2
AcDbRasterImageDef
  3
ISM
 90
        0
 91
        0
280
     0
281
     0
  0
CLASS
  1
IMAGEDEF_REACTOR
  2
AcDbRasterImageDefReactor
  3
ISM
 90
        1
 91
        0
280
     0
281
     0
  0
CLASS
  1
IDBUFFER
  2
AcDbIdBuffer
  3
ObjectDBX Classes
 90
        0
 91
        0
280
     0
281
     0
  0
CLASS
  1
SPATIAL_FILTER
  2
AcDbSpatialFilter
  3
ObjectDBX Classes
 90
        0
 91
        0
280
     0
281
     0
  0
CLASS
  1
SORTENTSTABLE
  2
AcDbSortentsTable
  3
ObjectDBX Classes
 90
        0
 91
        1
280
     0
281
     0
  0
CLASS
  1
LAYER_INDEX
  2
AcDbLayerIndex
  3
ObjectDBX Classes
 90
        0
 91
        0
280
     0
281
     0
  0
CLASS
  1
SPATIAL_INDEX
  2
AcDbSpatialIndex
  3
ObjectDBX Classes
 90
        0
 91
        0
280
     0
281
     0
  0
CLASS
  1
OBJECT_PTR
  2
CAseDLPNTableRecord
  3
ASE-LPNTableRecord
 90
        1
 91
        0
280
     0
281
     0
  0
CLASS
  1
PLOTSETTINGS
  2
AcDbPlotSettings
  3
ObjectDBX Classes
 90
        0
 91
        0
280
     0
281
     0
  0
CLASS
  1
ACDBDICTIONARYWDFLT
  2
AcDbDictionaryWithDefault
  3
ObjectDBX Classes
 90
        0
 91
        1
280
     0
281
     0
  0
CLASS
  1
WIPEOUT
  2
AcDbWipeout
  3
"WipeOut|Product Desc: Object Enabler for WipeOut entity                        |Company: Autodesk, Inc.                        |WEB Address: www.autodesk.com"
 90
     2175
 91
        0
280
     0
281
     1
  0
CLASS
  1
WIPEOUTVARIABLES
  2
AcDbWipeoutVariables
  3
"WipeOut|Product Desc:     WipeOut Dbx Application|Company:          Autodesk, Inc.|WEB Address:      www.autodesk.com"
 90
        0
 91
        1
280
     0
281
     0
  0
CLASS
  1
RTEXT
  2
RText
  3
RText|AutoCAD Express Tool|expresstools@autodesk.com
 90
     3071
 91
        0
280
     0
281
     1
  0
CLASS
  1
ARCALIGNEDTEXT
  2
AcDbArcAlignedText
  3
ATEXT|AutoCAD Express Tool|expresstools@autodesk.com
 90
        0
 91
        0
280
     0
281
     1
  0
CLASS
  1
MATERIAL
  2
AcDbMaterial
  3
ObjectDBX Classes
 90
     1153
 91
        3
280
     0
281
     0
  0
CLASS
  1
VISUALSTYLE
  2
AcDbVisualStyle
  3
ObjectDBX Classes
 90
     4095
 91
       16
280
     0
281
     0
  0
CLASS
  1
TABLESTYLE
  2
AcDbTableStyle
  3
ObjectDBX Classes
 90
     4095
 91
        1
280
     0
281
     0
  0
CLASS
  1
SCALE
  2
AcDbScale
  3
ObjectDBX Classes
 90
     1153
 91
       33
280
     0
281
     0
  0
CLASS
  1
MLEADERSTYLE
  2
AcDbMLeaderStyle
  3
ACDB_MLEADERSTYLE_CLASS
 90
     4095
 91
        1
280
     0
281
     0
  0
CLASS
  1
CELLSTYLEMAP
  2
AcDbCellStyleMap
  3
ObjectDBX Classes
 90
     1152
 91
        4
280
     0
281
     0
  0
ENDSEC
  0
SECTION
  2
TABLES
  0
TABLE
  2
VPORT
  5
7
330
0
100
AcDbSymbolTable
 70
     1
  0
VPORT
  5
15
330
7
100
AcDbSymbolTableRecord
100
AcDbViewportTableRecord
  2
*ACTIVE
 70
     0
 10
0.0
 20
0.0
 11
1.0
 21
1.0
 12
58.77284695661569
 22
-3.757431875044119
 13
0.0
 23
0.0
 14
1.0
 24
1.0
 15
0.0
 25
0.0
 16
0.0
 26
0.0
 36
1.0
 17
0.0
 27
0.0
 37
0.0
 40
234.388979798097
 41
1.611330698287219
 42
50.0
 43
0.0
 44
0.0
 50
0.0
 51
0.0
 71
     0
 72
   100
 73
     1
 74
     1
 75
     0
 76
     0
 77
     0
 78
     0
281
     0
 65
     0
110
0.0
120
0.0
130
0.0
111
1.0
121
0.0
131
0.0
112
0.0
122
1.0
132
0.0
 79
     0
146
0.0
  0
ENDTAB
  0
TABLE
  2
LTYPE
  5
4
330
0
100
AcDbSymbolTable
 70
     2
  0
LTYPE
  5
11
330
4
100
AcDbSymbolTableRecord
100
AcDbLinetypeTableRecord
  2
ByBlock
 70
     0
  3

 72
    65
 73
     0
 40
0.0
  0
LTYPE
  5
12
330
4
100
AcDbSymbolTableRecord
100
AcDbLinetypeTableRecord
  2
ByLayer
 70
     0
  3

 72
    65
 73
     0
 40
0.0
  0
LTYPE
  5
13
330
4
100
AcDbSymbolTableRecord
100
AcDbLinetypeTableRecord
  2
Continuous
 70
     0
  3
Solid line
 72
    65
 73
     0
 40
0.0
  0
LTYPE
  5
689
330
4
100
AcDbSymbolTableRecord
100
AcDbLinetypeTableRecord
  2
CENTER
 70
     0
  3
____ _ ____ _ ____ _ ____ _ ____ _ ____ _ ____
 72
    65
 73
     4
 40
2.0
 49
1.25
 74
     0
 49
-0.25
 74
     0
 49
0.25
 74
     0
 49
-0.25
 74
     0
  0
ENDTAB
  0
TABLE
  2
LAYER
  5
2
330
0
100
AcDbSymbolTable
 70
     1
  0
LAYER
  5
14
102
{ACAD_XDICTIONARY
360
2349
102
}
330
2
100
AcDbSymbolTableRecord
100
AcDbLayerTableRecord
  2
0
 70
     0
 62
     7
  6
Continuous
370
    -3
390
1D
  0
ENDTAB
  0
TABLE
  2
STYLE
  5
3
330
0
100
AcDbSymbolTable
 70
     1
  0
STYLE
  5
17
330
3
100
AcDbSymbolTableRecord
100
AcDbTextStyleTableRecord
  2
Standard
 70
     0
 40
0.0
 41
1.0
 50
0.0
 71
     0
 42
0.0
  3
IsonormD
  4

1001
ACAD
1000
IsonormD
1071
        0
  0
ENDTAB
  0
TABLE
  2
VIEW
  5
5
330
0
100
AcDbSymbolTable
 70
     0
  0
ENDTAB
  0
TABLE
  2
UCS
  5
6
330
0
100
AcDbSymbolTable
 70
     0
  0
ENDTAB
  0
TABLE
  2
APPID
  5
8
330
0
100
AcDbSymbolTable
 70
     5
  0
APPID
  5
16
330
8
100
AcDbSymbolTableRecord
100
AcDbRegAppTableRecord
  2
ACAD
 70
     0
  0
APPID
  5
26
330
8
100
AcDbSymbolTableRecord
100
AcDbRegAppTableRecord
  2
TopSolid'Draft
 70
     0
  0
APPID
  5
2345
330
8
100
AcDbSymbolTableRecord
100
AcDbRegAppTableRecord
  2
ACAD_MLEADERVER
 70
     0
  0
APPID
  5
234D
330
8
100
AcDbSymbolTableRecord
100
AcDbRegAppTableRecord
  2
DCO15
 70
     0
  0
APPID
  5
59C2
330
8
100
AcDbSymbolTableRecord
100
AcDbRegAppTableRecord
  2
ACAD_EXEMPT_FROM_CAD_STANDARDS
 70
     0
  0
ENDTAB
  0
TABLE
  2
DIMSTYLE
  5
9
330
0
100
AcDbSymbolTable
 70
     1
100
AcDbDimStyleTable
 71
     1
340
18
  0
DIMSTYLE
105
18
330
9
100
AcDbSymbolTableRecord
100
AcDbDimStyleTableRecord
  2
Standard
 70
     0
 41
1.25
 42
0.0
 44
0.75
 73
     0
 74
     0
 77
     1
140
2.5
146
0.8
147
1.25
176
     7
177
     7
178
     7
271
     2
340
17
  0
ENDTAB
  0
TABLE
  2
BLOCK_RECORD
  5
1
330
0
100
AcDbSymbolTable
 70
     3
  0
BLOCK_RECORD
  5
A
102
{ACAD_XDICTIONARY
360
235B
102
}
330
1
100
AcDbSymbolTableRecord
100
AcDbBlockTableRecord
  2
*MODEL_SPACE
340
20
  0
BLOCK_RECORD
  5
B
330
1
100
AcDbSymbolTableRecord
100
AcDbBlockTableRecord
  2
*PAPER_SPACE
340
21
  0
BLOCK_RECORD
  5
5A03
330
1
100
AcDbSymbolTableRecord
100
AcDbBlockTableRecord
  2
AID5699
340
0
102
{BLKREFS
331
5A98
331
5A9E
102
}
  0
ENDTAB
  0
ENDSEC
  0
SECTION
  2
BLOCKS
  0
BLOCK
  5
D
330
A
100
AcDbEntity
  8
0
100
AcDbBlockBegin
  2
*MODEL_SPACE
 70
     0
 10
0.0
 20
0.0
 30
0.0
  3
*MODEL_SPACE
  1

  0
ENDBLK
  5
E
330
A
100
AcDbEntity
  8
0
100
AcDbBlockEnd
  0
BLOCK
  5
F
330
B
100
AcDbEntity
 67
     1
  8
0
100
AcDbBlockBegin
  2
*PAPER_SPACE
 70
     0
 10
0.0
 20
0.0
 30
0.0
  3
*PAPER_SPACE
  1

  0
ENDBLK
  5
10
330
B
100
AcDbEntity
 67
     1
  8
0
100
AcDbBlockEnd
  0
BLOCK
  5
5A04
330
5A03
100
AcDbEntity
  8
0
100
AcDbBlockBegin
  2
AID5699
 70
     0
 10
0.0
 20
0.0
 30
0.0
  3
AID5699
  1

  0
ELLIPSE
  5
5A05
330
5A03
100
AcDbEntity
  8
0
  6
Continuous
 62
     7
100
AcDbEllipse
 10
-195.7701193985033
 20
33.52009417861609
 30
0.0
 11
-5.799999999999998
 21
0.0000000001821876
 31
0.0
210
0.0
220
0.0
230
1.0
 40
0.4082482904115109
 41
6.283185307179584
 42
7.390334024986499
  0
ELLIPSE
  5
5A06
330
5A03
100
AcDbEntity
  8
0
  6
Continuous
 62
     7
100
AcDbEllipse
 10
-195.7701193985033
 20
33.52009417861609
 30
0.0
 11
-5.799999999999998
 21
0.0000000001821807
 31
-0.0000000000000002
210
0.0
220
0.0
230
1.0
 40
0.4082482904115114
 41
1.107148717806912
 42
3.14159265358979
  0
ELLIPSE
  5
5A07
330
5A03
100
AcDbEntity
  8
0
  6
Continuous
 62
     7
100
AcDbEllipse
 10
-195.7701193984736
 20
50.53600829846755
 30
0.0
 11
5.799999999999998
 21
0.0000000001822639
 31
0.0
210
0.0
220
0.0
230
1.0
 40
0.4082482905162391
 41
3.14159265358979
 42
6.169581606905987
  0
ELLIPSE
  5
5A08
330
5A03
100
AcDbEntity
  8
0
  6
Continuous
 62
     7
100
AcDbEllipse
 10
-195.7701193985035
 20
51.4853940647855
 30
0.0
 11
5.799999999999998
 21
0.000000000182257
 31
0.0
210
0.0
220
0.0
230
1.0
 40
0.4082482905162398
 41
3.70943338144545
 42
5.490794709806332
  0
ELLIPSE
  5
5A09
330
5A03
100
AcDbEntity
  8
0
  6
Continuous
 62
     7
100
AcDbEllipse
 10
-255.1958619682797
 20
75.40991537638989
 30
0.0
 11
-1.011928851322063
 21
1.239354670730675
 31
-0.0000000000000001
210
-0.0000000000000001
220
0.0
230
0.9999999999999998
 40
0.8164965809460626
 41
0.0
 42
0.6348298902420244
  0
LINE
  5
5A0A
330
5A03
100
AcDbEntity
  8
0
  6
Continuous
 62
     7
100
AcDbLine
 10
-255.1958619682797
 20
76.87050886307031
 30
0.0
 11
-201.1724596306714
 21
65.84302803962387
 31
0.0
  0
ELLIPSE
  5
5A0B
330
5A03
100
AcDbEntity
  8
0
  6
Continuous
 62
     7
100
AcDbEllipse
 10
-201.1724596306713
 20
64.38243455294345
 30
0.0
 11
-1.011928851322063
 21
1.239354670730675
 31
0.0
210
0.0
220
0.0
230
0.9999999999999998
 40
0.8164965809460625
 41
3.926990816942301
 42
5.497787143737221
  0
LINE
  5
5A0C
330
5A03
100
AcDbEntity
  8
0
  6
Continuous
 62
     7
100
AcDbLine
 10
-199.7413761250393
 20
64.09031585563358
 30
0.0
 11
-199.7413761250393
 21
62.59633263265082
 31
0.0
  0
LINE
  5
5A0D
330
5A03
100
AcDbEntity
  8
0
  6
Continuous
 62
     9
100
AcDbLine
 10
-201.0293512801242
 20
65.95987551856092
 30
0.0
 11
-201.1724596306713
 21
65.84302803962386
 31
0.0
  0
ELLIPSE
  5
5A0E
330
5A03
100
AcDbEntity
  8
0
  6
Continuous
 62
     7
100
AcDbEllipse
 10
-201.0293512801242
 20
64.49928203188047
 30
0.0
 11
-1.01192885132209
 21
1.239354670730691
 31
0.0
210
0.0
220
0.0
230
1.0
 40
0.8164965809460625
 41
3.926990816942332
 42
5.497787143737231
  0
LINE
  5
5A0F
330
5A03
100
AcDbEntity
  8
0
  6
Continuous
 62
     9
100
AcDbLine
 10
-199.5982677744922
 20
64.20716333457065
 30
0.0
 11
-199.7413761250393
 21
64.09031585563358
 31
0.0
  0
LINE
  5
5A10
330
5A03
100
AcDbEntity
  8
0
  6
Continuous
 62
     9
100
AcDbLine
 10
-255.0527536177325
 20
76.98735634200737
 30
0.0
 11
-255.1958619682797
 21
76.87050886307031
 31
0.0
  0
LINE
  5
5A11
330
5A03
100
AcDbEntity
  8
0
  6
Continuous
 62
     7
100
AcDbLine
 10
-255.0527536177325
 20
76.98735634200737
 30
0.0
 11
-201.0293512801242
 21
65.95987551856094
 31
0.0
  0
LINE
  5
5A12
330
5A03
100
AcDbEntity
  8
0
  6
Continuous
 62
     7
100
AcDbLine
 10
-199.5982677744922
 20
64.20716333457065
 30
0.0
 11
-199.5982677744921
 21
62.64630868817415
 31
0.0
  0
ELLIPSE
  5
5A13
330
5A03
100
AcDbEntity
  8
0
  6
Continuous
 62
     7
100
AcDbEllipse
 10
-255.0527536177325
 20
75.52676285532696
 30
0.0
 11
-1.011928851322063
 21
1.239354670730691
 31
0.0000000000000001
210
0.0
220
0.0
230
1.0
 40
0.8164965809460619
 41
5.497787143737217
 42
6.283185307179588
  0
ELLIPSE
  5
5A14
330
5A03
100
AcDbEntity
  8
0
  6
Continuous
 62
     7
100
AcDbEllipse
 10
-255.1958619682797
 20
75.40991537638989
 30
0.0
 11
-1.011928851322063
 21
1.239354670730691
 31
0.0000000000000001
210
0.0
220
0.0
230
1.0
 40
0.8164965809460619
 41
5.497787143737217
 42
6.283185307179588
  0
ELLIPSE
  5
5A15
330
5A03
100
AcDbEntity
  8
0
  6
Continuous
 62
     7
100
AcDbEllipse
 10
-195.7701193982281
 20
61.70954847177338
 30
0.0
 11
-4.239999999999993
 21
-0.0000000001305622
 31
-0.0000000000000001
210
0.0
220
0.0
230
1.0
 40
0.4082482905151858
 41
5.819537698103351
 42
7.390334024961101
  0
ELLIPSE
  5
5A16
330
5A03
100
AcDbEntity
  8
0
  6
Continuous
 62
     7
100
AcDbEllipse
 10
-195.7701193982281
 20
61.70954847177338
 30
0.0
 11
-4.239999999999993
 21
-0.0000000001305622
 31
0.0000000000000002
210
0.0
220
0.0
230
1.0
 40
0.4082482905151856
 41
3.605240262666011
 42
5.819537698103351
  0
ELLIPSE
  5
5A17
330
5A03
100
AcDbEntity
  8
0
  6
Continuous
 62
     7
100
AcDbEllipse
 10
-195.7701193982123
 20
61.19834075144808
 30
0.0
 11
4.799999999999998
 21
0.0000000001478193
 31
-0.0000000000000003
210
0.0000000000000001
220
0.0
230
1.0
 40
0.4082482905151869
 41
6.283185307179572
 42
6.746832916255817
  0
ELLIPSE
  5
5A18
330
5A03
100
AcDbEntity
  8
0
  6
Continuous
 62
     7
100
AcDbEllipse
 10
-195.7701193982281
 20
61.70954847177338
 30
0.0
 11
-4.239999999999993
 21
-0.0000000001305692
 31
0.0000000000000004
210
0.0000000000000001
220
0.0000000000000001
230
1.0
 40
0.4082482905151868
 41
1.107148717781514
 42
3.605240262666008
  0
ELLIPSE
  5
5A19
330
5A03
100
AcDbEntity
  8
0
  6
Continuous
 62
     7
100
AcDbEllipse
 10
-195.7701193982123
 20
61.19834075144808
 30
0.0
 11
4.799999999999998
 21
0.0000000001478123
 31
0.0
210
0.0
220
0.0
230
1.0
 40
0.4082482905151858
 41
3.141592653589794
 42
4.248741371371311
  0
ELLIPSE
  5
5A1A
330
5A03
100
AcDbEntity
  8
0
  6
Continuous
 62
     7
100
AcDbEllipse
 10
-195.7701193981988
 20
60.76016270545498
 30
0.0
 11
-4.799999999999998
 21
-0.0000000001478123
 31
0.0
210
0.0
220
0.0
230
1.0
 40
0.4082482905151858
 41
0.0000000000000033
 42
1.107148717781514
  0
ELLIPSE
  5
5A1B
330
5A03
100
AcDbEntity
  8
0
  6
Continuous
 62
     7
100
AcDbEllipse
 10
-195.7701193982123
 20
61.19834075144808
 30
0.0
 11
4.799999999999998
 21
0.0000000001478123
 31
0.0
210
0.0
220
0.0
230
1.0
 40
0.4082482905151858
 41
4.248741371371311
 42
6.283185307179577
  0
ELLIPSE
  5
5A1C
330
5A03
100
AcDbEntity
  8
0
  6
Continuous
 62
     7
100
AcDbEllipse
 10
-195.7701193982123
 20
61.19834075144808
 30
0.0
 11
4.799999999999998
 21
0.0000000001478123
 31
0.0
210
0.0
220
0.0
230
1.0
 40
0.4082482905151858
 41
2.677945044513556
 42
3.14159265358979
  0
ELLIPSE
  5
5A1D
330
5A03
100
AcDbEntity
  8
0
  6
Continuous
 62
     7
100
AcDbEllipse
 10
-195.7701193981988
 20
60.76016270545498
 30
0.0
 11
-4.799999999999998
 21
-0.0000000001478123
 31
0.0
210
0.0
220
0.0
230
1.0
 40
0.4082482905151856
 41
1.107148717781514
 42
3.141592653589783
  0
ELLIPSE
  5
5A1E
330
5A03
100
AcDbEntity
  8
0
  6
Continuous
 62
     7
100
AcDbEllipse
 10
-195.7701193982281
 20
23.29593977207778
 30
0.0
 11
4.239999999999993
 21
0.0000000001332059
 31
-0.0000000000000002
210
0.0
220
0.0
230
1.0
 40
0.4082482905162187
 41
3.835654660463293
 42
5.589123300001983
  0
LINE
  5
5A1F
330
5A03
100
AcDbEntity
  8
0
  6
Continuous
 62
     7
100
AcDbLine
 10
-189.5091290612286
 20
62.22075619211157
 30
0.0
 11
-192.5717186098179
 21
62.8459046659136
 31
0.0
  0
ELLIPSE
  5
5A20
330
5A03
100
AcDbEntity
  8
0
  6
Continuous
 62
     7
100
AcDbEllipse
 10
-189.1513581848287
 20
62.51287488944765
 30
0.0
 11
0.7999999999999952
 21
0.0
 31
0.0
210
0.0
220
0.0
230
1.0
 40
0.408248290463863
 41
4.248741371383878
 42
5.819537698178782
  0
LINE
  5
5A21
330
5A03
100
AcDbEntity
  8
0
  6
Continuous
 62
     7
100
AcDbLine
 10
-182.8903678478291
 20
66.89465534948896
 30
0.0
 11
-188.4358164320287
 21
62.36681554077959
 31
0.0
  0
LINE
  5
5A22
330
5A03
100
AcDbEntity
  8
0
  6
Continuous
 62
     7
100
AcDbLine
 10
-180.0282008366295
 20
66.31041795481678
 30
0.0
 11
-182.8903678478291
 21
66.89465534948896
 31
0.0
  0
LINE
  5
5A23
330
5A03
100
AcDbEntity
  8
0
  6
Continuous
 62
     7
100
AcDbLine
 10
-187.7202746792288
 20
60.0298659620909
 30
0.0
 11
-180.0282008366295
 21
66.3104179548168
 31
0.0
  0
LINE
  5
5A24
330
5A03
100
AcDbEntity
  8
0
  6
Continuous
 62
     7
100
AcDbLine
 10
-192.4013152980995
 20
58.73321265938669
 30
0.0
 11
-187.7202746792288
 21
60.0298659620909
 31
0.0
  0
ELLIPSE
  5
5A25
330
5A03
100
AcDbEntity
  8
0
  6
Continuous
 62
     7
100
AcDbEllipse
 10
-195.770119398228
 20
60.7601627054311
 30
0.0
 11
-6.000000000000002
 21
0.0
 31
0.0
210
0.0
220
0.0
230
1.0
 40
0.4082482904638633
 41
5.819537698178779
 42
6.283185307179584
  0
ELLIPSE
  5
5A26
330
5A03
100
AcDbEntity
  8
0
  6
Continuous
 62
     7
100
AcDbEllipse
 10
-195.770119398228
 20
60.7601627054311
 30
0.0
 11
-6.000000000000002
 21
0.0
 31
0.0
210
0.0
220
0.0
230
1.0
 40
0.4082482904638633
 41
5.286611521418032
 42
5.819537698178777
  0
ELLIPSE
  5
5A27
330
5A03
100
AcDbEntity
  8
0
  6
Continuous
 62
     7
100
AcDbEllipse
 10
-195.770119398228
 20
60.7601627054311
 30
0.0
 11
-6.000000000000002
 21
0.0
 31
0.0
210
0.0
220
0.0
230
1.0
 40
0.4082482904638633
 41
0.0
 42
2.16695429729194
  0
ELLIPSE
  5
5A28
330
5A03
100
AcDbEntity
  8
0
  6
Continuous
 62
     7
100
AcDbEllipse
 10
-195.770119398228
 20
51.63145341367837
 30
0.0
 11
-6.000000000000002
 21
0.0
 31
0.0
210
0.0
220
0.0
230
1.0
 40
0.4082482904638633
 41
0.0000000000000034
 42
2.166954297291939
  0
LINE
  5
5A29
330
5A03
100
AcDbEntity
  8
0
  6
Continuous
 62
     9
100
AcDbLine
 10
-192.4013152980995
 20
58.73321265938669
 30
0.0
 11
-192.4013152980995
 21
49.60450336763393
 31
0.0
  0
LINE
  5
5A2A
330
5A03
100
AcDbEntity
  8
0
  6
Continuous
 62
     7
100
AcDbLine
 10
-187.7202746792288
 20
60.0298659620909
 30
0.0
 11
-187.7202746792288
 21
50.90115667033813
 31
0.0
  0
LINE
  5
5A2B
330
5A03
100
AcDbEntity
  8
0
  6
Continuous
 62
     7
100
AcDbLine
 10
-192.4013152980995
 20
49.60450336763392
 30
0.0
 11
-187.7202746792288
 21
50.90115667033813
 31
0.0
  0
LINE
  5
5A2C
330
5A03
100
AcDbEntity
  8
0
  6
Continuous
 62
     7
100
AcDbLine
 10
-180.0282008366295
 20
66.31041795481678
 30
0.0
 11
-180.0282008366295
 21
29.79558078780573
 31
0.0
  0
LINE
  5
5A2D
330
5A03
100
AcDbEntity
  8
0
  6
Continuous
 62
     7
100
AcDbLine
 10
-187.7202746792288
 20
23.51502879507983
 30
0.0
 11
-180.0282008366295
 21
29.79558078780573
 31
0.0
  0
LINE
  5
5A2E
330
5A03
100
AcDbEntity
  8
0
  6
Continuous
 62
     7
100
AcDbLine
 10
-187.7202746792288
 20
32.64373808683263
 30
0.0
 11
-187.7202746792288
 21
23.51502879507986
 31
0.0
  0
LINE
  5
5A2F
330
5A03
100
AcDbEntity
  8
0
  6
Continuous
 62
     7
100
AcDbLine
 10
-187.7202746792288
 20
32.64373808683263
 30
0.0
 11
-186.0029744725089
 21
34.04590783404586
 31
0.0
  0
ELLIPSE
  5
5A30
330
5A03
100
AcDbEntity
  8
0
  6
Continuous
 62
     7
100
AcDbEllipse
 10
-186.0029744725089
 20
35.14135294905619
 30
0.0
 11
-0.2399999999999902
 21
-1.175755076535931
 31
0.0
210
0.0
220
0.0
230
1.0
 40
0.4082482904638633
 41
0.4636476090008081
 42
2.034443935795704
  0
LINE
  5
5A31
330
5A03
100
AcDbEntity
  8
0
  6
Continuous
 62
     7
100
AcDbLine
 10
-185.466318157909
 20
35.57953099506031
 30
0.0
 11
-185.466318157909
 21
51.64605934854517
 31
0.0
  0
ELLIPSE
  5
5A32
330
5A03
100
AcDbEntity
  8
0
  6
Continuous
 62
     7
100
AcDbEllipse
 10
-186.0029744725089
 20
51.20788130254108
 30
0.0
 11
-0.2399999999999902
 21
-1.175755076535931
 31
0.0
210
0.0
220
0.0
230
1.0
 40
0.408248290463863
 41
3.141592653589813
 42
3.605240262590596
  0
ELLIPSE
  5
5A33
330
5A03
100
AcDbEntity
  8
0
  6
Continuous
 62
     7
100
AcDbEllipse
 10
-182.8903678478291
 20
33.30100515583881
 30
0.0
 11
-0.5119999999999847
 21
-2.508277496609963
 31
0.0
210
0.0
220
0.0
230
0.9999999999999998
 40
0.408248290463863
 41
0.0
 42
0.4636476090008061
  0
ELLIPSE
  5
5A34
330
5A03
100
AcDbEntity
  8
0
  6
Continuous
 62
     7
100
AcDbEllipse
 10
-182.8903678478291
 20
58.13109442940635
 30
0.0
 11
-0.5120000000000125
 21
-2.508277496609978
 31
0.0
210
0.0
220
0.0
230
0.9999999999999998
 40
0.4082482904638633
 41
0.000000000000002
 42
0.4636476090008049
  0
LINE
  5
5A35
330
5A03
100
AcDbEntity
  8
0
  6
Continuous
 62
     7
100
AcDbLine
 10
-186.0029744725089
 20
52.30332641755135
 30
0.0
 11
-187.7202746792288
 21
50.90115667033813
 31
0.0
  0
LINE
  5
5A36
330
5A03
100
AcDbEntity
  8
0
  6
Continuous
 62
     7
100
AcDbLine
 10
-187.7202746792288
 20
32.64373808683263
 30
0.0
 11
-192.4013152980996
 21
31.34708478412842
 31
0.0
  0
ELLIPSE
  5
5A37
330
5A03
100
AcDbEntity
  8
0
  6
Continuous
 62
     7
100
AcDbEllipse
 10
-195.770119398228
 20
33.37403483017285
 30
0.0
 11
6.000000000000002
 21
0.0
 31
-0.0000000000000001
210
0.0
220
0.0
230
1.0
 40
0.4082482904638633
 41
3.141592653589798
 42
5.308546950881733
  0
LINE
  5
5A38
330
5A03
100
AcDbEntity
  8
0
  6
Continuous
 62
     9
100
AcDbLine
 10
-186.0029744725089
 20
34.04590783404586
 30
0.0
 11
-189.770119398228
 21
34.81487307197305
 31
0.0
  0
ELLIPSE
  5
5A39
330
5A03
100
AcDbEntity
  8
0
  6
Continuous
 62
     7
100
AcDbEllipse
 10
-195.770119398228
 20
24.24532553842007
 30
0.0
 11
-6.000000000000002
 21
0.0
 31
0.0
210
0.0
220
0.0
230
1.0
 40
0.4082482904638633
 41
0.0000000000000035
 42
2.166954297291939
  0
ELLIPSE
  5
5A3A
330
5A03
100
AcDbEntity
  8
0
  6
Continuous
 62
     7
100
AcDbEllipse
 10
-195.770119398228
 20
33.37403483017285
 30
0.0
 11
6.000000000000002
 21
0.0
 31
0.0
210
0.0
220
0.0
230
1.0
 40
0.408248290463863
 41
2.916079247693731
 42
3.141592653589798
  0
LINE
  5
5A3B
330
5A03
100
AcDbEntity
  8
0
  6
Continuous
 62
     9
100
AcDbLine
 10
-192.4013152980995
 20
31.3470847841284
 30
0.0
 11
-192.4013152980995
 21
22.21837549237562
 31
0.0
  0
ELLIPSE
  5
5A3C
330
5A03
100
AcDbEntity
  8
0
  6
Continuous
 62
     7
100
AcDbEllipse
 10
-186.0029744725089
 20
51.20788130254108
 30
0.0
 11
-0.2399999999999902
 21
-1.175755076535931
 31
0.0000000000000001
210
0.0
220
0.0000000000000001
230
1.0
 40
0.4082482904638628
 41
2.034443935795708
 42
3.141592653589813
  0
LINE
  5
5A3D
330
5A03
100
AcDbEntity
  8
0
  6
Continuous
 62
     9
100
AcDbLine
 10
-185.466318157909
 20
51.64605934854516
 30
0.0
 11
-186.5396307871089
 21
51.86514837154722
 31
0.0
  0
ELLIPSE
  5
5A3E
330
5A03
100
AcDbEntity
  8
0
  6
Continuous
 62
     7
100
AcDbEllipse
 10
-185.394763982629
 20
58.64230214974448
 30
0.0
 11
0.7999999999999955
 21
3.919183588453084
 31
0.0
210
0.0
220
0.0
230
1.0
 40
0.4082482904638631
 41
4.471893816961211
 42
4.952884143811759
  0
ELLIPSE
  5
5A3F
330
5A03
100
AcDbEntity
  8
0
  6
Continuous
 62
     7
100
AcDbEllipse
 10
-184.1067888275891
 20
58.37939532214203
 30
0.0
 11
0.5120000000000125
 21
2.508277496609978
 31
0.0
210
0.0
220
0.0
230
0.9999999999999998
 40
0.408248290463863
 41
3.777559424000298
 42
5.647218536769076
  0
LINE
  5
5A40
330
5A03
100
AcDbEntity
  8
0
  6
Continuous
 62
     7
100
AcDbLine
 10
-192.4013152980995
 20
22.21837549237562
 30
0.0
 11
-187.7202746792288
 21
23.51502879507984
 31
0.0
  0
ELLIPSE
  5
5A41
330
5A03
100
AcDbEntity
  8
0
  6
Continuous
 62
     7
100
AcDbEllipse
 10
-182.8903678478291
 20
58.13109442940635
 30
0.0
 11
-0.5120000000000125
 21
-2.508277496609978
 31
0.0000000000000002
210
0.0
220
0.0000000000000001
230
0.9999999999999998
 40
0.4082482904638633
 41
0.4636476090008061
 42
3.141592653589796
  0
ELLIPSE
  5
5A42
330
5A03
100
AcDbEntity
  8
0
  6
Continuous
 62
     7
100
AcDbEllipse
 10
-182.8903678478291
 20
58.13109442940635
 30
0.0
 11
-0.5120000000000125
 21
-2.508277496609978
 31
0.0000000000000002
210
0.0
220
0.0000000000000001
230
0.9999999999999998
 40
0.4082482904638633
 41
3.141592653589797
 42
6.283185307179588
  0
LINE
  5
5A43
330
5A03
100
AcDbEntity
  8
0
  6
Continuous
 62
     9
100
AcDbLine
 10
-188.3284851691088
 20
36.16376838973251
 30
0.0
 11
-185.466318157909
 21
35.57953099506033
 31
0.0
  0
LINE
  5
5A44
330
5A03
100
AcDbEntity
  8
0
  6
Continuous
 62
     7
100
AcDbLine
 10
-188.3284851691088
 20
36.16376838973251
 30
0.0
 11
-188.3284851691088
 21
50.73268170832586
 31
0.0
  0
LINE
  5
5A45
330
5A03
100
AcDbEntity
  8
0
  6
Continuous
 62
     7
100
AcDbLine
 10
-189.770119398228
 20
34.89768370207352
 30
0.0
 11
-189.5091290612286
 21
34.84440927261973
 31
0.0
  0
POLYLINE
  5
5A46
330
5A03
100
AcDbEntity
  8
0
  6
Continuous
 62
     7
100
AcDb2dPolyline
 66
     1
 10
0.0
 20
0.0
 30
0.0
 40
0.5
 41
0.5
  0
VERTEX
  5
5A47
330
5A46
100
AcDbEntity
  8
0
 62
     7
100
AcDbVertex
100
AcDb2dVertex
 10
-189.5091290612286
 20
34.84440927261973
 30
0.0
 42
0.0984200409248181
  0
VERTEX
  5
5A48
330
5A46
100
AcDbEntity
  8
0
 62
     7
100
AcDbVertex
100
AcDb2dVertex
 10
-189.0283586490774
 20
34.84072498349084
 30
0.0
  0
VERTEX
  5
5A49
330
5A46
100
AcDbEntity
  8
0
 62
     7
100
AcDbVertex
100
AcDb2dVertex
 10
-188.9055190024525
 20
34.87511648038311
 30
0.0
  0
VERTEX
  5
5A4A
330
5A46
100
AcDbEntity
  8
0
 62
     7
100
AcDbVertex
100
AcDb2dVertex
 10
-188.7902991629319
 20
34.92794187401166
 30
0.0
  0
VERTEX
  5
5A4B
330
5A46
100
AcDbEntity
  8
0
 62
     7
100
AcDbVertex
100
AcDb2dVertex
 10
-188.6931774365381
 20
34.99464225909294
 30
0.0
  0
VERTEX
  5
5A4C
330
5A46
100
AcDbEntity
  8
0
 62
     7
100
AcDbVertex
100
AcDb2dVertex
 10
-188.6098738579796
 20
35.07634429374906
 30
0.0
  0
VERTEX
  5
5A4D
330
5A46
100
AcDbEntity
  8
0
 62
     7
100
AcDbVertex
100
AcDb2dVertex
 10
-188.5458181378722
 20
35.16350352277431
 30
0.0
  0
VERTEX
  5
5A4E
330
5A46
100
AcDbEntity
  8
0
 62
     7
100
AcDbVertex
100
AcDb2dVertex
 10
-188.4896432231148
 20
35.26893471528242
 30
0.0
  0
VERTEX
  5
5A4F
330
5A46
100
AcDbEntity
  8
0
 62
     7
100
AcDbVertex
100
AcDb2dVertex
 10
-188.447294507136
 20
35.38059752342721
 30
0.0
  0
VERTEX
  5
5A50
330
5A46
100
AcDbEntity
  8
0
 62
     7
100
AcDbVertex
100
AcDb2dVertex
 10
-188.4358164320287
 20
35.41886571152547
 30
0.0
  0
SEQEND
  5
5A51
330
5A46
100
AcDbEntity
  8
0
  0
ELLIPSE
  5
5A52
330
5A03
100
AcDbEntity
  8
0
  6
Continuous
 62
     7
100
AcDbEllipse
 10
-188.8651414837087
 20
35.72559034372837
 30
0.0
 11
0.2399999999999902
 21
1.175755076535915
 31
0.0
210
0.0
220
0.0
230
1.0
 40
0.4082482904638631
 41
4.532535480592208
 42
5.176036589385507
  0
ELLIPSE
  5
5A53
330
5A03
100
AcDbEntity
  8
0
  6
Continuous
 62
     7
100
AcDbEllipse
 10
-185.394763982629
 20
33.81221287617697
 30
0.0
 11
0.7999999999999955
 21
3.91918358845307
 31
0.0
210
0.0
220
0.0
230
1.0
 40
0.4082482904638631
 41
4.471893816917831
 42
4.952884143852672
  0
ELLIPSE
  5
5A54
330
5A03
100
AcDbEntity
  8
0
  6
Continuous
 62
     7
100
AcDbEllipse
 10
-184.1067888275891
 20
33.54930604857448
 30
0.0
 11
0.5119999999999847
 21
2.508277496609951
 31
-0.0000000000000002
210
0.0
220
0.0000000000000001
230
1.0
 40
0.4082482904638631
 41
3.777559423999937
 42
5.647218536769432
  0
ELLIPSE
  5
5A55
330
5A03
100
AcDbEntity
  8
0
  6
Continuous
 62
     7
100
AcDbEllipse
 10
-182.8903678478291
 20
33.30100515583881
 30
0.0
 11
-0.5119999999999847
 21
-2.508277496609963
 31
0.0000000000000002
210
0.0
220
0.0000000000000001
230
0.9999999999999998
 40
0.408248290463863
 41
0.4636476090008061
 42
3.141592653589792
  0
ELLIPSE
  5
5A56
330
5A03
100
AcDbEntity
  8
0
  6
Continuous
 62
     7
100
AcDbEllipse
 10
-182.8903678478291
 20
33.30100515583881
 30
0.0
 11
-0.5119999999999847
 21
-2.508277496609963
 31
0.0000000000000002
210
0.0
220
0.0000000000000001
230
0.9999999999999998
 40
0.408248290463863
 41
3.141592653589792
 42
6.283185307179584
  0
LINE
  5
5A57
330
5A03
100
AcDbEntity
  8
0
  6
Continuous
 62
     7
100
AcDbLine
 10
-258.7020165573467
 20
82.40615817781138
 30
0.0
 11
-260.8486418156699
 21
80.65344599377919
 31
0.0
  0
LINE
  5
5A58
330
5A03
100
AcDbEntity
  8
0
  6
Continuous
 62
     7
100
AcDbLine
 10
-258.7020165573467
 20
82.40615817781138
 30
0.0
 11
-194.3032588047774
 21
69.2608167981572
 31
0.0
  0
LINE
  5
5A59
330
5A03
100
AcDbEntity
  8
0
  6
Continuous
 62
     7
100
AcDbLine
 10
-194.3032588047774
 20
69.2608167981572
 30
0.0
 11
-196.4498840631005
 21
67.50810461412505
 31
0.0
  0
LINE
  5
5A5A
330
5A03
100
AcDbEntity
  8
0
  6
Continuous
 62
     7
100
AcDbLine
 10
-260.8486418156699
 20
80.65344599377921
 30
0.0
 11
-196.4498840631005
 21
67.50810461412505
 31
0.0
  0
LINE
  5
5A5B
330
5A03
100
AcDbEntity
  8
0
  6
Continuous
 62
     7
100
AcDbLine
 10
-194.3032588047774
 20
69.2608167981572
 30
0.0
 11
-194.3032588047774
 21
63.33363385561742
 31
0.0
  0
LINE
  5
5A5C
330
5A03
100
AcDbEntity
  8
0
  6
Continuous
 62
     7
100
AcDbLine
 10
-196.4498840631005
 20
67.50810461412505
 30
0.0
 11
-196.4498840631004
 21
63.41813073027687
 31
0.0
  0
ELLIPSE
  5
5A5D
330
5A03
100
AcDbEntity
  8
0
  6
Continuous
 62
     7
100
AcDbEllipse
 10
-199.4909365125273
 20
65.02509568674608
 30
0.0
 11
-1.264911064101287
 21
1.549193338455268
 31
0.0
210
0.0
220
0.0
230
1.0
 40
0.8164965809350166
 41
3.926990816969348
 42
5.497787143764256
  0
LINE
  5
5A5E
330
5A03
100
AcDbEntity
  8
0
  6
Continuous
 62
     7
100
AcDbLine
 10
-203.068645276559
 20
67.58113428841075
 30
0.0
 11
-199.4909365125273
 21
66.85083754509661
 31
0.0
  0
ELLIPSE
  5
5A5F
330
5A03
100
AcDbEntity
  8
0
  6
Continuous
 62
     7
100
AcDbEllipse
 10
-203.068645276559
 20
65.75539243006023
 30
0.0
 11
-1.264911064101257
 21
1.549193338455268
 31
0.0000000000000001
210
0.0
220
0.0
230
1.0
 40
0.8164965809350219
 41
5.497787143764262
 42
6.141288252557548
  0
LINE
  5
5A60
330
5A03
100
AcDbEntity
  8
0
  6
Continuous
 62
     7
100
AcDbLine
 10
-204.1419579057685
 20
67.43507493973488
 30
0.0
 11
-253.3640750813156
 21
77.48249753425056
 31
0.0
  0
ELLIPSE
  5
5A61
330
5A03
100
AcDbEntity
  8
0
  6
Continuous
 62
     7
100
AcDbEllipse
 10
-254.4373877105251
 20
76.24099307056437
 30
0.0
 11
-1.264911064101257
 21
1.549193338455268
 31
0.0
210
0.0
220
0.0
230
1.0
 40
0.8164965809350166
 41
4.854286034970971
 42
5.497787143764256
  0
LINE
  5
5A62
330
5A03
100
AcDbEntity
  8
0
  6
Continuous
 62
     7
100
AcDbLine
 10
-258.0150964745568
 20
78.79703167222901
 30
0.0
 11
-254.4373877105251
 21
78.06673492891491
 31
0.0
  0
ELLIPSE
  5
5A63
330
5A03
100
AcDbEntity
  8
0
  6
Continuous
 62
     7
100
AcDbEllipse
 10
-258.0150964745568
 20
76.97128981387845
 30
0.0
 11
-1.264911064101257
 21
1.549193338455268
 31
0.0
210
0.0
220
0.0
230
1.0
 40
0.8164965809350254
 41
6.283185307179577
 42
7.068583470559156
  0
LINE
  5
5A64
330
5A03
100
AcDbEntity
  8
0
  6
Continuous
 62
     7
100
AcDbLine
 10
-259.8039508565726
 20
76.5696266053171
 30
0.0
 11
-259.8039508565726
 21
77.33643818553554
 31
0.0
  0
LINE
  5
5A65
330
5A03
100
AcDbEntity
  8
0
  6
Continuous
 62
     7
100
AcDbLine
 10
-197.7020821305115
 20
64.65994731508899
 30
0.0
 11
-197.7020821305115
 21
63.25038806994342
 31
0.0
  0
LINE
  5
5A66
330
5A03
100
AcDbEntity
  8
0
  6
Continuous
 62
     7
100
AcDbLine
 10
-260.8486418156699
 20
76.78287325437434
 30
0.0
 11
-260.8486418156699
 21
80.65344599377921
 31
0.0
  0
LINE
  5
5A67
330
5A03
100
AcDbEntity
  8
0
  6
Continuous
 62
     7
100
AcDbLine
 10
-258.1939819128304
 20
76.24099307082573
 30
0.0
 11
-258.1939819128304
 21
78.65097232355968
 31
0.0
  0
ELLIPSE
  5
5A68
330
5A03
100
AcDbEntity
  8
0
  6
Continuous
 62
     7
100
AcDbEllipse
 10
-256.4051275308145
 20
78.28582395190261
 30
0.0
 11
-1.264911064101257
 21
1.549193338455294
 31
0.0000000000000001
210
0.0000000000000001
220
0.0
230
1.0
 40
0.8164965809350212
 41
0.6898170900958052
 42
0.7853981633795807
  0
ELLIPSE
  5
5A69
330
5A03
100
AcDbEntity
  8
0
  6
Continuous
 62
     7
100
AcDbEllipse
 10
-258.0150964745568
 20
76.97128981387845
 30
0.0
 11
-1.264911064101257
 21
1.549193338455294
 31
0.0
210
-0.0000000000000001
220
-0.0000000000000001
230
1.0
 40
0.8164965809350212
 41
5.497787143764266
 42
6.283185307179588
  0
LINE
  5
5A6A
330
5A03
100
AcDbEntity
  8
0
  6
Continuous
 62
     9
100
AcDbLine
 10
-259.8039508565726
 20
77.33643818553554
 30
0.0
 11
-258.1939819128304
 21
78.6509723235597
 31
0.0
  0
LINE
  5
5A6B
330
5A03
100
AcDbEntity
  8
0
  6
Continuous
 62
     7
100
AcDbLine
 10
-198.8827260229203
 20
62.8849406049839
 30
0.0
 11
-198.8827260229203
 21
66.25199421534735
 31
0.0
  0
LINE
  5
5A6C
330
5A03
100
AcDbEntity
  8
0
  6
Continuous
 62
     7
100
AcDbLine
 10
-198.8827260229203
 20
66.25199421534735
 30
0.0
 11
-198.7932833038204
 21
66.32502388968133
 31
0.0
  0
LINE
  5
5A6D
330
5A03
100
AcDbEntity
  8
0
  6
Continuous
 62
     7
100
AcDbLine
 10
-198.7932833038204
 20
62.9232260786784
 30
0.0
 11
-198.7932833038204
 21
66.32502388968133
 31
0.0
  0
LINE
  5
5A6E
330
5A03
100
AcDbEntity
  8
0
  6
Continuous
 62
     7
100
AcDbLine
 10
-257.2531367189974
 20
78.16680440552087
 30
0.0
 11
-198.8827260229203
 21
66.25199421534735
 31
0.0
  0
LINE
  5
5A6F
330
5A03
100
AcDbEntity
  8
0
  6
Continuous
 62
     7
100
AcDbLine
 10
-257.325088270312
 20
78.65618433734081
 30
0.0
 11
-257.2531367189974
 21
78.16680440552087
 31
0.0
  0
LINE
  5
5A70
330
5A03
100
AcDbEntity
  8
0
  6
Continuous
 62
     7
100
AcDbLine
 10
-198.7932833038204
 20
66.32502388968136
 30
0.0
 11
-199.1327068053106
 21
66.74073108236132
 31
0.0
  0
LINE
  5
5A71
330
5A03
100
AcDbEntity
  8
0
  6
Continuous
 62
     7
100
AcDbLine
 10
-257.2531367189974
 20
76.04894384983905
 30
0.0
 11
-257.2531367189974
 21
78.16680440552087
 31
0.0
  0
LINE
  5
5A72
330
5A03
100
AcDbEntity
  8
0
  6
Continuous
 62
     7
100
AcDbLine
 10
-257.4855955772185
 20
76.09639431557503
 30
0.0
 11
-257.4855955772185
 21
78.68894775416514
 31
0.0
  0
ELLIPSE
  5
5A73
330
5A03
100
AcDbEntity
  8
0
  6
Continuous
 62
     7
100
AcDbEllipse
 10
-195.770119398228
 20
34.46947994518318
 30
0.0
 11
-6.000000000000002
 21
0.0
 31
0.0
210
0.0
220
0.0
230
1.0
 40
0.408248290463863
 41
0.0000000000000035
 42
0.9623152220567387
  0
ELLIPSE
  5
5A74
330
5A03
100
AcDbEntity
  8
0
  6
Continuous
 62
     7
100
AcDbEllipse
 10
-195.770119398228
 20
34.46947994518318
 30
0.0
 11
-6.000000000000002
 21
0.0
 31
0.0
210
0.0
220
0.0
230
1.0
 40
0.408248290463863
 41
0.9623152220567387
 42
1.112137223831524
  0
ELLIPSE
  5
5A75
330
5A03
100
AcDbEntity
  8
0
  6
Continuous
 62
     7
100
AcDbEllipse
 10
-195.770119398228
 20
34.46947994518318
 30
0.0
 11
-6.000000000000002
 21
0.0
 31
0.0
210
0.0
220
0.0
230
1.0
 40
0.4082482904638633
 41
1.112137223831521
 42
1.264228350473573
  0
ELLIPSE
  5
5A76
330
5A03
100
AcDbEntity
  8
0
  6
Continuous
 62
     7
100
AcDbEllipse
 10
-195.770119398228
 20
34.46947994518318
 30
0.0
 11
-6.000000000000002
 21
0.0
 31
0.0
210
0.0
220
0.0
230
1.0
 40
0.4082482904638633
 41
1.264228350473577
 42
3.14159265358979
  0
ELLIPSE
  5
5A77
330
5A03
100
AcDbEntity
  8
0
  6
Continuous
 62
     7
100
AcDbEllipse
 10
-195.770119398228
 20
50.53600829866805
 30
0.0
 11
-6.000000000000002
 21
0.0
 31
0.0
210
0.0
220
0.0
230
1.0
 40
0.408248290463863
 41
0.0000000000000034
 42
3.056285942458118
  0
ELLIPSE
  5
5A78
330
5A03
100
AcDbEntity
  8
0
  6
Continuous
 62
     7
100
AcDbEllipse
 10
-195.770119398228
 20
50.53600829866805
 30
0.0
 11
-6.000000000000002
 21
0.0
 31
0.0
210
0.0
220
0.0
230
1.0
 40
0.4082482904638633
 41
6.057671901282687
 42
6.283185307179588
  0
LINE
  5
5A79
330
5A03
100
AcDbEntity
  8
0
  6
Continuous
 62
     7
100
AcDbLine
 10
-202.3888806116274
 20
52.43477983135264
 30
0.0
 11
-201.7701193982281
 21
52.30847572756482
 31
0.0
  0
LINE
  5
5A7A
330
5A03
100
AcDbEntity
  8
0
  6
Continuous
 62
     7
100
AcDbLine
 10
-201.7701193982281
 20
52.93999624650393
 30
0.0
 11
-202.3888806116274
 21
52.43477983135264
 31
0.0
  0
LINE
  5
5A7B
330
5A03
100
AcDbEntity
  8
0
  6
Continuous
 62
     7
100
AcDbLine
 10
-202.3888806116274
 20
36.36825147786777
 30
0.0
 11
-201.7701193982281
 21
36.24194737407993
 31
0.0
  0
LINE
  5
5A7C
330
5A03
100
AcDbEntity
  8
0
  6
Continuous
 62
     7
100
AcDbLine
 10
-202.3888806116274
 20
26.14409707110465
 30
0.0
 11
-202.3888806116274
 21
36.36825147786777
 31
0.0
  0
LINE
  5
5A7D
330
5A03
100
AcDbEntity
  8
0
  6
Continuous
 62
     7
100
AcDbLine
 10
-266.7876383636214
 20
39.28943845122862
 30
0.0
 11
-202.3888806116274
 21
26.14409707110463
 31
0.0
  0
LINE
  5
5A7E
330
5A03
100
AcDbEntity
  8
0
  6
Continuous
 62
     7
100
AcDbLine
 10
-266.7876383636214
 20
39.28943845122862
 30
0.0
 11
-266.7876383636214
 21
75.80427561823968
 31
0.0
  0
LINE
  5
5A7F
330
5A03
100
AcDbEntity
  8
0
  6
Continuous
 62
     7
100
AcDbLine
 10
-266.7876383636214
 20
75.8042756182397
 30
0.0
 11
-202.3888806116274
 21
62.65893423811572
 31
0.0
  0
LINE
  5
5A80
330
5A03
100
AcDbEntity
  8
0
  6
Continuous
 62
     7
100
AcDbLine
 10
-202.3888806116274
 20
62.65893423811572
 30
0.0
 11
-202.3888806116274
 21
52.43477983135264
 31
0.0
  0
LINE
  5
5A81
330
5A03
100
AcDbEntity
  8
0
  6
Continuous
 62
     7
100
AcDbLine
 10
-264.6410131052216
 20
77.55698780225623
 30
0.0
 11
-266.7876383636214
 21
75.80427561823968
 31
0.0
  0
LINE
  5
5A82
330
5A03
100
AcDbEntity
  8
0
  6
Continuous
 62
     7
100
AcDbLine
 10
-200.2422553532277
 20
64.41164642213228
 30
0.0
 11
-264.6410131052216
 21
77.55698780225627
 31
0.0
  0
LINE
  5
5A83
330
5A03
100
AcDbEntity
  8
0
  6
Continuous
 62
     7
100
AcDbLine
 10
-202.3888806116274
 20
62.65893423811572
 30
0.0
 11
-200.2422553532277
 21
64.41164642213225
 31
0.0
  0
LINE
  5
5A84
330
5A03
100
AcDbEntity
  8
0
  6
Continuous
 62
     7
100
AcDbLine
 10
-200.2422553532277
 20
62.39315586728658
 30
0.0
 11
-200.2422553532277
 21
64.41164642213225
 31
0.0
  0
LINE
  5
5A85
330
5A03
100
AcDbEntity
  8
0
  6
Continuous
 62
     7
100
AcDbLine
 10
-201.7701193982281
 20
26.64931348625593
 30
0.0
 11
-202.3888806116274
 21
26.14409707110465
 31
0.0
  0
LINE
  5
5A86
330
5A03
100
AcDbEntity
  8
0
  6
Continuous
 62
     7
100
AcDbLine
 10
-201.5701193984932
 20
33.84231702151763
 30
0.0
 11
-201.5701193985033
 21
33.52009417879828
 31
0.0
  0
LINE
  5
5A87
330
5A03
100
AcDbEntity
  8
0
  6
Continuous
 62
     7
100
AcDbLine
 10
-189.9701193985033
 20
33.52009417843391
 30
0.0
 11
-189.970119398493
 21
33.84231702070027
 31
0.0
  0
LINE
  5
5A88
330
5A03
100
AcDbEntity
  8
0
  6
Continuous
 62
     7
100
AcDbLine
 10
-201.5701193984884
 20
51.00429049000532
 30
0.0
 11
-201.5701193984736
 21
50.53600829828531
 31
0.0
  0
LINE
  5
5A89
330
5A03
100
AcDbEntity
  8
0
  6
Continuous
 62
     7
100
AcDbLine
 10
-256.0646824690546
 20
76.76611752605764
 30
0.0
 11
-256.2077908196016
 21
76.64927004712058
 31
0.0
  0
LINE
  5
5A8A
330
5A03
100
AcDbEntity
  8
0
  6
Continuous
 62
     7
100
AcDbLine
 10
-191.4768688816016
 20
62.07469684383092
 30
0.0
 11
-191.9777481085553
 21
62.48366302004487
 31
0.0
  0
LINE
  5
5A8B
330
5A03
100
AcDbEntity
  8
0
  6
Continuous
 62
     7
100
AcDbLine
 10
-199.5624906879485
 20
62.48366301981135
 30
0.0
 11
-200.063369914877
 21
62.07469684356652
 31
0.0
  0
LINE
  5
5A8C
330
5A03
100
AcDbEntity
  8
0
  6
Continuous
 62
     7
100
AcDbLine
 10
-200.5701193982123
 20
61.19834075130029
 30
0.0
 11
-200.5701193981988
 21
60.76016270530717
 31
0.0
  0
LINE
  5
5A8D
330
5A03
100
AcDbEntity
  8
0
  6
Continuous
 62
     7
100
AcDbLine
 10
-190.9701193981988
 20
60.7601627056028
 30
0.0
 11
-190.9701193982123
 21
61.19834075159591
 31
0.0
  0
LINE
  5
5A8E
330
5A03
100
AcDbEntity
  8
0
  6
Continuous
 62
     7
100
AcDbLine
 10
-201.7701193982281
 20
60.7601627054311
 30
0.0
 11
-201.7701193982281
 21
51.63145341367833
 31
0.0
  0
LINE
  5
5A8F
330
5A03
100
AcDbEntity
  8
0
  6
Continuous
 62
     7
100
AcDbLine
 10
-201.7701193982281
 20
33.37403483017282
 30
0.0
 11
-201.7701193982281
 21
24.24532553842004
 31
0.0
  0
LINE
  5
5A90
330
5A03
100
AcDbEntity
  8
0
  6
Continuous
 62
     7
100
AcDbLine
 10
-201.7701193982281
 20
50.53600829866805
 30
0.0
 11
-201.7701193982281
 21
34.46947994518318
 31
0.0
  0
LINE
  5
5A91
330
5A03
100
AcDbEntity
  8
0
  6
Continuous
 62
     7
100
AcDbLine
 10
-189.770119398228
 20
34.46947994518318
 30
0.0
 11
-189.770119398228
 21
50.33334747120274
 31
0.0
  0
ENDBLK
  5
5A92
330
5A03
100
AcDbEntity
  8
0
100
AcDbBlockEnd
  0
ENDSEC
  0
SECTION
  2
ENTITIES
  0
LINE
  5
6B0
330
A
100
AcDbEntity
  8
0
  6
CENTER
 62
     1
100
AcDbLine
 10
-72.50000000048686
 20
-16.99999999999738
 30
0.0
 11
-62.10000000048689
 21
-16.99999999999738
 31
0.0
  0
LINE
  5
6B1
330
A
100
AcDbEntity
  8
0
  6
CENTER
 62
     1
100
AcDbLine
 10
-67.30000000048693
 20
-22.19999999999755
 30
0.0
 11
-67.30000000048693
 21
-11.79999999999745
 31
0.0
  0
LINE
  5
6B2
330
A
100
AcDbEntity
  8
0
  6
CENTER
 62
     1
100
AcDbLine
 10
-72.50000000048686
 20
17.0000000000025
 30
0.0
 11
-62.10000000048689
 21
17.0000000000025
 31
0.0
  0
LINE
  5
6B3
330
A
100
AcDbEntity
  8
0
  6
CENTER
 62
     1
100
AcDbLine
 10
-67.30000000048693
 20
11.80000000000251
 30
0.0
 11
-67.30000000048693
 21
22.20000000000255
 31
0.0
  0
LINE
  5
6B4
330
A
100
AcDbEntity
  8
0
  6
CENTER
 62
     1
100
AcDbLine
 10
-83.3000000003585
 20
-28.29999999999746
 30
0.0
 11
-83.30000000349599
 21
20.60000000000252
 31
0.0
  0
LINE
  5
6B5
330
A
100
AcDbEntity
  8
0
  6
CENTER
 62
     1
100
AcDbLine
 10
-83.30000000027945
 20
23.00000000000244
 30
0.0
 11
-83.30000000061261
 21
28.30000000000246
 31
0.0
  0
LINE
  5
6B6
330
A
100
AcDbEntity
  8
0
  6
CENTER
 62
     1
100
AcDbLine
 10
-0.0000804827753882
 20
81.30000000040103
 30
0.0
 11
-0.0000804786736808
 21
70.80000000040087
 31
0.0
  0
LINE
  5
6B7
330
A
100
AcDbEntity
  8
0
  6
CENTER
 62
     1
100
AcDbLine
 10
39.99989421617204
 20
81.30000000040116
 30
0.0
 11
39.99989422027363
 21
70.80000000040115
 31
0.0
  0
LINE
  5
6B8
330
A
100
AcDbEntity
  8
0
  6
CENTER
 62
     1
100
AcDbLine
 10
66.99999999996861
 20
88.30000000044607
 30
0.0
 11
82.99999999996861
 21
88.30000000044607
 31
0.0
  0
LINE
  5
6B9
330
A
100
AcDbEntity
  8
0
  6
CENTER
 62
     1
100
AcDbLine
 10
74.99999999996862
 20
80.30000000044607
 30
0.0
 11
74.99999999996862
 21
96.30000000044608
 31
0.0
  0
LINE
  5
6BA
330
A
100
AcDbEntity
  8
0
  6
CENTER
 62
     1
100
AcDbLine
 10
-0.0000000000080718
 20
82.80000000033295
 30
0.0
 11
-0.0000000000080718
 21
67.40000000040095
 31
0.0
  0
LINE
  5
6BB
330
A
100
AcDbEntity
  8
0
  6
CENTER
 62
     1
100
AcDbLine
 10
39.99999999997953
 20
82.80000000033295
 30
0.0
 11
39.99999999997953
 21
67.40000000040095
 31
0.0
  0
LINE
  5
6BC
330
A
100
AcDbEntity
  8
0
  6
CENTER
 62
     1
100
AcDbLine
 10
-0.0000804827753882
 20
-81.30000000040281
 30
0.0
 11
-0.0000804786736808
 21
-70.80000000040278
 31
0.0
  0
LINE
  5
6BD
330
A
100
AcDbEntity
  8
0
  6
CENTER
 62
     1
100
AcDbLine
 10
39.99989421617204
 20
-81.30000000040292
 30
0.0
 11
39.99989422027363
 21
-70.80000000040292
 31
0.0
  0
LINE
  5
6BE
330
A
100
AcDbEntity
  8
0
  6
CENTER
 62
     1
100
AcDbLine
 10
66.99999999996861
 20
-88.30000000035898
 30
0.0
 11
82.99999999996861
 21
-88.30000000035898
 31
0.0
  0
LINE
  5
6BF
330
A
100
AcDbEntity
  8
0
  6
CENTER
 62
     1
100
AcDbLine
 10
74.99999999996862
 20
-96.300000000359
 30
0.0
 11
74.99999999996862
 21
-80.30000000035897
 31
0.0
  0
LINE
  5
6C0
330
A
100
AcDbEntity
  8
0
  6
CENTER
 62
     1
100
AcDbLine
 10
39.99999999997953
 20
-82.80000000033448
 30
0.0
 11
39.99999999997953
 21
-67.40000000040254
 31
0.0
  0
LINE
  5
6C1
330
A
100
AcDbEntity
  8
0
  6
CENTER
 62
     1
100
AcDbLine
 10
-0.0000000000080718
 20
-82.80000000033448
 30
0.0
 11
-0.0000000000080718
 21
-67.40000000040282
 31
0.0
  0
LINE
  5
6C2
330
A
100
AcDbEntity
  8
0
  6
CENTER
 62
     1
100
AcDbLine
 10
122.8000000003172
 20
-16.99999999999738
 30
0.0
 11
136.8000000003172
 21
-16.99999999999738
 31
0.0
  0
LINE
  5
6C3
330
A
100
AcDbEntity
  8
0
  6
CENTER
 62
     1
100
AcDbLine
 10
129.8000000003172
 20
-23.99999999999756
 30
0.0
 11
129.8000000003172
 21
-9.999999999997383
 31
0.0
  0
LINE
  5
6C4
330
A
100
AcDbEntity
  8
0
  6
CENTER
 62
     1
100
AcDbLine
 10
122.8000000003172
 20
17.0000000000025
 30
0.0
 11
136.8000000003172
 21
17.0000000000025
 31
0.0
  0
LINE
  5
6C5
330
A
100
AcDbEntity
  8
0
  6
CENTER
 62
     1
100
AcDbLine
 10
129.8000000003172
 20
10.00000000000244
 30
0.0
 11
129.8000000003172
 21
24.00000000000261
 31
0.0
  0
LINE
  5
3CEA
330
A
100
AcDbEntity
  8
0
  6
Continuous
 62
     7
370
     0
100
AcDbLine
 10
-90.55000000117329
 20
-10.99999999953252
 30
0.0
 11
-76.05000000117297
 21
-11.00000000046236
 31
0.0
  0
LINE
  5
3CEB
330
A
100
AcDbEntity
  8
0
  6
Continuous
 62
     7
370
     0
100
AcDbLine
 10
-90.5500000012566
 20
-12.29999999953298
 30
0.0
 11
-76.05000000125631
 21
-12.30000000046232
 31
0.0
  0
LINE
  5
3CEC
330
A
100
AcDbEntity
  8
0
  6
Continuous
 62
     7
370
     0
100
AcDbLine
 10
-76.05000000117344
 20
11.00000000046754
 30
0.0
 11
-90.55000000117329
 21
10.99999999953741
 31
0.0
  0
LINE
  5
3CED
330
A
100
AcDbEntity
  8
0
  6
Continuous
 62
     7
370
     0
100
AcDbLine
 10
-76.05000000125659
 20
12.30000000046743
 30
0.0
 11
-90.5500000012566
 21
12.2999999995373
 31
0.0
  0
LINE
  5
3CEE
330
A
100
AcDbEntity
  8
0
  6
Continuous
 62
     9
370
     0
100
AcDbLine
 10
-65.30250156494368
 20
-19.49999999999784
 30
0.0
 11
-65.39999999823516
 21
-19.49999999999784
 31
0.0
  0
LINE
  5
3CEF
330
A
100
AcDbEntity
  8
0
  6
Continuous
 62
     7
370
     0
100
AcDbLine
 10
-65.39999999832492
 20
-19.49999999999784
 30
0.0
 11
-65.39999999832492
 21
-19.57487863625818
 31
0.0
  0
LINE
  5
3CF0
330
A
100
AcDbEntity
  8
0
  6
Continuous
 62
     9
370
     0
100
AcDbLine
 10
-65.30250156494242
 20
19.50000000000216
 30
0.0
 11
-65.39999999823539
 21
19.50000000000199
 31
0.0
  0
LINE
  5
3CF1
330
A
100
AcDbEntity
  8
0
  6
Continuous
 62
     7
370
     0
100
AcDbLine
 10
-65.39999999823539
 20
19.50000000000199
 30
0.0
 11
-65.39999999823539
 21
14.42512136374711
 31
0.0
  0
LINE
  5
3CF2
330
A
100
AcDbEntity
  8
0
  6
Continuous
 62
     7
370
     0
100
AcDbLine
 10
-65.39999999823516
 20
-14.42512136374228
 30
0.0
 11
-65.39999999823516
 21
-19.49999999999784
 31
0.0
  0
LINE
  5
3CF3
330
A
100
AcDbEntity
  8
0
  6
Continuous
 62
     7
370
     0
100
AcDbLine
 10
-65.39999999832554
 20
19.57487863625772
 30
0.0
 11
-65.39999999832554
 21
19.50000000000199
 31
0.0
  0
LINE
  5
3CF4
330
A
100
AcDbEntity
  8
0
  6
Continuous
 62
     7
370
     0
100
AcDbLine
 10
-75.40000000048923
 20
12.37477270849609
 30
0.0
 11
-75.40000000048923
 21
-12.37477270846489
 31
0.0
  0
LINE
  5
3CF5
330
A
100
AcDbEntity
  8
0
  6
Continuous
 62
     7
370
     0
100
AcDbLine
 10
-77.30000000044293
 20
25.60000000037974
 30
0.0
 11
-89.30000000044294
 21
25.59999999962548
 31
0.0
  0
LINE
  5
3CF6
330
A
100
AcDbEntity
  8
0
  6
Continuous
 62
     7
370
     0
100
AcDbLine
 10
-88.60000000048694
 20
26.29999999966941
 30
0.0
 11
-78.00000000048709
 21
26.30000000033533
 31
0.0
  0
LINE
  5
3CF7
330
A
100
AcDbEntity
  8
0
  6
Continuous
 62
     7
370
     0
100
AcDbLine
 10
-89.30000000053214
 20
-25.60000000038213
 30
0.0
 11
-77.30000000053206
 21
-25.59999999961263
 31
0.0
  0
LINE
  5
3CF8
330
A
100
AcDbEntity
  8
0
  6
Continuous
 62
     7
370
     0
100
AcDbLine
 10
-78.00000000048709
 20
-26.29999999965759
 30
0.0
 11
-88.60000000048694
 21
-26.30000000033727
 31
0.0
  0
LINE
  5
3CF9
330
A
100
AcDbEntity
  8
0
  6
Continuous
 62
     7
370
     0
100
AcDbLine
 10
-80.80000000048688
 20
25.0000000000025
 30
0.0
 11
-80.80000000048688
 21
12.50000000000261
 31
0.0
  0
LINE
  5
3CFA
330
A
100
AcDbEntity
  8
0
  6
Continuous
 62
     7
370
     0
100
AcDbLine
 10
-59.30000000048693
 20
25.0000000000025
 30
0.0
 11
-59.30000000048693
 21
-24.9999999999975
 31
0.0
  0
LINE
  5
3CFB
330
A
100
AcDbEntity
  8
0
  6
Continuous
 62
     7
370
     0
100
AcDbLine
 10
-80.80000000048688
 20
-12.49999999999738
 30
0.0
 11
-80.80000000048688
 21
-24.9999999999975
 31
0.0
  0
ARC
  5
3CFC
330
A
100
AcDbEntity
  8
0
  6
Continuous
 62
     7
370
     0
100
AcDbCircle
 10
-76.00000000048686
 20
-10.99999999999772
 30
0.0
 40
1.5
100
AcDbArc
 50
270.0
 51
0.0
  0
LINE
  5
3CFD
330
A
100
AcDbEntity
  8
0
  6
Continuous
 62
     7
370
     0
100
AcDbLine
 10
-74.50000000048709
 20
-10.99999999999772
 30
0.0
 11
-74.50000000048709
 21
11.0000000000026
 31
0.0
  0
ARC
  5
3CFE
330
A
100
AcDbEntity
  8
0
  6
Continuous
 62
     7
370
     0
100
AcDbCircle
 10
-76.00000000048686
 20
11.0000000000026
 30
0.0
 40
1.5
100
AcDbArc
 50
0.0
 51
90.0
  0
CIRCLE
  5
3CFF
330
A
100
AcDbEntity
  8
0
  6
Continuous
 62
     7
370
     0
100
AcDbCircle
 10
-67.30000000048693
 20
-16.99999999999738
 30
0.0
 40
3.200000000000008
  0
CIRCLE
  5
3D00
330
A
100
AcDbEntity
  8
0
  6
Continuous
 62
     7
370
     0
100
AcDbCircle
 10
-67.30000000048693
 20
17.0000000000025
 30
0.0
 40
3.200000000000008
  0
LINE
  5
3D01
330
A
100
AcDbEntity
  8
0
  6
Continuous
 62
     7
370
     0
100
AcDbLine
 10
-80.80000000048688
 20
-24.9999999999975
 30
0.0
 11
-59.30000000048693
 21
-24.9999999999975
 31
0.0
  0
LINE
  5
3D02
330
A
100
AcDbEntity
  8
0
  6
Continuous
 62
     7
370
     0
100
AcDbLine
 10
-80.80000000048688
 20
-12.49999999999738
 30
0.0
 11
-76.00000000048686
 21
-12.49999999999738
 31
0.0
  0
LINE
  5
3D03
330
A
100
AcDbEntity
  8
0
  6
Continuous
 62
     7
370
     0
100
AcDbLine
 10
-76.00000000048686
 20
12.50000000000261
 30
0.0
 11
-80.80000000048688
 21
12.50000000000261
 31
0.0
  0
LINE
  5
3D04
330
A
100
AcDbEntity
  8
0
  6
Continuous
 62
     7
370
     0
100
AcDbLine
 10
-80.80000000048688
 20
25.0000000000025
 30
0.0
 11
-59.30000000048693
 21
25.0000000000025
 31
0.0
  0
LINE
  5
3D05
330
A
100
AcDbEntity
  8
0
  6
Continuous
 62
     9
370
     0
100
AcDbLine
 10
-86.96781257356837
 20
-12.49999999999738
 30
0.0
 11
-86.96781257356837
 21
-24.9999999999975
 31
0.0
  0
LINE
  5
3D06
330
A
100
AcDbEntity
  8
0
  6
Continuous
 62
     7
370
     0
100
AcDbLine
 10
-86.96781257356837
 20
-24.9999999999975
 30
0.0
 11
-80.80000000048688
 21
-24.9999999999975
 31
0.0
  0
LINE
  5
3D07
330
A
100
AcDbEntity
  8
0
  6
Continuous
 62
     7
370
     0
100
AcDbLine
 10
-80.80000000048688
 20
-12.49999999999738
 30
0.0
 11
-86.96781257356837
 21
-12.49999999999738
 31
0.0
  0
LINE
  5
3D08
330
A
100
AcDbEntity
  8
0
  6
Continuous
 62
     9
370
     0
100
AcDbLine
 10
-86.96781257356837
 20
25.0000000000025
 30
0.0
 11
-86.96781257356837
 21
12.50000000000261
 31
0.0
  0
LINE
  5
3D09
330
A
100
AcDbEntity
  8
0
  6
Continuous
 62
     7
370
     0
100
AcDbLine
 10
-86.96781257356837
 20
12.50000000000261
 30
0.0
 11
-80.80000000048688
 21
12.50000000000261
 31
0.0
  0
LINE
  5
3D0A
330
A
100
AcDbEntity
  8
0
  6
Continuous
 62
     7
370
     0
100
AcDbLine
 10
-86.96781257356837
 20
25.0000000000025
 30
0.0
 11
-80.80000000048688
 21
25.0000000000025
 31
0.0
  0
LINE
  5
3D0B
330
A
100
AcDbEntity
  8
0
  6
Continuous
 62
     7
370
     0
100
AcDbLine
 10
-90.80000000048688
 20
-24.9999999999975
 30
0.0
 11
-86.96781257356837
 21
-24.9999999999975
 31
0.0
  0
LINE
  5
3D0C
330
A
100
AcDbEntity
  8
0
  6
Continuous
 62
     7
370
     0
100
AcDbLine
 10
-86.96781257356837
 20
-12.49999999999738
 30
0.0
 11
-90.80000000048688
 21
-12.49999999999738
 31
0.0
  0
LINE
  5
3D0D
330
A
100
AcDbEntity
  8
0
  6
Continuous
 62
     7
370
     0
100
AcDbLine
 10
-90.80000000048688
 20
25.0000000000025
 30
0.0
 11
-86.96781257356837
 21
25.0000000000025
 31
0.0
  0
LINE
  5
3D0E
330
A
100
AcDbEntity
  8
0
  6
Continuous
 62
     7
370
     0
100
AcDbLine
 10
-90.80000000048688
 20
12.50000000000261
 30
0.0
 11
-86.96781257356837
 21
12.50000000000261
 31
0.0
  0
LINE
  5
3D0F
330
A
100
AcDbEntity
  8
0
  6
Continuous
 62
     7
370
     0
100
AcDbLine
 10
-59.1999999996829
 20
24.99999999999602
 30
0.0
 11
-59.30000000048693
 21
24.99999999999602
 31
0.0
  0
LINE
  5
3D10
330
A
100
AcDbEntity
  8
0
  6
Continuous
 62
     7
370
     0
100
AcDbLine
 10
-59.1999999996829
 20
24.99999999999602
 30
0.0
 11
-59.1999999996829
 21
-25.00000000000398
 31
0.0
  0
LINE
  5
3D11
330
A
100
AcDbEntity
  8
0
  6
Continuous
 62
     7
370
     0
100
AcDbLine
 10
-59.1999999996829
 20
-25.00000000000398
 30
0.0
 11
-59.30000000048693
 21
-25.00000000000398
 31
0.0
  0
LINE
  5
3D12
330
A
100
AcDbEntity
  8
0
  6
Continuous
 62
     7
370
     0
100
AcDbLine
 10
-65.19999999968257
 20
19.41453929283295
 30
0.0
 11
-65.19999999968257
 21
14.5854607071721
 31
0.0
  0
LINE
  5
3D13
330
A
100
AcDbEntity
  8
0
  6
Continuous
 62
     7
370
     0
100
AcDbLine
 10
-65.19999999968257
 20
-14.58546070716699
 30
0.0
 11
-65.19999999968257
 21
-19.4145392928279
 31
0.0
  0
LINE
  5
3D14
330
A
100
AcDbEntity
  8
0
  6
Continuous
 62
     7
370
     0
100
AcDbLine
 10
-90.80000000048688
 20
-11.00000000000005
 30
0.0
 11
-75.80000000048693
 21
-11.00000000000005
 31
0.0
  0
LINE
  5
3D15
330
A
100
AcDbEntity
  8
0
  6
Continuous
 62
     7
370
     0
100
AcDbLine
 10
-90.80000000048688
 20
10.99999999999994
 30
0.0
 11
-75.80000000048693
 21
10.99999999999994
 31
0.0
  0
LINE
  5
3D16
330
A
100
AcDbEntity
  8
0
  6
Continuous
 62
     7
370
     0
100
AcDbLine
 10
-75.80000000048947
 20
-11.00000000000005
 30
0.0
 11
-75.80000000048947
 21
10.99999999999994
 31
0.0
  0
LINE
  5
3D17
330
A
100
AcDbEntity
  8
0
  6
Continuous
 62
     7
370
     0
100
AcDbLine
 10
-75.80000000048947
 20
-11.00000000000005
 30
0.0
 11
-75.80000000048947
 21
-12.48660687472966
 31
0.0
  0
LINE
  5
3D18
330
A
100
AcDbEntity
  8
0
  6
Continuous
 62
     7
370
     0
100
AcDbLine
 10
-75.80000000048947
 20
10.99999999999994
 30
0.0
 11
-75.80000000048947
 21
12.48660687473443
 31
0.0
  0
LINE
  5
3D19
330
A
100
AcDbEntity
  8
0
  6
Continuous
 62
     7
370
     0
100
AcDbLine
 10
-90.55000000117329
 20
-10.99999999953252
 30
0.0
 11
-90.5500000012566
 21
-12.29999999953298
 31
0.0
  0
LINE
  5
3D1A
330
A
100
AcDbEntity
  8
0
  6
Continuous
 62
     7
370
     0
100
AcDbLine
 10
-76.05000000125631
 20
-12.30000000046232
 30
0.0
 11
-76.05000000117297
 21
-11.00000000046236
 31
0.0
  0
LINE
  5
3D1B
330
A
100
AcDbEntity
  8
0
  6
Continuous
 62
     7
370
     0
100
AcDbLine
 10
-76.05000000117344
 20
11.00000000046754
 30
0.0
 11
-76.05000000125659
 21
12.30000000046743
 31
0.0
  0
LINE
  5
3D1C
330
A
100
AcDbEntity
  8
0
  6
Continuous
 62
     7
370
     0
100
AcDbLine
 10
-90.5500000012566
 20
12.2999999995373
 30
0.0
 11
-90.55000000117329
 21
10.99999999953741
 31
0.0
  0
LINE
  5
3D1D
330
A
100
AcDbEntity
  8
0
  6
Continuous
 62
     7
370
     0
100
AcDbLine
 10
-87.30000000125725
 20
12.50000000000261
 30
0.0
 11
-87.30000000127011
 21
12.29999999974603
 31
0.0
  0
LINE
  5
3D1E
330
A
100
AcDbEntity
  8
0
  6
Continuous
 62
     7
370
     0
100
AcDbLine
 10
-87.30000000284922
 20
-12.29999999974103
 30
0.0
 11
-87.30000000286215
 21
-12.49999999999738
 31
0.0
  0
LINE
  5
3D1F
330
A
100
AcDbEntity
  8
0
  6
Continuous
 62
     7
370
     0
100
AcDbLine
 10
-79.30000000286208
 20
-12.49999999999738
 30
0.0
 11
-79.30000000284923
 21
-12.30000000025404
 31
0.0
  0
LINE
  5
3D20
330
A
100
AcDbEntity
  8
0
  6
Continuous
 62
     7
370
     0
100
AcDbLine
 10
-79.30000000127012
 20
12.3000000002591
 30
0.0
 11
-79.30000000125744
 21
12.50000000000261
 31
0.0
  0
LINE
  5
3D21
330
A
100
AcDbEntity
  8
0
  6
Continuous
 62
     7
370
     0
100
AcDbLine
 10
-77.30000000044293
 20
25.60000000037974
 30
0.0
 11
-78.00000000048709
 21
26.30000000033533
 31
0.0
  0
LINE
  5
3D22
330
A
100
AcDbEntity
  8
0
  6
Continuous
 62
     7
370
     0
100
AcDbLine
 10
-88.60000000048694
 20
26.29999999966941
 30
0.0
 11
-89.30000000044294
 21
25.59999999962548
 31
0.0
  0
LINE
  5
3D23
330
A
100
AcDbEntity
  8
0
  6
Continuous
 62
     7
370
     0
100
AcDbLine
 10
-89.30000000044294
 20
25.59999999962548
 30
0.0
 11
-89.3000000004052
 21
24.99999999962535
 31
0.0
  0
LINE
  5
3D24
330
A
100
AcDbEntity
  8
0
  6
Continuous
 62
     7
370
     0
100
AcDbLine
 10
-77.30000000040519
 20
25.00000000037971
 30
0.0
 11
-77.30000000044293
 21
25.60000000037974
 31
0.0
  0
LINE
  5
3D25
330
A
100
AcDbEntity
  8
0
  6
Continuous
 62
     7
370
     0
100
AcDbLine
 10
-77.30000000053206
 20
-25.59999999961263
 30
0.0
 11
-77.30000000057009
 21
-24.99999999961267
 31
0.0
  0
LINE
  5
3D26
330
A
100
AcDbEntity
  8
0
  6
Continuous
 62
     7
370
     0
100
AcDbLine
 10
-89.30000000057026
 20
-25.00000000038216
 30
0.0
 11
-89.30000000053214
 21
-25.60000000038213
 31
0.0
  0
LINE
  5
3D27
330
A
100
AcDbEntity
  8
0
  6
Continuous
 62
     7
370
     0
100
AcDbLine
 10
-89.30000000053214
 20
-25.60000000038213
 30
0.0
 11
-88.60000000048694
 21
-26.30000000033727
 31
0.0
  0
LINE
  5
3D28
330
A
100
AcDbEntity
  8
0
  6
Continuous
 62
     7
370
     0
100
AcDbLine
 10
-78.00000000048709
 20
-26.29999999965759
 30
0.0
 11
-77.30000000053206
 21
-25.59999999961263
 31
0.0
  0
LINE
  5
3D29
330
A
100
AcDbEntity
  8
0
  6
Continuous
 62
     7
370
     0
100
AcDbLine
 10
-90.80000000048688
 20
-12.49999999999738
 30
0.0
 11
-90.80000000048688
 21
-24.9999999999975
 31
0.0
  0
LINE
  5
3D2A
330
A
100
AcDbEntity
  8
0
  6
Continuous
 62
     7
370
     0
100
AcDbLine
 10
-90.80000000048688
 20
25.0000000000025
 30
0.0
 11
-90.80000000048688
 21
12.50000000000261
 31
0.0
  0
LINE
  5
3D2B
330
A
100
AcDbEntity
  8
0
  6
Continuous
 62
     7
370
     0
100
AcDbLine
 10
-90.80000000048466
 20
10.99999999999994
 30
0.0
 11
-90.80000000048466
 21
-11.00000000000005
 31
0.0
  0
LINE
  5
3D2C
330
A
100
AcDbEntity
  8
0
  6
Continuous
 62
     7
370
     0
100
AcDbLine
 10
-74.50000000048709
 20
4.899999999999863
 30
0.0
 11
-75.40000000048923
 21
4.899999999999863
 31
0.0
  0
LINE
  5
3D2D
330
A
100
AcDbEntity
  8
0
  6
Continuous
 62
     7
370
     0
100
AcDbLine
 10
-75.40000000048917
 20
-4.90000000000009
 30
0.0
 11
-74.50000000048709
 21
-4.90000000000009
 31
0.0
  0
LINE
  5
3D2E
330
A
100
AcDbEntity
  8
0
  6
Continuous
 62
     7
370
     0
100
AcDbLine
 10
3.000005011254073
 20
-72.10000000040281
 30
0.0
 11
-3.000005008745915
 21
-72.10000000040281
 31
0.0
  0
LINE
  5
3D2F
330
A
100
AcDbEntity
  8
0
  6
Continuous
 62
     7
370
     0
100
AcDbLine
 10
43.00000500971395
 20
-72.10000000026524
 30
0.0
 11
36.99999498971421
 21
-72.1000000005348
 31
0.0
  0
LINE
  5
3D30
330
A
100
AcDbEntity
  8
0
  6
Continuous
 62
     9
370
     0
100
AcDbLine
 10
67.65152974895648
 20
-89.79999499039156
 30
0.0
 11
67.59239572692115
 21
-89.47362640345051
 31
0.0
  0
LINE
  5
3D31
330
A
100
AcDbEntity
  8
0
  6
Continuous
 62
     9
370
     0
100
AcDbLine
 10
67.59251910089904
 20
-87.12559515967759
 30
0.0
 11
67.65152974895648
 21
-86.80000501041433
 31
0.0
  0
LINE
  5
3D32
330
A
100
AcDbEntity
  8
0
  6
Continuous
 62
     7
370
     0
100
AcDbLine
 10
31.14989421949247
 20
-72.79999999694587
 30
0.0
 11
48.8498942194924
 21
-72.80000000385985
 31
0.0
  0
LINE
  5
3D33
330
A
100
AcDbEntity
  8
0
  6
Continuous
 62
     7
370
     0
100
AcDbLine
 10
31.14989421695339
 20
-79.29999999694587
 30
0.0
 11
48.84989421695343
 21
-79.30000000385985
 31
0.0
  0
LINE
  5
3D34
330
A
100
AcDbEntity
  8
0
  6
Continuous
 62
     7
370
     0
100
AcDbLine
 10
-8.850080479455071
 20
-72.79999999694581
 30
0.0
 11
8.849919520545086
 21
-72.80000000385979
 31
0.0
  0
LINE
  5
3D35
330
A
100
AcDbEntity
  8
0
  6
Continuous
 62
     7
370
     0
100
AcDbLine
 10
-8.850080481994041
 20
-79.29999999694581
 30
0.0
 11
8.849919518006004
 21
-79.30000000385985
 31
0.0
  0
LINE
  5
3D36
330
A
100
AcDbEntity
  8
0
  6
Continuous
 62
     9
370
     0
100
AcDbLine
 10
58.50000000055047
 20
-70.19999999971481
 30
0.0
 11
58.50000000055946
 21
-70.39999999824136
 31
0.0
  0
LINE
  5
3D37
330
A
100
AcDbEntity
  8
0
  6
Continuous
 62
     7
370
     0
100
AcDbLine
 10
60.50000000055047
 20
-70.19999999967905
 30
0.0
 11
60.50000000055945
 21
-70.39999999815148
 31
0.0
  0
LINE
  5
3D38
330
A
100
AcDbEntity
  8
0
  6
Continuous
 62
     7
370
     0
100
AcDbLine
 10
58.50000000055946
 20
-70.39999999824136
 30
0.0
 11
60.50000000055945
 21
-70.39999999815148
 31
0.0
  0
LINE
  5
3D39
330
A
100
AcDbEntity
  8
0
  6
Continuous
 62
     9
370
     0
100
AcDbLine
 10
-16.99999999944941
 20
-70.20000000106397
 30
0.0
 11
-16.99999999944043
 21
-70.40000000163296
 31
0.0
  0
LINE
  5
3D3A
330
A
100
AcDbEntity
  8
0
  6
Continuous
 62
     7
370
     0
100
AcDbLine
 10
-16.99999999944043
 20
-70.40000000163296
 30
0.0
 11
58.50000000055946
 21
-70.39999999824136
 31
0.0
  0
LINE
  5
3D3B
330
A
100
AcDbEntity
  8
0
  6
Continuous
 62
     7
370
     0
100
AcDbLine
 10
-18.99999999944941
 20
-70.2000000010998
 30
0.0
 11
-18.99999999944043
 21
-70.40000000172279
 31
0.0
  0
LINE
  5
3D3C
330
A
100
AcDbEntity
  8
0
  6
Continuous
 62
     7
370
     0
100
AcDbLine
 10
-18.99999999944043
 20
-70.40000000172279
 30
0.0
 11
-16.99999999944043
 21
-70.40000000163296
 31
0.0
  0
LINE
  5
3D3D
330
A
100
AcDbEntity
  8
0
  6
Continuous
 62
     9
370
     0
100
AcDbLine
 10
61.99999999997293
 20
-80.40000000040533
 30
0.0
 11
61.99999999997293
 21
-80.80000000040536
 31
0.0
  0
LINE
  5
3D3E
330
A
100
AcDbEntity
  8
0
  6
Continuous
 62
     7
370
     0
100
AcDbLine
 10
61.99999999997293
 20
-80.40000000040533
 30
0.0
 11
63.99999999997294
 21
-80.40000000040533
 31
0.0
  0
LINE
  5
3D3F
330
A
100
AcDbEntity
  8
0
  6
Continuous
 62
     7
370
     0
100
AcDbLine
 10
63.99999999997238
 20
-80.40000000040533
 30
0.0
 11
63.99999999997238
 21
-80.80000000040536
 31
0.0
  0
LINE
  5
3D40
330
A
100
AcDbEntity
  8
0
  6
Continuous
 62
     9
370
     0
100
AcDbLine
 10
-22.0000000000021
 20
-80.40000000040533
 30
0.0
 11
-22.0000000000021
 21
-80.80000000040536
 31
0.0
  0
LINE
  5
3D41
330
A
100
AcDbEntity
  8
0
  6
Continuous
 62
     7
370
     0
100
AcDbLine
 10
-22.0000000000021
 20
-80.40000000040533
 30
0.0
 11
61.99999999997293
 21
-80.40000000040533
 31
0.0
  0
LINE
  5
3D42
330
A
100
AcDbEntity
  8
0
  6
Continuous
 62
     7
370
     0
100
AcDbLine
 10
-24.00000000000142
 20
-80.40000000040533
 30
0.0
 11
-24.00000000000142
 21
-80.80000000040536
 31
0.0
  0
LINE
  5
3D43
330
A
100
AcDbEntity
  8
0
  6
Continuous
 62
     7
370
     0
100
AcDbLine
 10
-24.0000000000021
 20
-80.40000000040533
 30
0.0
 11
-22.0000000000021
 21
-80.40000000040533
 31
0.0
  0
CIRCLE
  5
3D44
330
A
100
AcDbEntity
  8
0
  6
Continuous
 62
     7
370
     0
100
AcDbCircle
 10
74.99999999996862
 20
-88.30000000040298
 30
0.0
 40
5.299999999999998
  0
CIRCLE
  5
3D45
330
A
100
AcDbEntity
  8
0
  6
Continuous
 62
     7
370
     0
100
AcDbCircle
 10
74.99999999996862
 20
-88.30000000035898
 30
0.0
 40
5.999999999999997
  0
ARC
  5
3D46
330
A
100
AcDbEntity
  8
0
  6
Continuous
 62
     7
370
     0
100
AcDbCircle
 10
79.99999999996862
 20
-79.80000000040296
 30
0.0
 40
1.0
100
AcDbArc
 50
270.0
 51
0.0
  0
LINE
  5
3D47
330
A
100
AcDbEntity
  8
0
  6
Continuous
 62
     7
370
     0
100
AcDbLine
 10
80.99999999996851
 20
-64.30000000040298
 30
0.0
 11
80.99999999996851
 21
-79.80000000040296
 31
0.0
  0
LINE
  5
3D48
330
A
100
AcDbEntity
  8
0
  6
Continuous
 62
     7
370
     0
100
AcDbLine
 10
84.9999999999685
 20
-64.30000000040298
 30
0.0
 11
80.99999999996851
 21
-64.30000000040298
 31
0.0
  0
LINE
  5
3D49
330
A
100
AcDbEntity
  8
0
  6
Continuous
 62
     7
370
     0
100
AcDbLine
 10
81.54195314323898
 20
-91.96781257348447
 30
0.0
 11
84.9999999999685
 21
-85.80000000040298
 31
0.0
  0
ARC
  5
3D4A
330
A
100
AcDbEntity
  8
0
  6
Continuous
 62
     7
370
     0
100
AcDbCircle
 10
74.99999999996862
 20
-88.30000000040298
 30
0.0
 40
7.499999999999992
100
AcDbArc
 50
90.0
 51
180.0
  0
LINE
  5
3D4B
330
A
100
AcDbEntity
  8
0
  6
Continuous
 62
     7
370
     0
100
AcDbLine
 10
84.9999999999685
 20
-85.80000000040298
 30
0.0
 11
84.9999999999685
 21
-64.30000000040298
 31
0.0
  0
LINE
  5
3D4C
330
A
100
AcDbEntity
  8
0
  6
Continuous
 62
     7
370
     0
100
AcDbLine
 10
79.99999999996862
 20
-80.80000000040298
 30
0.0
 11
74.99999999996862
 21
-80.80000000040298
 31
0.0
  0
ARC
  5
3D4D
330
A
100
AcDbEntity
  8
0
  6
Continuous
 62
     7
370
     0
100
AcDbCircle
 10
74.99999999996862
 20
-88.30000000040298
 30
0.0
 40
7.5
100
AcDbArc
 50
180.0
 51
330.7223868096448
  0
LINE
  5
3D4E
330
A
100
AcDbEntity
  8
0
  6
Continuous
 62
     9
370
     0
100
AcDbLine
 10
3.000000001254193
 20
-72.10000000040281
 30
0.0
 11
-2.99999999874592
 21
-72.10000000040281
 31
0.0
  0
LINE
  5
3D4F
330
A
100
AcDbEntity
  8
0
  6
Continuous
 62
     9
370
     0
100
AcDbLine
 10
42.99999999971443
 20
-72.10000000026524
 30
0.0
 11
36.99999999971396
 21
-72.1000000005348
 31
0.0
  0
LINE
  5
3D50
330
A
100
AcDbEntity
  8
0
  6
Continuous
 62
     7
370
     0
100
AcDbLine
 10
-25.00000000013915
 20
-64.20000000120694
 30
0.0
 11
64.99999999986096
 21
-64.19999999959867
 31
0.0
  0
LINE
  5
3D51
330
A
100
AcDbEntity
  8
0
  6
Continuous
 62
     7
370
     0
100
AcDbLine
 10
64.99999999986096
 20
-64.19999999959867
 30
0.0
 11
64.99999999996815
 21
-70.19999999959869
 31
0.0
  0
LINE
  5
3D52
330
A
100
AcDbEntity
  8
0
  6
Continuous
 62
     7
370
     0
100
AcDbLine
 10
-25.00000000003183
 20
-70.20000000120695
 30
0.0
 11
64.99999999996815
 21
-70.19999999959869
 31
0.0
  0
LINE
  5
3D53
330
A
100
AcDbEntity
  8
0
  6
Continuous
 62
     7
370
     0
100
AcDbLine
 10
-25.00000000013915
 20
-64.20000000120694
 30
0.0
 11
-25.00000000003183
 21
-70.20000000120695
 31
0.0
  0
LINE
  5
3D54
330
A
100
AcDbEntity
  8
0
  6
Continuous
 62
     7
370
     0
100
AcDbLine
 10
64.99999999997147
 20
-86.80000000040349
 30
0.0
 11
64.99999999997147
 21
-80.80000000040536
 31
0.0
  0
LINE
  5
3D55
330
A
100
AcDbEntity
  8
0
  6
Continuous
 62
     7
370
     0
100
AcDbLine
 10
64.99999999997147
 20
-80.80000000040536
 30
0.0
 11
-25.00000000000011
 21
-80.80000000040536
 31
0.0
  0
LINE
  5
3D56
330
A
100
AcDbEntity
  8
0
  6
Continuous
 62
     7
370
     0
100
AcDbLine
 10
-25.00000000000011
 20
-80.80000000040536
 30
0.0
 11
-25.00000000000011
 21
-86.80000000040349
 31
0.0
  0
LINE
  5
3D57
330
A
100
AcDbEntity
  8
0
  6
Continuous
 62
     7
370
     0
100
AcDbLine
 10
-25.00000000000011
 20
-86.80000000040349
 30
0.0
 11
64.99999999997147
 21
-86.80000000040349
 31
0.0
  0
ARC
  5
3D58
330
A
100
AcDbEntity
  8
0
  6
Continuous
 62
     7
370
     0
100
AcDbCircle
 10
66.49999999997125
 20
-87.80000000040319
 30
0.0
 40
1.0
100
AcDbArc
 50
0.0
 51
90.0
  0
LINE
  5
3D59
330
A
100
AcDbEntity
  8
0
  6
Continuous
 62
     7
370
     0
100
AcDbLine
 10
74.99999999996862
 20
-80.80000000040536
 30
0.0
 11
64.99999999997147
 21
-80.80000000040536
 31
0.0
  0
LINE
  5
3D5A
330
A
100
AcDbEntity
  8
0
  6
Continuous
 62
     7
370
     0
100
AcDbLine
 10
64.99999999997147
 20
-86.80000000040349
 30
0.0
 11
66.49999999997125
 21
-86.80000000040349
 31
0.0
  0
LINE
  5
3D5B
330
A
100
AcDbEntity
  8
0
  6
Continuous
 62
     7
370
     0
100
AcDbLine
 10
-4.90000000000532
 20
-72.80000000040786
 30
0.0
 11
4.899999999989063
 21
-72.80000000040786
 31
0.0
  0
LINE
  5
3D5C
330
A
100
AcDbEntity
  8
0
  6
Continuous
 62
     7
370
     0
100
AcDbLine
 10
35.09999999998252
 20
-72.80000000040786
 30
0.0
 11
44.89999999997642
 21
-72.80000000040786
 31
0.0
  0
LINE
  5
3D5D
330
A
100
AcDbEntity
  8
0
  6
Continuous
 62
     9
370
     0
100
AcDbLine
 10
2.500000001254079
 20
-72.79998000040786
 30
0.0
 11
2.500000001254079
 21
-72.10000000040281
 31
0.0
  0
LINE
  5
3D5E
330
A
100
AcDbEntity
  8
0
  6
Continuous
 62
     9
370
     0
100
AcDbLine
 10
-2.49999999874592
 20
-72.10000000040281
 30
0.0
 11
-2.49999999874592
 21
-72.79998000040786
 31
0.0
  0
LINE
  5
3D5F
330
A
100
AcDbEntity
  8
0
  6
Continuous
 62
     9
370
     0
100
AcDbLine
 10
42.49999999974579
 20
-72.80000000040786
 30
0.0
 11
42.49999999971396
 21
-72.1000000002877
 31
0.0
  0
LINE
  5
3D60
330
A
100
AcDbEntity
  8
0
  6
Continuous
 62
     9
370
     0
100
AcDbLine
 10
37.49999999971397
 20
-72.10000000051241
 30
0.0
 11
37.4999999997458
 21
-72.80000000040786
 31
0.0
  0
LINE
  5
3D61
330
A
100
AcDbEntity
  8
0
  6
Continuous
 62
     9
370
     0
100
AcDbLine
 10
67.65142195252304
 20
-89.79999499040298
 30
0.0
 11
67.65152974896125
 21
-89.79999499040298
 31
0.0
  0
LINE
  5
3D62
330
A
100
AcDbEntity
  8
0
  6
Continuous
 62
     9
370
     0
100
AcDbLine
 10
67.65152974895887
 20
-86.80000501040295
 30
0.0
 11
67.65142195252304
 21
-86.80000501040295
 31
0.0
  0
LINE
  5
3D63
330
A
100
AcDbEntity
  8
0
  6
Continuous
 62
     7
370
     0
100
AcDbLine
 10
31.14989421949247
 20
-72.79999999694587
 30
0.0
 11
31.14989421695339
 21
-79.29999999694587
 31
0.0
  0
LINE
  5
3D64
330
A
100
AcDbEntity
  8
0
  6
Continuous
 62
     7
370
     0
100
AcDbLine
 10
48.84989421695343
 20
-79.30000000385985
 30
0.0
 11
48.8498942194924
 21
-72.80000000385985
 31
0.0
  0
LINE
  5
3D65
330
A
100
AcDbEntity
  8
0
  6
Continuous
 62
     7
370
     0
100
AcDbLine
 10
-8.850080479455071
 20
-72.79999999694581
 30
0.0
 11
-8.850080481994041
 21
-79.29999999694581
 31
0.0
  0
LINE
  5
3D66
330
A
100
AcDbEntity
  8
0
  6
Continuous
 62
     7
370
     0
100
AcDbLine
 10
8.849919518006004
 20
-79.30000000385979
 30
0.0
 11
8.849919520545086
 21
-72.80000000385979
 31
0.0
  0
LINE
  5
3D67
330
A
100
AcDbEntity
  8
0
  6
Continuous
 62
     7
370
     0
100
AcDbLine
 10
3.000000001254193
 20
-72.79998063840247
 30
0.0
 11
3.000000001254193
 21
-72.10000000040281
 31
0.0
  0
LINE
  5
3D68
330
A
100
AcDbEntity
  8
0
  6
Continuous
 62
     7
370
     0
100
AcDbLine
 10
3.000000001254193
 20
-72.10000000040281
 30
0.0
 11
3.000000001254193
 21
-72.09500000040282
 31
0.0
  0
LINE
  5
3D69
330
A
100
AcDbEntity
  8
0
  6
Continuous
 62
     7
370
     0
100
AcDbLine
 10
-2.99999999874592
 20
-72.09500000040282
 30
0.0
 11
-2.99999999874592
 21
-72.10000000040281
 31
0.0
  0
LINE
  5
3D6A
330
A
100
AcDbEntity
  8
0
  6
Continuous
 62
     7
370
     0
100
AcDbLine
 10
-2.99999999874592
 20
-72.10000000040281
 30
0.0
 11
-2.99999999874592
 21
-72.79998063774939
 31
0.0
  0
LINE
  5
3D6B
330
A
100
AcDbEntity
  8
0
  6
Continuous
 62
     7
370
     0
100
AcDbLine
 10
3.000000001254193
 20
-72.10500000040281
 30
0.0
 11
3.000000001254193
 21
-72.10000000040281
 31
0.0
  0
LINE
  5
3D6C
330
A
100
AcDbEntity
  8
0
  6
Continuous
 62
     7
370
     0
100
AcDbLine
 10
3.000000001254193
 20
-72.10000000040281
 30
0.0
 11
3.000000001254193
 21
-70.40000000073445
 31
0.0
  0
LINE
  5
3D6D
330
A
100
AcDbEntity
  8
0
  6
Continuous
 62
     7
370
     0
100
AcDbLine
 10
-2.99999999874592
 20
-70.400000001004
 30
0.0
 11
-2.99999999874592
 21
-72.10000000040281
 31
0.0
  0
LINE
  5
3D6E
330
A
100
AcDbEntity
  8
0
  6
Continuous
 62
     7
370
     0
100
AcDbLine
 10
-2.99999999874592
 20
-72.10000000040281
 30
0.0
 11
-2.99999999874592
 21
-72.10500000040281
 31
0.0
  0
LINE
  5
3D6F
330
A
100
AcDbEntity
  8
0
  6
Continuous
 62
     7
370
     0
100
AcDbLine
 10
42.9999999997458
 20
-72.80000000040587
 30
0.0
 11
42.99999999971443
 21
-72.10000000026304
 31
0.0
  0
LINE
  5
3D70
330
A
100
AcDbEntity
  8
0
  6
Continuous
 62
     7
370
     0
100
AcDbLine
 10
42.99999999971443
 20
-72.10000000026304
 30
0.0
 11
42.99999999971396
 21
-72.09500000026526
 31
0.0
  0
LINE
  5
3D71
330
A
100
AcDbEntity
  8
0
  6
Continuous
 62
     7
370
     0
100
AcDbLine
 10
36.99999999971396
 20
-72.09500000053481
 30
0.0
 11
36.99999999971396
 21
-72.1000000005327
 31
0.0
  0
LINE
  5
3D72
330
A
100
AcDbEntity
  8
0
  6
Continuous
 62
     7
370
     0
100
AcDbLine
 10
36.99999999971396
 20
-72.1000000005327
 30
0.0
 11
36.9999999997458
 21
-72.80000000040587
 31
0.0
  0
LINE
  5
3D73
330
A
100
AcDbEntity
  8
0
  6
Continuous
 62
     7
370
     0
100
AcDbLine
 10
42.99999999971443
 20
-72.10500000026525
 30
0.0
 11
42.99999999971443
 21
-72.10000000026304
 31
0.0
  0
LINE
  5
3D74
330
A
100
AcDbEntity
  8
0
  6
Continuous
 62
     7
370
     0
100
AcDbLine
 10
42.99999999971443
 20
-72.10000000026304
 30
0.0
 11
42.99999999963802
 21
-70.39999999893751
 31
0.0
  0
LINE
  5
3D75
330
A
100
AcDbEntity
  8
0
  6
Continuous
 62
     7
370
     0
100
AcDbLine
 10
36.99999999963802
 20
-70.39999999920713
 30
0.0
 11
36.99999999971396
 21
-72.1000000005327
 31
0.0
  0
LINE
  5
3D76
330
A
100
AcDbEntity
  8
0
  6
Continuous
 62
     7
370
     0
100
AcDbLine
 10
36.99999999971396
 20
-72.1000000005327
 30
0.0
 11
36.99999999971443
 21
-72.1050000005348
 31
0.0
  0
LINE
  5
3D77
330
A
100
AcDbEntity
  8
0
  6
Continuous
 62
     7
370
     0
100
AcDbLine
 10
-4.900000000006341
 20
-79.2999999985617
 30
0.0
 11
-4.900000000006341
 21
-80.40000000040533
 31
0.0
  0
LINE
  5
3D78
330
A
100
AcDbEntity
  8
0
  6
Continuous
 62
     7
370
     0
100
AcDbLine
 10
4.89999999999054
 20
-80.40000000040533
 30
0.0
 11
4.89999999999054
 21
-79.30000000238988
 31
0.0
  0
LINE
  5
3D79
330
A
100
AcDbEntity
  8
0
  6
Continuous
 62
     7
370
     0
100
AcDbLine
 10
35.09999999998092
 20
-79.29999999856147
 30
0.0
 11
35.09999999998092
 21
-80.40000000040533
 31
0.0
  0
LINE
  5
3D7A
330
A
100
AcDbEntity
  8
0
  6
Continuous
 62
     7
370
     0
100
AcDbLine
 10
44.89999999997802
 20
-80.40000000040533
 30
0.0
 11
44.89999999997802
 21
-79.30000000238966
 31
0.0
  0
LINE
  5
3D7B
330
A
100
AcDbEntity
  8
0
  6
Continuous
 62
     7
370
     0
100
AcDbLine
 10
129.600000000317
 20
3.000005010001586
 30
0.0
 11
129.600000000317
 21
-3.000005009998403
 31
0.0
  0
LINE
  5
3D7C
330
A
100
AcDbEntity
  8
0
  6
Continuous
 62
     9
370
     0
100
AcDbLine
 10
129.600000000317
 20
2.500000000001477
 30
0.0
 11
129.600000000317
 21
-2.499999999998463
 31
0.0
  0
ARC
  5
3D7D
330
A
100
AcDbEntity
  8
0
  6
Continuous
 62
     9
370
     0
100
AcDbCircle
 10
145.800223709477
 20
19.50022132200854
 30
0.0
 40
1.500221338685774
100
AcDbArc
 50
179.3938789718648
 51
269.9914562002226
  0
ARC
  5
3D7E
330
A
100
AcDbEntity
  8
0
  6
Continuous
 62
     9
370
     0
100
AcDbCircle
 10
145.7999999872875
 20
19.49999757094644
 30
0.0
 40
1.50000001303146
100
AcDbArc
 50
0.0000927831045277
 51
179.3852423889839
  0
LINE
  5
3D7F
330
A
100
AcDbEntity
  8
0
  6
Continuous
 62
     7
370
     0
100
AcDbLine
 10
130.3000000003155
 20
-10.34999999783889
 30
0.0
 11
130.3000000003182
 21
7.350000002161436
 31
0.0
  0
LINE
  5
3D80
330
A
100
AcDbEntity
  8
0
  6
Continuous
 62
     7
370
     0
100
AcDbLine
 10
136.8000000003155
 20
-10.34999999783963
 30
0.0
 11
136.8000000003185
 21
7.350000002160411
 31
0.0
  0
CIRCLE
  5
3D81
330
A
100
AcDbEntity
  8
0
  6
Continuous
 62
     7
370
     0
100
AcDbCircle
 10
145.8000000003172
 20
19.50000000000244
 30
0.0
 40
1.0
  0
LINE
  5
3D82
330
A
100
AcDbEntity
  8
0
  6
Continuous
 62
     7
370
     0
100
AcDbLine
 10
146.6660254041015
 20
19.50000000000244
 30
0.0
 11
146.2330127022095
 21
18.7500000000025
 31
0.0
  0
LINE
  5
3D83
330
A
100
AcDbEntity
  8
0
  6
Continuous
 62
     7
370
     0
100
AcDbLine
 10
145.366987298425
 20
18.7500000000025
 30
0.0
 11
144.9339745965325
 21
19.50000000000244
 31
0.0
  0
LINE
  5
3D84
330
A
100
AcDbEntity
  8
0
  6
Continuous
 62
     7
370
     0
100
AcDbLine
 10
145.366987298425
 20
20.25000000000227
 30
0.0
 11
146.2330127022095
 21
20.25000000000227
 31
0.0
  0
LINE
  5
3D85
330
A
100
AcDbEntity
  8
0
  6
Continuous
 62
     7
370
     0
100
AcDbLine
 10
146.2330127022095
 20
20.25000000000227
 30
0.0
 11
146.6660254041015
 21
19.50000000000244
 31
0.0
  0
LINE
  5
3D86
330
A
100
AcDbEntity
  8
0
  6
Continuous
 62
     7
370
     0
100
AcDbLine
 10
144.9339745965325
 20
19.50000000000244
 30
0.0
 11
145.366987298425
 21
20.25000000000227
 31
0.0
  0
LINE
  5
3D87
330
A
100
AcDbEntity
  8
0
  6
Continuous
 62
     7
370
     0
100
AcDbLine
 10
146.2330127022095
 20
18.7500000000025
 30
0.0
 11
145.366987298425
 21
18.7500000000025
 31
0.0
  0
LINE
  5
3D88
330
A
100
AcDbEntity
  8
0
  6
Continuous
 62
     7
370
     0
100
AcDbLine
 10
144.3000000003175
 20
-11.00000000009385
 30
0.0
 11
145.3000000003175
 21
-11.0000000000295
 31
0.0
  0
LINE
  5
3D89
330
A
100
AcDbEntity
  8
0
  6
Continuous
 62
     7
370
     0
100
AcDbLine
 10
145.8000000003172
 20
-10.99999999999772
 30
0.0
 11
153.0500000010033
 21
-10.99999999953252
 31
0.0
  0
LINE
  5
3D8A
330
A
100
AcDbEntity
  8
0
  6
Continuous
 62
     7
370
     0
100
AcDbLine
 10
144.3000000003175
 20
-12.30000000009369
 30
0.0
 11
153.0500000010863
 21
-12.29999999953298
 31
0.0
  0
LINE
  5
3D8B
330
A
100
AcDbEntity
  8
0
  6
Continuous
 62
     7
370
     0
100
AcDbLine
 10
153.0500000010034
 20
10.99999999953741
 30
0.0
 11
145.8000000003172
 21
11.0000000000026
 31
0.0
  0
LINE
  5
3D8C
330
A
100
AcDbEntity
  8
0
  6
Continuous
 62
     7
370
     0
100
AcDbLine
 10
145.3000000003175
 20
11.00000000003461
 30
0.0
 11
144.3000000003175
 21
11.00000000009879
 31
0.0
  0
LINE
  5
3D8D
330
A
100
AcDbEntity
  8
0
  6
Continuous
 62
     7
370
     0
100
AcDbLine
 10
153.050000001087
 20
12.2999999995373
 30
0.0
 11
144.3000000003175
 21
12.3000000000988
 31
0.0
  0
LINE
  5
3D8E
330
A
100
AcDbEntity
  8
0
  6
Continuous
 62
     9
370
     0
100
AcDbLine
 10
127.7000000011212
 20
19.50000000000193
 30
0.0
 11
127.9000000016369
 21
19.50000000000193
 31
0.0
  0
LINE
  5
3D8F
330
A
100
AcDbEntity
  8
0
  6
Continuous
 62
     7
370
     0
100
AcDbLine
 10
127.7000000011212
 20
21.50000000000193
 30
0.0
 11
127.9000000015472
 21
21.50000000000193
 31
0.0
  0
LINE
  5
3D90
330
A
100
AcDbEntity
  8
0
  6
Continuous
 62
     7
370
     0
100
AcDbLine
 10
127.9000000015472
 20
19.50000000000193
 30
0.0
 11
127.9000000015472
 21
21.50000000000193
 31
0.0
  0
LINE
  5
3D91
330
A
100
AcDbEntity
  8
0
  6
Continuous
 62
     9
370
     0
100
AcDbLine
 10
127.7000000011212
 20
-19.49999999999807
 30
0.0
 11
127.9000000016367
 21
-19.49999999999807
 31
0.0
  0
LINE
  5
3D92
330
A
100
AcDbEntity
  8
0
  6
Continuous
 62
     7
370
     0
100
AcDbLine
 10
127.9000000016367
 20
-19.49999999999807
 30
0.0
 11
127.9000000016369
 21
19.50000000000193
 31
0.0
  0
LINE
  5
3D93
330
A
100
AcDbEntity
  8
0
  6
Continuous
 62
     7
370
     0
100
AcDbLine
 10
127.7000000011212
 20
-21.49999999999807
 30
0.0
 11
127.9000000015469
 21
-21.49999999999807
 31
0.0
  0
LINE
  5
3D94
330
A
100
AcDbEntity
  8
0
  6
Continuous
 62
     7
370
     0
100
AcDbLine
 10
127.9000000015469
 20
-21.49999999999807
 30
0.0
 11
127.9000000015469
 21
-19.49999999999807
 31
0.0
  0
LINE
  5
3D95
330
A
100
AcDbEntity
  8
0
  6
Continuous
 62
     7
370
     0
100
AcDbLine
 10
137.9000000003194
 20
-23.99999999999289
 30
0.0
 11
138.3000000003196
 21
-23.99999999999289
 31
0.0
  0
LINE
  5
3D96
330
A
100
AcDbEntity
  8
0
  6
Continuous
 62
     7
370
     0
100
AcDbLine
 10
137.9000000003194
 20
-23.99999999999358
 30
0.0
 11
137.9000000003194
 21
-21.99999999999335
 31
0.0
  0
LINE
  5
3D97
330
A
100
AcDbEntity
  8
0
  6
Continuous
 62
     9
370
     0
100
AcDbLine
 10
137.9000000003194
 20
-21.99999999999335
 30
0.0
 11
138.3000000003196
 21
-21.99999999999335
 31
0.0
  0
LINE
  5
3D98
330
A
100
AcDbEntity
  8
0
  6
Continuous
 62
     7
370
     0
100
AcDbLine
 10
137.9000000003194
 20
-21.99999999999335
 30
0.0
 11
137.9000000003194
 21
21.99999999999352
 31
0.0
  0
LINE
  5
3D99
330
A
100
AcDbEntity
  8
0
  6
Continuous
 62
     9
370
     0
100
AcDbLine
 10
137.9000000003194
 20
21.99999999999352
 30
0.0
 11
138.3000000003196
 21
21.99999999999352
 31
0.0
  0
LINE
  5
3D9A
330
A
100
AcDbEntity
  8
0
  6
Continuous
 62
     7
370
     0
100
AcDbLine
 10
137.9000000003194
 20
23.99999999999284
 30
0.0
 11
138.3000000003196
 21
23.99999999999284
 31
0.0
  0
LINE
  5
3D9B
330
A
100
AcDbEntity
  8
0
  6
Continuous
 62
     7
370
     0
100
AcDbLine
 10
137.9000000003194
 20
21.99999999999352
 30
0.0
 11
137.9000000003194
 21
23.99999999999346
 31
0.0
  0
LINE
  5
3D9C
330
A
100
AcDbEntity
  8
0
  6
Continuous
 62
     7
370
     0
100
AcDbLine
 10
140.5000000003173
 20
26.30000000033533
 30
0.0
 11
151.1000000003173
 21
26.29999999966941
 31
0.0
  0
LINE
  5
3D9D
330
A
100
AcDbEntity
  8
0
  6
Continuous
 62
     7
370
     0
100
AcDbLine
 10
151.8000000002732
 20
25.59999999962548
 30
0.0
 11
139.8000000002732
 21
25.60000000037974
 31
0.0
  0
LINE
  5
3D9E
330
A
100
AcDbEntity
  8
0
  6
Continuous
 62
     7
370
     0
100
AcDbLine
 10
151.1000000003173
 20
-26.30000000033727
 30
0.0
 11
140.5000000003173
 21
-26.29999999965759
 31
0.0
  0
LINE
  5
3D9F
330
A
100
AcDbEntity
  8
0
  6
Continuous
 62
     7
370
     0
100
AcDbLine
 10
139.8000000003621
 20
-25.59999999961263
 30
0.0
 11
151.8000000003621
 21
-25.60000000038213
 31
0.0
  0
LINE
  5
3DA0
330
A
100
AcDbEntity
  8
0
  6
Continuous
 62
     7
370
     0
100
AcDbLine
 10
145.8000000003172
 20
-12.49999999999738
 30
0.0
 11
144.3000000003175
 21
-12.49999999999738
 31
0.0
  0
LINE
  5
3DA2
330
A
100
AcDbEntity
  8
0
  6
Continuous
 62
     7
370
     0
100
AcDbLine
 10
144.3000000003175
 20
-24.9999999999975
 30
0.0
 11
145.8000000003172
 21
-24.9999999999975
 31
0.0
  0
LINE
  5
3DA3
330
A
100
AcDbEntity
  8
0
  6
Continuous
 62
     9
370
     0
100
AcDbLine
 10
145.8000000003172
 20
25.0000000000025
 30
0.0
 11
145.8000000003172
 21
21.0000000000025
 31
0.0
  0
LINE
  5
3DA4
330
A
100
AcDbEntity
  8
0
  6
Continuous
 62
     9
370
     0
100
AcDbLine
 10
145.8000000003172
 20
21.0000000000025
 30
0.0
 11
145.8000000003172
 21
20.75000000000262
 31
0.0
  0
LINE
  5
3DB7
330
A
100
AcDbEntity
  8
0
  6
Continuous
 62
     9
370
     0
100
AcDbLine
 10
145.8000000003172
 20
18.25000000000261
 30
0.0
 11
145.8000000003172
 21
18.00000000000227
 31
0.0
  0
LINE
  5
3DB9
330
A
100
AcDbEntity
  8
0
  6
Continuous
 62
     7
370
     0
100
AcDbLine
 10
144.3000000003175
 20
12.50000000000261
 30
0.0
 11
145.8000000003172
 21
12.50000000000261
 31
0.0
  0
LINE
  5
3DBA
330
A
100
AcDbEntity
  8
0
  6
Continuous
 62
     7
370
     0
100
AcDbLine
 10
144.3000000003175
 20
25.0000000000025
 30
0.0
 11
145.8000000003172
 21
25.0000000000025
 31
0.0
  0
LINE
  5
3DBB
330
A
100
AcDbEntity
  8
0
  6
Continuous
 62
     7
370
     0
100
AcDbLine
 10
153.3000000003172
 20
-12.49999999999738
 30
0.0
 11
145.8000000003172
 21
-12.49999999999738
 31
0.0
  0
LINE
  5
3DBC
330
A
100
AcDbEntity
  8
0
  6
Continuous
 62
     7
370
     0
100
AcDbLine
 10
145.8000000003172
 20
-24.9999999999975
 30
0.0
 11
153.3000000003172
 21
-24.9999999999975
 31
0.0
  0
LINE
  5
3DCF
330
A
100
AcDbEntity
  8
0
  6
Continuous
 62
     7
370
     0
100
AcDbLine
 10
145.8000000003172
 20
12.50000000000261
 30
0.0
 11
153.3000000003172
 21
12.50000000000261
 31
0.0
  0
LINE
  5
3DD0
330
A
100
AcDbEntity
  8
0
  6
Continuous
 62
     7
370
     0
100
AcDbLine
 10
145.8000000003172
 20
25.0000000000025
 30
0.0
 11
153.3000000003172
 21
25.0000000000025
 31
0.0
  0
LINE
  5
3DD1
330
A
100
AcDbEntity
  8
0
  6
Continuous
 62
     9
370
     0
100
AcDbLine
 10
137.3000000003172
 20
11.90000000000242
 30
0.0
 11
137.3000000003172
 21
25.0000000000025
 31
0.0
  0
LINE
  5
3DD2
330
A
100
AcDbEntity
  8
0
  6
Continuous
 62
     7
370
     0
100
AcDbLine
 10
137.3000000003172
 20
11.90000000000242
 30
0.0
 11
137.9000041901724
 21
12.37477453708442
 31
0.0
  0
LINE
  5
3DD3
330
A
100
AcDbEntity
  8
0
  6
Continuous
 62
     7
370
     0
100
AcDbLine
 10
138.3000000003172
 20
25.0000000000025
 30
0.0
 11
137.3000000003172
 21
25.0000000000025
 31
0.0
  0
LINE
  5
3DD4
330
A
100
AcDbEntity
  8
0
  6
Continuous
 62
     9
370
     0
100
AcDbLine
 10
137.3000000003172
 20
-24.9999999999975
 30
0.0
 11
137.3000000003172
 21
-11.89999999999747
 31
0.0
  0
LINE
  5
3DD5
330
A
100
AcDbEntity
  8
0
  6
Continuous
 62
     7
370
     0
100
AcDbLine
 10
137.9000344312908
 20
-12.3747877348797
 30
0.0
 11
137.3000000003172
 21
-11.89999999999747
 31
0.0
  0
LINE
  5
3DD6
330
A
100
AcDbEntity
  8
0
  6
Continuous
 62
     7
370
     0
100
AcDbLine
 10
137.3000000003172
 20
-24.9999999999975
 30
0.0
 11
138.3000000003172
 21
-24.9999999999975
 31
0.0
  0
LINE
  5
3DD7
330
A
100
AcDbEntity
  8
0
  6
Continuous
 62
     7
370
     0
100
AcDbLine
 10
137.0000000003173
 20
-10.99999999999772
 30
0.0
 11
137.0000000003168
 21
-4.90000000000009
 31
0.0
  0
LINE
  5
3DD8
330
A
100
AcDbEntity
  8
0
  6
Continuous
 62
     7
370
     0
100
AcDbLine
 10
137.0000000003173
 20
4.899999999999863
 30
0.0
 11
137.0000000003173
 21
11.0000000000026
 31
0.0
  0
ARC
  5
3DD9
330
A
100
AcDbEntity
  8
0
  6
Continuous
 62
     7
370
     0
100
AcDbCircle
 10
129.8000000003172
 20
17.0000000000025
 30
0.0
 40
5.0
100
AcDbArc
 50
247.6663173585462
 51
114.8345874795504
  0
ARC
  5
3DDA
330
A
100
AcDbEntity
  8
0
  6
Continuous
 62
     7
370
     0
100
AcDbCircle
 10
129.8000000003172
 20
-16.99999999999738
 30
0.0
 40
5.000000000000006
100
AcDbArc
 50
245.1654125204496
 51
112.3336826414597
  0
ARC
  5
3DDB
330
A
100
AcDbEntity
  8
0
  6
Continuous
 62
     7
370
     0
100
AcDbCircle
 10
138.5000000003173
 20
-10.99999999999772
 30
0.0
 40
1.5
100
AcDbArc
 50
180.0
 51
216.8698976458466
  0
ARC
  5
3DDC
330
A
100
AcDbEntity
  8
0
  6
Continuous
 62
     7
370
     0
100
AcDbCircle
 10
138.5000000003173
 20
11.0000000000026
 30
0.0
 40
1.5
100
AcDbArc
 50
143.1301023541533
 51
180.0
  0
LINE
  5
3DDD
330
A
100
AcDbEntity
  8
0
  6
Continuous
 62
     7
370
     0
100
AcDbLine
 10
127.7000000011212
 20
-24.9999999999975
 30
0.0
 11
137.3000000003172
 21
-24.9999999999975
 31
0.0
  0
LINE
  5
3DDE
330
A
100
AcDbEntity
  8
0
  6
Continuous
 62
     7
370
     0
100
AcDbLine
 10
127.7000000011212
 20
25.0000000000025
 30
0.0
 11
137.3000000003172
 21
25.0000000000025
 31
0.0
  0
ARC
  5
3DDF
330
A
100
AcDbEntity
  8
0
  6
Continuous
 62
     7
370
     0
100
AcDbCircle
 10
129.8000000003172
 20
17.0000000000025
 30
0.0
 40
3.200000000000008
100
AcDbArc
 50
233.5764263870369
 51
270.0
  0
ARC
  5
3DE0
330
A
100
AcDbEntity
  8
0
  6
Continuous
 62
     7
370
     0
100
AcDbCircle
 10
129.8000000003172
 20
17.0000000000025
 30
0.0
 40
3.200000000000001
100
AcDbArc
 50
270.0
 51
126.4235253446288
  0
ARC
  5
3DE1
330
A
100
AcDbEntity
  8
0
  6
Continuous
 62
     7
370
     0
100
AcDbCircle
 10
129.8000000003172
 20
-16.99999999999738
 30
0.0
 40
3.200000000000008
100
AcDbArc
 50
233.5764263850709
 51
270.0
  0
ARC
  5
3DE2
330
A
100
AcDbEntity
  8
0
  6
Continuous
 62
     7
370
     0
100
AcDbCircle
 10
129.8000000003172
 20
-16.99999999999738
 30
0.0
 40
3.200000000000011
100
AcDbArc
 50
270.0
 51
126.4235736129703
  0
LINE
  5
3DE3
330
A
100
AcDbEntity
  8
0
  6
Continuous
 62
     9
370
     0
100
AcDbLine
 10
129.600000000317
 20
3.000000000001531
 30
0.0
 11
129.600000000317
 21
-0.1000238763722905
 31
0.0
  0
LINE
  5
3DE4
330
A
100
AcDbEntity
  8
0
  6
Continuous
 62
     9
370
     0
100
AcDbLine
 10
129.600000000317
 20
-0.1000238763722905
 30
0.0
 11
129.600000000317
 21
-2.999999972637851
 31
0.0
  0
LINE
  5
3DE5
330
A
100
AcDbEntity
  8
0
  6
Continuous
 62
     7
370
     0
100
AcDbLine
 10
121.700000001121
 20
-25.00000000000398
 30
0.0
 11
127.7000000011212
 21
-25.00000000000398
 31
0.0
  0
LINE
  5
3DE6
330
A
100
AcDbEntity
  8
0
  6
Continuous
 62
     7
370
     0
100
AcDbLine
 10
127.7000000011212
 20
-25.00000000000398
 30
0.0
 11
127.7000000011212
 21
24.99999999999602
 31
0.0
  0
LINE
  5
3DE7
330
A
100
AcDbEntity
  8
0
  6
Continuous
 62
     7
370
     0
100
AcDbLine
 10
121.700000001121
 20
24.99999999999602
 30
0.0
 11
127.7000000011212
 21
24.99999999999602
 31
0.0
  0
LINE
  5
3DE8
330
A
100
AcDbEntity
  8
0
  6
Continuous
 62
     7
370
     0
100
AcDbLine
 10
121.700000001121
 20
-25.00000000000398
 30
0.0
 11
121.700000001121
 21
24.99999999999602
 31
0.0
  0
LINE
  5
3DE9
330
A
100
AcDbEntity
  8
0
  6
Continuous
 62
     7
370
     0
100
AcDbLine
 10
144.3000000003175
 20
-25.0
 30
0.0
 11
144.3000000003175
 21
25.0
 31
0.0
  0
LINE
  5
3DEA
330
A
100
AcDbEntity
  8
0
  6
Continuous
 62
     7
370
     0
100
AcDbLine
 10
138.3000000003196
 20
-25.0
 30
0.0
 11
144.3000000003175
 21
-25.0
 31
0.0
  0
LINE
  5
3DEB
330
A
100
AcDbEntity
  8
0
  6
Continuous
 62
     7
370
     0
100
AcDbLine
 10
138.3000000003196
 20
-25.0
 30
0.0
 11
138.3000000003196
 21
25.0
 31
0.0
  0
LINE
  5
3DEC
330
A
100
AcDbEntity
  8
0
  6
Continuous
 62
     7
370
     0
100
AcDbLine
 10
138.3000000003196
 20
25.0
 30
0.0
 11
144.3000000003175
 21
25.0
 31
0.0
  0
LINE
  5
3DED
330
A
100
AcDbEntity
  8
0
  6
Continuous
 62
     7
370
     0
100
AcDbLine
 10
130.3000000003221
 20
-4.899999999997021
 30
0.0
 11
130.3000000003221
 21
4.899999999997021
 31
0.0
  0
LINE
  5
3DEE
330
A
100
AcDbEntity
  8
0
  6
Continuous
 62
     9
370
     0
100
AcDbLine
 10
145.3000000003175
 20
-11.00000000000005
 30
0.0
 11
145.3000000003175
 21
10.99999999999994
 31
0.0
  0
LINE
  5
3DEF
330
A
100
AcDbEntity
  8
0
  6
Continuous
 62
     7
370
     0
100
AcDbLine
 10
145.3000000003175
 20
10.99999999999994
 30
0.0
 11
144.3000000003173
 21
10.99999999999994
 31
0.0
  0
LINE
  5
3DF0
330
A
100
AcDbEntity
  8
0
  6
Continuous
 62
     7
370
     0
100
AcDbLine
 10
145.3000000003175
 20
-11.00000000000005
 30
0.0
 11
144.3000000003173
 21
-11.00000000000005
 31
0.0
  0
LINE
  5
3DF2
330
A
100
AcDbEntity
  8
0
  6
Continuous
 62
     7
370
     0
100
AcDbLine
 10
145.8000000003172
 20
10.99999999999994
 30
0.0
 11
153.3000000003172
 21
10.99999999999994
 31
0.0
  0
LINE
  5
3DF3
330
A
100
AcDbEntity
  8
0
  6
Continuous
 62
     7
370
     0
100
AcDbLine
 10
145.8000000003172
 20
-11.00000000000005
 30
0.0
 11
153.3000000003172
 21
-11.00000000000005
 31
0.0
  0
LINE
  5
3DF4
330
A
100
AcDbEntity
  8
0
  6
Continuous
 62
     7
370
     0
100
AcDbLine
 10
145.3000000003175
 20
10.99999999999994
 30
0.0
 11
145.8000000003172
 21
10.99999999999994
 31
0.0
  0
LINE
  5
3DF5
330
A
100
AcDbEntity
  8
0
  6
Continuous
 62
     7
370
     0
100
AcDbLine
 10
145.3000000003175
 20
-11.00000000000005
 30
0.0
 11
145.8000000003172
 21
-11.00000000000005
 31
0.0
  0
LINE
  5
3DF6
330
A
100
AcDbEntity
  8
0
  6
Continuous
 62
     9
370
     0
100
AcDbLine
 10
130.2999800003219
 20
2.500000000001477
 30
0.0
 11
129.600000000317
 21
2.500000000001477
 31
0.0
  0
LINE
  5
3DF7
330
A
100
AcDbEntity
  8
0
  6
Continuous
 62
     9
370
     0
100
AcDbLine
 10
129.600000000317
 20
-2.499999999998463
 30
0.0
 11
130.2999800003219
 21
-2.499999999998463
 31
0.0
  0
LINE
  5
3DF8
330
A
100
AcDbEntity
  8
0
  6
Continuous
 62
     7
370
     0
100
AcDbLine
 10
130.3000000003155
 20
-10.34999999783889
 30
0.0
 11
136.8000000003155
 21
-10.34999999783963
 31
0.0
  0
LINE
  5
3DF9
330
A
100
AcDbEntity
  8
0
  6
Continuous
 62
     7
370
     0
100
AcDbLine
 10
136.8000000003183
 20
7.350000002160411
 30
0.0
 11
130.3000000003182
 21
7.350000002161436
 31
0.0
  0
LINE
  5
3DFA
330
A
100
AcDbEntity
  8
0
  6
Continuous
 62
     7
370
     0
100
AcDbLine
 10
153.0500000010863
 20
-12.29999999953298
 30
0.0
 11
153.0500000010033
 21
-10.99999999953252
 31
0.0
  0
LINE
  5
3DFB
330
A
100
AcDbEntity
  8
0
  6
Continuous
 62
     7
370
     0
100
AcDbLine
 10
153.0500000010034
 20
10.99999999953741
 30
0.0
 11
153.050000001087
 21
12.2999999995373
 31
0.0
  0
LINE
  5
3DFC
330
A
100
AcDbEntity
  8
0
  6
Continuous
 62
     7
370
     0
100
AcDbLine
 10
149.8000000026924
 20
-12.49999999999738
 30
0.0
 11
149.8000000026794
 21
-12.29999999974103
 31
0.0
  0
LINE
  5
3DFD
330
A
100
AcDbEntity
  8
0
  6
Continuous
 62
     7
370
     0
100
AcDbLine
 10
149.8000000011004
 20
12.29999999974603
 30
0.0
 11
149.8000000010875
 21
12.50000000000261
 31
0.0
  0
LINE
  5
3DFE
330
A
100
AcDbEntity
  8
0
  6
Continuous
 62
     7
370
     0
100
AcDbLine
 10
151.8000000002732
 20
25.59999999962548
 30
0.0
 11
151.1000000003173
 21
26.29999999966941
 31
0.0
  0
LINE
  5
3DFF
330
A
100
AcDbEntity
  8
0
  6
Continuous
 62
     7
370
     0
100
AcDbLine
 10
140.5000000003173
 20
26.30000000033533
 30
0.0
 11
139.8000000002732
 21
25.60000000037974
 31
0.0
  0
LINE
  5
3E00
330
A
100
AcDbEntity
  8
0
  6
Continuous
 62
     7
370
     0
100
AcDbLine
 10
139.8000000002732
 20
25.60000000037974
 30
0.0
 11
139.8000000002355
 21
25.00000000037971
 31
0.0
  0
LINE
  5
3E01
330
A
100
AcDbEntity
  8
0
  6
Continuous
 62
     7
370
     0
100
AcDbLine
 10
151.8000000002355
 20
24.99999999962535
 30
0.0
 11
151.8000000002732
 21
25.59999999962548
 31
0.0
  0
LINE
  5
3E02
330
A
100
AcDbEntity
  8
0
  6
Continuous
 62
     7
370
     0
100
AcDbLine
 10
151.8000000003621
 20
-25.60000000038213
 30
0.0
 11
151.8000000004005
 21
-25.00000000038216
 31
0.0
  0
LINE
  5
3E03
330
A
100
AcDbEntity
  8
0
  6
Continuous
 62
     7
370
     0
100
AcDbLine
 10
139.8000000004006
 20
-24.99999999961267
 30
0.0
 11
139.8000000003621
 21
-25.59999999961263
 31
0.0
  0
LINE
  5
3E04
330
A
100
AcDbEntity
  8
0
  6
Continuous
 62
     7
370
     0
100
AcDbLine
 10
139.8000000003621
 20
-25.59999999961263
 30
0.0
 11
140.5000000003173
 21
-26.29999999965759
 31
0.0
  0
LINE
  5
3E05
330
A
100
AcDbEntity
  8
0
  6
Continuous
 62
     7
370
     0
100
AcDbLine
 10
151.1000000003173
 20
-26.30000000033727
 30
0.0
 11
151.8000000003621
 21
-25.60000000038213
 31
0.0
  0
LINE
  5
3E06
330
A
100
AcDbEntity
  8
0
  6
Continuous
 62
     7
370
     0
100
AcDbLine
 10
153.3000000003172
 20
-24.9999999999975
 30
0.0
 11
153.3000000003172
 21
-12.49999999999738
 31
0.0
  0
LINE
  5
3E07
330
A
100
AcDbEntity
  8
0
  6
Continuous
 62
     7
370
     0
100
AcDbLine
 10
153.3000000003172
 20
12.50000000000261
 30
0.0
 11
153.3000000003172
 21
25.0000000000025
 31
0.0
  0
LINE
  5
3E08
330
A
100
AcDbEntity
  8
0
  6
Continuous
 62
     7
370
     0
100
AcDbLine
 10
130.2999806379904
 20
3.000000000001531
 30
0.0
 11
129.6000000003142
 21
3.000000000001531
 31
0.0
  0
LINE
  5
3E09
330
A
100
AcDbEntity
  8
0
  6
Continuous
 62
     7
370
     0
100
AcDbLine
 10
129.6000000003142
 20
3.000000000001531
 30
0.0
 11
129.5950000003171
 21
3.000000000001531
 31
0.0
  0
LINE
  5
3E0A
330
A
100
AcDbEntity
  8
0
  6
Continuous
 62
     7
370
     0
100
AcDbLine
 10
129.5950000003171
 20
-2.999999999998408
 30
0.0
 11
130.2999806379895
 21
-2.999999999998408
 31
0.0
  0
LINE
  5
3E0B
330
A
100
AcDbEntity
  8
0
  6
Continuous
 62
     7
370
     0
100
AcDbLine
 10
129.605000000317
 20
3.000000000001531
 30
0.0
 11
129.6000000003142
 21
3.000000000001531
 31
0.0
  0
LINE
  5
3E0C
330
A
100
AcDbEntity
  8
0
  6
Continuous
 62
     7
370
     0
100
AcDbLine
 10
129.6000000003142
 20
3.000000000001531
 30
0.0
 11
127.9000000016369
 21
3.000000000001531
 31
0.0
  0
LINE
  5
3E0D
330
A
100
AcDbEntity
  8
0
  6
Continuous
 62
     7
370
     0
100
AcDbLine
 10
127.9000000016369
 20
-2.999999999998408
 30
0.0
 11
129.605000000317
 21
-2.999999999998408
 31
0.0
  0
LINE
  5
3E0E
330
A
100
AcDbEntity
  8
0
  6
Continuous
 62
     7
370
     0
100
AcDbLine
 10
136.7999999971964
 20
-4.90000000000009
 30
0.0
 11
137.9000000003194
 21
-4.90000000000009
 31
0.0
  0
LINE
  5
3E0F
330
A
100
AcDbEntity
  8
0
  6
Continuous
 62
     7
370
     0
100
AcDbLine
 10
137.9000000003194
 20
4.899999999999863
 30
0.0
 11
136.799999998002
 21
4.899999999999863
 31
0.0
  0
LINE
  5
3E10
330
A
100
AcDbEntity
  8
0
  6
Continuous
 62
     7
370
     0
100
AcDbLine
 10
153.3000000003148
 20
-11.00000000000005
 30
0.0
 11
153.3000000003148
 21
10.99999999999994
 31
0.0
  0
LINE
  5
3E11
330
A
100
AcDbEntity
  8
0
  6
Continuous
 62
     7
370
     0
100
AcDbLine
 10
-3.000005008745915
 20
72.10000000040117
 30
0.0
 11
-0.0996220318121459
 21
72.10000000040117
 31
0.0
  0
LINE
  5
3E12
330
A
100
AcDbEntity
  8
0
  6
Continuous
 62
     7
370
     0
100
AcDbLine
 10
-0.0996220318121459
 20
72.10000000040117
 30
0.0
 11
0.0004052111733017
 21
72.10000000040117
 31
0.0
  0
LINE
  5
3E13
330
A
100
AcDbEntity
  8
0
  6
Continuous
 62
     7
370
     0
100
AcDbLine
 10
0.0004052111733017
 20
72.10000000040117
 30
0.0
 11
0.1004322951655467
 21
72.10000000040117
 31
0.0
  0
LINE
  5
3E14
330
A
100
AcDbEntity
  8
0
  6
Continuous
 62
     7
370
     0
100
AcDbLine
 10
0.1004322951655467
 20
72.10000000040117
 30
0.0
 11
3.000005011254073
 21
72.10000000040117
 31
0.0
  0
LINE
  5
3E15
330
A
100
AcDbEntity
  8
0
  6
Continuous
 62
     7
370
     0
100
AcDbLine
 10
36.99999498971421
 20
72.10000000053316
 30
0.0
 11
43.00000500971395
 21
72.10000000026354
 31
0.0
  0
LINE
  5
3E16
330
A
100
AcDbEntity
  8
0
  6
Continuous
 62
     9
370
     0
100
AcDbLine
 10
37.49999999971397
 20
72.10000000051064
 30
0.0
 11
39.90017034433947
 21
72.10000000040281
 31
0.0
  0
LINE
  5
3E17
330
A
100
AcDbEntity
  8
0
  6
Continuous
 62
     9
370
     0
100
AcDbLine
 10
39.90017034433947
 20
72.10000000040281
 30
0.0
 11
40.10020835600687
 21
72.10000000039383
 31
0.0
  0
LINE
  5
3E18
330
A
100
AcDbEntity
  8
0
  6
Continuous
 62
     9
370
     0
100
AcDbLine
 10
40.10020835600687
 20
72.10000000039383
 30
0.0
 11
42.49999999971396
 21
72.10000000028606
 31
0.0
  0
LINE
  5
3E19
330
A
100
AcDbEntity
  8
0
  6
Continuous
 62
     7
370
     0
100
AcDbLine
 10
48.8498941974865
 20
72.80000000385796
 30
0.0
 11
31.14989421949247
 21
72.7999999969441
 31
0.0
  0
LINE
  5
3E1A
330
A
100
AcDbEntity
  8
0
  6
Continuous
 62
     7
370
     0
100
AcDbLine
 10
48.8498941949474
 20
79.3000000038582
 30
0.0
 11
31.14989421695339
 21
79.29999999694399
 31
0.0
  0
LINE
  5
3E1B
330
A
100
AcDbEntity
  8
0
  6
Continuous
 62
     7
370
     0
100
AcDbLine
 10
8.849919507807157
 20
72.80000000385796
 30
0.0
 11
-8.850080479455071
 21
72.7999999969441
 31
0.0
  0
LINE
  5
3E1C
330
A
100
AcDbEntity
  8
0
  6
Continuous
 62
     7
370
     0
100
AcDbLine
 10
8.849919505268076
 20
79.30000000385809
 30
0.0
 11
-8.850080481994041
 21
79.29999999694399
 31
0.0
  0
LINE
  5
3E1D
330
A
100
AcDbEntity
  8
0
  6
Continuous
 62
     9
370
     0
100
AcDbLine
 10
-16.9999999994493
 20
70.20000000106211
 30
0.0
 11
-16.99999999944032
 21
70.40000000163093
 31
0.0
  0
LINE
  5
3E1E
330
A
100
AcDbEntity
  8
0
  6
Continuous
 62
     7
370
     0
100
AcDbLine
 10
-18.9999999994493
 20
70.20000000109796
 30
0.0
 11
-18.99999999944032
 21
70.40000000172068
 31
0.0
  0
LINE
  5
3E1F
330
A
100
AcDbEntity
  8
0
  6
Continuous
 62
     7
370
     0
100
AcDbLine
 10
-16.99999999944032
 20
70.40000000163106
 30
0.0
 11
-18.99999999944032
 21
70.40000000172068
 31
0.0
  0
LINE
  5
3E20
330
A
100
AcDbEntity
  8
0
  6
Continuous
 62
     9
370
     0
100
AcDbLine
 10
58.5000000005507
 20
70.19999999971314
 30
0.0
 11
58.50000000055968
 21
70.39999999823938
 31
0.0
  0
LINE
  5
3E21
330
A
100
AcDbEntity
  8
0
  6
Continuous
 62
     7
370
     0
100
AcDbLine
 10
58.50000000055968
 20
70.39999999823938
 30
0.0
 11
-16.99999999944032
 21
70.40000000163093
 31
0.0
  0
LINE
  5
3E22
330
A
100
AcDbEntity
  8
0
  6
Continuous
 62
     7
370
     0
100
AcDbLine
 10
60.5000000005507
 20
70.19999999967746
 30
0.0
 11
60.50000000055968
 21
70.39999999814931
 31
0.0
  0
LINE
  5
3E23
330
A
100
AcDbEntity
  8
0
  6
Continuous
 62
     7
370
     0
100
AcDbLine
 10
60.50000000055968
 20
70.39999999814931
 30
0.0
 11
58.50000000055968
 21
70.39999999823938
 31
0.0
  0
LINE
  5
3E24
330
A
100
AcDbEntity
  8
0
  6
Continuous
 62
     9
370
     0
100
AcDbLine
 10
-22.0000000000021
 20
80.40000000040356
 30
0.0
 11
-22.0000000000021
 21
80.80000000040355
 31
0.0
  0
LINE
  5
3E25
330
A
100
AcDbEntity
  8
0
  6
Continuous
 62
     7
370
     0
100
AcDbLine
 10
-22.0000000000021
 20
80.40000000040356
 30
0.0
 11
-24.0000000000021
 21
80.40000000040356
 31
0.0
  0
LINE
  5
3E26
330
A
100
AcDbEntity
  8
0
  6
Continuous
 62
     7
370
     0
100
AcDbLine
 10
-24.00000000000142
 20
80.40000000040356
 30
0.0
 11
-24.00000000000142
 21
80.80000000040355
 31
0.0
  0
LINE
  5
3E27
330
A
100
AcDbEntity
  8
0
  6
Continuous
 62
     7
370
     0
100
AcDbLine
 10
63.99999999997238
 20
80.40000000040356
 30
0.0
 11
63.99999999997238
 21
80.80000000040355
 31
0.0
  0
LINE
  5
3E28
330
A
100
AcDbEntity
  8
0
  6
Continuous
 62
     7
370
     0
100
AcDbLine
 10
63.99999999997294
 20
80.40000000040356
 30
0.0
 11
61.99999999997293
 21
80.40000000040356
 31
0.0
  0
LINE
  5
3E29
330
A
100
AcDbEntity
  8
0
  6
Continuous
 62
     9
370
     0
100
AcDbLine
 10
61.99999999997293
 20
80.40000000040356
 30
0.0
 11
61.99999999997293
 21
80.80000000040355
 31
0.0
  0
LINE
  5
3E2A
330
A
100
AcDbEntity
  8
0
  6
Continuous
 62
     7
370
     0
100
AcDbLine
 10
61.99999999997293
 20
80.40000000040356
 30
0.0
 11
-22.0000000000021
 21
80.40000000040356
 31
0.0
  0
CIRCLE
  5
3E2B
330
A
100
AcDbEntity
  8
0
  6
Continuous
 62
     7
370
     0
100
AcDbCircle
 10
74.99999999996862
 20
88.30000000040115
 30
0.0
 40
5.299999999999998
  0
CIRCLE
  5
3E2C
330
A
100
AcDbEntity
  8
0
  6
Continuous
 62
     7
370
     0
100
AcDbCircle
 10
74.99999999996862
 20
88.30000000044607
 30
0.0
 40
5.999999999999997
  0
LINE
  5
3E2D
330
A
100
AcDbEntity
  8
0
  6
Continuous
 62
     7
370
     0
100
AcDbLine
 10
84.9999999999685
 20
85.80000000040115
 30
0.0
 11
84.9999999999685
 21
64.30000000040116
 31
0.0
  0
LINE
  5
3E2E
330
A
100
AcDbEntity
  8
0
  6
Continuous
 62
     7
370
     0
100
AcDbLine
 10
84.9999999999685
 20
64.30000000040116
 30
0.0
 11
80.99999999996851
 21
64.30000000040116
 31
0.0
  0
LINE
  5
3E2F
330
A
100
AcDbEntity
  8
0
  6
Continuous
 62
     7
370
     0
100
AcDbLine
 10
80.99999999996851
 20
64.30000000040116
 30
0.0
 11
80.99999999996851
 21
79.80000000040115
 31
0.0
  0
LINE
  5
3E30
330
A
100
AcDbEntity
  8
0
  6
Continuous
 62
     7
370
     0
100
AcDbLine
 10
79.99999999996862
 20
80.80000000040115
 30
0.0
 11
74.99999999996862
 21
80.80000000040115
 31
0.0
  0
ARC
  5
3E31
330
A
100
AcDbEntity
  8
0
  6
Continuous
 62
     7
370
     0
100
AcDbCircle
 10
74.99999999996862
 20
88.30000000040115
 30
0.0
 40
7.500000000000007
100
AcDbArc
 50
180.0
 51
270.0
  0
ARC
  5
3E32
330
A
100
AcDbEntity
  8
0
  6
Continuous
 62
     7
370
     0
100
AcDbCircle
 10
79.99999999996862
 20
79.80000000040115
 30
0.0
 40
1.0
100
AcDbArc
 50
0.0
 51
90.0
  0
ARC
  5
3E33
330
A
100
AcDbEntity
  8
0
  6
Continuous
 62
     7
370
     0
100
AcDbCircle
 10
74.99999999996862
 20
88.30000000040115
 30
0.0
 40
7.5
100
AcDbArc
 50
29.2776131903552
 51
180.0
  0
LINE
  5
3E34
330
A
100
AcDbEntity
  8
0
  6
Continuous
 62
     7
370
     0
100
AcDbLine
 10
81.54195314323898
 20
91.96781257348254
 30
0.0
 11
84.9999999999685
 21
85.80000000040115
 31
0.0
  0
LINE
  5
3E35
330
A
100
AcDbEntity
  8
0
  6
Continuous
 62
     9
370
     0
100
AcDbLine
 10
-2.99999999874592
 20
72.10000000040117
 30
0.0
 11
0.0004051718675555
 21
72.10000000040117
 31
0.0
  0
LINE
  5
3E36
330
A
100
AcDbEntity
  8
0
  6
Continuous
 62
     9
370
     0
100
AcDbLine
 10
0.0004051718675555
 20
72.10000000040117
 30
0.0
 11
3.000000001254193
 21
72.10000000040117
 31
0.0
  0
LINE
  5
3E37
330
A
100
AcDbEntity
  8
0
  6
Continuous
 62
     9
370
     0
100
AcDbLine
 10
36.99999999971396
 20
72.10000000053316
 30
0.0
 11
40.00018941531696
 21
72.10000000039821
 31
0.0
  0
LINE
  5
3E38
330
A
100
AcDbEntity
  8
0
  6
Continuous
 62
     9
370
     0
100
AcDbLine
 10
40.00018941531696
 20
72.10000000039821
 30
0.0
 11
42.99999999971443
 21
72.10000000026354
 31
0.0
  0
LINE
  5
3E39
330
A
100
AcDbEntity
  8
0
  6
Continuous
 62
     7
370
     0
100
AcDbLine
 10
64.99999999986096
 20
64.19999999959704
 30
0.0
 11
64.99999999996815
 21
70.19999999959702
 31
0.0
  0
LINE
  5
3E3A
330
A
100
AcDbEntity
  8
0
  6
Continuous
 62
     7
370
     0
100
AcDbLine
 10
-25.00000000013915
 20
64.20000000120523
 30
0.0
 11
-25.00000000003183
 21
70.20000000120512
 31
0.0
  0
LINE
  5
3E3B
330
A
100
AcDbEntity
  8
0
  6
Continuous
 62
     7
370
     0
100
AcDbLine
 10
64.99999999996815
 20
70.19999999959702
 30
0.0
 11
-25.00000000003183
 21
70.20000000120512
 31
0.0
  0
LINE
  5
3E3C
330
A
100
AcDbEntity
  8
0
  6
Continuous
 62
     7
370
     0
100
AcDbLine
 10
64.99999999986096
 20
64.19999999959704
 30
0.0
 11
-25.00000000013915
 21
64.20000000120523
 31
0.0
  0
LINE
  5
3E3D
330
A
100
AcDbEntity
  8
0
  6
Continuous
 62
     7
370
     0
100
AcDbLine
 10
64.99999999997147
 20
80.80000000040355
 30
0.0
 11
-25.00000000000011
 21
80.80000000040355
 31
0.0
  0
LINE
  5
3E3E
330
A
100
AcDbEntity
  8
0
  6
Continuous
 62
     7
370
     0
100
AcDbLine
 10
64.99999999997147
 20
80.80000000040355
 30
0.0
 11
64.99999999997147
 21
86.80000000040161
 31
0.0
  0
LINE
  5
3E3F
330
A
100
AcDbEntity
  8
0
  6
Continuous
 62
     7
370
     0
100
AcDbLine
 10
-25.00000000000011
 20
86.80000000040161
 30
0.0
 11
64.99999999997147
 21
86.80000000040161
 31
0.0
  0
LINE
  5
3E40
330
A
100
AcDbEntity
  8
0
  6
Continuous
 62
     7
370
     0
100
AcDbLine
 10
-25.00000000000011
 20
80.80000000040355
 30
0.0
 11
-25.00000000000011
 21
86.80000000040161
 31
0.0
  0
ARC
  5
3E41
330
A
100
AcDbEntity
  8
0
  6
Continuous
 62
     7
370
     0
100
AcDbCircle
 10
66.49999999997125
 20
87.8000000004015
 30
0.0
 40
1.0
100
AcDbArc
 50
270.0
 51
0.0
  0
LINE
  5
3E42
330
A
100
AcDbEntity
  8
0
  6
Continuous
 62
     7
370
     0
100
AcDbLine
 10
67.4999999999709
 20
87.8000000004015
 30
0.0
 11
67.4999999999709
 21
88.30000000040115
 31
0.0
  0
LINE
  5
3E43
330
A
100
AcDbEntity
  8
0
  6
Continuous
 62
     7
370
     0
100
AcDbLine
 10
74.99999999996862
 20
80.80000000040355
 30
0.0
 11
64.99999999997147
 21
80.80000000040355
 31
0.0
  0
LINE
  5
3E44
330
A
100
AcDbEntity
  8
0
  6
Continuous
 62
     7
370
     0
100
AcDbLine
 10
64.99999999997147
 20
86.80000000040161
 30
0.0
 11
66.49999999997125
 21
86.80000000040161
 31
0.0
  0
LINE
  5
3E45
330
A
100
AcDbEntity
  8
0
  6
Continuous
 62
     7
370
     0
100
AcDbLine
 10
4.899999999989063
 20
72.80000000040605
 30
0.0
 11
-4.90000000000532
 21
72.80000000040605
 31
0.0
  0
LINE
  5
3E46
330
A
100
AcDbEntity
  8
0
  6
Continuous
 62
     7
370
     0
100
AcDbLine
 10
44.89999999997642
 20
72.80000000040605
 30
0.0
 11
35.09999999998252
 21
72.80000000040605
 31
0.0
  0
LINE
  5
3E47
330
A
100
AcDbEntity
  8
0
  6
Continuous
 62
     9
370
     0
100
AcDbLine
 10
-2.49999999874592
 20
72.79998000040619
 30
0.0
 11
-2.49999999874592
 21
72.10000000040117
 31
0.0
  0
LINE
  5
3E48
330
A
100
AcDbEntity
  8
0
  6
Continuous
 62
     9
370
     0
100
AcDbLine
 10
2.500000001254079
 20
72.10000000040117
 30
0.0
 11
2.500000001254079
 21
72.79998000040619
 31
0.0
  0
LINE
  5
3E49
330
A
100
AcDbEntity
  8
0
  6
Continuous
 62
     9
370
     0
100
AcDbLine
 10
37.4999999997458
 20
72.80000000040605
 30
0.0
 11
37.49999999971397
 21
72.10000000051064
 31
0.0
  0
LINE
  5
3E4A
330
A
100
AcDbEntity
  8
0
  6
Continuous
 62
     9
370
     0
100
AcDbLine
 10
42.49999999971396
 20
72.10000000028606
 30
0.0
 11
42.49999999974579
 21
72.80000000040605
 31
0.0
  0
LINE
  5
3E4B
330
A
100
AcDbEntity
  8
0
  6
Continuous
 62
     7
370
     0
100
AcDbLine
 10
48.8498942194924
 20
72.80000000385796
 30
0.0
 11
48.84989421695343
 21
79.3000000038582
 31
0.0
  0
LINE
  5
3E4C
330
A
100
AcDbEntity
  8
0
  6
Continuous
 62
     7
370
     0
100
AcDbLine
 10
31.14989421695339
 20
79.29999999694399
 30
0.0
 11
31.14989421949247
 21
72.7999999969441
 31
0.0
  0
LINE
  5
3E4D
330
A
100
AcDbEntity
  8
0
  6
Continuous
 62
     7
370
     0
100
AcDbLine
 10
8.849919520545086
 20
72.80000000385796
 30
0.0
 11
8.849919518006004
 21
79.30000000385809
 31
0.0
  0
LINE
  5
3E4E
330
A
100
AcDbEntity
  8
0
  6
Continuous
 62
     7
370
     0
100
AcDbLine
 10
-8.850080481994041
 20
79.29999999694399
 30
0.0
 11
-8.850080479455071
 21
72.7999999969441
 31
0.0
  0
LINE
  5
3E4F
330
A
100
AcDbEntity
  8
0
  6
Continuous
 62
     7
370
     0
100
AcDbLine
 10
-2.99999999874592
 20
72.79998063774764
 30
0.0
 11
-2.99999999874592
 21
72.10000000040117
 31
0.0
  0
LINE
  5
3E50
330
A
100
AcDbEntity
  8
0
  6
Continuous
 62
     7
370
     0
100
AcDbLine
 10
-2.99999999874592
 20
72.10000000040117
 30
0.0
 11
-2.99999999874592
 21
72.09500000040117
 31
0.0
  0
LINE
  5
3E51
330
A
100
AcDbEntity
  8
0
  6
Continuous
 62
     7
370
     0
100
AcDbLine
 10
3.000000001254193
 20
72.09500000040117
 30
0.0
 11
3.000000001254193
 21
72.10000000040117
 31
0.0
  0
LINE
  5
3E52
330
A
100
AcDbEntity
  8
0
  6
Continuous
 62
     7
370
     0
100
AcDbLine
 10
3.000000001254193
 20
72.10000000040117
 30
0.0
 11
3.000000001254193
 21
72.79998063840081
 31
0.0
  0
LINE
  5
3E53
330
A
100
AcDbEntity
  8
0
  6
Continuous
 62
     7
370
     0
100
AcDbLine
 10
-2.99999999874592
 20
72.10500000040115
 30
0.0
 11
-2.99999999874592
 21
72.10000000040117
 31
0.0
  0
LINE
  5
3E54
330
A
100
AcDbEntity
  8
0
  6
Continuous
 62
     7
370
     0
100
AcDbLine
 10
-2.99999999874592
 20
72.10000000040117
 30
0.0
 11
-2.99999999874592
 21
70.40000000100196
 31
0.0
  0
LINE
  5
3E55
330
A
100
AcDbEntity
  8
0
  6
Continuous
 62
     7
370
     0
100
AcDbLine
 10
3.000000001254193
 20
70.40000000073234
 30
0.0
 11
3.000000001254193
 21
72.10000000040117
 31
0.0
  0
LINE
  5
3E56
330
A
100
AcDbEntity
  8
0
  6
Continuous
 62
     7
370
     0
100
AcDbLine
 10
3.000000001254193
 20
72.10000000040117
 30
0.0
 11
3.000000001254193
 21
72.10500000040115
 31
0.0
  0
LINE
  5
3E57
330
A
100
AcDbEntity
  8
0
  6
Continuous
 62
     7
370
     0
100
AcDbLine
 10
36.9999999997458
 20
72.80000000040423
 30
0.0
 11
36.99999999971396
 21
72.10000000053094
 31
0.0
  0
LINE
  5
3E58
330
A
100
AcDbEntity
  8
0
  6
Continuous
 62
     7
370
     0
100
AcDbLine
 10
36.99999999971396
 20
72.10000000053094
 30
0.0
 11
36.99999999971396
 21
72.09500000053314
 31
0.0
  0
LINE
  5
3E59
330
A
100
AcDbEntity
  8
0
  6
Continuous
 62
     7
370
     0
100
AcDbLine
 10
42.99999999971396
 20
72.09500000026325
 30
0.0
 11
42.99999999971443
 21
72.10000000026133
 31
0.0
  0
LINE
  5
3E5A
330
A
100
AcDbEntity
  8
0
  6
Continuous
 62
     7
370
     0
100
AcDbLine
 10
42.99999999971443
 20
72.10000000026133
 30
0.0
 11
42.9999999997458
 21
72.80000000040423
 31
0.0
  0
LINE
  5
3E5B
330
A
100
AcDbEntity
  8
0
  6
Continuous
 62
     7
370
     0
100
AcDbLine
 10
36.99999999971443
 20
72.10500000053315
 30
0.0
 11
36.99999999971396
 21
72.10000000053094
 31
0.0
  0
LINE
  5
3E5C
330
A
100
AcDbEntity
  8
0
  6
Continuous
 62
     7
370
     0
100
AcDbLine
 10
36.99999999971396
 20
72.10000000053094
 30
0.0
 11
36.99999999963802
 21
70.39999999920495
 31
0.0
  0
LINE
  5
3E5D
330
A
100
AcDbEntity
  8
0
  6
Continuous
 62
     7
370
     0
100
AcDbLine
 10
42.99999999963802
 20
70.39999999893564
 30
0.0
 11
42.99999999971443
 21
72.10000000026133
 31
0.0
  0
LINE
  5
3E5E
330
A
100
AcDbEntity
  8
0
  6
Continuous
 62
     7
370
     0
100
AcDbLine
 10
42.99999999971443
 20
72.10000000026133
 30
0.0
 11
42.99999999971443
 21
72.10500000026354
 31
0.0
  0
LINE
  5
3E5F
330
A
100
AcDbEntity
  8
0
  6
Continuous
 62
     7
370
     0
100
AcDbLine
 10
4.89999999999054
 20
79.3000000023856
 30
0.0
 11
4.89999999999054
 21
80.40000000040356
 31
0.0
  0
LINE
  5
3E60
330
A
100
AcDbEntity
  8
0
  6
Continuous
 62
     7
370
     0
100
AcDbLine
 10
-4.900000000006341
 20
80.40000000040356
 30
0.0
 11
-4.900000000006341
 21
79.29999999855765
 31
0.0
  0
LINE
  5
3E61
330
A
100
AcDbEntity
  8
0
  6
Continuous
 62
     7
370
     0
100
AcDbLine
 10
44.89999999997802
 20
79.30000000238601
 30
0.0
 11
44.89999999997802
 21
80.40000000040356
 31
0.0
  0
LINE
  5
3E62
330
A
100
AcDbEntity
  8
0
  6
Continuous
 62
     7
370
     0
100
AcDbLine
 10
35.09999999998092
 20
80.40000000040356
 30
0.0
 11
35.09999999998092
 21
79.29999999855795
 31
0.0
  0
ARC
  5
4200
330
A
100
AcDbEntity
  8
0
  6
Continuous
 62
     9
370
     0
100
AcDbCircle
 10
60.16978921897351
 20
19.49797053888483
 30
0.0
 40
7.481703737754962
100
AcDbArc
 50
348.4503413316393
 51
9.689889935466442
  0
LINE
  5
4201
330
A
100
AcDbEntity
  8
0
  6
Continuous
 62
     9
370
     0
100
AcDbLine
 10
67.54475286878174
 20
20.7572568381604
 30
0.0
 11
67.49999999996861
 21
20.99999499000262
 31
0.0
  0
LINE
  5
4202
330
A
100
AcDbEntity
  8
0
  6
Continuous
 62
     7
370
     0
100
AcDbLine
 10
67.74999999996849
 20
-10.99999999999772
 30
0.0
 11
74.99999999996862
 21
-10.99999999999772
 31
0.0
  0
LINE
  5
4203
330
A
100
AcDbEntity
  8
0
  6
Continuous
 62
     7
370
     0
100
AcDbLine
 10
67.74999999996849
 20
-12.29999999999757
 30
0.0
 11
74.99999999996862
 21
-12.29999999999757
 31
0.0
  0
LINE
  5
4204
330
A
100
AcDbEntity
  8
0
  6
Continuous
 62
     7
370
     0
100
AcDbLine
 10
74.99999999996862
 20
-10.99999999999772
 30
0.0
 11
82.24999999996862
 21
-10.99999999999772
 31
0.0
  0
LINE
  5
4205
330
A
100
AcDbEntity
  8
0
  6
Continuous
 62
     7
370
     0
100
AcDbLine
 10
74.99999999996862
 20
-12.29999999999757
 30
0.0
 11
82.24999999996862
 21
-12.29999999999757
 31
0.0
  0
LINE
  5
4206
330
A
100
AcDbEntity
  8
0
  6
Continuous
 62
     7
370
     0
100
AcDbLine
 10
82.24999999996862
 20
11.0000000000026
 30
0.0
 11
74.99999999996862
 21
11.0000000000026
 31
0.0
  0
LINE
  5
4207
330
A
100
AcDbEntity
  8
0
  6
Continuous
 62
     7
370
     0
100
AcDbLine
 10
74.99999999996862
 20
11.0000000000026
 30
0.0
 11
67.74999999996849
 21
11.0000000000026
 31
0.0
  0
LINE
  5
4208
330
A
100
AcDbEntity
  8
0
  6
Continuous
 62
     7
370
     0
100
AcDbLine
 10
82.24999999996862
 20
12.30000000000262
 30
0.0
 11
67.74999999996849
 21
12.30000000000262
 31
0.0
  0
LINE
  5
4209
330
A
100
AcDbEntity
  8
0
  6
Continuous
 62
     7
370
     0
100
AcDbLine
 10
69.69999999996855
 20
26.30000000000251
 30
0.0
 11
74.99999999996862
 21
26.30000000000251
 31
0.0
  0
LINE
  5
420A
330
A
100
AcDbEntity
  8
0
  6
Continuous
 62
     7
370
     0
100
AcDbLine
 10
80.99999999996851
 20
25.60000000000253
 30
0.0
 11
74.99999999996862
 21
25.60000000000253
 31
0.0
  0
LINE
  5
420B
330
A
100
AcDbEntity
  8
0
  6
Continuous
 62
     7
370
     0
100
AcDbLine
 10
74.99999999996862
 20
26.30000000000251
 30
0.0
 11
80.29999999996858
 21
26.30000000000251
 31
0.0
  0
LINE
  5
420C
330
A
100
AcDbEntity
  8
0
  6
Continuous
 62
     7
370
     0
100
AcDbLine
 10
74.99999999996862
 20
25.60000000000253
 30
0.0
 11
68.99999999996849
 21
25.60000000000253
 31
0.0
  0
LINE
  5
420D
330
A
100
AcDbEntity
  8
0
  6
Continuous
 62
     7
370
     0
100
AcDbLine
 10
68.99999999996849
 20
-25.59999999999758
 30
0.0
 11
80.99999999996851
 21
-25.59999999999758
 31
0.0
  0
LINE
  5
420E
330
A
100
AcDbEntity
  8
0
  6
Continuous
 62
     7
370
     0
100
AcDbLine
 10
80.29999999996858
 20
-26.29999999999745
 30
0.0
 11
69.69999999996855
 21
-26.29999999999745
 31
0.0
  0
LINE
  5
420F
330
A
100
AcDbEntity
  8
0
  6
Continuous
 62
     7
370
     0
100
AcDbLine
 10
67.49999999996861
 20
-12.49999999999738
 30
0.0
 11
67.49999999996861
 21
-24.9999999999975
 31
0.0
  0
LINE
  5
4210
330
A
100
AcDbEntity
  8
0
  6
Continuous
 62
     7
370
     0
100
AcDbLine
 10
81.54195314323898
 20
-12.49999999999738
 30
0.0
 11
67.49999999996861
 21
-12.49999999999738
 31
0.0
  0
LINE
  5
4211
330
A
100
AcDbEntity
  8
0
  6
Continuous
 62
     9
370
     0
100
AcDbLine
 10
81.54195314323898
 20
-12.49999999999738
 30
0.0
 11
81.54195314323898
 21
-24.9999999999975
 31
0.0
  0
LINE
  5
4212
330
A
100
AcDbEntity
  8
0
  6
Continuous
 62
     7
370
     0
100
AcDbLine
 10
67.49999999996861
 20
-24.9999999999975
 30
0.0
 11
81.54195314323898
 21
-24.9999999999975
 31
0.0
  0
LINE
  5
4213
330
A
100
AcDbEntity
  8
0
  6
Continuous
 62
     9
370
     0
100
AcDbLine
 10
81.54195314323898
 20
25.0000000000025
 30
0.0
 11
81.54195314323898
 21
12.50000000000261
 31
0.0
  0
LINE
  5
4214
330
A
100
AcDbEntity
  8
0
  6
Continuous
 62
     7
370
     0
100
AcDbLine
 10
67.49999999996861
 20
18.00000501000244
 30
0.0
 11
67.49999999996861
 21
12.50000000000261
 31
0.0
  0
ARC
  5
4215
330
A
100
AcDbEntity
  8
0
  6
Continuous
 62
     7
370
     0
100
AcDbCircle
 10
60.10463087102049
 20
19.50000000000261
 30
0.0
 40
7.50026563218912
100
AcDbArc
 50
350.4062747718184
 51
9.593725228181613
  0
LINE
  5
4216
330
A
100
AcDbEntity
  8
0
  6
Continuous
 62
     7
370
     0
100
AcDbLine
 10
67.49999999996861
 20
25.0000000000025
 30
0.0
 11
67.49999999996861
 21
20.99999499000251
 31
0.0
  0
LINE
  5
4217
330
A
100
AcDbEntity
  8
0
  6
Continuous
 62
     7
370
     0
100
AcDbLine
 10
67.49999999996861
 20
12.50000000000261
 30
0.0
 11
81.54195314323898
 21
12.50000000000261
 31
0.0
  0
LINE
  5
4218
330
A
100
AcDbEntity
  8
0
  6
Continuous
 62
     7
370
     0
100
AcDbLine
 10
67.49999999996861
 20
25.0000000000025
 30
0.0
 11
81.54195314323898
 21
25.0000000000025
 31
0.0
  0
LINE
  5
4219
330
A
100
AcDbEntity
  8
0
  6
Continuous
 62
     7
370
     0
100
AcDbLine
 10
84.9999999999685
 20
-12.49999999999738
 30
0.0
 11
84.9999999999685
 21
-24.9999999999975
 31
0.0
  0
LINE
  5
421A
330
A
100
AcDbEntity
  8
0
  6
Continuous
 62
     7
370
     0
100
AcDbLine
 10
84.9999999999685
 20
-12.49999999999738
 30
0.0
 11
81.54195314323898
 21
-12.49999999999738
 31
0.0
  0
LINE
  5
421B
330
A
100
AcDbEntity
  8
0
  6
Continuous
 62
     7
370
     0
100
AcDbLine
 10
81.54195314323898
 20
-24.9999999999975
 30
0.0
 11
84.9999999999685
 21
-24.9999999999975
 31
0.0
  0
LINE
  5
421C
330
A
100
AcDbEntity
  8
0
  6
Continuous
 62
     7
370
     0
100
AcDbLine
 10
84.9999999999685
 20
25.0000000000025
 30
0.0
 11
84.9999999999685
 21
12.50000000000261
 31
0.0
  0
LINE
  5
421D
330
A
100
AcDbEntity
  8
0
  6
Continuous
 62
     7
370
     0
100
AcDbLine
 10
81.54195314323898
 20
12.50000000000261
 30
0.0
 11
84.9999999999685
 21
12.50000000000261
 31
0.0
  0
LINE
  5
421E
330
A
100
AcDbEntity
  8
0
  6
Continuous
 62
     7
370
     0
100
AcDbLine
 10
81.54195314323898
 20
25.0000000000025
 30
0.0
 11
84.9999999999685
 21
25.0000000000025
 31
0.0
  0
LINE
  5
421F
330
A
100
AcDbEntity
  8
0
  6
Continuous
 62
     7
370
     0
100
AcDbLine
 10
67.49999999996861
 20
18.25000000000261
 30
0.0
 11
67.50210012370576
 21
18.26266312006118
 31
0.0
  0
LINE
  5
4220
330
A
100
AcDbEntity
  8
0
  6
Continuous
 62
     7
370
     0
100
AcDbLine
 10
78.99999999996862
 20
-12.48660687472937
 30
0.0
 11
79.99999999996862
 21
-12.48660687472937
 31
0.0
  0
LINE
  5
4228
330
A
100
AcDbEntity
  8
0
  6
Continuous
 62
     9
370
     0
100
AcDbLine
 10
82.49999999996623
 20
-10.99999999999772
 30
0.0
 11
84.9999999999685
 21
-10.99999999999772
 31
0.0
  0
LINE
  5
4229
330
A
100
AcDbEntity
  8
0
  6
Continuous
 62
     7
370
     0
100
AcDbLine
 10
84.9999999999685
 20
-12.49999999999738
 30
0.0
 11
84.9999999999685
 21
-10.99999999999772
 31
0.0
  0
LINE
  5
4230
330
A
100
AcDbEntity
  8
0
  6
Continuous
 62
     7
370
     0
100
AcDbLine
 10
79.99999999996862
 20
12.48660687473443
 30
0.0
 11
78.99999999996862
 21
12.48660687473443
 31
0.0
  0
LINE
  5
4231
330
A
100
AcDbEntity
  8
0
  6
Continuous
 62
     9
370
     0
100
AcDbLine
 10
84.9999999999685
 20
11.0000000000026
 30
0.0
 11
82.49999999996623
 21
11.0000000000026
 31
0.0
  0
LINE
  5
4232
330
A
100
AcDbEntity
  8
0
  6
Continuous
 62
     7
370
     0
100
AcDbLine
 10
84.9999999999685
 20
11.0000000000026
 30
0.0
 11
84.9999999999685
 21
12.50000000000261
 31
0.0
  0
LINE
  5
4233
330
A
100
AcDbEntity
  8
0
  6
Continuous
 62
     7
370
     0
100
AcDbLine
 10
84.9999999999685
 20
-10.99999999999772
 30
0.0
 11
84.9999999999685
 21
11.0000000000026
 31
0.0
  0
LINE
  5
4234
330
A
100
AcDbEntity
  8
0
  6
Continuous
 62
     7
370
     0
100
AcDbLine
 10
67.4999999999709
 20
-11.00000000000005
 30
0.0
 11
67.4999999999709
 21
10.99999999999994
 31
0.0
  0
LINE
  5
4235
330
A
100
AcDbEntity
  8
0
  6
Continuous
 62
     7
370
     0
100
AcDbLine
 10
67.49999999996861
 20
10.99999999999994
 30
0.0
 11
82.4999999999685
 21
10.99999999999994
 31
0.0
  0
LINE
  5
4236
330
A
100
AcDbEntity
  8
0
  6
Continuous
 62
     7
370
     0
100
AcDbLine
 10
67.49999999996861
 20
-11.00000000000005
 30
0.0
 11
82.4999999999685
 21
-11.00000000000005
 31
0.0
  0
LINE
  5
4237
330
A
100
AcDbEntity
  8
0
  6
Continuous
 62
     9
370
     0
100
AcDbLine
 10
66.49999999997125
 20
-11.00000000000005
 30
0.0
 11
66.49999999997125
 21
10.99999999999994
 31
0.0
  0
LINE
  5
4238
330
A
100
AcDbEntity
  8
0
  6
Continuous
 62
     7
370
     0
100
AcDbLine
 10
67.499999999971
 20
10.99999999999994
 30
0.0
 11
66.49999999997125
 21
10.99999999999994
 31
0.0
  0
LINE
  5
4239
330
A
100
AcDbEntity
  8
0
  6
Continuous
 62
     7
370
     0
100
AcDbLine
 10
67.499999999971
 20
-11.00000000000005
 30
0.0
 11
66.49999999997125
 21
-11.00000000000005
 31
0.0
  0
LINE
  5
423A
330
A
100
AcDbEntity
  8
0
  6
Continuous
 62
     7
370
     0
100
AcDbLine
 10
64.99999999997147
 20
-25.0
 30
0.0
 11
64.99999999997147
 21
-11.00000000000005
 31
0.0
  0
LINE
  5
423B
330
A
100
AcDbEntity
  8
0
  6
Continuous
 62
     7
370
     0
100
AcDbLine
 10
-25.00000000000011
 20
-25.0
 30
0.0
 11
64.99999999997147
 21
-25.0
 31
0.0
  0
LINE
  5
423C
330
A
100
AcDbEntity
  8
0
  6
Continuous
 62
     7
370
     0
100
AcDbLine
 10
-25.00000000000011
 20
-25.0
 30
0.0
 11
-25.00000000000011
 21
25.0
 31
0.0
  0
LINE
  5
423D
330
A
100
AcDbEntity
  8
0
  6
Continuous
 62
     7
370
     0
100
AcDbLine
 10
-25.00000000000011
 20
25.0
 30
0.0
 11
64.99999999997147
 21
25.0
 31
0.0
  0
LINE
  5
423E
330
A
100
AcDbEntity
  8
0
  6
Continuous
 62
     7
370
     0
100
AcDbLine
 10
64.99999999997147
 20
25.0
 30
0.0
 11
64.99999999997147
 21
10.99999999999994
 31
0.0
  0
LINE
  5
423F
330
A
100
AcDbEntity
  8
0
  6
Continuous
 62
     7
370
     0
100
AcDbLine
 10
64.99999999997147
 20
10.99999999999994
 30
0.0
 11
66.49999999997125
 21
10.99999999999994
 31
0.0
  0
LINE
  5
4240
330
A
100
AcDbEntity
  8
0
  6
Continuous
 62
     7
370
     0
100
AcDbLine
 10
64.99999999997147
 20
-11.00000000000005
 30
0.0
 11
66.49999999997125
 21
-11.00000000000005
 31
0.0
  0
LINE
  5
4241
330
A
100
AcDbEntity
  8
0
  6
Continuous
 62
     7
370
     0
100
AcDbLine
 10
67.74999999996849
 20
-10.99999999999772
 30
0.0
 11
67.74999999996849
 21
-12.29999999999757
 31
0.0
  0
LINE
  5
4242
330
A
100
AcDbEntity
  8
0
  6
Continuous
 62
     7
370
     0
100
AcDbLine
 10
82.24999999996862
 20
-12.29999999999757
 30
0.0
 11
82.24999999996862
 21
-10.99999999999772
 31
0.0
  0
LINE
  5
4243
330
A
100
AcDbEntity
  8
0
  6
Continuous
 62
     7
370
     0
100
AcDbLine
 10
82.24999999996862
 20
11.0000000000026
 30
0.0
 11
82.24999999996862
 21
12.30000000000262
 31
0.0
  0
LINE
  5
4244
330
A
100
AcDbEntity
  8
0
  6
Continuous
 62
     7
370
     0
100
AcDbLine
 10
67.74999999996849
 20
12.30000000000262
 30
0.0
 11
67.74999999996849
 21
11.0000000000026
 31
0.0
  0
LINE
  5
4245
330
A
100
AcDbEntity
  8
0
  6
Continuous
 62
     7
370
     0
100
AcDbLine
 10
70.99999999996862
 20
12.50000000000261
 30
0.0
 11
70.99999999996862
 21
12.29999999961473
 31
0.0
  0
LINE
  5
4246
330
A
100
AcDbEntity
  8
0
  6
Continuous
 62
     7
370
     0
100
AcDbLine
 10
70.99999999996862
 20
-12.29999999961001
 30
0.0
 11
70.99999999996862
 21
-12.49999999999738
 31
0.0
  0
LINE
  5
4247
330
A
100
AcDbEntity
  8
0
  6
Continuous
 62
     7
370
     0
100
AcDbLine
 10
78.99999999996862
 20
-12.49999999999738
 30
0.0
 11
78.99999999996862
 21
-12.29999999961001
 31
0.0
  0
LINE
  5
4248
330
A
100
AcDbEntity
  8
0
  6
Continuous
 62
     7
370
     0
100
AcDbLine
 10
78.99999999996862
 20
12.29999999961473
 30
0.0
 11
78.99999999996862
 21
12.50000000000261
 31
0.0
  0
LINE
  5
4249
330
A
100
AcDbEntity
  8
0
  6
Continuous
 62
     7
370
     0
100
AcDbLine
 10
80.99999999996851
 20
25.60000000000253
 30
0.0
 11
80.29999999996858
 21
26.30000000000251
 31
0.0
  0
LINE
  5
424A
330
A
100
AcDbEntity
  8
0
  6
Continuous
 62
     7
370
     0
100
AcDbLine
 10
69.69999999996855
 20
26.30000000000251
 30
0.0
 11
68.99999999996849
 21
25.60000000000253
 31
0.0
  0
LINE
  5
424B
330
A
100
AcDbEntity
  8
0
  6
Continuous
 62
     7
370
     0
100
AcDbLine
 10
68.99999999996849
 20
25.60000000000253
 30
0.0
 11
68.99999999996849
 21
25.0000000000025
 31
0.0
  0
LINE
  5
424C
330
A
100
AcDbEntity
  8
0
  6
Continuous
 62
     7
370
     0
100
AcDbLine
 10
80.99999999996851
 20
25.0000000000025
 30
0.0
 11
80.99999999996851
 21
25.60000000000253
 31
0.0
  0
LINE
  5
424D
330
A
100
AcDbEntity
  8
0
  6
Continuous
 62
     7
370
     0
100
AcDbLine
 10
80.99999999996851
 20
-25.59999999999758
 30
0.0
 11
80.99999999996851
 21
-24.9999999999975
 31
0.0
  0
LINE
  5
424E
330
A
100
AcDbEntity
  8
0
  6
Continuous
 62
     7
370
     0
100
AcDbLine
 10
68.99999999996849
 20
-24.9999999999975
 30
0.0
 11
68.99999999996849
 21
-25.59999999999758
 31
0.0
  0
LINE
  5
424F
330
A
100
AcDbEntity
  8
0
  6
Continuous
 62
     7
370
     0
100
AcDbLine
 10
68.99999999996849
 20
-25.59999999999758
 30
0.0
 11
69.69999999996855
 21
-26.29999999999745
 31
0.0
  0
LINE
  5
4250
330
A
100
AcDbEntity
  8
0
  6
Continuous
 62
     7
370
     0
100
AcDbLine
 10
80.29999999996858
 20
-26.29999999999745
 30
0.0
 11
80.99999999996851
 21
-25.59999999999758
 31
0.0
  0
LINE
  5
4251
330
A
100
AcDbEntity
  8
0
  6
Continuous
 62
     7
370
     0
100
AcDbLine
 10
82.49999999996623
 20
-11.00000000000005
 30
0.0
 11
82.49999999996623
 21
10.99999999999994
 31
0.0
  0
LINE
  5
43E9
330
A
100
AcDbEntity
  8
0
  6
Continuous
 62
     7
370
     0
100
AcDbLine
 10
145.8000000003172
 20
20.75000000000262
 30
0.0
 11
145.920085808532
 21
20.74421744807955
 31
0.0
  0
ARC
  5
43EA
330
A
100
AcDbEntity
  8
0
  6
Continuous
 62
     7
370
     0
100
AcDbCircle
 10
145.8000021571994
 20
19.500000049709
 30
0.0
 40
1.249998807089446
100
AcDbArc
 50
57.75231397828265
 51
84.48726395290737
  0
ARC
  5
43EB
330
A
100
AcDbEntity
  8
0
  6
Continuous
 62
     7
370
     0
100
AcDbCircle
 10
145.8000174945555
 20
19.50002267606783
 30
0.0
 40
1.249971487149024
100
AcDbArc
 50
36.496126002128
 51
57.7523551670391
  0
ARC
  5
43EC
330
A
100
AcDbEntity
  8
0
  6
Continuous
 62
     7
370
     0
100
AcDbCircle
 10
145.8000007600779
 20
19.49999863915912
 30
0.0
 40
1.249999236376172
100
AcDbArc
 50
359.8372577149496
 51
36.49655549437419
  0
ARC
  5
43ED
330
A
100
AcDbEntity
  8
0
  6
Continuous
 62
     7
370
     0
100
AcDbCircle
 10
145.8000287051485
 20
19.49999720220637
 30
0.0
 40
1.249971287337692
100
AcDbArc
 50
338.6924154617998
 51
359.8373199429179
  0
LINE
  5
43EE
330
A
100
AcDbEntity
  8
0
  6
Continuous
 62
     7
370
     0
100
AcDbLine
 10
146.9645558726706
 20
19.04578943557101
 30
0.0
 11
146.9068879958794
 21
18.91922649952119
 31
0.0
  0
LINE
  5
43EF
330
A
100
AcDbEntity
  8
0
  6
Continuous
 62
     7
370
     0
100
AcDbLine
 10
146.9068879958794
 20
18.91922649952119
 30
0.0
 11
146.8504040236815
 21
18.82239911641733
 31
0.0
  0
LINE
  5
43F0
330
A
100
AcDbEntity
  8
0
  6
Continuous
 62
     7
370
     0
100
AcDbLine
 10
146.8504040236815
 20
18.82239911641733
 30
0.0
 11
146.7797397895995
 21
18.72372044642844
 31
0.0
  0
ARC
  5
43F1
330
A
100
AcDbEntity
  8
0
  6
Continuous
 62
     7
370
     0
100
AcDbCircle
 10
145.8000212780458
 20
19.4999795961275
 30
0.0
 40
1.249970651404454
100
AcDbArc
 50
300.2986771294855
 51
321.6092024656078
  0
LINE
  5
43F2
330
A
100
AcDbEntity
  8
0
  6
Continuous
 62
     7
370
     0
100
AcDbLine
 10
146.4306410829774
 20
18.42074593699686
 30
0.0
 11
146.3048760155785
 21
18.35649703677905
 31
0.0
  0
LINE
  5
43F3
330
A
100
AcDbEntity
  8
0
  6
Continuous
 62
     7
370
     0
100
AcDbLine
 10
146.3048760155785
 20
18.35649703677905
 30
0.0
 11
146.1989082496755
 21
18.31536387074141
 31
0.0
  0
LINE
  5
43F4
330
A
100
AcDbEntity
  8
0
  6
Continuous
 62
     7
370
     0
100
AcDbLine
 10
146.1989082496755
 20
18.31536387074141
 30
0.0
 11
146.0803164849465
 21
18.28183635399864
 31
0.0
  0
LINE
  5
43F5
330
A
100
AcDbEntity
  8
0
  6
Continuous
 62
     7
370
     0
100
AcDbLine
 10
146.0803164849465
 20
18.28183635399864
 30
0.0
 11
145.948147149506
 21
18.2588100781179
 31
0.0
  0
LINE
  5
43F6
330
A
100
AcDbEntity
  8
0
  6
Continuous
 62
     7
370
     0
100
AcDbLine
 10
145.948147149506
 20
18.2588100781179
 30
0.0
 11
145.8371881889484
 21
18.2505533070115
 31
0.0
  0
LINE
  5
43F7
330
A
100
AcDbEntity
  8
0
  6
Continuous
 62
     7
370
     0
100
AcDbLine
 10
145.8371881889484
 20
18.2505533070115
 30
0.0
 11
145.8000000003172
 21
18.25000000000261
 31
0.0
  0
LINE
  5
43F8
330
A
100
AcDbEntity
  8
0
  6
Continuous
 62
     7
370
     0
100
AcDbLine
 10
145.8000000003172
 20
18.25000000000261
 30
0.0
 11
145.6799141921026
 21
18.25578255192567
 31
0.0
  0
ARC
  5
43F9
330
A
100
AcDbEntity
  8
0
  6
Continuous
 62
     7
370
     0
100
AcDbCircle
 10
145.7999978434347
 20
19.49999995029509
 30
0.0
 40
1.24999880708868
100
AcDbArc
 50
237.7523139782809
 51
264.4872639529203
  0
ARC
  5
43FA
330
A
100
AcDbEntity
  8
0
  6
Continuous
 62
     7
370
     0
100
AcDbCircle
 10
145.799982506079
 20
19.49997732393763
 30
0.0
 40
1.249971487149327
100
AcDbArc
 50
216.4961260021332
 51
237.7523551670408
  0
ARC
  5
43FB
330
A
100
AcDbEntity
  8
0
  6
Continuous
 62
     7
370
     0
100
AcDbCircle
 10
145.7999992405562
 20
19.50000136084571
 30
0.0
 40
1.249999236375956
100
AcDbArc
 50
179.8372577149496
 51
216.4965554943768
  0
ARC
  5
43FC
330
A
100
AcDbEntity
  8
0
  6
Continuous
 62
     7
370
     0
100
AcDbCircle
 10
145.7999712954863
 20
19.50000279779846
 30
0.0
 40
1.249971287338034
100
AcDbArc
 50
158.6924154618028
 51
179.8373199429147
  0
LINE
  5
43FD
330
A
100
AcDbEntity
  8
0
  6
Continuous
 62
     7
370
     0
100
AcDbLine
 10
144.6354441279638
 20
19.95421056443354
 30
0.0
 11
144.693112004755
 21
20.0807735004837
 31
0.0
  0
LINE
  5
43FE
330
A
100
AcDbEntity
  8
0
  6
Continuous
 62
     7
370
     0
100
AcDbLine
 10
144.693112004755
 20
20.0807735004837
 30
0.0
 11
144.749595976953
 21
20.17760088358767
 31
0.0
  0
LINE
  5
43FF
330
A
100
AcDbEntity
  8
0
  6
Continuous
 62
     7
370
     0
100
AcDbLine
 10
144.749595976953
 20
20.17760088358767
 30
0.0
 11
144.8202602110349
 21
20.27627955357667
 31
0.0
  0
ARC
  5
4400
330
A
100
AcDbEntity
  8
0
  6
Continuous
 62
     7
370
     0
100
AcDbCircle
 10
145.7999787225884
 20
19.50002040387812
 30
0.0
 40
1.249970651404012
100
AcDbArc
 50
120.2986771295
 51
141.609202465626
  0
LINE
  5
4401
330
A
100
AcDbEntity
  8
0
  6
Continuous
 62
     7
370
     0
100
AcDbLine
 10
145.1693589176569
 20
20.57925406300819
 30
0.0
 11
145.2951239850559
 21
20.64350296322601
 31
0.0
  0
LINE
  5
4402
330
A
100
AcDbEntity
  8
0
  6
Continuous
 62
     7
370
     0
100
AcDbLine
 10
145.2951239850559
 20
20.64350296322601
 30
0.0
 11
145.4010917509589
 21
20.68463612926354
 31
0.0
  0
LINE
  5
4403
330
A
100
AcDbEntity
  8
0
  6
Continuous
 62
     7
370
     0
100
AcDbLine
 10
145.4010917509589
 20
20.68463612926354
 30
0.0
 11
145.5196835156874
 21
20.71816364600619
 31
0.0
  0
LINE
  5
4404
330
A
100
AcDbEntity
  8
0
  6
Continuous
 62
     7
370
     0
100
AcDbLine
 10
145.5196835156874
 20
20.71816364600619
 30
0.0
 11
145.6518528511285
 21
20.74118992188681
 31
0.0
  0
LINE
  5
4405
330
A
100
AcDbEntity
  8
0
  6
Continuous
 62
     7
370
     0
100
AcDbLine
 10
145.6518528511285
 20
20.74118992188681
 30
0.0
 11
145.762811811686
 21
20.74944669299362
 31
0.0
  0
LINE
  5
4406
330
A
100
AcDbEntity
  8
0
  6
Continuous
 62
     7
370
     0
100
AcDbLine
 10
145.762811811686
 20
20.74944669299362
 30
0.0
 11
145.8000000003172
 21
20.75000000000262
 31
0.0
  0
TEXT
  5
4434
330
A
100
AcDbEntity
  8
0
  6
Continuous
 62
     7
370
     0
100
AcDbText
 10
116.576271459056
 20
70.0146412884327
 30
0.0
 40
20.0
  1
8650
100
AcDbText
  0
LINE
  5
4435
330
A
100
AcDbEntity
  8
0
  6
Continuous
 62
     7
370
     0
100
AcDbLine
 10
80.89199105379748
 20
12.30022127339373
 30
0.0
 11
80.81492944287651
 21
12.36554763939051
 31
0.0
  0
LINE
  5
4436
330
A
100
AcDbEntity
  8
0
  6
Continuous
 62
     7
370
     0
100
AcDbLine
 10
80.81492944287651
 20
12.36554763939051
 30
0.0
 11
80.70208272527395
 21
12.41839984697913
 31
0.0
  0
ARC
  5
4437
330
A
100
AcDbEntity
  8
0
  6
Continuous
 62
     7
370
     0
100
AcDbCircle
 10
80.11106739003492
 20
9.982353491839431
 30
0.0
 40
2.506715175459267
100
AcDbArc
 50
76.36281707340426
 51
92.53948944413936
  0
ARC
  5
4438
330
A
100
AcDbEntity
  8
0
  6
Continuous
 62
     7
370
     0
100
AcDbCircle
 10
80.07355959284529
 20
-9.345239389390428
 30
0.0
 40
3.142228618616037
100
AcDbArc
 50
268.6585828787504
 51
280.5280108369235
  0
LINE
  5
4439
330
A
100
AcDbEntity
  8
0
  6
Continuous
 62
     7
370
     0
100
AcDbLine
 10
80.64769566136851
 20
-12.43457078412115
 30
0.0
 11
80.74401545523722
 21
-12.40241855408959
 31
0.0
  0
LINE
  5
443A
330
A
100
AcDbEntity
  8
0
  6
Continuous
 62
     7
370
     0
100
AcDbLine
 10
80.74401545523722
 20
-12.40241855408959
 30
0.0
 11
80.84705972638221
 21
-12.34275465344007
 31
0.0
  0
LINE
  5
443B
330
A
100
AcDbEntity
  8
0
  6
Continuous
 62
     7
370
     0
100
AcDbLine
 10
80.84705972638221
 20
-12.34275465344007
 30
0.0
 11
80.8919830295922
 21
-12.30023038113586
 31
0.0
  0
CIRCLE
  5
5998
330
A
100
AcDbEntity
  8
0
  6
CENTER
 62
     1
100
AcDbCircle
 10
-0.0000000000001137
 20
0.0
 30
0.0
 40
9.0
  0
CIRCLE
  5
5999
330
A
100
AcDbEntity
  8
0
  6
CENTER
 62
     1
100
AcDbCircle
 10
39.99999999999989
 20
0.0
 30
0.0
 40
9.0
  0
LINE
  5
599A
330
A
100
AcDbEntity
  8
0
  6
CENTER
 62
     1
100
AcDbLine
 10
-11.20000000000004
 20
0.0
 30
0.0
 11
11.19999999999993
 21
0.0
 31
0.0
  0
LINE
  5
599B
330
A
100
AcDbEntity
  8
0
  6
CENTER
 62
     1
100
AcDbLine
 10
-0.0000000000001137
 20
-11.20000000000004
 30
0.0
 11
-0.0000000000001137
 21
11.19999999999999
 31
0.0
  0
LINE
  5
599C
330
A
100
AcDbEntity
  8
0
  6
CENTER
 62
     1
100
AcDbLine
 10
28.79999999999995
 20
0.0
 30
0.0
 11
51.1999999999997
 21
0.0
 31
0.0
  0
LINE
  5
599D
330
A
100
AcDbEntity
  8
0
  6
CENTER
 62
     1
100
AcDbLine
 10
39.99999999999989
 20
-11.20000000000004
 30
0.0
 11
39.99999999999989
 21
11.19999999999999
 31
0.0
  0
LINE
  5
59C0
330
A
100
AcDbEntity
  8
0
  6
CENTER
 62
     1
100
AcDbLine
 10
74.99999999996862
 20
-28.28179542218845
 30
0.0
 11
74.99999999996862
 21
28.89648080004857
 31
0.0
  0
LINE
  5
59E1
330
A
100
AcDbEntity
  8
0
  6
CENTER
 62
     1
100
AcDbLine
 10
142.5500287051485
 20
19.49999220220635
 30
0.0
 11
149.0500237051485
 21
19.49999220220635
 31
0.0
  0
LINE
  5
59E4
330
A
100
AcDbEntity
  8
0
  6
CENTER
 62
     1
100
AcDbLine
 10
145.8000000003173
 20
-28.28179542252156
 30
0.0
 11
145.8000000003173
 21
28.89648079971547
 31
0.0
  0
INSERT
  5
5A9E
330
A
100
AcDbEntity
  8
0
100
AcDbBlockReference
  2
AID5699
 10
390.7662387889163
 20
-132.0968956377122
 30
0.0
  0
ENDSEC
  0
SECTION
  2
OBJECTS
  0
DICTIONARY
  5
19
330
0
100
AcDbDictionary
281
     1
  3
ACAD_COLOR
350
231E
  3
ACAD_GROUP
350
1A
  3
ACAD_LAYOUT
350
1E
  3
ACAD_MATERIAL
350
22F4
  3
ACAD_MLEADERSTYLE
350
2343
  3
ACAD_MLINESTYLE
350
1B
  3
ACAD_PLOTSETTINGS
350
22
  3
ACAD_PLOTSTYLENAME
350
1F
  3
ACAD_SCALELIST
350
2321
  3
ACAD_TABLESTYLE
350
231F
  3
ACAD_VISUALSTYLE
350
230D
  3
ACAD_WIPEOUT_VARS
350
23
  3
ACDB_RECOMPOSE_DATA
350
4453
  3
AcDbVariableDictionary
350
444D
  3
ASE_INDEX_DICTIONARY
350
234C
  0
DICTIONARY
  5
2349
330
14
100
AcDbDictionary
280
     1
281
     1
  3
ADSK_XREC_LAYER_RECONCILED
360
234A
  0
DICTIONARY
  5
235B
330
A
100
AcDbDictionary
280
     1
281
     1
  3
ACAD_SORTENTS
360
235C
  0
DICTIONARY
  5
231E
102
{ACAD_REACTORS
330
19
102
}
330
19
100
AcDbDictionary
281
     1
  0
DICTIONARY
  5
1A
102
{ACAD_REACTORS
330
19
102
}
330
19
100
AcDbDictionary
281
     1
  0
DICTIONARY
  5
1E
102
{ACAD_REACTORS
330
19
102
}
330
19
100
AcDbDictionary
281
     1
  3
Layout1
350
21
  3
Model
350
20
  0
DICTIONARY
  5
22F4
102
{ACAD_REACTORS
330
19
102
}
330
19
100
AcDbDictionary
281
     1
  3
ByBlock
350
22FD
  3
ByLayer
350
22F5
  3
Global
350
2305
  0
DICTIONARY
  5
2343
102
{ACAD_REACTORS
330
19
102
}
330
19
100
AcDbDictionary
281
     1
  3
Standard
350
2344
  0
DICTIONARY
  5
1B
102
{ACAD_REACTORS
330
19
102
}
330
19
100
AcDbDictionary
281
     1
  3
Standard
350
1C
  0
DICTIONARY
  5
22
102
{ACAD_REACTORS
330
19
102
}
330
19
100
AcDbDictionary
281
     1
  0
ACDBDICTIONARYWDFLT
  5
1F
102
{ACAD_REACTORS
330
19
102
}
330
19
100
AcDbDictionary
281
     1
  3
Normal
350
1D
100
AcDbDictionaryWithDefault
340
1D
  0
DICTIONARY
  5
2321
102
{ACAD_REACTORS
330
19
102
}
330
19
100
AcDbDictionary
281
     1
  3
A0
350
2322
  3
A1
350
2323
  3
A2
350
2324
  3
A3
350
2325
  3
A4
350
2326
  3
A5
350
2327
  3
A6
350
2328
  3
A7
350
2329
  3
A8
350
232A
  3
A9
350
232B
  3
B0
350
232C
  3
B1
350
232D
  3
B2
350
232E
  3
B3
350
232F
  3
B4
350
2330
  3
B5
350
2331
  3
B6
350
2332
  3
B7
350
2333
  3
B8
350
2334
  3
B9
350
2335
  3
C0
350
2336
  3
C1
350
2337
  3
C2
350
2338
  3
C3
350
2339
  3
C4
350
233A
  3
C5
350
233B
  3
C6
350
233C
  3
C7
350
233D
  3
C8
350
233E
  3
C9
350
233F
  3
D0
350
2340
  3
D1
350
2341
  3
D2
350
2342
  0
DICTIONARY
  5
231F
102
{ACAD_REACTORS
330
19
102
}
330
19
100
AcDbDictionary
281
     1
  3
Standard
350
2320
  0
DICTIONARY
  5
230D
102
{ACAD_REACTORS
330
19
102
}
330
19
100
AcDbDictionary
281
     1
  3
2dWireframe
350
2313
  3
3D Hidden
350
2315
  3
3dWireframe
350
2314
  3
Basic
350
2312
  3
Brighten
350
2319
  3
ColorChange
350
231D
  3
Conceptual
350
2316
  3
Dim
350
2318
  3
Facepattern
350
231C
  3
Flat
350
230E
  3
FlatWithEdges
350
230F
  3
Gouraud
350
2310
  3
GouraudWithEdges
350
2311
  3
Linepattern
350
231B
  3
Realistic
350
2317
  3
Thicken
350
231A
  0
WIPEOUTVARIABLES
  5
23
330
19
100
AcDbWipeoutVariables
 70
     1
  0
XRECORD
  5
4453
102
{ACAD_REACTORS
330
19
102
}
330
19
100
AcDbXrecord
280
     1
 90
        1
330
2320
  0
DICTIONARY
  5
444D
102
{ACAD_REACTORS
330
19
102
}
330
19
100
AcDbDictionary
281
     1
  3
CANNOSCALE
350
4450
  3
CMLEADERSTYLE
350
444F
  3
CTABLESTYLE
350
444E
  3
DIMASSOC
350
445E
  3
INDEXCTL
350
445D
  3
SORTENTS
350
445C
  0
DICTIONARY
  5
234C
102
{ACAD_REACTORS
330
19
102
}
330
19
100
AcDbDictionary
281
     1
  3
ASEBlockHierarchyIndexRecord
350
234E
1001
DCO15
1040
1686551000.764
  0
XRECORD
  5
234A
102
{ACAD_REACTORS
330
2349
102
}
330
2349
100
AcDbXrecord
280
     1
290
     1
  0
SORTENTSTABLE
  5
235C
102
{ACAD_REACTORS
330
235B
102
}
330
235B
100
AcDbSortentsTable
330
A
331
3E1C
  5
25F1
331
3E5B
  5
2630
331
3D5F
  5
26DD
331
3D96
  5
2653
331
4240
  5
119C
331
3D20
  5
272F
331
3DE5
  5
2680
331
3DED
  5
2688
331
3E24
  5
25F9
331
3D28
  5
2737
331
3D67
  5
26E5
331
3CF1
  5
2700
331
3D9E
  5
265B
331
4203
  5
CB2
331
3DF5
  5
2690
331
3D30
  5
26AE
331
3D6F
  5
26ED
331
3E2C
  5
2601
331
3E34
  5
2609
331
4209
  5
CB8
331
4248
  5
11A4
331
4211
  5
CC0
331
4250
  5
11AC
331
3CF9
  5
2708
331
3D38
  5
26B6
331
4219
  5
EBA
331
3E3C
  5
2611
331
3D77
  5
26F5
331
3D01
  5
2710
331
3D40
  5
26BE
331
3DFD
  5
2698
331
3E05
  5
26A0
331
3D48
  5
26C6
331
3D7F
  5
263C
331
3E44
  5
2619
331
6B2
  5
276D
331
3D09
  5
2718
331
3DD6
  5
2671
331
3E0D
  5
26A8
331
3D50
  5
26CE
331
3D87
  5
2644
331
3E4C
  5
2621
331
6BA
  5
2775
331
3D11
  5
2720
331
3DDE
  5
2679
331
3E15
  5
25EA
331
3D8F
  5
264C
331
3E54
  5
2629
331
4229
  5
EC4
331
4231
  5
EC7
331
3D19
  5
2728
331
3D58
  5
26D6
331
4239
  5
ECF
331
6C2
  5
277D
331
3E5C
  5
2631
331
3D97
  5
2654
331
3DE6
  5
2681
331
3CEA
  5
26F9
331
3D21
  5
2730
331
3D60
  5
26DE
331
3E1D
  5
25F2
331
4241
  5
119D
331
3E25
  5
25FA
331
3D68
  5
26E6
331
3D9F
  5
265C
331
3CF2
  5
2701
331
3D29
  5
2738
331
3DEE
  5
2689
331
3E2D
  5
2602
331
4204
  5
CB3
331
3D31
  5
26AF
331
3DF6
  5
2691
331
3E35
  5
260A
331
3DB7
  5
2663
331
4249
  5
11A5
331
420A
  5
CB9
331
4212
  5
CC1
331
4251
  5
11AD
331
3D39
  5
26B7
331
3D70
  5
26EE
331
421A
  5
EBB
331
3CFA
  5
2709
331
3DFE
  5
2699
331
3D02
  5
2711
331
3D41
  5
26BF
331
3D78
  5
26F6
331
3E3D
  5
2612
331
3E45
  5
261A
331
3DCF
  5
266A
331
3E06
  5
26A1
331
3D0A
  5
2719
331
3D49
  5
26C7
331
6B3
  5
276E
331
3D80
  5
263D
331
3E4D
  5
2622
331
3D88
  5
2645
331
3DD7
  5
2672
331
6BB
  5
2776
331
3D12
  5
2721
331
3D51
  5
26CF
331
3E0E
  5
26A9
331
3E16
  5
25EB
331
3E55
  5
262A
331
3DDF
  5
267A
331
4232
  5
EC8
331
3D59
  5
26D7
331
3D90
  5
264D
331
423A
  5
ED0
331
6C3
  5
277E
331
3D1A
  5
2729
331
3DE7
  5
2682
331
3E1E
  5
25F3
331
3D61
  5
26DF
331
3D98
  5
2655
331
3E5D
  5
2632
331
4242
  5
119E
331
3CEB
  5
26FA
331
3D22
  5
2731
331
3DEF
  5
268A
331
3E26
  5
25FB
331
3D2A
  5
2739
331
3D69
  5
26E7
331
3CF3
  5
2702
331
3DA0
  5
265D
331
4205
  5
CB4
331
3D32
  5
26B0
331
3DF7
  5
2692
331
3E2E
  5
2603
331
3E36
  5
260B
331
420B
  5
CBA
331
424A
  5
11A6
331
4213
  5
CC2
331
3D71
  5
26EF
331
3CFB
  5
270A
331
3D3A
  5
26B8
331
421B
  5
EBC
331
3E3E
  5
2613
331
3D79
  5
26F7
331
3D03
  5
2712
331
3D42
  5
26C0
331
3DFF
  5
269A
331
3E07
  5
26A2
331
3E46
  5
261B
331
3D4A
  5
26C8
331
3D81
  5
263E
331
6B4
  5
276F
331
3D0B
  5
271A
331
3DD0
  5
266B
331
3DD8
  5
2673
331
3E0F
  5
26AA
331
3D13
  5
2722
331
3D52
  5
26D0
331
6BC
  5
2777
331
3D89
  5
2646
331
3E4E
  5
2623
331
3E56
  5
262B
331
3E17
  5
25EC
331
4233
  5
EC9
331
3DE0
  5
267B
331
3D1B
  5
272A
331
3D5A
  5
26D8
331
423B
  5
ED1
331
6C4
  5
277F
331
3D91
  5
264E
331
3E5E
  5
2633
331
3D99
  5
2656
331
3DE8
  5
2683
331
4243
  5
119F
331
3CEC
  5
26FB
331
3D23
  5
2732
331
3D62
  5
26E0
331
3E1F
  5
25F4
331
3E27
  5
25FC
331
3D6A
  5
26E8
331
3CF4
  5
2703
331
3D2B
  5
273A
331
3DF0
  5
268B
331
3E2F
  5
2604
331
4206
  5
CB5
331
3D33
  5
26B1
331
3E37
  5
260C
331
424B
  5
11A7
331
420C
  5
CBB
331
4214
  5
CC3
331
3DF8
  5
2693
331
3D3B
  5
26B9
331
3D72
  5
26F0
331
421C
  5
EBD
331
3CFC
  5
270B
331
3DB9
  5
2665
331
3E00
  5
269B
331
3D04
  5
2713
331
3D43
  5
26C1
331
3D7A
  5
26F8
331
3E3F
  5
2614
331
3E47
  5
261C
331
3D82
  5
263F
331
3DD1
  5
266C
331
3D0C
  5
271B
331
3D4B
  5
26C9
331
3E08
  5
26A3
331
6B5
  5
2770
331
3E4F
  5
2624
331
3D8A
  5
2647
331
3DD9
  5
2674
331
6BD
  5
2778
331
3D14
  5
2723
331
3D53
  5
26D1
331
3E10
  5
26AB
331
3E57
  5
262C
331
4234
  5
ECA
331
3E18
  5
25ED
331
3D5B
  5
26D9
331
3D92
  5
264F
331
423C
  5
ED2
331
6C5
  5
2780
331
3D1C
  5
272B
331
3DE1
  5
267C
331
3DE9
  5
2684
331
3E20
  5
25F5
331
3D24
  5
2733
331
3D63
  5
26E1
331
4244
  5
11A0
331
3CED
  5
26FC
331
3D9A
  5
2657
331
3E5F
  5
2634
331
3E28
  5
25FD
331
3D2C
  5
273B
331
3D6B
  5
26E9
331
3CF5
  5
2704
331
3DA2
  5
265F
331
4207
  5
CB6
331
3D34
  5
26B2
331
3E30
  5
2605
331
420D
  5
CBC
331
424C
  5
11A8
331
4215
  5
CC4
331
3E38
  5
260D
331
3D73
  5
26F1
331
3DBA
  5
2666
331
3CFD
  5
270C
331
3D3C
  5
26BA
331
3DF9
  5
2694
331
421D
  5
EBE
331
3E01
  5
269C
331
3D7B
  5
2638
331
3E40
  5
2615
331
3D05
  5
2714
331
3D44
  5
26C2
331
3E09
  5
26A4
331
3E48
  5
261D
331
3D4C
  5
26CA
331
3D83
  5
2640
331
6B6
  5
2771
331
3D0D
  5
271C
331
3DD2
  5
266D
331
3DDA
  5
2675
331
3E11
  5
25E6
331
3D15
  5
2724
331
3D54
  5
26D2
331
6BE
  5
2779
331
3D8B
  5
2648
331
3E50
  5
2625
331
4235
  5
ECB
331
3E58
  5
262D
331
3D93
  5
2650
331
3DE2
  5
267D
331
3D1D
  5
272C
331
3D5C
  5
26DA
331
3E19
  5
25EE
331
423D
  5
ED3
331
3E60
  5
2635
331
3D9B
  5
2658
331
3DEA
  5
2685
331
4245
  5
11A1
331
3CEE
  5
26FD
331
3D25
  5
2734
331
3D64
  5
26E2
331
3E21
  5
25F6
331
3E29
  5
25FE
331
4200
  5
CAF
331
3D6C
  5
26EA
331
3DA3
  5
2660
331
3CF6
  5
2705
331
3D2D
  5
273C
331
3DF2
  5
268D
331
3D35
  5
26B3
331
3E31
  5
2606
331
424D
  5
11A9
331
420E
  5
CBD
331
4216
  5
CC5
331
3DFA
  5
2695
331
3E39
  5
260E
331
3D3D
  5
26BB
331
3D74
  5
26F2
331
421E
  5
EBF
331
3CFE
  5
270D
331
3DBB
  5
2667
331
3E02
  5
269D
331
3D06
  5
2715
331
3D45
  5
26C3
331
3D7C
  5
2639
331
3E41
  5
2616
331
3E49
  5
261E
331
3D84
  5
2641
331
3DD3
  5
266E
331
6B7
  5
2772
331
3D0E
  5
271D
331
3D4D
  5
26CB
331
3E0A
  5
26A5
331
3E12
  5
25E7
331
3E51
  5
2626
331
3D8C
  5
2649
331
3DDB
  5
2676
331
6BF
  5
277A
331
3D16
  5
2725
331
3D55
  5
26D3
331
4236
  5
ECC
331
3E1A
  5
25EF
331
3E59
  5
262E
331
3D5D
  5
26DB
331
3D94
  5
2651
331
423E
  5
ED4
331
3D1E
  5
272D
331
3DE3
  5
267E
331
3DEB
  5
2686
331
3E22
  5
25F7
331
3D26
  5
2735
331
3D65
  5
26E3
331
4246
  5
11A2
331
3CEF
  5
26FE
331
3D9C
  5
2659
331
3E61
  5
2636
331
4201
  5
CB0
331
3DA4
  5
2661
331
3DF3
  5
268E
331
3D2E
  5
26AC
331
3D6D
  5
26EB
331
3E2A
  5
25FF
331
3CF7
  5
2706
331
3D36
  5
26B4
331
3E32
  5
2607
331
420F
  5
CBE
331
424E
  5
11AA
331
4217
  5
EB8
331
3E3A
  5
260F
331
3D75
  5
26F3
331
3DBC
  5
2668
331
3CFF
  5
270E
331
3D3E
  5
26BC
331
3DFB
  5
2696
331
421F
  5
EC0
331
3E03
  5
269E
331
3D46
  5
26C4
331
3D7D
  5
263A
331
3E42
  5
2617
331
6B0
  5
276B
331
3D07
  5
2716
331
3E0B
  5
26A6
331
3E4A
  5
261F
331
3D4E
  5
26CC
331
3D85
  5
2642
331
6B8
  5
2773
331
3D0F
  5
271E
331
3DD4
  5
266F
331
3DDC
  5
2677
331
3E13
  5
25E8
331
3D17
  5
2726
331
3D56
  5
26D4
331
3D8D
  5
264A
331
3E52
  5
2627
331
4237
  5
ECD
331
6C0
  5
277B
331
3E5A
  5
262F
331
3D95
  5
2652
331
3DE4
  5
267F
331
3D1F
  5
272E
331
3D5E
  5
26DC
331
3E1B
  5
25F0
331
423F
  5
ED5
331
3E23
  5
25F8
331
3E62
  5
2637
331
3D9D
  5
265A
331
3DEC
  5
2687
331
4247
  5
11A3
331
3CF0
  5
26FF
331
3D27
  5
2736
331
3D66
  5
26E4
331
3E2B
  5
2600
331
4202
  5
CB1
331
3D6E
  5
26EC
331
3D2F
  5
26AD
331
3DF4
  5
268F
331
3D37
  5
26B5
331
3E33
  5
2608
331
4208
  5
CB7
331
4210
  5
CBF
331
424F
  5
11AB
331
4218
  5
EB9
331
3CF8
  5
2707
331
3DFC
  5
2697
331
3D3F
  5
26BD
331
3D76
  5
26F4
331
3E3B
  5
2610
331
4220
  5
EC1
331
3D00
  5
270F
331
3E04
  5
269F
331
3D08
  5
2717
331
3D47
  5
26C5
331
6B1
  5
276C
331
3D7E
  5
263B
331
3E43
  5
2618
331
3E4B
  5
2620
331
3D86
  5
2643
331
3DD5
  5
2670
331
6B9
  5
2774
331
3D10
  5
271F
331
3D4F
  5
26CD
331
3E0C
  5
26A7
331
3E14
  5
25E9
331
3E53
  5
2628
331
3D57
  5
26D5
331
3D8E
  5
264B
331
3DDD
  5
2678
331
4228
  5
EC3
331
4230
  5
EC6
331
4238
  5
ECE
331
6C1
  5
277C
331
3D18
  5
2727
  0
LAYOUT
  5
21
102
{ACAD_REACTORS
330
1E
102
}
330
1E
100
AcDbPlotSettings
  1

  2

  4

  6

 40
0.0
 41
0.0
 42
0.0
 43
0.0
 44
0.0
 45
0.0
 46
0.0
 47
0.0
 48
0.0
 49
0.0
140
0.0
141
0.0
142
1.0
143
1.0
 70
     0
 72
     0
 73
     0
 74
     0
  7

 75
     0
147
1.0
 76
     0
 77
     2
 78
   300
148
0.0
149
0.0
100
AcDbLayout
  1
Layout1
 70
     0
 71
     1
 10
0.0
 20
0.0
 11
12.0
 21
9.0
 12
0.0
 22
0.0
 32
0.0
 14
1.000000000000000E+20
 24
1.000000000000000E+20
 34
1.000000000000000E+20
 15
-1.000000000000000E+20
 25
-1.000000000000000E+20
 35
-1.000000000000000E+20
146
0.0
 13
0.0
 23
0.0
 33
0.0
 16
1.0
 26
0.0
 36
0.0
 17
0.0
 27
1.0
 37
0.0
 76
     0
330
B
  0
LAYOUT
  5
20
102
{ACAD_REACTORS
330
1E
102
}
330
1E
100
AcDbPlotSettings
  1

  2

  4

  6

 40
0.0
 41
0.0
 42
0.0
 43
0.0
 44
0.0
 45
0.0
 46
0.0
 47
0.0
 48
0.0
 49
0.0
140
0.0
141
0.0
142
1.0
143
1.0
 70
  1024
 72
     0
 73
     0
 74
     0
  7

 75
     0
147
1.0
 76
     0
 77
     2
 78
   300
148
0.0
149
0.0
100
AcDbLayout
  1
Model
 70
     0
 71
     0
 10
0.0
 20
0.0
 11
0.0
 21
0.0
 12
0.0
 22
0.0
 32
0.0
 14
0.0
 24
0.0
 34
0.0
 15
0.0
 25
0.0
 35
0.0
146
0.0
 13
0.0
 23
0.0
 33
0.0
 16
0.0
 26
0.0
 36
0.0
 17
0.0
 27
0.0
 37
0.0
 76
     0
330
A
331
15
  0
MATERIAL
  5
22FD
102
{ACAD_XDICTIONARY
360
22FE
102
}
102
{ACAD_REACTORS
330
22F4
102
}
330
22F4
100
AcDbMaterial
  1
ByBlock
 72
     0
 43
0.0208333333333333
 43
0.0
 43
0.0
 43
0.0
 43
0.0
 43
0.0208333333333333
 43
0.0
 43
0.0
 43
0.0
 43
0.0
 43
1.0
 43
0.0
 43
0.0
 43
0.0
 43
0.0
 43
1.0
 77
     0
 47
0.0208333333333333
 47
0.0
 47
0.0
 47
0.0
 47
0.0
 47
0.0208333333333333
 47
0.0
 47
0.0
 47
0.0
 47
0.0
 47
1.0
 47
0.0
 47
0.0
 47
0.0
 47
0.0
 47
1.0
171
     0
 49
0.0208333333333333
 49
0.0
 49
0.0
 49
0.0
 49
0.0
 49
0.0208333333333333
 49
0.0
 49
0.0
 49
0.0
 49
0.0
 49
1.0
 49
0.0
 49
0.0
 49
0.0
 49
0.0
 49
1.0
175
     0
142
0.0208333333333333
142
0.0
142
0.0
142
0.0
142
0.0
142
0.0208333333333333
142
0.0
142
0.0
142
0.0
142
0.0
142
1.0
142
0.0
142
0.0
142
0.0
142
0.0
142
1.0
179
     0
144
0.0208333333333333
144
0.0
144
0.0
144
0.0
144
0.0
144
0.0208333333333333
144
0.0
144
0.0
144
0.0
144
0.0
144
1.0
144
0.0
144
0.0
144
0.0
144
0.0
144
1.0
147
0.0208333333333333
147
0.0
147
0.0
147
0.0
147
0.0
147
0.0208333333333333
147
0.0
147
0.0
147
0.0
147
0.0
147
1.0
147
0.0
147
0.0
147
0.0
147
0.0
147
1.0
  0
MATERIAL
  5
22F5
102
{ACAD_XDICTIONARY
360
22F6
102
}
102
{ACAD_REACTORS
330
22F4
102
}
330
22F4
100
AcDbMaterial
  1
ByLayer
 72
     0
 43
0.0208333333333333
 43
0.0
 43
0.0
 43
0.0
 43
0.0
 43
0.0208333333333333
 43
0.0
 43
0.0
 43
0.0
 43
0.0
 43
1.0
 43
0.0
 43
0.0
 43
0.0
 43
0.0
 43
1.0
 77
     0
 47
0.0208333333333333
 47
0.0
 47
0.0
 47
0.0
 47
0.0
 47
0.0208333333333333
 47
0.0
 47
0.0
 47
0.0
 47
0.0
 47
1.0
 47
0.0
 47
0.0
 47
0.0
 47
0.0
 47
1.0
171
     0
 49
0.0208333333333333
 49
0.0
 49
0.0
 49
0.0
 49
0.0
 49
0.0208333333333333
 49
0.0
 49
0.0
 49
0.0
 49
0.0
 49
1.0
 49
0.0
 49
0.0
 49
0.0
 49
0.0
 49
1.0
175
     0
142
0.0208333333333333
142
0.0
142
0.0
142
0.0
142
0.0
142
0.0208333333333333
142
0.0
142
0.0
142
0.0
142
0.0
142
1.0
142
0.0
142
0.0
142
0.0
142
0.0
142
1.0
179
     0
144
0.0208333333333333
144
0.0
144
0.0
144
0.0
144
0.0
144
0.0208333333333333
144
0.0
144
0.0
144
0.0
144
0.0
144
1.0
144
0.0
144
0.0
144
0.0
144
0.0
144
1.0
147
0.0208333333333333
147
0.0
147
0.0
147
0.0
147
0.0
147
0.0208333333333333
147
0.0
147
0.0
147
0.0
147
0.0
147
1.0
147
0.0
147
0.0
147
0.0
147
0.0
147
1.0
  0
MATERIAL
  5
2305
102
{ACAD_XDICTIONARY
360
2306
102
}
102
{ACAD_REACTORS
330
22F4
102
}
330
22F4
100
AcDbMaterial
  1
Global
 72
     0
 43
0.0208333333333333
 43
0.0
 43
0.0
 43
0.0
 43
0.0
 43
0.0208333333333333
 43
0.0
 43
0.0
 43
0.0
 43
0.0
 43
1.0
 43
0.0
 43
0.0
 43
0.0
 43
0.0
 43
1.0
 77
     0
 47
0.0208333333333333
 47
0.0
 47
0.0
 47
0.0
 47
0.0
 47
0.0208333333333333
 47
0.0
 47
0.0
 47
0.0
 47
0.0
 47
1.0
 47
0.0
 47
0.0
 47
0.0
 47
0.0
 47
1.0
171
     0
 49
0.0208333333333333
 49
0.0
 49
0.0
 49
0.0
 49
0.0
 49
0.0208333333333333
 49
0.0
 49
0.0
 49
0.0
 49
0.0
 49
1.0
 49
0.0
 49
0.0
 49
0.0
 49
0.0
 49
1.0
175
     0
142
0.0208333333333333
142
0.0
142
0.0
142
0.0
142
0.0
142
0.0208333333333333
142
0.0
142
0.0
142
0.0
142
0.0
142
1.0
142
0.0
142
0.0
142
0.0
142
0.0
142
1.0
179
     0
144
0.0208333333333333
144
0.0
144
0.0
144
0.0
144
0.0
144
0.0208333333333333
144
0.0
144
0.0
144
0.0
144
0.0
144
1.0
144
0.0
144
0.0
144
0.0
144
0.0
144
1.0
147
0.0208333333333333
147
0.0
147
0.0
147
0.0
147
0.0
147
0.0208333333333333
147
0.0
147
0.0
147
0.0
147
0.0
147
1.0
147
0.0
147
0.0
147
0.0
147
0.0
147
1.0
  0
MLEADERSTYLE
  5
2344
102
{ACAD_REACTORS
330
2343
102
}
330
2343
100
AcDbMLeaderStyle
170
     2
171
     1
172
     0
 90
        2
 40
0.0
 41
0.0
173
     1
 91
-1056964608
340
11
 92
       -2
290
     1
 42
2.0
291
     1
 43
0.36
  3
Standard
 44
4.0
300

342
17
174
     1
178
     6
175
     1
176
     0
 93
-1056964608
 45
4.0
292
     0
297
     0
 46
4.0
 94
-1056964608
 47
1.0
 49
1.0
140
1.0
293
     1
141
0.0
294
     1
177
     0
142
1.0
295
     0
296
     0
143
0.125
1001
ACAD_MLEADERVER
1070
     2
  0
MLINESTYLE
  5
1C
102
{ACAD_REACTORS
330
1B
102
}
330
1B
100
AcDbMlineStyle
  2
STANDARD
 70
     0
  3

 62
     0
 51
90.0
 52
90.0
 71
     2
 49
0.5
 62
   256
  6
BYLAYER
 49
-0.5
 62
   256
  6
BYLAYER
  0
ACDBPLACEHOLDER
  5
1D
102
{ACAD_REACTORS
330
1F
102
}
330
1F
  0
SCALE
  5
2322
102
{ACAD_REACTORS
330
2321
102
}
330
2321
100
AcDbScale
 70
     0
300
1:1
140
1.0
141
1.0
290
     1
  0
SCALE
  5
2323
102
{ACAD_REACTORS
330
2321
102
}
330
2321
100
AcDbScale
 70
     0
300
1:2
140
1.0
141
2.0
290
     0
  0
SCALE
  5
2324
102
{ACAD_REACTORS
330
2321
102
}
330
2321
100
AcDbScale
 70
     0
300
1:4
140
1.0
141
4.0
290
     0
  0
SCALE
  5
2325
102
{ACAD_REACTORS
330
2321
102
}
330
2321
100
AcDbScale
 70
     0
300
1:5
140
1.0
141
5.0
290
     0
  0
SCALE
  5
2326
102
{ACAD_REACTORS
330
2321
102
}
330
2321
100
AcDbScale
 70
     0
300
1:8
140
1.0
141
8.0
290
     0
  0
SCALE
  5
2327
102
{ACAD_REACTORS
330
2321
102
}
330
2321
100
AcDbScale
 70
     0
300
1:10
140
1.0
141
10.0
290
     0
  0
SCALE
  5
2328
102
{ACAD_REACTORS
330
2321
102
}
330
2321
100
AcDbScale
 70
     0
300
1:16
140
1.0
141
16.0
290
     0
  0
SCALE
  5
2329
102
{ACAD_REACTORS
330
2321
102
}
330
2321
100
AcDbScale
 70
     0
300
1:20
140
1.0
141
20.0
290
     0
  0
SCALE
  5
232A
102
{ACAD_REACTORS
330
2321
102
}
330
2321
100
AcDbScale
 70
     0
300
1:30
140
1.0
141
30.0
290
     0
  0
SCALE
  5
232B
102
{ACAD_REACTORS
330
2321
102
}
330
2321
100
AcDbScale
 70
     0
300
1:40
140
1.0
141
40.0
290
     0
  0
SCALE
  5
232C
102
{ACAD_REACTORS
330
2321
102
}
330
2321
100
AcDbScale
 70
     0
300
1:50
140
1.0
141
50.0
290
     0
  0
SCALE
  5
232D
102
{ACAD_REACTORS
330
2321
102
}
330
2321
100
AcDbScale
 70
     0
300
1:100
140
1.0
141
100.0
290
     0
  0
SCALE
  5
232E
102
{ACAD_REACTORS
330
2321
102
}
330
2321
100
AcDbScale
 70
     0
300
2:1
140
2.0
141
1.0
290
     0
  0
SCALE
  5
232F
102
{ACAD_REACTORS
330
2321
102
}
330
2321
100
AcDbScale
 70
     0
300
4:1
140
4.0
141
1.0
290
     0
  0
SCALE
  5
2330
102
{ACAD_REACTORS
330
2321
102
}
330
2321
100
AcDbScale
 70
     0
300
8:1
140
8.0
141
1.0
290
     0
  0
SCALE
  5
2331
102
{ACAD_REACTORS
330
2321
102
}
330
2321
100
AcDbScale
 70
     0
300
10:1
140
10.0
141
1.0
290
     0
  0
SCALE
  5
2332
102
{ACAD_REACTORS
330
2321
102
}
330
2321
100
AcDbScale
 70
     0
300
100:1
140
100.0
141
1.0
290
     0
  0
SCALE
  5
2333
102
{ACAD_REACTORS
330
2321
102
}
330
2321
100
AcDbScale
 70
     0
300
1/128" = 1'-0"
140
0.0078125
141
12.0
290
     0
  0
SCALE
  5
2334
102
{ACAD_REACTORS
330
2321
102
}
330
2321
100
AcDbScale
 70
     0
300
1/64" = 1'-0"
140
0.015625
141
12.0
290
     0
  0
SCALE
  5
2335
102
{ACAD_REACTORS
330
2321
102
}
330
2321
100
AcDbScale
 70
     0
300
1/32" = 1'-0"
140
0.03125
141
12.0
290
     0
  0
SCALE
  5
2336
102
{ACAD_REACTORS
330
2321
102
}
330
2321
100
AcDbScale
 70
     0
300
1/16" = 1'-0"
140
0.0625
141
12.0
290
     0
  0
SCALE
  5
2337
102
{ACAD_REACTORS
330
2321
102
}
330
2321
100
AcDbScale
 70
     0
300
3/32" = 1'-0"
140
0.09375
141
12.0
290
     0
  0
SCALE
  5
2338
102
{ACAD_REACTORS
330
2321
102
}
330
2321
100
AcDbScale
 70
     0
300
1/8" = 1'-0"
140
0.125
141
12.0
290
     0
  0
SCALE
  5
2339
102
{ACAD_REACTORS
330
2321
102
}
330
2321
100
AcDbScale
 70
     0
300
3/16" = 1'-0"
140
0.1875
141
12.0
290
     0
  0
SCALE
  5
233A
102
{ACAD_REACTORS
330
2321
102
}
330
2321
100
AcDbScale
 70
     0
300
1/4" = 1'-0"
140
0.25
141
12.0
290
     0
  0
SCALE
  5
233B
102
{ACAD_REACTORS
330
2321
102
}
330
2321
100
AcDbScale
 70
     0
300
3/8" = 1'-0"
140
0.375
141
12.0
290
     0
  0
SCALE
  5
233C
102
{ACAD_REACTORS
330
2321
102
}
330
2321
100
AcDbScale
 70
     0
300
1/2" = 1'-0"
140
0.5
141
12.0
290
     0
  0
SCALE
  5
233D
102
{ACAD_REACTORS
330
2321
102
}
330
2321
100
AcDbScale
 70
     0
300
3/4" = 1'-0"
140
0.75
141
12.0
290
     0
  0
SCALE
  5
233E
102
{ACAD_REACTORS
330
2321
102
}
330
2321
100
AcDbScale
 70
     0
300
1" = 1'-0"
140
1.0
141
12.0
290
     0
  0
SCALE
  5
233F
102
{ACAD_REACTORS
330
2321
102
}
330
2321
100
AcDbScale
 70
     0
300
1-1/2" = 1'-0"
140
1.5
141
12.0
290
     0
  0
SCALE
  5
2340
102
{ACAD_REACTORS
330
2321
102
}
330
2321
100
AcDbScale
 70
     0
300
3" = 1'-0"
140
3.0
141
12.0
290
     0
  0
SCALE
  5
2341
102
{ACAD_REACTORS
330
2321
102
}
330
2321
100
AcDbScale
 70
     0
300
6" = 1'-0"
140
6.0
141
12.0
290
     0
  0
SCALE
  5
2342
102
{ACAD_REACTORS
330
2321
102
}
330
2321
100
AcDbScale
 70
     0
300
1'-0" = 1'-0"
140
12.0
141
12.0
290
     0
  0
TABLESTYLE
  5
2320
102
{ACAD_XDICTIONARY
360
4451
102
}
102
{ACAD_REACTORS
330
231F
102
}
330
231F
100
AcDbTableStyle
  3
Standard
 70
     0
 71
     0
 40
1.5
 41
1.5
280
     0
281
     0
  7
Standard
140
4.5
170
     2
 62
     0
 63
     7
283
     0
274
    -2
284
     1
 64
     0
275
    -2
285
     1
 65
     0
276
    -2
286
     1
 66
     0
277
    -2
287
     1
 67
     0
278
    -2
288
     1
 68
     0
279
    -2
289
     1
 69
     0
  7
Standard
140
6.0
170
     5
 62
     0
 63
     7
283
     0
274
    -2
284
     1
 64
     0
275
    -2
285
     1
 65
     0
276
    -2
286
     1
 66
     0
277
    -2
287
     1
 67
     0
278
    -2
288
     1
 68
     0
279
    -2
289
     1
 69
     0
  7
Standard
140
4.5
170
     5
 62
     0
 63
     7
283
     0
274
    -2
284
     1
 64
     0
275
    -2
285
     1
 65
     0
276
    -2
286
     1
 66
     0
277
    -2
287
     1
 67
     0
278
    -2
288
     1
 68
     0
279
    -2
289
     1
 69
     0
  0
VISUALSTYLE
  5
2313
102
{ACAD_REACTORS
330
230D
102
}
330
230D
100
AcDbVisualStyle
  2
2dWireframe
 70
     4
 71
     0
 72
     2
 73
     0
 90
        0
 40
-0.6
 41
-30.0
 62
     5
 63
     7
 74
     1
 91
        4
 64
     7
 65
   257
 75
     1
175
     1
 42
1.0
 92
        0
 66
   257
 43
1.0
 76
     1
 77
     6
 78
     2
 67
     7
 79
     5
170
     0
171
     0
290
     0
174
     0
 93
        1
 44
0.0
173
     0
291
     0
 45
0.0
1001
ACAD
1000
AcDbSavedByObjectVersion
1070
     0
1000
AcDbSavedByObjectVersion
1070
     0
1000
AcDbSavedByObjectVersion
1070
     0
1000
AcDbSavedByObjectVersion
1070
     0
1000
AcDbSavedByObjectVersion
1070
     0
1000
AcDbSavedByObjectVersion
1070
     0
1000
AcDbSavedByObjectVersion
1070
     0
1000
AcDbSavedByObjectVersion
1070
     0
1000
AcDbSavedByObjectVersion
1070
     0
  0
VISUALSTYLE
  5
2315
102
{ACAD_REACTORS
330
230D
102
}
330
230D
100
AcDbVisualStyle
  2
3D Hidden
 70
     6
 71
     1
 72
     2
 73
     2
 90
        0
 40
-0.6
 41
-30.0
 62
     5
 63
     7
 74
     2
 91
        2
 64
     7
 65
   257
 75
     2
175
     1
 42
40.0
 92
        0
 66
   257
 43
1.0
 76
     1
 77
     6
 78
     2
 67
     7
 79
     3
170
     0
171
     0
290
     0
174
     0
 93
        1
 44
0.0
173
     0
291
     0
 45
0.0
1001
ACAD
1000
AcDbSavedByObjectVersion
1070
     0
1000
AcDbSavedByObjectVersion
1070
     0
1000
AcDbSavedByObjectVersion
1070
     0
1000
AcDbSavedByObjectVersion
1070
     0
1000
AcDbSavedByObjectVersion
1070
     0
1000
AcDbSavedByObjectVersion
1070
     0
1000
AcDbSavedByObjectVersion
1070
     0
1000
AcDbSavedByObjectVersion
1070
     0
1000
AcDbSavedByObjectVersion
1070
     0
  0
VISUALSTYLE
  5
2314
102
{ACAD_REACTORS
330
230D
102
}
330
230D
100
AcDbVisualStyle
  2
3dWireframe
 70
     5
 71
     0
 72
     2
 73
     0
 90
        0
 40
-0.6
 41
-30.0
 62
     5
 63
     7
 74
     1
 91
        4
 64
     7
 65
   257
 75
     1
175
     1
 42
1.0
 92
        0
 66
   257
 43
1.0
 76
     1
 77
     6
 78
     2
 67
     7
 79
     5
170
     0
171
     0
290
     0
174
     0
 93
        1
 44
0.0
173
     0
291
     0
 45
0.0
1001
ACAD
1000
AcDbSavedByObjectVersion
1070
     0
1000
AcDbSavedByObjectVersion
1070
     0
1000
AcDbSavedByObjectVersion
1070
     0
1000
AcDbSavedByObjectVersion
1070
     0
1000
AcDbSavedByObjectVersion
1070
     0
1000
AcDbSavedByObjectVersion
1070
     0
1000
AcDbSavedByObjectVersion
1070
     0
1000
AcDbSavedByObjectVersion
1070
     0
1000
AcDbSavedByObjectVersion
1070
     0
  0
VISUALSTYLE
  5
2312
102
{ACAD_REACTORS
330
230D
102
}
330
230D
100
AcDbVisualStyle
  2
Basic
 70
     7
 71
     1
 72
     0
 73
     1
 90
        0
 40
-0.6
 41
-30.0
 62
     5
 63
     7
 74
     0
 91
        4
 64
     7
 65
   257
 75
     1
175
     1
 42
1.0
 92
        8
 66
     7
 43
1.0
 76
     1
 77
     6
 78
     2
 67
     7
 79
     5
170
     0
171
     0
290
     0
174
     0
 93
        1
 44
0.0
173
     0
291
     1
 45
0.0
1001
ACAD
1000
AcDbSavedByObjectVersion
1070
     0
1000
AcDbSavedByObjectVersion
1070
     0
1000
AcDbSavedByObjectVersion
1070
     0
1000
AcDbSavedByObjectVersion
1070
     0
1000
AcDbSavedByObjectVersion
1070
     0
1000
AcDbSavedByObjectVersion
1070
     0
1000
AcDbSavedByObjectVersion
1070
     0
1000
AcDbSavedByObjectVersion
1070
     0
1000
AcDbSavedByObjectVersion
1070
     0
  0
VISUALSTYLE
  5
2319
102
{ACAD_REACTORS
330
230D
102
}
330
230D
100
AcDbVisualStyle
  2
Brighten
 70
    12
 71
     2
 72
     2
 73
     0
 90
        0
 40
-0.6
 41
-30.0
 62
     5
 63
     7
 74
     1
 91
        4
 64
     7
 65
   257
 75
     1
175
     1
 42
1.0
 92
        8
 66
     7
 43
1.0
 76
     1
 77
     6
 78
     2
 67
     7
 79
     5
170
     0
171
     0
290
     0
174
     0
 93
        1
 44
50.0
173
     0
291
     1
 45
0.0
1001
ACAD
1000
AcDbSavedByObjectVersion
1070
     0
1000
AcDbSavedByObjectVersion
1070
     0
1000
AcDbSavedByObjectVersion
1070
     0
1000
AcDbSavedByObjectVersion
1070
     0
1000
AcDbSavedByObjectVersion
1070
     0
1000
AcDbSavedByObjectVersion
1070
     0
1000
AcDbSavedByObjectVersion
1070
     0
1000
AcDbSavedByObjectVersion
1070
     0
1000
AcDbSavedByObjectVersion
1070
     0
  0
VISUALSTYLE
  5
231D
102
{ACAD_REACTORS
330
230D
102
}
330
230D
100
AcDbVisualStyle
  2
ColorChange
 70
    16
 71
     2
 72
     2
 73
     3
 90
        0
 40
-0.6
 41
-30.0
 62
     5
 63
     8
 74
     1
 91
        4
 64
     7
 65
   257
 75
     1
175
     1
 42
1.0
 92
        8
 66
     8
 43
1.0
 76
     1
 77
     6
 78
     2
 67
     7
 79
     5
170
     0
171
     0
290
     0
174
     0
 93
        1
 44
0.0
173
     0
291
     1
 45
0.0
1001
ACAD
1000
AcDbSavedByObjectVersion
1070
     0
1000
AcDbSavedByObjectVersion
1070
     0
1000
AcDbSavedByObjectVersion
1070
     0
1000
AcDbSavedByObjectVersion
1070
     0
1000
AcDbSavedByObjectVersion
1070
     0
1000
AcDbSavedByObjectVersion
1070
     0
1000
AcDbSavedByObjectVersion
1070
     0
1000
AcDbSavedByObjectVersion
1070
     0
1000
AcDbSavedByObjectVersion
1070
     0
  0
VISUALSTYLE
  5
2316
102
{ACAD_REACTORS
330
230D
102
}
330
230D
100
AcDbVisualStyle
  2
Conceptual
 70
     9
 71
     3
 72
     2
 73
     0
 90
        0
 40
-0.6
 41
-30.0
 62
     5
 63
     7
 74
     2
 91
        2
 64
     7
 65
   257
 75
     1
175
     1
 42
40.0
 92
        8
 66
     7
 43
1.0
 76
     1
 77
     6
 78
     2
 67
     7
 79
     3
170
     0
171
     0
290
     0
174
     0
 93
        1
 44
0.0
173
     0
291
     0
 45
0.0
1001
ACAD
1000
AcDbSavedByObjectVersion
1070
     0
1000
AcDbSavedByObjectVersion
1070
     0
1000
AcDbSavedByObjectVersion
1070
     0
1000
AcDbSavedByObjectVersion
1070
     0
1000
AcDbSavedByObjectVersion
1070
     0
1000
AcDbSavedByObjectVersion
1070
     0
1000
AcDbSavedByObjectVersion
1070
     0
1000
AcDbSavedByObjectVersion
1070
     0
1000
AcDbSavedByObjectVersion
1070
     0
  0
VISUALSTYLE
  5
2318
102
{ACAD_REACTORS
330
230D
102
}
330
230D
100
AcDbVisualStyle
  2
Dim
 70
    11
 71
     2
 72
     2
 73
     0
 90
        0
 40
-0.6
 41
-30.0
 62
     5
 63
     7
 74
     1
 91
        4
 64
     7
 65
   257
 75
     1
175
     1
 42
1.0
 92
        8
 66
     7
 43
1.0
 76
     1
 77
     6
 78
     2
 67
     7
 79
     5
170
     0
171
     0
290
     0
174
     0
 93
        1
 44
-50.0
173
     0
291
     1
 45
0.0
1001
ACAD
1000
AcDbSavedByObjectVersion
1070
     0
1000
AcDbSavedByObjectVersion
1070
     0
1000
AcDbSavedByObjectVersion
1070
     0
1000
AcDbSavedByObjectVersion
1070
     0
1000
AcDbSavedByObjectVersion
1070
     0
1000
AcDbSavedByObjectVersion
1070
     0
1000
AcDbSavedByObjectVersion
1070
     0
1000
AcDbSavedByObjectVersion
1070
     0
1000
AcDbSavedByObjectVersion
1070
     0
  0
VISUALSTYLE
  5
231C
102
{ACAD_REACTORS
330
230D
102
}
330
230D
100
AcDbVisualStyle
  2
Facepattern
 70
    15
 71
     2
 72
     2
 73
     0
 90
        0
 40
-0.6
 41
-30.0
 62
     5
 63
     7
 74
     1
 91
        4
 64
     7
 65
   257
 75
     1
175
     1
 42
1.0
 92
        8
 66
     7
 43
1.0
 76
     1
 77
     6
 78
     2
 67
     7
 79
     5
170
     0
171
     0
290
     0
174
     0
 93
        1
 44
0.0
173
     0
291
     1
 45
0.0
1001
ACAD
1000
AcDbSavedByObjectVersion
1070
     0
1000
AcDbSavedByObjectVersion
1070
     0
1000
AcDbSavedByObjectVersion
1070
     0
1000
AcDbSavedByObjectVersion
1070
     0
1000
AcDbSavedByObjectVersion
1070
     0
1000
AcDbSavedByObjectVersion
1070
     0
1000
AcDbSavedByObjectVersion
1070
     0
1000
AcDbSavedByObjectVersion
1070
     0
1000
AcDbSavedByObjectVersion
1070
     0
  0
VISUALSTYLE
  5
230E
102
{ACAD_REACTORS
330
230D
102
}
330
230D
100
AcDbVisualStyle
  2
Flat
 70
     0
 71
     2
 72
     1
 73
     1
 90
        2
 40
-0.6
 41
30.0
 62
     5
 63
     7
 74
     0
 91
        4
 64
     7
 65
   257
 75
     1
175
     1
 42
1.0
 92
        8
 66
     7
 43
1.0
 76
     1
 77
     6
 78
     2
 67
     7
 79
     5
170
     0
171
     0
290
     0
174
     0
 93
       13
 44
0.0
173
     0
291
     1
 45
0.0
1001
ACAD
1000
AcDbSavedByObjectVersion
1070
     0
1000
AcDbSavedByObjectVersion
1070
     0
1000
AcDbSavedByObjectVersion
1070
     0
1000
AcDbSavedByObjectVersion
1070
     0
1000
AcDbSavedByObjectVersion
1070
     0
1000
AcDbSavedByObjectVersion
1070
     0
1000
AcDbSavedByObjectVersion
1070
     0
1000
AcDbSavedByObjectVersion
1070
     0
1000
AcDbSavedByObjectVersion
1070
     0
  0
VISUALSTYLE
  5
230F
102
{ACAD_REACTORS
330
230D
102
}
330
230D
100
AcDbVisualStyle
  2
FlatWithEdges
 70
     1
 71
     2
 72
     1
 73
     1
 90
        2
 40
-0.6
 41
30.0
 62
     5
 63
     7
 74
     1
 91
        4
 64
     7
 65
   257
 75
     1
175
     1
 42
1.0
 92
        0
 66
   257
 43
1.0
 76
     1
 77
     6
 78
     2
 67
     7
 79
     5
170
     0
171
     0
290
     0
174
     0
 93
       13
 44
0.0
173
     0
291
     1
 45
0.0
1001
ACAD
1000
AcDbSavedByObjectVersion
1070
     0
1000
AcDbSavedByObjectVersion
1070
     0
1000
AcDbSavedByObjectVersion
1070
     0
1000
AcDbSavedByObjectVersion
1070
     0
1000
AcDbSavedByObjectVersion
1070
     0
1000
AcDbSavedByObjectVersion
1070
     0
1000
AcDbSavedByObjectVersion
1070
     0
1000
AcDbSavedByObjectVersion
1070
     0
1000
AcDbSavedByObjectVersion
1070
     0
  0
VISUALSTYLE
  5
2310
102
{ACAD_REACTORS
330
230D
102
}
330
230D
100
AcDbVisualStyle
  2
Gouraud
 70
     2
 71
     2
 72
     2
 73
     1
 90
        2
 40
-0.6
 41
30.0
 62
     5
 63
     7
 74
     0
 91
        4
 64
     7
 65
   257
 75
     1
175
     1
 42
1.0
 92
        0
 66
     7
 43
1.0
 76
     1
 77
     6
 78
     2
 67
     7
 79
     5
170
     0
171
     0
290
     0
174
     0
 93
       13
 44
0.0
173
     0
291
     1
 45
0.0
1001
ACAD
1000
AcDbSavedByObjectVersion
1070
     0
1000
AcDbSavedByObjectVersion
1070
     0
1000
AcDbSavedByObjectVersion
1070
     0
1000
AcDbSavedByObjectVersion
1070
     0
1000
AcDbSavedByObjectVersion
1070
     0
1000
AcDbSavedByObjectVersion
1070
     0
1000
AcDbSavedByObjectVersion
1070
     0
1000
AcDbSavedByObjectVersion
1070
     0
1000
AcDbSavedByObjectVersion
1070
     0
  0
VISUALSTYLE
  5
2311
102
{ACAD_REACTORS
330
230D
102
}
330
230D
100
AcDbVisualStyle
  2
GouraudWithEdges
 70
     3
 71
     2
 72
     2
 73
     1
 90
        2
 40
-0.6
 41
30.0
 62
     5
 63
     7
 74
     1
 91
        4
 64
     7
 65
   257
 75
     1
175
     1
 42
1.0
 92
        0
 66
   257
 43
1.0
 76
     1
 77
     6
 78
     2
 67
     7
 79
     5
170
     0
171
     0
290
     0
174
     0
 93
       13
 44
0.0
173
     0
291
     1
 45
0.0
1001
ACAD
1000
AcDbSavedByObjectVersion
1070
     0
1000
AcDbSavedByObjectVersion
1070
     0
1000
AcDbSavedByObjectVersion
1070
     0
1000
AcDbSavedByObjectVersion
1070
     0
1000
AcDbSavedByObjectVersion
1070
     0
1000
AcDbSavedByObjectVersion
1070
     0
1000
AcDbSavedByObjectVersion
1070
     0
1000
AcDbSavedByObjectVersion
1070
     0
1000
AcDbSavedByObjectVersion
1070
     0
  0
VISUALSTYLE
  5
231B
102
{ACAD_REACTORS
330
230D
102
}
330
230D
100
AcDbVisualStyle
  2
Linepattern
 70
    14
 71
     2
 72
     2
 73
     0
 90
        0
 40
-0.6
 41
-30.0
 62
     5
 63
     7
 74
     1
 91
        4
 64
     7
 65
   257
 75
     7
175
     7
 42
1.0
 92
        8
 66
     7
 43
1.0
 76
     1
 77
     6
 78
     2
 67
     7
 79
     5
170
     0
171
     0
290
     0
174
     0
 93
        1
 44
0.0
173
     0
291
     1
 45
0.0
1001
ACAD
1000
AcDbSavedByObjectVersion
1070
     0
1000
AcDbSavedByObjectVersion
1070
     0
1000
AcDbSavedByObjectVersion
1070
     0
1000
AcDbSavedByObjectVersion
1070
     0
1000
AcDbSavedByObjectVersion
1070
     0
1000
AcDbSavedByObjectVersion
1070
     0
1000
AcDbSavedByObjectVersion
1070
     0
1000
AcDbSavedByObjectVersion
1070
     0
1000
AcDbSavedByObjectVersion
1070
     0
  0
VISUALSTYLE
  5
2317
102
{ACAD_REACTORS
330
230D
102
}
330
230D
100
AcDbVisualStyle
  2
Realistic
 70
     8
 71
     2
 72
     2
 73
     0
 90
        0
 40
-0.6
 41
-30.0
 62
     5
 63
     7
 74
     1
 91
        0
 64
     7
 65
   257
 75
     1
175
     1
 42
1.0
 92
        8
 66
     8
 43
1.0
 76
     1
 77
     6
 78
     2
 67
     7
 79
     5
170
     0
171
     0
290
     0
174
     0
 93
       13
 44
0.0
173
     0
291
     0
 45
0.0
1001
ACAD
1000
AcDbSavedByObjectVersion
1070
     0
1000
AcDbSavedByObjectVersion
1070
     0
1000
AcDbSavedByObjectVersion
1070
     0
1000
AcDbSavedByObjectVersion
1070
     0
1000
AcDbSavedByObjectVersion
1070
     0
1000
AcDbSavedByObjectVersion
1070
     0
1000
AcDbSavedByObjectVersion
1070
     0
1000
AcDbSavedByObjectVersion
1070
     0
1000
AcDbSavedByObjectVersion
1070
     0
  0
VISUALSTYLE
  5
231A
102
{ACAD_REACTORS
330
230D
102
}
330
230D
100
AcDbVisualStyle
  2
Thicken
 70
    13
 71
     2
 72
     2
 73
     0
 90
        0
 40
-0.6
 41
-30.0
 62
     5
 63
     7
 74
     1
 91
        4
 64
     7
 65
   257
 75
     1
175
     1
 42
1.0
 92
       12
 66
     7
 43
1.0
 76
     1
 77
     6
 78
     2
 67
     7
 79
     5
170
     0
171
     0
290
     0
174
     0
 93
        1
 44
0.0
173
     0
291
     1
 45
0.0
1001
ACAD
1000
AcDbSavedByObjectVersion
1070
     0
1000
AcDbSavedByObjectVersion
1070
     0
1000
AcDbSavedByObjectVersion
1070
     0
1000
AcDbSavedByObjectVersion
1070
     0
1000
AcDbSavedByObjectVersion
1070
     0
1000
AcDbSavedByObjectVersion
1070
     0
1000
AcDbSavedByObjectVersion
1070
     0
1000
AcDbSavedByObjectVersion
1070
     0
1000
AcDbSavedByObjectVersion
1070
     0
  0
DICTIONARYVAR
  5
4450
102
{ACAD_REACTORS
330
444D
102
}
330
444D
100
DictionaryVariables
280
     0
  1
1:1
  0
DICTIONARYVAR
  5
444F
102
{ACAD_REACTORS
330
444D
102
}
330
444D
100
DictionaryVariables
280
     0
  1
STANDARD
  0
DICTIONARYVAR
  5
444E
102
{ACAD_REACTORS
330
444D
102
}
330
444D
100
DictionaryVariables
280
     0
  1
STANDARD
  0
DICTIONARYVAR
  5
445E
102
{ACAD_REACTORS
330
444D
102
}
330
444D
100
DictionaryVariables
280
     0
  1
1
  0
DICTIONARYVAR
  5
445D
102
{ACAD_REACTORS
330
444D
102
}
330
444D
100
DictionaryVariables
280
     0
  1
0
  0
DICTIONARYVAR
  5
445C
102
{ACAD_REACTORS
330
444D
102
}
330
444D
100
DictionaryVariables
280
     0
  1
127
  0
XRECORD
  5
234E
102
{ACAD_REACTORS
330
234C
102
}
330
234C
100
AcDbXrecord
280
     1
330
AF
330
B4
330
10A
330
10F
330
174
330
179
330
1CB
330
1D0
330
1D5
330
242
330
247
330
24C
330
2AB
330
2B0
330
2B5
330
2BA
330
2BF
330
325
330
3A1
330
3F5
330
457
330
4F3
330
549
330
5E3
330
634
330
67C
330
6F8
330
72E
330
7C4
330
819
330
8AE
330
8F9
330
952
330
985
330
A01
330
A0D
330
A86
330
AE5
330
B48
330
C01
330
CA3
330
D1F
330
DA1
330
E01
330
EB7
330
F41
330
F9A
330
FF6
330
1094
330
10F9
330
119B
330
11C5
330
1248
330
12A3
330
1302
330
13C4
330
1429
330
14D7
330
158E
330
15E6
330
1642
330
16F4
330
1769
330
1813
330
18AF
330
1905
330
1959
330
1A1D
330
1A9E
330
1B4F
330
1B54
330
1B82
330
1BED
330
1C31
330
1C72
330
1CFF
330
1D80
330
1E26
330
1E35
330
1E3B
330
1E41
330
1E47
330
1EAB
330
1EF5
330
1F3E
330
1F92
330
1FF6
330
2038
330
207B
330
20D3
330
213F
330
2184
330
21F7
330
2270
330
2280
330
2286
330
228C
330
2292
330
22A2
330
22A8
330
22AE
330
22B4
  0
DICTIONARY
  5
22FE
330
22FD
100
AcDbDictionary
280
     1
281
     1
  3
ACAD_XREC_ROUNDTRIP
360
4455
  3
BUMPTILE
360
2300
  3
DIFFUSETILE
360
22FF
  3
OPACITYTILE
360
2303
  3
REFLECTIONTILE
360
2302
  3
REFRACTIONTILE
360
2304
  3
SPECULARTILE
360
2301
  0
DICTIONARY
  5
22F6
330
22F5
100
AcDbDictionary
280
     1
281
     1
  3
ACAD_XREC_ROUNDTRIP
360
4454
  3
BUMPTILE
360
22F8
  3
DIFFUSETILE
360
22F7
  3
OPACITYTILE
360
22FB
  3
REFLECTIONTILE
360
22FA
  3
REFRACTIONTILE
360
22FC
  3
SPECULARTILE
360
22F9
  0
DICTIONARY
  5
2306
330
2305
100
AcDbDictionary
280
     1
281
     1
  3
ACAD_XREC_ROUNDTRIP
360
4456
  3
BUMPTILE
360
2308
  3
DIFFUSETILE
360
2307
  3
OPACITYTILE
360
230B
  3
REFLECTIONTILE
360
230A
  3
REFRACTIONTILE
360
230C
  3
SPECULARTILE
360
2309
  0
DICTIONARY
  5
4451
330
2320
100
AcDbDictionary
280
     1
281
     1
  3
ACAD_ROUNDTRIP_2008_TABLESTYLE_CELLSTYLEMAP
360
5AAE
  3
ACAD_XREC_ROUNDTRIP
360
5AAF
  0
XRECORD
  5
4455
102
{ACAD_REACTORS
330
22FE
102
}
330
22FE
100
AcDbXrecord
280
     1
102
MATERIAL
148
0.0
149
0.0
149
0.0
 93
        0
 94
      127
282
     0
 72
     0
 77
     0
171
     0
175
     0
179
     0
273
     0
  0
XRECORD
  5
2300
102
{ACAD_REACTORS
330
22FE
102
}
330
22FE
100
AcDbXrecord
280
     1
270
     1
271
     1
  0
XRECORD
  5
22FF
102
{ACAD_REACTORS
330
22FE
102
}
330
22FE
100
AcDbXrecord
280
     1
270
     1
271
     1
  0
XRECORD
  5
2303
102
{ACAD_REACTORS
330
22FE
102
}
330
22FE
100
AcDbXrecord
280
     1
270
     1
271
     1
  0
XRECORD
  5
2302
102
{ACAD_REACTORS
330
22FE
102
}
330
22FE
100
AcDbXrecord
280
     1
270
     1
271
     1
  0
XRECORD
  5
2304
102
{ACAD_REACTORS
330
22FE
102
}
330
22FE
100
AcDbXrecord
280
     1
270
     1
271
     1
  0
XRECORD
  5
2301
102
{ACAD_REACTORS
330
22FE
102
}
330
22FE
100
AcDbXrecord
280
     1
270
     1
271
     1
  0
XRECORD
  5
4454
102
{ACAD_REACTORS
330
22F6
102
}
330
22F6
100
AcDbXrecord
280
     1
102
MATERIAL
148
0.0
149
0.0
149
0.0
 93
        0
 94
      127
282
     0
 72
     0
 77
     0
171
     0
175
     0
179
     0
273
     0
  0
XRECORD
  5
22F8
102
{ACAD_REACTORS
330
22F6
102
}
330
22F6
100
AcDbXrecord
280
     1
270
     1
271
     1
  0
XRECORD
  5
22F7
102
{ACAD_REACTORS
330
22F6
102
}
330
22F6
100
AcDbXrecord
280
     1
270
     1
271
     1
  0
XRECORD
  5
22FB
102
{ACAD_REACTORS
330
22F6
102
}
330
22F6
100
AcDbXrecord
280
     1
270
     1
271
     1
  0
XRECORD
  5
22FA
102
{ACAD_REACTORS
330
22F6
102
}
330
22F6
100
AcDbXrecord
280
     1
270
     1
271
     1
  0
XRECORD
  5
22FC
102
{ACAD_REACTORS
330
22F6
102
}
330
22F6
100
AcDbXrecord
280
     1
270
     1
271
     1
  0
XRECORD
  5
22F9
102
{ACAD_REACTORS
330
22F6
102
}
330
22F6
100
AcDbXrecord
280
     1
270
     1
271
     1
  0
XRECORD
  5
4456
102
{ACAD_REACTORS
330
2306
102
}
330
2306
100
AcDbXrecord
280
     1
102
MATERIAL
148
0.0
149
0.0
149
0.0
 93
        0
 94
      127
282
     0
 72
     0
 77
     0
171
     0
175
     0
179
     0
273
     0
  0
XRECORD
  5
2308
102
{ACAD_REACTORS
330
2306
102
}
330
2306
100
AcDbXrecord
280
     1
270
     1
271
     1
  0
XRECORD
  5
2307
102
{ACAD_REACTORS
330
2306
102
}
330
2306
100
AcDbXrecord
280
     1
270
     1
271
     1
  0
XRECORD
  5
230B
102
{ACAD_REACTORS
330
2306
102
}
330
2306
100
AcDbXrecord
280
     1
270
     1
271
     1
  0
XRECORD
  5
230A
102
{ACAD_REACTORS
330
2306
102
}
330
2306
100
AcDbXrecord
280
     1
270
     1
271
     1
  0
XRECORD
  5
230C
102
{ACAD_REACTORS
330
2306
102
}
330
2306
100
AcDbXrecord
280
     1
270
     1
271
     1
  0
XRECORD
  5
2309
102
{ACAD_REACTORS
330
2306
102
}
330
2306
100
AcDbXrecord
280
     1
270
     1
271
     1
  0
CELLSTYLEMAP
  5
5AAE
102
{ACAD_REACTORS
330
4451
102
}
330
4451
100
AcDbCellStyleMap
 90
        3
300
CELLSTYLE
  1
TABLEFORMAT_BEGIN
 90
        5
170
     1
 91
        0
 92
    32768
 62
   257
 93
        1
300
CONTENTFORMAT
  1
CONTENTFORMAT_BEGIN
 90
        0
 91
        0
 92
      512
 93
        0
300

 40
0.0
140
1.0
 94
        5
 62
     0
340
17
144
6.0
309
CONTENTFORMAT_END
171
     1
301
MARGIN
  1
CELLMARGIN_BEGIN
 40
1.5
 40
1.5
 40
1.5
 40
1.5
 40
0.18
 40
0.18
309
CELLMARGIN_END
 94
        6
 95
        1
302
GRIDFORMAT
  1
GRIDFORMAT_BEGIN
 90
        0
 91
        1
 62
     0
 92
       -2
340
0
 93
        0
 40
1.125
309
GRIDFORMAT_END
 95
        2
302
GRIDFORMAT
  1
GRIDFORMAT_BEGIN
 90
        0
 91
        1
 62
     0
 92
       -2
340
0
 93
        0
 40
1.125
309
GRIDFORMAT_END
 95
        4
302
GRIDFORMAT
  1
GRIDFORMAT_BEGIN
 90
        0
 91
        1
 62
     0
 92
       -2
340
0
 93
        0
 40
1.125
309
GRIDFORMAT_END
 95
        8
302
GRIDFORMAT
  1
GRIDFORMAT_BEGIN
 90
        0
 91
        1
 62
     0
 92
       -2
340
0
 93
        0
 40
1.125
309
GRIDFORMAT_END
 95
       16
302
GRIDFORMAT
  1
GRIDFORMAT_BEGIN
 90
        0
 91
        1
 62
     0
 92
       -2
340
0
 93
        0
 40
1.125
309
GRIDFORMAT_END
 95
       32
302
GRIDFORMAT
  1
GRIDFORMAT_BEGIN
 90
        0
 91
        1
 62
     0
 92
       -2
340
0
 93
        0
 40
1.125
309
GRIDFORMAT_END
309
TABLEFORMAT_END
  1
CELLSTYLE_BEGIN
 90
        1
 91
        1
300
_TITLE
309
CELLSTYLE_END
300
CELLSTYLE
  1
TABLEFORMAT_BEGIN
 90
        5
170
     1
 91
        0
 92
        0
 62
   257
 93
        1
300
CONTENTFORMAT
  1
CONTENTFORMAT_BEGIN
 90
        0
 91
        0
 92
      512
 93
        0
300

 40
0.0
140
1.0
 94
        5
 62
     0
340
17
144
4.5
309
CONTENTFORMAT_END
171
     1
301
MARGIN
  1
CELLMARGIN_BEGIN
 40
1.5
 40
1.5
 40
1.5
 40
1.5
 40
0.18
 40
0.18
309
CELLMARGIN_END
 94
        6
 95
        1
302
GRIDFORMAT
  1
GRIDFORMAT_BEGIN
 90
        0
 91
        1
 62
     0
 92
       -2
340
0
 93
        0
 40
1.125
309
GRIDFORMAT_END
 95
        2
302
GRIDFORMAT
  1
GRIDFORMAT_BEGIN
 90
        0
 91
        1
 62
     0
 92
       -2
340
0
 93
        0
 40
1.125
309
GRIDFORMAT_END
 95
        4
302
GRIDFORMAT
  1
GRIDFORMAT_BEGIN
 90
        0
 91
        1
 62
     0
 92
       -2
340
0
 93
        0
 40
1.125
309
GRIDFORMAT_END
 95
        8
302
GRIDFORMAT
  1
GRIDFORMAT_BEGIN
 90
        0
 91
        1
 62
     0
 92
       -2
340
0
 93
        0
 40
1.125
309
GRIDFORMAT_END
 95
       16
302
GRIDFORMAT
  1
GRIDFORMAT_BEGIN
 90
        0
 91
        1
 62
     0
 92
       -2
340
0
 93
        0
 40
1.125
309
GRIDFORMAT_END
 95
       32
302
GRIDFORMAT
  1
GRIDFORMAT_BEGIN
 90
        0
 91
        1
 62
     0
 92
       -2
340
0
 93
        0
 40
1.125
309
GRIDFORMAT_END
309
TABLEFORMAT_END
  1
CELLSTYLE_BEGIN
 90
        2
 91
        1
300
_HEADER
309
CELLSTYLE_END
300
CELLSTYLE
  1
TABLEFORMAT_BEGIN
 90
        5
170
     1
 91
        0
 92
        0
 62
   257
 93
        1
300
CONTENTFORMAT
  1
CONTENTFORMAT_BEGIN
 90
        0
 91
        0
 92
      512
 93
        0
300

 40
0.0
140
1.0
 94
        2
 62
     0
340
17
144
4.5
309
CONTENTFORMAT_END
171
     1
301
MARGIN
  1
CELLMARGIN_BEGIN
 40
1.5
 40
1.5
 40
1.5
 40
1.5
 40
0.18
 40
0.18
309
CELLMARGIN_END
 94
        6
 95
        1
302
GRIDFORMAT
  1
GRIDFORMAT_BEGIN
 90
        0
 91
        1
 62
     0
 92
       -2
340
0
 93
        0
 40
1.125
309
GRIDFORMAT_END
 95
        2
302
GRIDFORMAT
  1
GRIDFORMAT_BEGIN
 90
        0
 91
        1
 62
     0
 92
       -2
340
0
 93
        0
 40
1.125
309
GRIDFORMAT_END
 95
        4
302
GRIDFORMAT
  1
GRIDFORMAT_BEGIN
 90
        0
 91
        1
 62
     0
 92
       -2
340
0
 93
        0
 40
1.125
309
GRIDFORMAT_END
 95
        8
302
GRIDFORMAT
  1
GRIDFORMAT_BEGIN
 90
        0
 91
        1
 62
     0
 92
       -2
340
0
 93
        0
 40
1.125
309
GRIDFORMAT_END
 95
       16
302
GRIDFORMAT
  1
GRIDFORMAT_BEGIN
 90
        0
 91
        1
 62
     0
 92
       -2
340
0
 93
        0
 40
1.125
309
GRIDFORMAT_END
 95
       32
302
GRIDFORMAT
  1
GRIDFORMAT_BEGIN
 90
        0
 91
        1
 62
     0
 92
       -2
340
0
 93
        0
 40
1.125
309
GRIDFORMAT_END
309
TABLEFORMAT_END
  1
CELLSTYLE_BEGIN
 90
        3
 91
        2
300
_DATA
309
CELLSTYLE_END
  0
XRECORD
  5
5AAF
102
{ACAD_REACTORS
330
4451
102
}
330
4451
100
AcDbXrecord
280
     1
102
ACAD_ROUNDTRIP_PRE2007_TABLESTYLE
 90
      512
 91
        0
  1

 92
      512
 93
        0
  2

 94
      512
 95
        0
  3

  0
ENDSEC
  0
EOF
