  0
SECTION
  2
HEADER
  9
$ACADVER
  1
AC1015
  9
$ACADMAINTVER
 70
    20
  9
$DWGCODEPAGE
  3
ANSI_1252
  9
$INSBASE
 10
0.0
 20
0.0
 30
0.0
  9
$EXTMIN
 10
-108.3957236485462
 20
-161.6489226082326
 30
-0.0000000000000115
  9
$EXTMAX
 10
173.211283461284
 20
96.69771025824321
 30
0.0000000000000191
  9
$LIMMIN
 10
-20.0
 20
-575.8499999999997
  9
$LIMMAX
 10
1785.35
 20
579.8499999999997
  9
$ORTHOMODE
 70
     1
  9
$REGENMODE
 70
     1
  9
$FILLMODE
 70
     1
  9
$QTEXTMODE
 70
     0
  9
$MIRRTEXT
 70
     1
  9
$LTSCALE
 40
10.0
  9
$ATTMODE
 70
     1
  9
$TEXTSIZE
 40
0.0
  9
$TRACEWID
 40
0.05
  9
$TEXTSTYLE
  7
Standard
  9
$CLAYER
  8
0
  9
$CELTYPE
  6
Continuous
  9
$CECOLOR
 62
   256
  9
$CELTSCALE
 40
1.0
  9
$DISPSILH
 70
     0
  9
$DIMSCALE
 40
1.0
  9
$DIMASZ
 40
1.25
  9
$DIMEXO
 40
0.0
  9
$DIMDLI
 40
0.38
  9
$DIMRND
 40
0.0
  9
$DIMDLE
 40
0.0
  9
$DIMEXE
 40
0.75
  9
$DIMTP
 40
0.0
  9
$DIMTM
 40
0.0
  9
$DIMTXT
 40
2.5
  9
$DIMCEN
 40
0.09
  9
$DIMTSZ
 40
0.0
  9
$DIMTOL
 70
     0
  9
$DIMLIM
 70
     0
  9
$DIMTIH
 70
     0
  9
$DIMTOH
 70
     0
  9
$DIMSE1
 70
     0
  9
$DIMSE2
 70
     0
  9
$DIMTAD
 70
     1
  9
$DIMZIN
 70
     0
  9
$DIMBLK
  1

  9
$DIMASO
 70
     1
  9
$DIMSHO
 70
     1
  9
$DIMPOST
  1

  9
$DIMAPOST
  1

  9
$DIMALT
 70
     0
  9
$DIMALTD
 70
     2
  9
$DIMALTF
 40
25.4
  9
$DIMLFAC
 40
1.0
  9
$DIMTOFL
 70
     0
  9
$DIMTVP
 40
0.0
  9
$DIMTIX
 70
     0
  9
$DIMSOXD
 70
     0
  9
$DIMSAH
 70
     0
  9
$DIMBLK1
  1

  9
$DIMBLK2
  1

  9
$DIMSTYLE
  2
Standard
  9
$DIMCLRD
 70
     7
  9
$DIMCLRE
 70
     7
  9
$DIMCLRT
 70
     7
  9
$DIMTFAC
 40
0.8
  9
$DIMGAP
 40
1.25
  9
$DIMJUST
 70
     0
  9
$DIMSD1
 70
     0
  9
$DIMSD2
 70
     0
  9
$DIMTOLJ
 70
     1
  9
$DIMTZIN
 70
     0
  9
$DIMALTZ
 70
     0
  9
$DIMALTTZ
 70
     0
  9
$DIMUPT
 70
     0
  9
$DIMDEC
 70
     2
  9
$DIMTDEC
 70
     4
  9
$DIMALTU
 70
     2
  9
$DIMALTTD
 70
     2
  9
$DIMTXSTY
  7
Standard
  9
$DIMAUNIT
 70
     0
  9
$DIMADEC
 70
     0
  9
$DIMALTRND
 40
0.0
  9
$DIMAZIN
 70
     0
  9
$DIMDSEP
 70
     0
  9
$DIMATFIT
 70
     3
  9
$DIMFRAC
 70
     0
  9
$DIMLDRBLK
  1

  9
$DIMLUNIT
 70
     2
  9
$DIMLWD
 70
     0
  9
$DIMLWE
 70
     0
  9
$DIMTMOVE
 70
     0
  9
$LUNITS
 70
     2
  9
$LUPREC
 70
     4
  9
$SKETCHINC
 40
0.1
  9
$FILLETRAD
 40
0.0
  9
$AUNITS
 70
     0
  9
$AUPREC
 70
     0
  9
$MENU
  1
acad
  9
$ELEVATION
 40
0.0
  9
$PELEVATION
 40
0.0
  9
$THICKNESS
 40
0.0
  9
$LIMCHECK
 70
     0
  9
$CHAMFERA
 40
0.0
  9
$CHAMFERB
 40
0.0
  9
$CHAMFERC
 40
0.0
  9
$CHAMFERD
 40
0.0
  9
$SKPOLY
 70
     0
  9
$TDCREATE
 40
2455301.802361111
  9
$TDUCREATE
 40
2455301.719027778
  9
$TDUPDATE
 40
2455306.401408785
  9
$TDUUPDATE
 40
2455306.318075452
  9
$TDINDWG
 40
0.1706340278
  9
$TDUSRTIMER
 40
0.1706336690
  9
$USRTIMER
 70
     1
  9
$ANGBASE
 50
0.0
  9
$ANGDIR
 70
     0
  9
$PDMODE
 70
     0
  9
$PDSIZE
 40
0.0
  9
$PLINEWID
 40
0.0
  9
$SPLFRAME
 70
     0
  9
$SPLINETYPE
 70
     6
  9
$SPLINESEGS
 70
     8
  9
$HANDSEED
  5
BB57
  9
$SURFTAB1
 70
     6
  9
$SURFTAB2
 70
     6
  9
$SURFTYPE
 70
     6
  9
$SURFU
 70
     6
  9
$SURFV
 70
     6
  9
$UCSBASE
  2

  9
$UCSNAME
  2

  9
$UCSORG
 10
0.0
 20
0.0
 30
0.0
  9
$UCSXDIR
 10
1.0
 20
0.0
 30
0.0
  9
$UCSYDIR
 10
0.0
 20
1.0
 30
0.0
  9
$UCSORTHOREF
  2

  9
$UCSORTHOVIEW
 70
     0
  9
$UCSORGTOP
 10
0.0
 20
0.0
 30
0.0
  9
$UCSORGBOTTOM
 10
0.0
 20
0.0
 30
0.0
  9
$UCSORGLEFT
 10
0.0
 20
0.0
 30
0.0
  9
$UCSORGRIGHT
 10
0.0
 20
0.0
 30
0.0
  9
$UCSORGFRONT
 10
0.0
 20
0.0
 30
0.0
  9
$UCSORGBACK
 10
0.0
 20
0.0
 30
0.0
  9
$PUCSBASE
  2

  9
$PUCSNAME
  2

  9
$PUCSORG
 10
0.0
 20
0.0
 30
0.0
  9
$PUCSXDIR
 10
1.0
 20
0.0
 30
0.0
  9
$PUCSYDIR
 10
0.0
 20
1.0
 30
0.0
  9
$PUCSORTHOREF
  2

  9
$PUCSORTHOVIEW
 70
     0
  9
$PUCSORGTOP
 10
0.0
 20
0.0
 30
0.0
  9
$PUCSORGBOTTOM
 10
0.0
 20
0.0
 30
0.0
  9
$PUCSORGLEFT
 10
0.0
 20
0.0
 30
0.0
  9
$PUCSORGRIGHT
 10
0.0
 20
0.0
 30
0.0
  9
$PUCSORGFRONT
 10
0.0
 20
0.0
 30
0.0
  9
$PUCSORGBACK
 10
0.0
 20
0.0
 30
0.0
  9
$USERI1
 70
     0
  9
$USERI2
 70
     0
  9
$USERI3
 70
     0
  9
$USERI4
 70
     0
  9
$USERI5
 70
     0
  9
$USERR1
 40
0.0
  9
$USERR2
 40
0.0
  9
$USERR3
 40
0.0
  9
$USERR4
 40
0.0
  9
$USERR5
 40
0.0
  9
$WORLDVIEW
 70
     1
  9
$SHADEDGE
 70
     3
  9
$SHADEDIF
 70
    70
  9
$TILEMODE
 70
     1
  9
$MAXACTVP
 70
    16
  9
$PINSBASE
 10
0.0
 20
0.0
 30
0.0
  9
$PLIMCHECK
 70
     0
  9
$PEXTMIN
 10
1.000000000000000E+20
 20
1.000000000000000E+20
 30
1.000000000000000E+20
  9
$PEXTMAX
 10
-1.000000000000000E+20
 20
-1.000000000000000E+20
 30
-1.000000000000000E+20
  9
$PLIMMIN
 10
0.0
 20
0.0
  9
$PLIMMAX
 10
12.0
 20
9.0
  9
$UNITMODE
 70
     0
  9
$VISRETAIN
 70
     0
  9
$PLINEGEN
 70
     1
  9
$PSLTSCALE
 70
     0
  9
$TREEDEPTH
 70
  3020
  9
$CMLSTYLE
  2
Standard
  9
$CMLJUST
 70
     0
  9
$CMLSCALE
 40
1.0
  9
$PROXYGRAPHICS
 70
     0
  9
$MEASUREMENT
 70
     1
  9
$CELWEIGHT
370
     0
  9
$ENDCAPS
280
     0
  9
$JOINSTYLE
280
     0
  9
$LWDISPLAY
290
     0
  9
$INSUNITS
 70
     0
  9
$HYPERLINKBASE
  1

  9
$STYLESHEET
  1

  9
$XEDIT
290
     1
  9
$CEPSNTYPE
380
     0
  9
$PSTYLEMODE
290
     1
  9
$FINGERPRINTGUID
  2

  9
$VERSIONGUID
  2
{036549B7-B9EC-4529-B499-0881D014DD1E}
  9
$EXTNAMES
290
     1
  9
$PSVPSCALE
 40
0.0
  9
$OLESTARTUP
290
     0
  0
ENDSEC
  0
SECTION
  2
CLASSES
  0
CLASS
  1
IMAGE
  2
AcDbRasterImage
  3
ISM
 90
    34943
280
     0
281
     1
  0
CLASS
  1
DICTIONARYVAR
  2
AcDbDictionaryVar
  3
ObjectDBX Classes
 90
        0
280
     0
281
     0
  0
CLASS
  1
RASTERVARIABLES
  2
AcDbRasterVariables
  3
ISM
 90
    32768
280
     0
281
     0
  0
CLASS
  1
IMAGEDEF
  2
AcDbRasterImageDef
  3
ISM
 90
    32768
280
     0
281
     0
  0
CLASS
  1
IMAGEDEF_REACTOR
  2
AcDbRasterImageDefReactor
  3
ISM
 90
    32769
280
     0
281
     0
  0
CLASS
  1
IDBUFFER
  2
AcDbIdBuffer
  3
ObjectDBX Classes
 90
    32768
280
     0
281
     0
  0
CLASS
  1
SPATIAL_FILTER
  2
AcDbSpatialFilter
  3
ObjectDBX Classes
 90
    32768
280
     0
281
     0
  0
CLASS
  1
SORTENTSTABLE
  2
AcDbSortentsTable
  3
ObjectDBX Classes
 90
        0
280
     0
281
     0
  0
CLASS
  1
LAYER_INDEX
  2
AcDbLayerIndex
  3
ObjectDBX Classes
 90
    32768
280
     0
281
     0
  0
CLASS
  1
SPATIAL_INDEX
  2
AcDbSpatialIndex
  3
ObjectDBX Classes
 90
    32768
280
     0
281
     0
  0
CLASS
  1
OBJECT_PTR
  2
CAseDLPNTableRecord
  3
ASE-LPNTableRecord
 90
    32769
280
     0
281
     0
  0
CLASS
  1
LAYOUT
  2
AcDbLayout
  3
ObjectDBX Classes
 90
        0
280
     0
281
     0
  0
CLASS
  1
PLOTSETTINGS
  2
AcDbPlotSettings
  3
ObjectDBX Classes
 90
    32768
280
     0
281
     0
  0
CLASS
  1
ACDBDICTIONARYWDFLT
  2
AcDbDictionaryWithDefault
  3
ObjectDBX Classes
 90
        0
280
     0
281
     0
  0
CLASS
  1
ACDBPLACEHOLDER
  2
AcDbPlaceHolder
  3
ObjectDBX Classes
 90
        0
280
     0
281
     0
  0
CLASS
  1
VBA_PROJECT
  2
AcDbVbaProject
  3
acad
 90
    32768
280
     0
281
     0
  0
CLASS
  1
WIPEOUT
  2
AcDbWipeout
  3
"WipeOut|Product Desc: Object Enabler for WipeOut entity                        |Company: Autodesk, Inc.                        |WEB Address: www.autodesk.com"
 90
    34943
280
     0
281
     1
  0
CLASS
  1
WIPEOUTVARIABLES
  2
AcDbWipeoutVariables
  3
"WipeOut|Product Desc:     WipeOut Dbx Application|Company:          Autodesk, Inc.|WEB Address:      www.autodesk.com"
 90
        0
280
     0
281
     0
  0
CLASS
  1
RTEXT
  2
RText
  3
RText|AutoCAD Express Tool|expresstools@autodesk.com
 90
    35839
280
     0
281
     1
  0
CLASS
  1
ARCALIGNEDTEXT
  2
AcDbArcAlignedText
  3
ATEXT|AutoCAD Express Tool|expresstools@autodesk.com
 90
    32768
280
     0
281
     1
  0
CLASS
  1
MATERIAL
  2
AcDbMaterial
  3
ObjectDBX Classes
 90
     1153
280
     0
281
     0
  0
CLASS
  1
VISUALSTYLE
  2
AcDbVisualStyle
  3
ObjectDBX Classes
 90
     4095
280
     0
281
     0
  0
CLASS
  1
TABLESTYLE
  2
AcDbTableStyle
  3
ObjectDBX Classes
 90
     4095
280
     0
281
     0
  0
CLASS
  1
SCALE
  2
AcDbScale
  3
ObjectDBX Classes
 90
     1153
280
     0
281
     0
  0
CLASS
  1
MLEADERSTYLE
  2
AcDbMLeaderStyle
  3
ACDB_MLEADERSTYLE_CLASS
 90
     4095
280
     0
281
     0
  0
CLASS
  1
CELLSTYLEMAP
  2
AcDbCellStyleMap
  3
ObjectDBX Classes
 90
     1152
280
     0
281
     0
  0
ENDSEC
  0
SECTION
  2
TABLES
  0
TABLE
  2
VPORT
  5
7
330
0
100
AcDbSymbolTable
 70
     1
  0
VPORT
  5
15
330
7
100
AcDbSymbolTableRecord
100
AcDbViewportTableRecord
  2
*ACTIVE
 70
     0
 10
0.0
 20
0.0
 11
1.0
 21
1.0
 12
32.40777990636889
 22
-32.47560617499471
 13
0.0
 23
0.0
 14
1.0
 24
1.0
 15
0.0
 25
0.0
 16
0.0
 26
0.0
 36
1.0
 17
0.0
 27
0.0
 37
0.0
 40
260.3862115470006
 41
1.611330698287219
 42
50.0
 43
0.0
 44
0.0
 50
0.0
 51
0.0
 71
     0
 72
   100
 73
     1
 74
     1
 75
     0
 76
     0
 77
     0
 78
     0
281
     0
 65
     0
110
0.0
120
0.0
130
0.0
111
1.0
121
0.0
131
0.0
112
0.0
122
1.0
132
0.0
 79
     0
146
0.0
  0
ENDTAB
  0
TABLE
  2
LTYPE
  5
4
330
0
100
AcDbSymbolTable
 70
     3
  0
LTYPE
  5
11
330
4
100
AcDbSymbolTableRecord
100
AcDbLinetypeTableRecord
  2
ByBlock
 70
     0
  3

 72
    65
 73
     0
 40
0.0
  0
LTYPE
  5
12
330
4
100
AcDbSymbolTableRecord
100
AcDbLinetypeTableRecord
  2
ByLayer
 70
     0
  3

 72
    65
 73
     0
 40
0.0
  0
LTYPE
  5
13
330
4
100
AcDbSymbolTableRecord
100
AcDbLinetypeTableRecord
  2
Continuous
 70
     0
  3
Solid line
 72
    65
 73
     0
 40
0.0
  0
LTYPE
  5
108
330
4
100
AcDbSymbolTableRecord
100
AcDbLinetypeTableRecord
  2
CENTER
 70
     0
  3
____ _ ____ _ ____ _ ____ _ ____ _ ____ _ ____
 72
    65
 73
     4
 40
2.0
 49
1.25
 74
     0
 49
-0.25
 74
     0
 49
0.25
 74
     0
 49
-0.25
 74
     0
  0
ENDTAB
  0
TABLE
  2
LAYER
  5
2
330
0
100
AcDbSymbolTable
 70
     1
  0
LAYER
  5
14
102
{ACAD_XDICTIONARY
360
5858
102
}
330
2
100
AcDbSymbolTableRecord
100
AcDbLayerTableRecord
  2
0
 70
     0
 62
     7
  6
Continuous
370
    -3
390
1D
  0
ENDTAB
  0
TABLE
  2
STYLE
  5
3
330
0
100
AcDbSymbolTable
 70
     1
  0
STYLE
  5
17
330
3
100
AcDbSymbolTableRecord
100
AcDbTextStyleTableRecord
  2
Standard
 70
     0
 40
0.0
 41
1.0
 50
0.0
 71
     0
 42
0.0
  3
I011000D.TTF
  4

1001
ACAD
1000
IsonormD
1071
        0
  0
ENDTAB
  0
TABLE
  2
VIEW
  5
5
330
0
100
AcDbSymbolTable
 70
     0
  0
ENDTAB
  0
TABLE
  2
UCS
  5
6
330
0
100
AcDbSymbolTable
 70
     0
  0
ENDTAB
  0
TABLE
  2
APPID
  5
8
330
0
100
AcDbSymbolTable
 70
     5
  0
APPID
  5
16
330
8
100
AcDbSymbolTableRecord
100
AcDbRegAppTableRecord
  2
ACAD
 70
     0
  0
APPID
  5
26
330
8
100
AcDbSymbolTableRecord
100
AcDbRegAppTableRecord
  2
TopSolid'Draft
 70
     0
  0
APPID
  5
5850
330
8
100
AcDbSymbolTableRecord
100
AcDbRegAppTableRecord
  2
ACAD_MLEADERVER
 70
     0
  0
APPID
  5
5856
330
8
100
AcDbSymbolTableRecord
100
AcDbRegAppTableRecord
  2
DCO15
 70
     0
  0
APPID
  5
BA8C
330
8
100
AcDbSymbolTableRecord
100
AcDbRegAppTableRecord
  2
ACAD_EXEMPT_FROM_CAD_STANDARDS
 70
     0
  0
ENDTAB
  0
TABLE
  2
DIMSTYLE
  5
9
330
0
100
AcDbSymbolTable
 70
     2
100
AcDbDimStyleTable
 71
     1
340
18
  0
DIMSTYLE
105
18
330
9
100
AcDbSymbolTableRecord
100
AcDbDimStyleTableRecord
  2
Standard
 70
     0
 41
1.25
 42
0.0
 44
0.75
 73
     0
 74
     0
 77
     1
140
2.5
146
0.8
147
1.25
176
     7
177
     7
178
     7
271
     2
340
17
  0
ENDTAB
  0
TABLE
  2
BLOCK_RECORD
  5
1
330
0
100
AcDbSymbolTable
 70
     1
  0
BLOCK_RECORD
  5
A
102
{ACAD_XDICTIONARY
360
5864
102
}
330
1
100
AcDbSymbolTableRecord
100
AcDbBlockTableRecord
  2
*MODEL_SPACE
340
20
  0
BLOCK_RECORD
  5
B
330
1
100
AcDbSymbolTableRecord
100
AcDbBlockTableRecord
  2
*PAPER_SPACE
340
21
  0
ENDTAB
  0
ENDSEC
  0
SECTION
  2
BLOCKS
  0
BLOCK
  5
D
330
A
100
AcDbEntity
  8
0
100
AcDbBlockBegin
  2
*MODEL_SPACE
 70
     0
 10
0.0
 20
0.0
 30
0.0
  3
*MODEL_SPACE
  1

  0
ENDBLK
  5
E
330
A
100
AcDbEntity
  8
0
100
AcDbBlockEnd
  0
BLOCK
  5
F
330
B
100
AcDbEntity
 67
     1
  8
0
100
AcDbBlockBegin
  2
*PAPER_SPACE
 70
     0
 10
0.0
 20
0.0
 30
0.0
  3
*PAPER_SPACE
  1

  0
ENDBLK
  5
10
330
B
100
AcDbEntity
 67
     1
  8
0
100
AcDbBlockEnd
  0
ENDSEC
  0
SECTION
  2
ENTITIES
  0
LINE
  5
57C9
330
A
100
AcDbEntity
  8
0
  6
CENTER
 62
     1
100
AcDbLine
 10
55.76769595143389
 20
57.87540183414853
 30
0.0
 11
48.0884820844326
 21
50.7144190534924
 31
0.0
  0
LINE
  5
57CA
330
A
100
AcDbEntity
  8
0
  6
CENTER
 62
     1
100
AcDbLine
 10
-0.1004528171191055
 20
68.82484342144232
 30
0.0
 11
-0.1004528171226298
 21
83.0248434214423
 31
0.0
  0
LINE
  5
57CB
330
A
100
AcDbEntity
  8
0
  6
CENTER
 62
     1
100
AcDbLine
 10
46.04069171989754
 20
48.80482364531633
 30
0.0
 11
56.42591428289001
 21
58.48920035820373
 31
0.0
  0
LINE
  5
57CC
330
A
100
AcDbEntity
  8
0
  6
CENTER
 62
     1
100
AcDbLine
 10
-0.012459485419754
 20
68.82484342144232
 30
0.0
 11
-0.0124594854235625
 21
83.0248434214423
 31
0.0
  0
LINE
  5
57CD
330
A
100
AcDbEntity
  8
0
  6
CENTER
 62
     1
100
AcDbLine
 10
36.0245159103564
 20
75.0151025860752
 30
0.0
 11
39.22418835494023
 21
77.99884541134867
 31
0.0
  0
LINE
  5
57CE
330
A
100
AcDbEntity
  8
0
  6
CENTER
 62
     1
100
AcDbLine
 10
44.79739042714492
 20
47.64542643321004
 30
0.0
 11
41.65256951018244
 21
44.71283348494131
 31
0.0
  0
LINE
  5
57CF
330
A
100
AcDbEntity
  8
0
  6
CENTER
 62
     1
100
AcDbLine
 10
40.59210664283489
 20
43.72393586285062
 30
0.0
 11
44.57798431665935
 21
47.44082692519117
 31
0.0
  0
LINE
  5
57D0
330
A
100
AcDbEntity
  8
0
  6
CENTER
 62
     1
100
AcDbLine
 10
46.30945317193993
 20
50.42277521501667
 30
0.0
 11
53.62299018813121
 21
57.24275881564143
 31
0.0
  0
LINE
  5
57D1
330
A
100
AcDbEntity
  8
0
  6
CENTER
 62
     1
100
AcDbLine
 10
21.57545438377588
 20
88.92484342143831
 30
0.0
 11
30.57545438377588
 21
88.92484342143831
 31
0.0
  0
LINE
  5
57D2
330
A
100
AcDbEntity
  8
0
  6
CENTER
 62
     1
100
AcDbLine
 10
26.07545438377588
 20
84.42484342143831
 30
0.0
 11
26.07545438377588
 21
93.42484342143832
 31
0.0
  0
LINE
  5
57D3
330
A
100
AcDbEntity
  8
0
  6
CENTER
 62
     1
100
AcDbLine
 10
38.50894376081942
 20
81.52818692467183
 30
0.0
 11
47.50894376081926
 21
81.52818692467183
 31
0.0
  0
LINE
  5
57D4
330
A
100
AcDbEntity
  8
0
  6
CENTER
 62
     1
100
AcDbLine
 10
43.00894376081926
 20
77.02818692467205
 30
0.0
 11
43.00894376081926
 21
86.0281869246719
 31
0.0
  0
LINE
  5
57D5
330
A
100
AcDbEntity
  8
0
  6
CENTER
 62
     1
100
AcDbLine
 10
-0.1004528171157517
 20
67.12484342143824
 30
0.0
 11
-0.1004528171157517
 21
61.37484342143824
 31
0.0
  0
LINE
  5
57D6
330
A
100
AcDbEntity
  8
0
  6
CENTER
 62
     1
100
AcDbLine
 10
-0.0124594854181055
 20
67.12484342144525
 30
0.0
 11
-0.0124594854181055
 21
61.37484342144517
 31
0.0
  0
LINE
  5
57D7
330
A
100
AcDbEntity
  8
0
  6
CENTER
 62
     1
100
AcDbLine
 10
0.075454383776048
 20
82.12484342143842
 30
0.0
 11
0.075454383776048
 21
70.12484342143705
 31
0.0
  0
LINE
  5
57D8
330
A
100
AcDbEntity
  8
0
  6
CENTER
 62
     1
100
AcDbLine
 10
-93.30006653761849
 20
-65.01826476141616
 30
0.0
 11
-93.30006653761849
 21
4.231735238559735
 31
0.0
  0
LINE
  5
57D9
330
A
100
AcDbEntity
  8
0
  6
CENTER
 62
     1
100
AcDbLine
 10
-100.6967230343823
 20
14.98173523855581
 30
0.0
 11
-100.6967230343823
 21
-54.26826476144419
 31
0.0
  0
LINE
  5
57DA
330
A
100
AcDbEntity
  8
0
  6
CENTER
 62
     1
100
AcDbLine
 10
49.03731608030176
 20
-15.01826476077849
 30
0.0
 11
49.03731608110707
 21
-35.01826476077827
 31
0.0
  0
LINE
  5
57DB
330
A
100
AcDbEntity
  8
0
  6
CENTER
 62
     1
100
AcDbLine
 10
43.00894376081942
 20
-65.01826476141616
 30
0.0
 11
43.00894376081942
 21
4.231735238559735
 31
0.0
  0
LINE
  5
57DC
330
A
100
AcDbEntity
  8
0
  6
CENTER
 62
     1
100
AcDbLine
 10
26.07545438377588
 20
14.98173523855581
 30
0.0
 11
26.07545438377588
 21
-54.26826476144407
 31
0.0
  0
LINE
  5
57DD
330
A
100
AcDbEntity
  8
0
  6
CENTER
 62
     1
100
AcDbLine
 10
134.5039177892991
 20
-0.0183420520818345
 30
0.0
 11
148.7039177892989
 21
-0.0183420520818345
 31
0.0
  0
LINE
  5
57DE
330
A
100
AcDbEntity
  8
0
  6
CENTER
 62
     1
100
AcDbLine
 10
147.8039177892951
 20
-0.0182647614432767
 30
0.0
 11
135.8039177892934
 21
-0.0182647614432767
 31
0.0
  0
LINE
  5
57DF
330
A
100
AcDbEntity
  8
0
  6
CENTER
 62
     1
100
AcDbLine
 10
113.9605040809419
 20
-0.0182647614174698
 30
0.0
 11
108.7670069508323
 21
-0.0182647609157698
 31
0.0
  0
LINE
  5
57E0
330
A
100
AcDbEntity
  8
0
  6
CENTER
 62
     1
100
AcDbLine
 10
132.803917789302
 20
-0.0183420520849609
 30
0.0
 11
127.053917789302
 21
-0.0183420520849609
 31
0.0
  0
LINE
  5
57E1
330
A
100
AcDbEntity
  8
0
  6
CENTER
 62
     1
100
AcDbLine
 10
134.5039177892991
 20
-50.01826462377607
 30
0.0
 11
148.7039177892989
 21
-50.01826462377607
 31
0.0
  0
LINE
  5
57E2
330
A
100
AcDbEntity
  8
0
  6
CENTER
 62
     1
100
AcDbLine
 10
132.8039177892949
 20
-50.01826462377966
 30
0.0
 11
127.0539177892951
 21
-50.01826462377966
 31
0.0
  0
LINE
  5
57E3
330
A
100
AcDbEntity
  8
0
  6
CENTER
 62
     1
100
AcDbLine
 10
113.9605040809419
 20
-50.01826476177404
 30
0.0
 11
108.7670069508323
 21
-50.01826476127098
 31
0.0
  0
LINE
  5
57E4
330
A
100
AcDbEntity
  8
0
  6
CENTER
 62
     1
100
AcDbLine
 10
147.2072612925309
 20
-65.01826476141616
 30
0.0
 11
147.2072612925309
 21
4.231735238559735
 31
0.0
  0
LINE
  5
57E5
330
A
100
AcDbEntity
  8
0
  6
CENTER
 62
     1
100
AcDbLine
 10
55.76769595143389
 20
-112.8263558149494
 30
0.0
 11
48.0884820844326
 21
-105.6653730342934
 31
0.0
  0
LINE
  5
57E8
330
A
100
AcDbEntity
  8
0
  6
CENTER
 62
     1
100
AcDbLine
 10
46.04069171989754
 20
-103.7557776261172
 30
0.0
 11
56.42591428289001
 21
-113.4401543390046
 31
0.0
  0
LINE
  5
57E9
330
A
100
AcDbEntity
  8
0
  6
CENTER
 62
     1
100
AcDbLine
 10
44.79739042714492
 20
-102.5963804140111
 30
0.0
 11
41.65256951018244
 21
-99.66378746574235
 31
0.0
  0
LINE
  5
57EA
330
A
100
AcDbEntity
  8
0
  6
CENTER
 62
     1
100
AcDbLine
 10
40.59210664283489
 20
-98.67488984365166
 30
0.0
 11
44.57798431665935
 21
-102.3917809059921
 31
0.0
  0
LINE
  5
57EB
330
A
100
AcDbEntity
  8
0
  6
CENTER
 62
     1
100
AcDbLine
 10
46.30945317194057
 20
-105.3737291958181
 30
0.0
 11
53.622990188132
 21
-112.1937127964431
 31
0.0
  0
LINE
  5
57EC
330
A
100
AcDbEntity
  8
0
  6
CENTER
 62
     1
100
AcDbLine
 10
21.57545438377588
 20
-143.8757974022394
 30
0.0
 11
30.57545438377571
 21
-143.8757974022394
 31
0.0
  0
LINE
  5
57ED
330
A
100
AcDbEntity
  8
0
  6
CENTER
 62
     1
100
AcDbLine
 10
26.07545438377588
 20
-148.3757974022394
 30
0.0
 11
26.07545438377588
 21
-139.3757974022394
 31
0.0
  0
LINE
  5
57EE
330
A
100
AcDbEntity
  8
0
  6
CENTER
 62
     1
100
AcDbLine
 10
38.50894376081925
 20
-136.4791409054731
 30
0.0
 11
47.50894376081926
 21
-136.4791409054731
 31
0.0
  0
LINE
  5
57EF
330
A
100
AcDbEntity
  8
0
  6
CENTER
 62
     1
100
AcDbLine
 10
43.00894376081926
 20
-140.9791409054733
 30
0.0
 11
43.00894376081926
 21
-131.9791409054732
 31
0.0
  0
LINE
  5
57F0
330
A
100
AcDbEntity
  8
0
  6
CENTER
 62
     1
100
AcDbLine
 10
36.0245159103564
 20
-129.966056566876
 30
0.0
 11
40.41300379692188
 21
-134.0583877264315
 31
0.0
  0
LINE
  5
57F1
330
A
100
AcDbEntity
  8
0
  6
CENTER
 62
     1
100
AcDbLine
 10
0.0754543837753659
 20
-137.0757974022394
 30
0.0
 11
0.0754543837753659
 21
-115.4982253057072
 31
0.0
  0
ELLIPSE
  5
586D
330
A
100
AcDbEntity
  8
0
  6
Continuous
 62
     7
370
     0
100
AcDbEllipse
 10
151.6485574265436
 20
-123.1594468093384
 30
0.0
 11
1.36951693600773
 21
1.970894051436576
 31
0.0
210
-0.0000000000000001
220
0.0
230
0.9999999999999998
 40
0.7870817355556115
 41
1.439543109797106
 42
3.141592653589757
  0
ELLIPSE
  5
586E
330
A
100
AcDbEntity
  8
0
  6
Continuous
 62
     7
370
     0
100
AcDbEllipse
 10
151.2433096032131
 20
-122.8778518870102
 30
0.0
 11
1.36951693600773
 21
1.970894051436576
 31
0.0
210
0.0
220
0.0
230
0.9999999999999998
 40
0.787081735555609
 41
1.364026263899978
 42
3.141592653589798
  0
ELLIPSE
  5
586F
330
A
100
AcDbEntity
  8
0
  6
Continuous
 62
     7
370
     0
100
AcDbEllipse
 10
151.6485574265739
 20
-137.7653816761765
 30
0.0
 11
1.36951693600773
 21
1.970894051436576
 31
-0.0000000000000001
210
0.0000000000000001
220
0.0
230
0.9999999999999998
 40
0.787081735555613
 41
1.43954310979234
 42
3.141592653589778
  0
ELLIPSE
  5
5870
330
A
100
AcDbEntity
  8
0
  6
Continuous
 62
     7
370
     0
100
AcDbEllipse
 10
151.2433096032438
 20
-137.4837867538482
 30
0.0
 11
1.36951693600773
 21
1.970894051436576
 31
-0.0000000000000002
210
0.0000000000000001
220
0.0
230
0.9999999999999998
 40
0.7870817355556148
 41
1.364026263900977
 42
3.141592653589798
  0
ELLIPSE
  5
5871
330
A
100
AcDbEntity
  8
0
  6
Continuous
 62
     9
370
     0
100
AcDbEllipse
 10
142.1817651815203
 20
-117.8236142381595
 30
0.0
 11
4.600000000000044
 21
0.0
 31
0.0
210
0.0
220
0.0
230
1.0
 40
0.408248290463863
 41
4.293172039888371
 42
5.464698284895751
  0
ELLIPSE
  5
5872
330
A
100
AcDbEntity
  8
0
  6
Continuous
 62
     9
370
     0
100
AcDbEllipse
 10
142.1817651815203
 20
-117.8236142381595
 30
0.0
 11
4.600000000000044
 21
0.0
 31
0.0
210
0.0
220
0.0
230
1.0
 40
0.408248290463863
 41
3.871546665945872
 42
4.293172039888371
  0
ELLIPSE
  5
5873
330
A
100
AcDbEntity
  8
0
  6
Continuous
 62
     7
370
     0
100
AcDbEllipse
 10
142.1817651815203
 20
-117.984387663173
 30
0.0
 11
4.600000000000044
 21
0.0
 31
0.0
210
0.0
220
0.0
230
1.0
 40
0.408248290463863
 41
3.627006327802365
 42
5.662692875904846
  0
ELLIPSE
  5
5874
330
A
100
AcDbEntity
  8
0
  6
Continuous
 62
     7
370
     0
100
AcDbEllipse
 10
107.9553256209404
 20
-95.34841583291743
 30
0.0
 11
3.288768766575575
 21
-4.027902680055317
 31
0.0000000000000005
210
-0.0000000000000001
220
0.0000000000000001
230
1.0
 40
0.8164965809279973
 41
2.357952768469703
 42
3.141592653589936
  0
LINE
  5
5875
330
A
100
AcDbEntity
  8
0
  6
Continuous
 62
     7
370
     0
100
AcDbLine
 10
107.947147835271
 20
-90.59982505536067
 30
0.0
 11
125.4778936803174
 21
-94.14681399242217
 31
0.0
  0
ELLIPSE
  5
5876
330
A
100
AcDbEntity
  8
0
  6
Continuous
 62
     7
370
     0
100
AcDbEllipse
 10
125.4804099220618
 20
-95.60791884705514
 30
0.0
 11
1.011928851254005
 21
-1.239354670786227
 31
0.0
210
0.0
220
0.0
230
1.0
 40
0.8164965809280001
 41
0.7871564416745038
 42
2.357952768469719
  0
LINE
  5
5877
330
A
100
AcDbEntity
  8
0
  6
Continuous
 62
     7
370
     0
100
AcDbLine
 10
126.911491215535
 20
-95.89746896436643
 30
0.0
 11
126.9146729023562
 21
-97.74497748407112
 31
0.0
  0
LINE
  5
5878
330
A
100
AcDbEntity
  8
0
  6
Continuous
 62
     9
370
     0
100
AcDbLine
 10
125.4778936803174
 20
-94.14681399242217
 30
0.0
 11
125.8356645567173
 21
-93.85469529508601
 31
0.0
  0
ELLIPSE
  5
5879
330
A
100
AcDbEntity
  8
0
  6
Continuous
 62
     7
370
     0
100
AcDbEllipse
 10
125.8381807984615
 20
-95.31580014971913
 30
0.0
 11
-1.011928851254005
 21
1.239354670786227
 31
-0.0000000000000002
210
-0.0000000000000001
220
0.0000000000000001
230
1.0
 40
0.8164965809279953
 41
3.928749095264297
 42
5.499545422059512
  0
LINE
  5
587A
330
A
100
AcDbEntity
  8
0
  6
Continuous
 62
     9
370
     0
100
AcDbLine
 10
127.2692620919348
 20
-95.60535026703023
 30
0.0
 11
126.911491215535
 21
-95.89746896436643
 31
0.0
  0
LINE
  5
587B
330
A
100
AcDbEntity
  8
0
  6
Continuous
 62
     7
370
     0
100
AcDbLine
 10
127.2692620919348
 20
-95.60535026703023
 30
0.0
 11
127.2730728401647
 21
-97.81813556502749
 31
0.0
  0
LINE
  5
587C
330
A
100
AcDbEntity
  8
0
  6
Continuous
 62
     9
370
     0
100
AcDbLine
 10
108.3049187116709
 20
-90.30770635802458
 30
0.0
 11
107.947147835271
 21
-90.59982505536067
 31
0.0
  0
LINE
  5
587D
330
A
100
AcDbEntity
  8
0
  6
Continuous
 62
     7
370
     0
100
AcDbLine
 10
108.3049187116709
 20
-90.30770635802458
 30
0.0
 11
125.8356645567173
 21
-93.85469529508601
 31
0.0
  0
ELLIPSE
  5
587E
330
A
100
AcDbEntity
  8
0
  6
Continuous
 62
     7
370
     0
100
AcDbEllipse
 10
108.3130964973403
 20
-95.05629713558136
 30
0.0
 11
-3.288768766575687
 21
4.027902680055261
 31
0.0000000000000004
210
0.0000000000000001
220
0.0
230
1.0
 40
0.8164965809279959
 41
5.499545422059362
 42
6.28318530717958
  0
ELLIPSE
  5
587F
330
A
100
AcDbEntity
  8
0
  6
Continuous
 62
     7
370
     0
100
AcDbEllipse
 10
107.9553256209404
 20
-95.34841583291743
 30
0.0
 11
3.288768766575687
 21
-4.027902680055261
 31
-0.0000000000000004
210
0.0000000000000001
220
0.0
230
1.0
 40
0.816496580927996
 41
3.141592653589776
 42
3.467881865520458
  0
ELLIPSE
  5
5880
330
A
100
AcDbEntity
  8
0
  6
Continuous
 62
     7
370
     0
100
AcDbEllipse
 10
108.3319768590854
 20
-95.03445833138716
 30
0.0
 11
3.794733192202693
 21
-4.647580015448405
 31
-0.0000000000000002
210
0.0
220
0.0
230
1.0
 40
0.8164965809277685
 41
2.354434622649826
 42
3.141592653589792
  0
LINE
  5
5881
330
A
100
AcDbEntity
  8
0
  6
Continuous
 62
     7
370
     0
100
AcDbLine
 10
128.0187890247451
 20
-93.61113862780589
 30
0.0
 11
108.3414212945054
 21
-89.55916907549058
 31
0.0
  0
LINE
  5
5882
330
A
100
AcDbEntity
  8
0
  6
Continuous
 62
     7
370
     0
100
AcDbLine
 10
128.0112723735578
 20
-97.96881991379185
 30
0.0
 11
128.0187890247447
 21
-93.61113862780589
 31
0.0
  0
LINE
  5
5883
330
A
100
AcDbEntity
  8
0
  6
Continuous
 62
     7
370
     0
100
AcDbLine
 10
128.0187890247451
 20
-93.61113862780589
 30
0.0
 11
129.8076434067446
 21
-92.15054514112518
 31
0.0
  0
LINE
  5
5884
330
A
100
AcDbEntity
  8
0
  6
Continuous
 62
     7
370
     0
100
AcDbLine
 10
129.7969786055423
 20
-98.33332567203129
 30
0.0
 11
129.8076434067444
 21
-92.15054514112518
 31
0.0
  0
LINE
  5
5885
330
A
100
AcDbEntity
  8
0
  6
Continuous
 62
     9
370
     0
100
AcDbLine
 10
110.1302756765048
 20
-88.09857558881025
 30
0.0
 11
108.3414212945054
 21
-89.55916907549058
 31
0.0
  0
LINE
  5
5886
330
A
100
AcDbEntity
  8
0
  6
Continuous
 62
     7
370
     0
100
AcDbLine
 10
129.8076434067446
 20
-92.15054514112518
 30
0.0
 11
110.1302756765048
 21
-88.09857558881025
 31
0.0
  0
ELLIPSE
  5
5887
330
A
100
AcDbEntity
  8
0
  6
Continuous
 62
     7
370
     0
100
AcDbEllipse
 10
110.1208312410849
 20
-93.57386484470655
 30
0.0
 11
-3.794733192202581
 21
4.647580015448458
 31
0.0000000000000004
210
0.0
220
-0.0000000000000001
230
1.0
 40
0.8164965809277685
 41
5.496027276239613
 42
6.283185307179588
  0
ELLIPSE
  5
5888
330
A
100
AcDbEntity
  8
0
  6
Continuous
 62
     7
370
     0
100
AcDbEllipse
 10
108.3319768590854
 20
-95.03445833138716
 30
0.0
 11
3.794733192202693
 21
-4.647580015448405
 31
-0.0000000000000004
210
0.0
220
-0.0000000000000001
230
1.0
 40
0.816496580927769
 41
3.14159265358979
 42
3.638717410168504
  0
ELLIPSE
  5
5889
330
A
100
AcDbEntity
  8
0
  6
Continuous
 62
     7
370
     0
100
AcDbEllipse
 10
127.3493158949132
 20
-100.3876648221904
 30
0.0
 11
6.000000000000002
 21
0.0
 31
-0.0000000000000002
210
0.0
220
0.0000000000000001
230
1.0
 40
0.4082482904638633
 41
4.165814259860582
 42
5.818780967210625
  0
LINE
  5
588A
330
A
100
AcDbEntity
  8
0
  6
Continuous
 62
     9
370
     0
100
AcDbLine
 10
132.713846982285
 20
-101.4847675378785
 30
0.0
 11
132.713846982285
 21
-117.8616720072831
 31
0.0
  0
ELLIPSE
  5
588B
330
A
100
AcDbEntity
  8
0
  6
Continuous
 62
     7
370
     0
100
AcDbEllipse
 10
127.3493158949132
 20
-116.7645692915948
 30
0.0
 11
-6.000000000000002
 21
0.0
 31
0.0
210
0.0
220
0.0
230
1.0
 40
0.4082482904638666
 41
1.0242216062708
 42
2.677188313620832
  0
LINE
  5
588C
330
A
100
AcDbEntity
  8
0
  6
Continuous
 62
     9
370
     0
100
AcDbLine
 10
124.230731692885
 20
-102.4802880792078
 30
0.0
 11
124.230731692885
 21
-118.8571925486123
 31
0.0
  0
ELLIPSE
  5
588D
330
A
100
AcDbEntity
  8
0
  6
Continuous
 62
     7
370
     0
100
AcDbEllipse
 10
127.4188380115656
 20
-100.3308986834011
 30
0.0
 11
-2.0
 21
0.0
 31
0.0
210
0.0
220
0.0
230
1.0
 40
0.408248290463863
 41
2.677945044588961
 42
3.141592653589792
  0
LINE
  5
588E
330
A
100
AcDbEntity
  8
0
  6
Continuous
 62
     7
370
     0
100
AcDbLine
 10
124.4851168250856
 20
-96.51874968316482
 30
0.0
 11
123.8769063352059
 21
-97.01535146863649
 31
0.0
  0
ELLIPSE
  5
588F
330
A
100
AcDbEntity
  8
0
  6
Continuous
 62
     7
370
     0
100
AcDbEllipse
 10
124.0915688610455
 20
-97.05916927323677
 30
0.0
 11
0.2400000000000179
 21
0.0
 31
0.0
210
0.0
220
0.0
230
1.0
 40
0.408248290463863
 41
3.141592653589792
 42
4.248741371384045
  0
LINE
  5
5890
330
A
100
AcDbEntity
  8
0
  6
Continuous
 62
     7
370
     0
100
AcDbLine
 10
123.9842375981258
 20
-97.14680488243764
 30
0.0
 11
134.5027013642848
 21
-99.29387730785776
 31
0.0
  0
LINE
  5
5891
330
A
100
AcDbEntity
  8
0
  6
Continuous
 62
     7
370
     0
100
AcDbLine
 10
134.5027013642848
 20
-100.0241740511981
 30
0.0
 11
134.5027013642848
 21
-99.29387730785776
 31
0.0
  0
LINE
  5
5892
330
A
100
AcDbEntity
  8
0
  6
Continuous
 62
     7
370
     0
100
AcDbLine
 10
134.5027013642848
 20
-100.0241740511981
 30
0.0
 11
132.713846982285
 21
-101.4847675378785
 31
0.0
  0
ELLIPSE
  5
5893
330
A
100
AcDbEntity
  8
0
  6
Continuous
 62
     7
370
     0
100
AcDbEllipse
 10
166.7557458717417
 20
-73.94527734651887
 30
0.0
 11
81.81600000000001
 21
0.0
 31
-0.0000000000000057
210
0.0000000000000001
220
0.0
230
1.0
 40
0.4082482904638628
 41
3.80561387008669
 42
4.165814259860582
  0
LINE
  5
5894
330
A
100
AcDbEntity
  8
0
  6
Continuous
 62
     9
370
     0
100
AcDbLine
 10
104.8077186230875
 20
-92.5021175947938
 30
0.0
 11
102.3239788386952
 21
-94.53008263666431
 31
0.0
  0
LINE
  5
5895
330
A
100
AcDbEntity
  8
0
  6
Continuous
 62
     7
370
     0
100
AcDbLine
 10
104.8077186230875
 20
-92.5021175947938
 30
0.0
 11
124.4851168250856
 21
-96.51874968316482
 31
0.0
  0
ELLIPSE
  5
5896
330
A
100
AcDbEntity
  8
0
  6
Continuous
 62
     7
370
     0
100
AcDbEllipse
 10
166.7557458717417
 20
-115.9921123443321
 30
0.0
 11
81.81600000000001
 21
0.0
 31
-0.0000000000000057
210
0.0000000000000001
220
0.0
230
1.0
 40
0.4082482904638628
 41
4.092191884471306
 42
4.165814259860582
  0
LINE
  5
5897
330
A
100
AcDbEntity
  8
0
  6
Continuous
 62
     9
370
     0
100
AcDbLine
 10
124.230731692885
 20
-144.5271230770208
 30
0.0
 11
124.230731692885
 21
-160.9040275464256
 31
0.0
  0
ELLIPSE
  5
5898
330
A
100
AcDbEntity
  8
0
  6
Continuous
 62
     7
370
     0
100
AcDbEllipse
 10
166.7557458717419
 20
-132.3690168137366
 30
0.0
 11
81.81600000000001
 21
0.0
 31
-0.0000000000000057
210
0.0000000000000001
220
0.0
230
1.0
 40
0.4082482904638628
 41
3.80561387008669
 42
4.165814259860582
  0
ARC
  5
5899
330
A
100
AcDbEntity
  8
0
  6
Continuous
 62
     7
370
     0
100
AcDbCircle
 10
107.7974652208749
 20
-145.2778631737712
 30
0.0
 40
9.427587107667267
100
AcDbArc
 50
179.6955716176812
 51
234.5085195979226
  0
LINE
  5
589A
330
A
100
AcDbEntity
  8
0
  6
Continuous
 62
     7
370
     0
100
AcDbLine
 10
98.37001118761822
 20
-97.75848370486762
 30
0.0
 11
98.37001118761822
 21
-145.227772021982
 31
0.0
  0
ARC
  5
589B
330
A
100
AcDbEntity
  8
0
  6
Continuous
 62
     7
370
     0
100
AcDbCircle
 10
100.9392315776759
 20
-96.61628150898515
 30
0.0
 40
2.50394702655093
100
AcDbArc
 50
56.42515711600911
 51
125.1289809268173
  0
ELLIPSE
  5
589C
330
A
100
AcDbEntity
  8
0
  6
Continuous
 62
     7
370
     0
100
AcDbEllipse
 10
166.7557458717417
 20
-90.32218181592332
 30
0.0
 11
-81.81600000000001
 21
0.0000000000006106
 31
0.0000000000000026
210
0.0
220
0.0
230
1.0
 40
0.4082482904638662
 41
0.9505992308815248
 42
1.024221606270798
  0
LINE
  5
589D
330
A
100
AcDbEntity
  8
0
  6
Continuous
 62
     7
370
     0
100
AcDbLine
 10
119.2046498228264
 20
-143.1728381150774
 30
0.0
 11
119.2046498228264
 21
-117.5029075866687
 31
0.0
  0
LINE
  5
589E
330
A
100
AcDbEntity
  8
0
  6
Continuous
 62
     7
370
     0
100
AcDbLine
 10
134.5027013642848
 20
-116.4010785206028
 30
0.0
 11
134.5027013642848
 21
-100.0241740511982
 31
0.0
  0
LINE
  5
589F
330
A
100
AcDbEntity
  8
0
  6
Continuous
 62
     7
370
     0
100
AcDbLine
 10
132.713846982285
 20
-117.8616720072831
 30
0.0
 11
134.5027013642848
 21
-116.4010785206028
 31
0.0
  0
ELLIPSE
  5
58A0
330
A
100
AcDbEntity
  8
0
  6
Continuous
 62
     7
370
     0
100
AcDbEllipse
 10
127.4188380115656
 20
-100.3308986834011
 30
0.0
 11
-2.0
 21
0.0
 31
0.0
210
0.0
220
0.0
230
1.0
 40
0.408248290463863
 41
0.0
 42
2.677945044588961
  0
ELLIPSE
  5
58A1
330
A
100
AcDbEntity
  8
0
  6
Continuous
 62
     7
370
     0
100
AcDbEllipse
 10
127.4188380115656
 20
-100.3308986834011
 30
0.0
 11
-2.0
 21
0.0
 31
0.0
210
0.0
220
0.0
230
1.0
 40
0.408248290463863
 41
3.141592653589792
 42
6.283185307179584
  0
LINE
  5
58A2
330
A
100
AcDbEntity
  8
0
  6
Continuous
 62
     7
370
     0
100
AcDbLine
 10
119.2046498228264
 20
-143.1728381150774
 30
0.0
 11
121.4188377876344
 21
-141.3649612122803
 31
0.0
  0
ELLIPSE
  5
58A3
330
A
100
AcDbEntity
  8
0
  6
Continuous
 62
     7
370
     0
100
AcDbEllipse
 10
124.0915688610455
 20
-97.05916927323677
 30
0.0
 11
0.2400000000000179
 21
0.0
 31
0.0
210
0.0
220
0.0
230
1.0
 40
0.408248290463863
 41
2.677945044588922
 42
3.141592653589792
  0
LINE
  5
58A4
330
A
100
AcDbEntity
  8
0
  6
Continuous
 62
     9
370
     0
100
AcDbLine
 10
123.8769063352059
 20
-97.01535146863665
 30
0.0
 11
123.8769063352059
 21
-97.10298707783728
 31
0.0
  0
LINE
  5
58A5
330
A
100
AcDbEntity
  8
0
  6
Continuous
 62
     7
370
     0
100
AcDbLine
 10
124.4851168250856
 20
-96.51874968316482
 30
0.0
 11
124.4851168250856
 21
-97.24904642650528
 31
0.0
  0
ELLIPSE
  5
58A6
330
A
100
AcDbEntity
  8
0
  6
Continuous
 62
     7
370
     0
100
AcDbEllipse
 10
127.3493158949132
 20
-158.8114042894081
 30
0.0
 11
6.000000000000002
 21
0.0
 31
-0.0000000000000002
210
0.0
220
0.0000000000000001
230
1.0
 40
0.4082482904638633
 41
4.165814259860589
 42
5.818780967210625
  0
ELLIPSE
  5
58A7
330
A
100
AcDbEntity
  8
0
  6
Continuous
 62
     7
370
     0
100
AcDbEllipse
 10
127.3493158949132
 20
-142.4344998200034
 30
0.0
 11
6.000000000000002
 21
0.0
 31
0.0
210
0.0
220
0.0
230
1.0
 40
0.408248290463863
 41
4.16581425986059
 42
5.410640921267988
  0
LINE
  5
58A8
330
A
100
AcDbEntity
  8
0
  6
Continuous
 62
     9
370
     0
100
AcDbLine
 10
132.7138469822851
 20
-144.3908617987013
 30
0.0
 11
132.7138469822851
 21
-159.908507005096
 31
0.0
  0
ELLIPSE
  5
58A9
330
A
100
AcDbEntity
  8
0
  6
Continuous
 62
     7
370
     0
100
AcDbEllipse
 10
104.8077186230875
 20
-97.9793431698456
 30
0.0
 11
-3.794733192202026
 21
4.647580015448847
 31
0.0000000000000004
210
0.0000000000000001
220
0.0
230
1.0
 40
0.8164965809277262
 41
5.497787143782135
 42
6.28318530717958
  0
ARC
  5
58AA
330
A
100
AcDbEntity
  8
0
  6
Continuous
 62
     7
370
     0
100
AcDbCircle
 10
102.4916659580934
 20
-97.4217961250418
 30
0.0
 40
4.135383485650382
100
AcDbArc
 50
136.3703688916612
 51
184.6699787517001
  0
LINE
  5
58AB
330
A
100
AcDbEntity
  8
0
  6
Continuous
 62
     7
370
     0
100
AcDbLine
 10
134.5027013642848
 20
-158.4479135184156
 30
0.0
 11
132.713846982285
 21
-159.9085070050961
 31
0.0
  0
LINE
  5
58AC
330
A
100
AcDbEntity
  8
0
  6
Continuous
 62
     7
370
     0
100
AcDbLine
 10
134.5027013642848
 20
-158.4479135184156
 30
0.0
 11
134.5027013642848
 21
-144.4477259336012
 31
0.0
  0
ELLIPSE
  5
58AD
330
A
100
AcDbEntity
  8
0
  6
Continuous
 62
     7
370
     0
100
AcDbEllipse
 10
142.1817649587108
 20
-117.9843876226292
 30
0.0
 11
-6.000000000000002
 21
0.0
 31
0.0
210
0.0
220
0.0000000000000001
230
1.0
 40
0.4082482904638633
 41
2.442914231273533
 42
2.86332899975653
  0
ELLIPSE
  5
58AE
330
A
100
AcDbEntity
  8
0
  6
Continuous
 62
     7
370
     0
100
AcDbEllipse
 10
146.1633680534343
 20
-119.3498446154886
 30
0.0
 11
-0.8000000000000229
 21
0.0
 31
0.0
210
0.0
220
0.0000000000000001
230
1.0
 40
0.408248290463863
 41
1.657903125920459
 42
2.44291423127347
  0
ELLIPSE
  5
58AF
330
A
100
AcDbEntity
  8
0
  6
Continuous
 62
     7
370
     0
100
AcDbEllipse
 10
146.5461534706508
 20
-121.1393266319935
 30
0.0
 11
3.600000000000047
 21
0.0
 31
0.0
210
0.0
220
0.0
230
1.0
 40
0.408248290463863
 41
1.657903125920514
 42
2.516702274973759
  0
ELLIPSE
  5
58B0
330
A
100
AcDbEntity
  8
0
  6
Continuous
 62
     7
370
     0
100
AcDbEllipse
 10
142.9776335539073
 20
-120.0884804964273
 30
0.0
 11
-0.8000000000000229
 21
0.0
 31
0.0
210
0.0
220
0.0000000000000001
230
1.0
 40
0.408248290463863
 41
1.793340049772303
 42
2.51670227497373
  0
ELLIPSE
  5
58B1
330
A
100
AcDbEntity
  8
0
  6
Continuous
 62
     7
370
     0
100
AcDbEllipse
 10
136.0914401471598
 20
-107.6652472862625
 30
0.0
 11
-31.99999999999993
 21
0.0
 31
0.0
210
0.0
220
0.0000000000000001
230
1.0
 40
0.4082482904638633
 41
1.23071726262599
 42
1.793340049772323
  0
ELLIPSE
  5
58B2
330
A
100
AcDbEntity
  8
0
  6
Continuous
 62
     7
370
     0
100
AcDbEllipse
 10
134.4668369105858
 20
-116.151870864657
 30
0.0
 11
0.7999999999999119
 21
0.0
 31
0.0
210
0.0
220
0.0
230
1.0
 40
0.408248290463863
 41
4.639986028395711
 42
5.051592827301233
  0
LINE
  5
58B3
330
A
100
AcDbEntity
  8
0
  6
Continuous
 62
     7
370
     0
100
AcDbLine
 10
135.2186379818345
 20
-116.3899089803681
 30
0.0
 11
134.7330260381816
 21
-116.4598598656372
 31
0.0
  0
LINE
  5
58B4
330
A
100
AcDbEntity
  8
0
  6
Continuous
 62
     9
370
     0
100
AcDbLine
 10
125.4174680123595
 20
-143.7156423277711
 30
0.0
 11
125.4174680123595
 21
-119.980998169214
 31
0.0
  0
LINE
  5
58B5
330
A
100
AcDbEntity
  8
0
  6
Continuous
 62
     9
370
     0
100
AcDbLine
 10
143.1542026156191
 20
-144.1416690962708
 30
0.0
 11
143.1542026156191
 21
-120.4070249377136
 31
0.0
  0
ELLIPSE
  5
58B6
330
A
100
AcDbEntity
  8
0
  6
Continuous
 62
     7
370
     0
100
AcDbEllipse
 10
136.0914401471598
 20
-131.3998914448198
 30
0.0
 11
-31.99999999999993
 21
0.0
 31
0.0
210
0.0
220
0.0000000000000001
230
1.0
 40
0.4082482904638633
 41
1.230717262625991
 42
1.793340049772321
  0
LINE
  5
58B7
330
A
100
AcDbEntity
  8
0
  6
Continuous
 62
     9
370
     0
100
AcDbLine
 10
143.6264553569515
 20
-120.2795434301668
 30
0.0
 11
143.6264553569515
 21
-144.014187588724
 31
0.0
  0
LINE
  5
58B8
330
A
100
AcDbEntity
  8
0
  6
Continuous
 62
     9
370
     0
100
AcDbLine
 10
146.232965402019
 20
-143.4098491406832
 30
0.0
 11
146.232965402019
 21
-119.6752049821258
 31
0.0
  0
ELLIPSE
  5
58B9
330
A
100
AcDbEntity
  8
0
  6
Continuous
 62
     7
370
     0
100
AcDbEllipse
 10
146.5461534706508
 20
-144.8739707905508
 30
0.0
 11
3.600000000000047
 21
0.0
 31
0.0
210
0.0
220
0.0
230
1.0
 40
0.408248290463863
 41
1.657903125920514
 42
2.516702274973759
  0
ELLIPSE
  5
58BA
330
A
100
AcDbEntity
  8
0
  6
Continuous
 62
     7
370
     0
100
AcDbEllipse
 10
142.9776335539073
 20
-143.8231246549848
 30
0.0
 11
0.8000000000000229
 21
0.0
 31
0.0
210
0.0
220
0.0000000000000001
230
1.0
 40
0.4082482904638633
 41
4.934932703362115
 42
5.658294928563592
  0
ELLIPSE
  5
58BB
330
A
100
AcDbEntity
  8
0
  6
Continuous
 62
     7
370
     0
100
AcDbEllipse
 10
127.4188377876344
 20
-141.4064390372175
 30
0.0
 11
-6.000000000000002
 21
0.0
 31
0.0
210
0.0
220
0.0
230
1.0
 40
0.408248290463863
 41
0.0000000000000104
 42
1.230717262625987
  0
ELLIPSE
  5
58BC
330
A
100
AcDbEntity
  8
0
  6
Continuous
 62
     7
370
     0
100
AcDbEllipse
 10
127.4188377876344
 20
-117.6717948786602
 30
0.0
 11
-6.000000000000002
 21
0.0
 31
0.0
210
0.0
220
0.0
230
1.0
 40
0.408248290463863
 41
0.2001607239957233
 42
1.230717262625985
  0
LINE
  5
58BD
330
A
100
AcDbEntity
  8
0
  6
Continuous
 62
     9
370
     0
100
AcDbLine
 10
146.7759223756992
 20
-119.5599149220825
 30
0.0
 11
146.7759223756992
 21
-143.2945590806396
 31
0.0
  0
ELLIPSE
  5
58BE
330
A
100
AcDbEntity
  8
0
  6
Continuous
 62
     7
370
     0
100
AcDbEllipse
 10
146.1633680534343
 20
-143.0844887740459
 30
0.0
 11
0.7999999999999119
 21
0.0
 31
-0.0000000000000001
210
0.0000000000000001
220
0.0000000000000001
230
1.0
 40
0.4082482904638468
 41
4.799495779510273
 42
5.584506884863293
  0
ELLIPSE
  5
58BF
330
A
100
AcDbEntity
  8
0
  6
Continuous
 62
     7
370
     0
100
AcDbEllipse
 10
142.1817649587108
 20
-141.7190317811867
 30
0.0
 11
-6.000000000000002
 21
0.0
 31
0.0
210
0.0
220
0.0000000000000001
230
1.0
 40
0.4082482904638633
 41
2.442914231273533
 42
3.149285543173227
  0
ELLIPSE
  5
58C0
330
A
100
AcDbEntity
  8
0
  6
Continuous
 62
     7
370
     0
100
AcDbEllipse
 10
149.6870777889926
 20
-133.9721735402289
 30
0.0
 11
-1.600000000000043
 21
-0.0000000000339728
 31
0.0
210
0.0
220
0.0
230
1.0
 40
0.4082482904170658
 41
0.3457530141763158
 42
0.4636476089319905
  0
ELLIPSE
  5
58C1
330
A
100
AcDbEntity
  8
0
  6
Continuous
 62
     7
370
     0
100
AcDbEllipse
 10
149.6870777889926
 20
-133.9721735402289
 30
0.0
 11
-1.599999999999934
 21
-0.0000000000339728
 31
0.0
210
0.0
220
0.0000000000000001
230
1.0
 40
0.4082482904170658
 41
0.4636476089319918
 42
0.50399812346835
  0
ELLIPSE
  5
58C2
330
A
100
AcDbEntity
  8
0
  6
Continuous
 62
     7
370
     0
100
AcDbEllipse
 10
149.6870777890005
 20
-124.4783158768143
 30
0.0
 11
-3.759999999999985
 21
0.0
 31
0.0
210
0.0
220
0.0
230
1.0
 40
0.408248290463863
 41
1.158898487531907
 42
1.297346780517333
  0
ELLIPSE
  5
58C3
330
A
100
AcDbEntity
  8
0
  6
Continuous
 62
     7
370
     0
100
AcDbEllipse
 10
149.6870777890005
 20
-124.6974048998163
 30
0.0
 11
4.0
 21
0.0
 31
-0.0000000000000001
210
0.0
220
0.0000000000000001
230
1.0
 40
0.4082482904638628
 41
4.326559026175488
 42
4.588295817282237
  0
ELLIPSE
  5
58C4
330
A
100
AcDbEntity
  8
0
  6
Continuous
 62
     7
370
     0
100
AcDbEllipse
 10
149.6870777890005
 20
-124.4783158768143
 30
0.0
 11
1.839999999999952
 21
0.0
 31
-0.0000000000000001
210
0.0000000000000001
220
0.0000000000000001
230
1.0
 40
0.4082482904638628
 41
3.740660617784326
 42
3.846853649637223
  0
ELLIPSE
  5
58C5
330
A
100
AcDbEntity
  8
0
  6
Continuous
 62
     7
370
     0
100
AcDbEllipse
 10
149.6870777890005
 20
-131.5621942872143
 30
0.0
 11
-4.0
 21
0.0
 31
0.0
210
0.0
220
0.0
230
1.0
 40
0.408248290463863
 41
1.184966372585704
 42
1.499079243378695
  0
ELLIPSE
  5
58C6
330
A
100
AcDbEntity
  8
0
  6
Continuous
 62
     7
370
     0
100
AcDbEllipse
 10
149.6870777890005
 20
-131.7812833102166
 30
0.0
 11
3.759999999999985
 21
0.0
 31
-0.0000000000000003
210
0.0000000000000001
220
0.0
230
1.0
 40
0.4082482904638628
 41
4.301957302438895
 42
4.636085574779214
  0
LINE
  5
58C7
330
A
100
AcDbEntity
  8
0
  6
Continuous
 62
     7
370
     0
100
AcDbLine
 10
149.4612424761885
 20
-118.7272845255907
 30
0.0
 11
149.0240382512797
 21
-118.4234840294326
 31
0.0
  0
ELLIPSE
  5
58C8
330
A
100
AcDbEntity
  8
0
  6
Continuous
 62
     7
370
     0
100
AcDbEllipse
 10
149.4612424761789
 20
-119.0924328972548
 30
0.0
 11
0.0932950074531425
 21
-0.3889679184513329
 31
0.0
210
0.0
220
0.0
230
1.0
 40
0.4624236962149891
 41
1.092311897523224
 42
2.663108224318007
  0
LINE
  5
58C9
330
A
100
AcDbEntity
  8
0
  6
Continuous
 62
     7
370
     0
100
AcDbLine
 10
149.6638663872549
 20
-141.5072810299381
 30
0.0
 11
149.6638663873108
 21
-139.2780913006866
 31
0.0
  0
LINE
  5
58CA
330
A
100
AcDbEntity
  8
0
  6
Continuous
 62
     7
370
     0
100
AcDbLine
 10
149.6638663873818
 20
-136.4471496629777
 30
0.0
 11
149.6638663876765
 21
-124.6721564342492
 31
0.0
  0
LINE
  5
58CB
330
A
100
AcDbEntity
  8
0
  6
Continuous
 62
     7
370
     0
100
AcDbLine
 10
149.6638663877474
 20
-121.8412147955491
 30
0.0
 11
149.6638663878128
 21
-119.2332303584428
 31
0.0
  0
ELLIPSE
  5
58CC
330
A
100
AcDbEntity
  8
0
  6
Continuous
 62
     7
370
     0
100
AcDbEllipse
 10
149.4612424756216
 20
-141.36648356875
 30
0.0
 11
0.0932950074531425
 21
-0.3889679184512218
 31
0.0
210
0.0000000000000001
220
0.0
230
0.9999999999999998
 40
0.4624236962150012
 41
5.804700877908226
 42
6.283185307179486
  0
LINE
  5
58CD
330
A
100
AcDbEntity
  8
0
  6
Continuous
 62
     7
370
     0
100
AcDbLine
 10
148.2252366146484
 20
-140.8727674271673
 30
0.0
 11
149.4612424756125
 21
-141.7316319404136
 31
0.0
  0
LINE
  5
58CE
330
A
100
AcDbEntity
  8
0
  6
Continuous
 62
     7
370
     0
100
AcDbLine
 10
148.225236614621
 20
-141.9682125421586
 30
0.0
 11
148.2252366146484
 21
-140.8727674271671
 31
0.0
  0
LINE
  5
58CF
330
A
100
AcDbEntity
  8
0
  6
Continuous
 62
     7
370
     0
100
AcDbLine
 10
148.1608329365932
 20
-141.9234603000153
 30
0.0
 11
148.225236614621
 21
-141.9682125421586
 31
0.0
  0
LINE
  5
58D0
330
A
100
AcDbEntity
  8
0
  6
Continuous
 62
     7
370
     0
100
AcDbLine
 10
148.1817649587109
 20
-135.5479088489736
 30
0.0
 11
148.2860237882711
 21
-135.6203552763976
 31
0.0
  0
LINE
  5
58D1
330
A
100
AcDbEntity
  8
0
  6
Continuous
 62
     7
370
     0
100
AcDbLine
 10
148.2860237883314
 20
-133.2057509117676
 30
0.0
 11
148.2860237882711
 21
-135.6203552763978
 31
0.0
  0
LINE
  5
58D2
330
A
100
AcDbEntity
  8
0
  6
Continuous
 62
     7
370
     0
100
AcDbLine
 10
148.4128310078764
 20
-133.2254609966986
 30
0.0
 11
149.4004553023172
 21
-133.9117323856175
 31
0.0
  0
LINE
  5
58D3
330
A
100
AcDbEntity
  8
0
  6
Continuous
 62
     7
370
     0
100
AcDbLine
 10
149.4004553025036
 20
-126.4627056036748
 30
0.0
 11
149.4004553023172
 21
-133.9117323856175
 31
0.0
  0
LINE
  5
58D4
330
A
100
AcDbEntity
  8
0
  6
Continuous
 62
     7
370
     0
100
AcDbLine
 10
148.2860237885198
 20
-125.6883195671407
 30
0.0
 11
149.4004553025036
 21
-126.4627056036748
 31
0.0
  0
LINE
  5
58D5
330
A
100
AcDbEntity
  8
0
  6
Continuous
 62
     7
370
     0
100
AcDbLine
 10
148.2860237885819
 20
-123.2053106398266
 30
0.0
 11
148.2860237885198
 21
-125.6883195671407
 31
0.0
  0
LINE
  5
58D6
330
A
100
AcDbEntity
  8
0
  6
Continuous
 62
     7
370
     0
100
AcDbLine
 10
148.1817649587109
 20
-123.1328642121868
 30
0.0
 11
148.2860237885819
 21
-123.2053106398266
 31
0.0
  0
LINE
  5
58D7
330
A
100
AcDbEntity
  8
0
  6
Continuous
 62
     9
370
     0
100
AcDbLine
 10
149.4612424761885
 20
-118.7272845255907
 30
0.0
 11
149.7773169621236
 21
-118.6514732051137
 31
0.0
  0
LINE
  5
58D8
330
A
100
AcDbEntity
  8
0
  6
Continuous
 62
     9
370
     0
100
AcDbLine
 10
149.9495348153614
 20
-119.1647120133221
 30
0.0
 11
149.6638663878128
 21
-119.2332303584428
 31
0.0
  0
LINE
  5
58D9
330
A
100
AcDbEntity
  8
0
  6
Continuous
 62
     9
370
     0
100
AcDbLine
 10
149.6638663872549
 20
-141.5072810299381
 30
0.0
 11
149.9495348153614
 21
-141.4387626846836
 31
0.0
  0
ELLIPSE
  5
58DA
330
A
100
AcDbEntity
  8
0
  6
Continuous
 62
     7
370
     0
100
AcDbEllipse
 10
149.4612424756216
 20
-141.36648356875
 30
0.0
 11
0.0932950074531425
 21
-0.3889679184512218
 31
0.0
210
0.0
220
0.0
230
0.9999999999999998
 40
0.4624236962149979
 41
6.283185307179486
 42
7.375497204702831
  0
LINE
  5
58DB
330
A
100
AcDbEntity
  8
0
  6
Continuous
 62
     7
370
     0
100
AcDbLine
 10
148.225236614621
 20
-141.9682125421586
 30
0.0
 11
148.8717642155697
 21
-141.8131411481236
 31
0.0
  0
ELLIPSE
  5
58DC
330
A
100
AcDbEntity
  8
0
  6
Continuous
 62
     9
370
     0
100
AcDbEllipse
 10
127.4188379585256
 20
-117.5110214194531
 30
0.0
 11
4.599999999999936
 21
0.0
 31
0.0
210
0.0
220
0.0
230
1.0
 40
0.4082482904638712
 41
5.168208501878504
 42
5.569765649131698
  0
ELLIPSE
  5
58DD
330
A
100
AcDbEntity
  8
0
  6
Continuous
 62
     9
370
     0
100
AcDbEllipse
 10
127.4188379585256
 20
-117.5110214194531
 30
0.0
 11
4.599999999999936
 21
0.0
 31
-0.0000000000000003
210
0.0000000000000001
220
0.0
230
1.0
 40
0.4082482904638713
 41
3.931285819633575
 42
5.168208501878504
  0
ELLIPSE
  5
58DE
330
A
100
AcDbEntity
  8
0
  6
Continuous
 62
     7
370
     0
100
AcDbEllipse
 10
127.4188379585256
 20
-117.6717948444667
 30
0.0
 11
4.599999999999936
 21
0.0
 31
0.0
210
0.0
220
0.0
230
1.0
 40
0.4082482904638712
 41
3.711659125702618
 42
5.809419209336031
  0
LINE
  5
58DF
330
A
100
AcDbEntity
  8
0
  6
Continuous
 62
     9
370
     0
100
AcDbLine
 10
145.5516803398647
 20
-94.30878913515334
 30
0.0
 11
145.8309952984549
 21
-94.6148346529846
 31
0.0
  0
ELLIPSE
  5
58E0
330
A
100
AcDbEntity
  8
0
  6
Continuous
 62
     7
370
     0
100
AcDbEllipse
 10
145.8309952984552
 20
-96.0754281396653
 30
0.0
 11
1.181803473194964
 21
1.078582658281034
 31
-0.0000000000000001
210
0.0000000000000001
220
0.0
230
0.9999999999999998
 40
0.8554232275997907
 41
0.9079293469340836
 42
2.47872567372898
  0
LINE
  5
58E1
330
A
100
AcDbEntity
  8
0
  6
Continuous
 62
     9
370
     0
100
AcDbLine
 10
144.3316845849503
 20
-96.30348784835613
 30
0.0
 11
144.0523696263598
 21
-95.99744233052485
 31
0.0
  0
ELLIPSE
  5
58E2
330
A
100
AcDbEntity
  8
0
  6
Continuous
 62
     7
370
     0
100
AcDbEllipse
 10
145.5516803398647
 20
-95.7693826218338
 30
0.0
 11
-1.181803473194964
 21
-1.078582658281034
 31
0.0000000000000001
210
0.0000000000000001
220
0.0
230
0.9999999999999998
 40
0.8554232275997904
 41
4.049522000523888
 42
5.620318327318776
  0
ELLIPSE
  5
58E3
330
A
100
AcDbEntity
  8
0
  6
Continuous
 62
     7
370
     0
100
AcDbEllipse
 10
164.1975515388899
 20
-96.56803205323077
 30
0.0
 11
3.840861287883413
 21
3.505393639413156
 31
-0.0000000000000004
210
0.0000000000000001
220
0.0
230
1.0
 40
0.8554232275997906
 41
6.059792986588877
 42
6.283185307179584
  0
LINE
  5
58E4
330
A
100
AcDbEntity
  8
0
  6
Continuous
 62
     7
370
     0
100
AcDbLine
 10
144.3316845849503
 20
-96.30348784835613
 30
0.0
 11
144.3316845849503
 21
-97.94644998659833
 31
0.0
  0
LINE
  5
58E5
330
A
100
AcDbEntity
  8
0
  6
Continuous
 62
     7
370
     0
100
AcDbLine
 10
164.1975515388899
 20
-91.82110322151963
 30
0.0
 11
145.8309952984549
 21
-94.61483465298476
 31
0.0
  0
LINE
  5
58E6
330
A
100
AcDbEntity
  8
0
  6
Continuous
 62
     9
370
     0
100
AcDbLine
 10
164.1975515388899
 20
-91.82110322151963
 30
0.0
 11
163.9182365802997
 21
-91.51505770368828
 31
0.0
  0
LINE
  5
58E7
330
A
100
AcDbEntity
  8
0
  6
Continuous
 62
     7
370
     0
100
AcDbLine
 10
163.9182365802997
 20
-91.51505770368828
 30
0.0
 11
145.5516803398647
 21
-94.30878913515334
 31
0.0
  0
LINE
  5
58E8
330
A
100
AcDbEntity
  8
0
  6
Continuous
 62
     7
370
     0
100
AcDbLine
 10
144.0523696263598
 20
-95.99744233052485
 30
0.0
 11
144.0523696263598
 21
-97.98893650224528
 31
0.0
  0
ELLIPSE
  5
58E9
330
A
100
AcDbEntity
  8
0
  6
Continuous
 62
     7
370
     0
100
AcDbEllipse
 10
164.1975515388899
 20
-96.56803205323077
 30
0.0
 11
3.840861287883413
 21
3.505393639413156
 31
-0.0000000000000004
210
0.0000000000000001
220
0.0
230
1.0
 40
0.8554232275997906
 41
6.283185307179584
 42
7.191114654113652
  0
ELLIPSE
  5
58EA
330
A
100
AcDbEntity
  8
0
  6
Continuous
 62
     7
370
     0
100
AcDbEllipse
 10
163.9182365802997
 20
-96.26198653539963
 30
0.0
 11
-3.840861287883413
 21
-3.505393639413211
 31
0.0000000000000004
210
0.0000000000000001
220
0.0
230
1.0
 40
0.85542322759979
 41
3.141592653589776
 42
4.049522000523856
  0
LINE
  5
58EB
330
A
100
AcDbEntity
  8
0
  6
Continuous
 62
     7
370
     0
100
AcDbLine
 10
143.3027142696131
 20
-93.92058195486958
 30
0.0
 11
141.906139476661
 21
-92.39035436571327
 31
0.0
  0
LINE
  5
58EC
330
A
100
AcDbEntity
  8
0
  6
Continuous
 62
     7
370
     0
100
AcDbLine
 10
143.3027142696131
 20
-93.92058195486958
 30
0.0
 11
143.3027142696131
 21
-98.10296635658994
 31
0.0
  0
LINE
  5
58ED
330
A
100
AcDbEntity
  8
0
  6
Continuous
 62
     7
370
     0
100
AcDbLine
 10
141.906139476661
 20
-92.39035436571327
 30
0.0
 11
141.906139476661
 21
-98.31539893482544
 31
0.0
  0
LINE
  5
58EE
330
A
100
AcDbEntity
  8
0
  6
Continuous
 62
     7
370
     0
100
AcDbLine
 10
163.9182365802965
 20
-90.78476096036927
 30
0.0
 11
143.3027142696131
 21
-93.9205819548693
 31
0.0
  0
ELLIPSE
  5
58EF
330
A
100
AcDbEntity
  8
0
  6
Continuous
 62
     7
370
     0
100
AcDbEllipse
 10
163.9182365802965
 20
-96.26198653541848
 30
0.0
 11
4.431763024480892
 21
4.044684968553701
 31
-0.0000000000000004
210
0.0000000000000001
220
0.0
230
0.9999999999999998
 40
0.8554232275997906
 41
5.867689107469646
 42
6.28318530717958
  0
LINE
  5
58F0
330
A
100
AcDbEntity
  8
0
  6
Continuous
 62
     7
370
     0
100
AcDbLine
 10
162.5216617873445
 20
-89.25453337121286
 30
0.0
 11
141.906139476661
 21
-92.39035436571327
 31
0.0
  0
LINE
  5
58F1
330
A
100
AcDbEntity
  8
0
  6
Continuous
 62
     9
370
     0
100
AcDbLine
 10
163.9182365802965
 20
-90.78476096036927
 30
0.0
 11
162.5216617873445
 21
-89.25453337121286
 31
0.0
  0
ELLIPSE
  5
58F2
330
A
100
AcDbEntity
  8
0
  6
Continuous
 62
     7
370
     0
100
AcDbEllipse
 10
163.9182365802965
 20
-96.26198653541848
 30
0.0
 11
4.431763024480892
 21
4.044684968553701
 31
-0.0000000000000004
210
0.0000000000000001
220
0.0
230
0.9999999999999998
 40
0.8554232275997906
 41
6.28318530717958
 42
7.191114654113652
  0
ELLIPSE
  5
58F3
330
A
100
AcDbEntity
  8
0
  6
Continuous
 62
     7
370
     0
100
AcDbEllipse
 10
162.5216617873445
 20
-94.73175894626228
 30
0.0
 11
-4.431763024480892
 21
-4.044684968553701
 31
0.0000000000000004
210
0.0000000000000001
220
0.0
230
0.9999999999999998
 40
0.85542322759979
 41
3.14159265358979
 42
4.049522000523864
  0
ELLIPSE
  5
58F4
330
A
100
AcDbEntity
  8
0
  6
Continuous
 62
     7
370
     0
100
AcDbEllipse
 10
142.2376279504299
 20
-100.7047005555814
 30
0.0
 11
-6.000000000000002
 21
0.0
 31
0.0
210
0.0
220
0.0
230
1.0
 40
0.408248290463863
 41
0.3566571394365221
 42
2.010372405435339
  0
LINE
  5
58F5
330
A
100
AcDbEntity
  8
0
  6
Continuous
 62
     9
370
     0
100
AcDbLine
 10
144.7909632499281
 20
-119.2982270363782
 30
0.0
 11
144.7909632499281
 21
-102.9213225669739
 31
0.0
  0
ELLIPSE
  5
58F6
330
A
100
AcDbEntity
  8
0
  6
Continuous
 62
     7
370
     0
100
AcDbEllipse
 10
142.2376279504299
 20
-117.0816050249858
 30
0.0
 11
-6.000000000000002
 21
0.0
 31
0.0
210
0.0
220
0.0
230
1.0
 40
0.4082482904638633
 41
0.3566571394365323
 42
2.010372405435339
  0
LINE
  5
58F7
330
A
100
AcDbEntity
  8
0
  6
Continuous
 62
     9
370
     0
100
AcDbLine
 10
136.6152127747863
 20
-117.9368289325774
 30
0.0
 11
136.6152127747863
 21
-101.5599244631727
 31
0.0
  0
ELLIPSE
  5
58F8
330
A
100
AcDbEntity
  8
0
  6
Continuous
 62
     7
370
     0
100
AcDbEllipse
 10
142.1817649587119
 20
-100.6434914520153
 30
0.0
 11
2.0
 21
0.0
 31
0.0
210
0.0
220
0.0
230
1.0
 40
0.4082482904638628
 41
6.283185307179547
 42
6.639842446616102
  0
ELLIPSE
  5
58F9
330
A
100
AcDbEntity
  8
0
  6
Continuous
 62
     7
370
     0
100
AcDbEllipse
 10
146.4486997096244
 20
-97.55472503612844
 30
0.0
 11
0.159999999999938
 21
0.0
 31
0.0
210
0.0
220
0.0000000000000001
230
1.0
 40
0.4082482904638624
 41
0.0
 42
0.3566571394365617
  0
LINE
  5
58FA
330
A
100
AcDbEntity
  8
0
  6
Continuous
 62
     7
370
     0
100
AcDbLine
 10
146.0958638555119
 20
-96.98103713316299
 30
0.0
 11
146.5986307809748
 21
-97.5319190652595
 31
0.0
  0
LINE
  5
58FB
330
A
100
AcDbEntity
  8
0
  6
Continuous
 62
     7
370
     0
100
AcDbLine
 10
166.7113861662045
 20
-93.8452161386615
 30
0.0
 11
146.0958638555119
 21
-96.98103713316299
 31
0.0
  0
LINE
  5
58FC
330
A
100
AcDbEntity
  8
0
  6
Continuous
 62
     9
370
     0
100
AcDbLine
 10
168.6521342067603
 20
-95.97169458453278
 30
0.0
 11
166.7113861662043
 21
-93.8452161386615
 31
0.0
  0
ELLIPSE
  5
58FD
330
A
100
AcDbEntity
  8
0
  6
Continuous
 62
     7
370
     0
100
AcDbEllipse
 10
109.9736831059699
 20
-72.69546481962684
 30
0.0
 11
-81.81600000000001
 21
0.0
 31
0.0
210
0.0
220
0.0000000000000001
230
1.0
 40
0.408248290463863
 41
2.010372405435334
 42
2.370572590471021
  0
LINE
  5
58FE
330
A
100
AcDbEntity
  8
0
  6
Continuous
 62
     7
370
     0
100
AcDbLine
 10
135.2186379818345
 20
-100.0296968740165
 30
0.0
 11
136.6152127747863
 21
-101.5599244631727
 31
0.0
  0
LINE
  5
58FF
330
A
100
AcDbEntity
  8
0
  6
Continuous
 62
     7
370
     0
100
AcDbLine
 10
135.4096634214061
 20
-99.30357598400828
 30
0.0
 11
135.2186379818345
 21
-100.0296968740165
 31
0.0
  0
LINE
  5
5900
330
A
100
AcDbEntity
  8
0
  6
Continuous
 62
     7
370
     0
100
AcDbLine
 10
146.5045627013423
 20
-97.61593413969469
 30
0.0
 11
135.4096634214061
 21
-99.30357598400849
 31
0.0
  0
ELLIPSE
  5
5901
330
A
100
AcDbEntity
  8
0
  6
Continuous
 62
     7
370
     0
100
AcDbEllipse
 10
109.9736831059699
 20
-89.07236928903131
 30
0.0
 11
-81.81600000000001
 21
0.0
 31
0.0
210
0.0
220
0.0000000000000001
230
1.0
 40
0.4082482904638633
 41
2.010372405435334
 42
2.088005699371225
  0
ARC
  5
5902
330
A
100
AcDbEntity
  8
0
  6
Continuous
 62
     7
370
     0
100
AcDbCircle
 10
168.848490160181
 20
-99.17034756509508
 30
0.0
 40
4.328599179857535
100
AcDbArc
 50
357.1528772612631
 51
38.55862568497786
  0
LINE
  5
5903
330
A
100
AcDbEntity
  8
0
  6
Continuous
 62
     7
370
     0
100
AcDbLine
 10
173.1717462176189
 20
-146.85464267673
 30
0.0
 11
173.1717462176189
 21
-99.38535435961558
 31
0.0
  0
ARC
  5
5904
330
A
100
AcDbEntity
  8
0
  6
Continuous
 62
     7
370
     0
100
AcDbCircle
 10
164.4573843547562
 20
-146.7564671855375
 30
0.0
 40
8.714914864987981
100
AcDbArc
 50
298.7723015894994
 51
359.3545364050587
  0
ELLIPSE
  5
5905
330
A
100
AcDbEntity
  8
0
  6
Continuous
 62
     7
370
     0
100
AcDbEllipse
 10
109.9736831059699
 20
-131.1192042868446
 30
0.0
 11
-81.81600000000001
 21
0.0
 31
0.0
210
0.0
220
0.0000000000000001
230
1.0
 40
0.408248290463863
 41
2.010372405435334
 42
2.370572590471023
  0
LINE
  5
5906
330
A
100
AcDbEntity
  8
0
  6
Continuous
 62
     9
370
     0
100
AcDbLine
 10
144.7909632499282
 20
-161.3450620341914
 30
0.0
 11
144.7909632499281
 21
-144.968157564787
 31
0.0
  0
ELLIPSE
  5
5907
330
A
100
AcDbEntity
  8
0
  6
Continuous
 62
     7
370
     0
100
AcDbEllipse
 10
109.9736831059699
 20
-114.7422998174401
 30
0.0
 11
81.81600000000001
 21
0.0
 31
-0.0000000000000057
210
0.0000000000000001
220
0.0
230
1.0
 40
0.4082482904638628
 41
5.151965059025129
 42
5.229598352961018
  0
LINE
  5
5908
330
A
100
AcDbEntity
  8
0
  6
Continuous
 62
     7
370
     0
100
AcDbLine
 10
150.4281317110875
 20
-143.7747398459551
 30
0.0
 11
150.4281317110875
 21
-118.104809317546
 31
0.0
  0
LINE
  5
5909
330
A
100
AcDbEntity
  8
0
  6
Continuous
 62
     7
370
     0
100
AcDbLine
 10
148.8302424133918
 20
-141.8231002646981
 30
0.0
 11
148.8717642155695
 21
-141.8685957208417
 31
0.0
  0
LINE
  5
590A
330
A
100
AcDbEntity
  8
0
  6
Continuous
 62
     7
370
     0
100
AcDbLine
 10
148.8717642155697
 20
-141.8685957208417
 30
0.0
 11
148.8717642155697
 21
-141.3220206474008
 31
0.0
  0
LINE
  5
590B
330
A
100
AcDbEntity
  8
0
  6
Continuous
 62
     7
370
     0
100
AcDbLine
 10
149.7025443899865
 20
-141.7199516301991
 30
0.0
 11
149.9495348153614
 21
-141.9905791433646
 31
0.0
  0
LINE
  5
590C
330
A
100
AcDbEntity
  8
0
  6
Continuous
 62
     7
370
     0
100
AcDbLine
 10
149.9495348153614
 20
-141.9905791433646
 30
0.0
 11
149.9495348153614
 21
-139.507311820408
 31
0.0
  0
LINE
  5
590D
330
A
100
AcDbEntity
  8
0
  6
Continuous
 62
     7
370
     0
100
AcDbLine
 10
150.289883425822
 20
-136.4387874104393
 30
0.0
 11
150.289883425822
 21
-139.7437392110191
 31
0.0
  0
ELLIPSE
  5
590E
330
A
100
AcDbEntity
  8
0
  6
Continuous
 62
     7
370
     0
100
AcDbEllipse
 10
147.1214923229164
 20
-134.6196558441103
 30
0.0
 11
4.6969492149459
 21
-5.64884069274507
 31
0.0
210
0.0
220
0.0
230
0.9999999999999998
 40
0.1958878596206924
 41
1.16139381377049
 42
1.175978951540853
  0
ELLIPSE
  5
590F
330
A
100
AcDbEntity
  8
0
  6
Continuous
 62
     7
370
     0
100
AcDbEllipse
 10
147.1214923229164
 20
-134.6196558441103
 30
0.0
 11
4.6969492149459
 21
-5.64884069274507
 31
0.0
210
0.0
220
0.0
230
0.9999999999999998
 40
0.1958878596206924
 41
1.085876967881469
 42
1.16139381377049
  0
LINE
  5
5910
330
A
100
AcDbEntity
  8
0
  6
Continuous
 62
     7
370
     0
100
AcDbLine
 10
149.9495348153614
 20
-135.9431327720339
 30
0.0
 11
149.9495348153614
 21
-124.9013769535913
 31
0.0
  0
LINE
  5
5911
330
A
100
AcDbEntity
  8
0
  6
Continuous
 62
     7
370
     0
100
AcDbLine
 10
150.289883425822
 20
-121.8328525436349
 30
0.0
 11
150.289883425822
 21
-125.1378043442146
 31
0.0
  0
ELLIPSE
  5
5912
330
A
100
AcDbEntity
  8
0
  6
Continuous
 62
     7
370
     0
100
AcDbEllipse
 10
147.1214923229165
 20
-120.0137209773061
 30
0.0
 11
4.6969492149459
 21
-5.64884069274507
 31
0.0
210
0.0
220
0.0
230
0.9999999999999998
 40
0.1958878596206924
 41
1.161393813782114
 42
1.175978951540854
  0
ELLIPSE
  5
5913
330
A
100
AcDbEntity
  8
0
  6
Continuous
 62
     7
370
     0
100
AcDbEllipse
 10
147.1214923229165
 20
-120.0137209773061
 30
0.0
 11
4.6969492149459
 21
-5.64884069274507
 31
0.0
210
0.0
220
0.0
230
0.9999999999999998
 40
0.1958878596206924
 41
1.085876967881469
 42
1.161393813782114
  0
LINE
  5
5914
330
A
100
AcDbEntity
  8
0
  6
Continuous
 62
     7
370
     0
100
AcDbLine
 10
149.9495348153614
 20
-121.3371979052292
 30
0.0
 11
149.9495348153614
 21
-118.8401723794794
 31
0.0
  0
LINE
  5
5915
330
A
100
AcDbEntity
  8
0
  6
Continuous
 62
     7
370
     0
100
AcDbLine
 10
149.9495348153614
 20
-118.8401723794794
 30
0.0
 11
149.4769018348816
 21
-118.3223082235992
 31
0.0
  0
LINE
  5
5916
330
A
100
AcDbEntity
  8
0
  6
Continuous
 62
     7
370
     0
100
AcDbLine
 10
146.0958638555119
 20
-97.67810120011979
 30
0.0
 11
146.0958638555119
 21
-96.98103713316299
 31
0.0
  0
LINE
  5
5917
330
A
100
AcDbEntity
  8
0
  6
Continuous
 62
     9
370
     0
100
AcDbLine
 10
146.5986307809748
 20
-97.57753100699762
 30
0.0
 11
146.5986307809748
 21
-97.53191906525929
 31
0.0
  0
LINE
  5
5918
330
A
100
AcDbEntity
  8
0
  6
Continuous
 62
     7
370
     0
100
AcDbLine
 10
150.4281317110875
 20
-143.7747398459551
 30
0.0
 11
148.6798690583921
 21
-141.8591677206759
 31
0.0
  0
ELLIPSE
  5
5919
330
A
100
AcDbEntity
  8
0
  6
Continuous
 62
     7
370
     0
100
AcDbEllipse
 10
142.1817649587119
 20
-100.6434914520153
 30
0.0
 11
2.0
 21
0.0
 31
-0.0000000000000001
210
0.0000000000000001
220
0.0000000000000001
230
1.0
 40
0.4082482904638628
 41
0.3566571394365151
 42
3.141592653589792
  0
ELLIPSE
  5
591A
330
A
100
AcDbEntity
  8
0
  6
Continuous
 62
     7
370
     0
100
AcDbEllipse
 10
142.1817649587119
 20
-100.6434914520153
 30
0.0
 11
2.0
 21
0.0
 31
0.0
210
0.0
220
0.0
230
1.0
 40
0.4082482904638628
 41
3.141592653589792
 42
6.283185307179547
  0
LINE
  5
591B
330
A
100
AcDbEntity
  8
0
  6
Continuous
 62
     7
370
     0
100
AcDbLine
 10
135.2186379818345
 20
-116.4066013434209
 30
0.0
 11
136.6152127747863
 21
-117.9368289325774
 31
0.0
  0
LINE
  5
591C
330
A
100
AcDbEntity
  8
0
  6
Continuous
 62
     7
370
     0
100
AcDbLine
 10
135.2186379818345
 20
-100.0296968740165
 30
0.0
 11
135.2186379818345
 21
-116.4066013434209
 31
0.0
  0
ELLIPSE
  5
591D
330
A
100
AcDbEntity
  8
0
  6
Continuous
 62
     7
370
     0
100
AcDbEllipse
 10
146.4486997096244
 20
-97.55472503612844
 30
0.0
 11
0.159999999999938
 21
0.0
 31
0.0
210
0.0
220
0.0000000000000001
230
1.0
 40
0.4082482904638627
 41
5.069046119821129
 42
6.283185307179584
  0
ARC
  5
591E
330
A
100
AcDbEntity
  8
0
  6
Continuous
 62
     7
370
     0
100
AcDbCircle
 10
170.113139212813
 20
-98.57994976362379
 30
0.0
 40
2.989570321462153
100
AcDbArc
 50
44.8305245670629
 51
119.2552158218646
  0
ELLIPSE
  5
591F
330
A
100
AcDbEntity
  8
0
  6
Continuous
 62
     7
370
     0
100
AcDbEllipse
 10
166.7113861662045
 20
-99.32244171371308
 30
0.0
 11
-4.431763024480893
 21
-4.044684968553646
 31
0.0000000000000004
210
0.0000000000000001
220
0.0
230
1.0
 40
0.8554232275997904
 41
3.141592653589778
 42
4.049522000523853
  0
ELLIPSE
  5
5920
330
A
100
AcDbEntity
  8
0
  6
Continuous
 62
     7
370
     0
100
AcDbEllipse
 10
142.2376279504299
 20
-159.128440022799
 30
0.0
 11
-6.000000000000002
 21
0.0
 31
0.0
210
0.0
220
0.0
230
1.0
 40
0.408248290463863
 41
0.3566571394365333
 42
2.010372405435334
  0
LINE
  5
5921
330
A
100
AcDbEntity
  8
0
  6
Continuous
 62
     9
370
     0
100
AcDbLine
 10
136.6152127747866
 20
-159.9836639303902
 30
0.0
 11
136.6152127747866
 21
-144.4620866548815
 31
0.0
  0
ELLIPSE
  5
5922
330
A
100
AcDbEntity
  8
0
  6
Continuous
 62
     7
370
     0
100
AcDbEllipse
 10
142.2376279504299
 20
-142.7515355533946
 30
0.0
 11
6.000000000000002
 21
0.0
 31
0.0
210
0.0
220
0.0000000000000001
230
1.0
 40
0.4082482904638633
 41
3.903827280014468
 42
5.151965059025132
  0
LINE
  5
5923
330
A
100
AcDbEntity
  8
0
  6
Continuous
 62
     7
370
     0
100
AcDbLine
 10
135.2186379818345
 20
-158.453436341234
 30
0.0
 11
136.6152127747866
 21
-159.9836639303902
 31
0.0
  0
LINE
  5
5924
330
A
100
AcDbEntity
  8
0
  6
Continuous
 62
     7
370
     0
100
AcDbLine
 10
135.2186379818345
 20
-144.4589765096331
 30
0.0
 11
135.2186379818345
 21
-158.4534363412343
 31
0.0
  0
LINE
  5
5925
330
A
100
AcDbEntity
  8
0
  6
Continuous
 62
     7
370
     0
100
AcDbLine
 10
149.8737926672054
 20
-124.8487459384467
 30
0.0
 11
150.2790404905357
 21
-125.1303408607747
 31
0.0
  0
LINE
  5
5926
330
A
100
AcDbEntity
  8
0
  6
Continuous
 62
     7
370
     0
100
AcDbLine
 10
149.8737926672359
 20
-139.4546808052849
 30
0.0
 11
150.2790404905665
 21
-139.736275727613
 31
0.0
  0
ARC
  5
5927
330
A
100
AcDbEntity
  8
0
  6
Continuous
 62
     7
370
     0
100
AcDbCircle
 10
142.7714233399994
 20
-137.5808836491108
 30
0.0
 40
6.508945496750361
100
AcDbArc
 50
277.1005152566885
 51
295.3859070616756
  0
LINE
  5
5928
330
A
100
AcDbEntity
  8
0
  6
Continuous
 62
     7
370
     0
100
AcDbLine
 10
105.0243277307643
 20
-91.02839445552536
 30
0.0
 11
104.6665568543644
 21
-91.32051315286181
 31
0.0
  0
ARC
  5
5929
330
A
100
AcDbEntity
  8
0
  6
Continuous
 62
     7
370
     0
100
AcDbCircle
 10
127.4188380115656
 20
-101.7914921700821
 30
0.0
 40
2.000000000000023
100
AcDbArc
 50
31.2373988183171
 51
148.7626011959546
  0
LINE
  5
592A
330
A
100
AcDbEntity
  8
0
  6
Continuous
 62
     7
370
     0
100
AcDbLine
 10
106.3260980488821
 20
-88.92628482925829
 30
0.0
 11
104.5372436668827
 21
-90.38687831593881
 31
0.0
  0
LINE
  5
592B
330
A
100
AcDbEntity
  8
0
  6
Continuous
 62
     7
370
     0
100
AcDbLine
 10
101.0129854308856
 20
-93.33176315439656
 30
0.0
 11
99.4984039833891
 21
-94.56841372781411
 31
0.0
  0
LINE
  5
592C
330
A
100
AcDbEntity
  8
0
  6
Continuous
 62
     7
370
     0
100
AcDbLine
 10
121.4188377876344
 20
-118.1263260555063
 30
0.0
 11
121.4188377876344
 21
-141.4064390372175
 31
0.0
  0
LINE
  5
592D
330
A
100
AcDbEntity
  8
0
  6
Continuous
 62
     7
370
     0
100
AcDbLine
 10
148.1817649587109
 20
-141.7190317811867
 30
0.0
 11
148.1817649587109
 21
-118.6076598669548
 31
0.0
  0
LINE
  5
592E
330
A
100
AcDbEntity
  8
0
  6
Continuous
 62
     7
370
     0
100
AcDbLine
 10
148.25599428335
 20
-134.2642922375213
 30
0.0
 11
148.2860237883045
 21
-134.2888112256444
 31
0.0
  0
LINE
  5
592F
330
A
100
AcDbEntity
  8
0
  6
Continuous
 62
     7
370
     0
100
AcDbLine
 10
149.5545374830746
 20
-141.7554514872013
 30
0.0
 11
149.9495348153614
 21
-141.6607103085292
 31
0.0
  0
ARC
  5
5930
330
A
100
AcDbEntity
  8
0
  6
Continuous
 62
     7
370
     0
100
AcDbCircle
 10
142.1817649587108
 20
-102.1040849386947
 30
0.0
 40
2.000000000000034
100
AcDbArc
 50
31.23740459562827
 51
148.7625955736332
  0
LINE
  5
5931
330
A
100
AcDbEntity
  8
0
  6
Continuous
 62
     7
370
     0
100
AcDbLine
 10
168.0384128267735
 20
-93.06263841381776
 30
0.0
 11
167.7590978681833
 21
-92.7565928959865
 31
0.0
  0
LINE
  5
5932
330
A
100
AcDbEntity
  8
0
  6
Continuous
 62
     7
370
     0
100
AcDbLine
 10
168.3499996047755
 20
-92.21730156686668
 30
0.0
 11
166.9534248118235
 21
-90.68707397771026
 31
0.0
  0
LINE
  5
5933
330
A
100
AcDbEntity
  8
0
  6
Continuous
 62
     7
370
     0
100
AcDbLine
 10
172.2335169998981
 20
-96.47247321319651
 30
0.0
 11
171.1431491906854
 21
-95.27775674515948
 31
0.0
  0
ELLIPSE
  5
5934
330
A
100
AcDbEntity
  8
0
  6
Continuous
 62
     7
370
     0
100
AcDbEllipse
 10
-89.6704519308035
 20
-15.01826476144862
 30
0.0
 11
0.0
 21
-3.000000000000001
 31
0.0
210
0.0
220
0.0
230
1.0
 40
0.8386705679454117
 41
4.053630822291975
 42
5.371147138477398
  0
ELLIPSE
  5
5935
330
A
100
AcDbEntity
  8
0
  6
Continuous
 62
     7
370
     0
100
AcDbEllipse
 10
-89.6704519308783
 20
-35.01826476144829
 30
0.0
 11
0.0
 21
-3.000000000000001
 31
0.0
210
0.0
220
0.0
230
1.0
 40
0.8386705679454127
 41
4.053630822243383
 42
5.371147138525977
  0
LINE
  5
5936
330
A
100
AcDbEntity
  8
0
  6
Continuous
 62
     9
370
     0
100
AcDbLine
 10
-99.0500665334248
 20
-41.48341284026662
 30
0.0
 11
-91.6599957747859
 21
-41.48341284026662
 31
0.0
  0
LINE
  5
5937
330
A
100
AcDbEntity
  8
0
  6
Continuous
 62
     9
370
     0
100
AcDbLine
 10
-91.6599957747859
 20
-42.27125904267632
 30
0.0
 11
-98.3889850755585
 21
-42.27125904267632
 31
0.0
  0
LINE
  5
5938
330
A
100
AcDbEntity
  8
0
  6
Continuous
 62
     7
370
     0
100
AcDbLine
 10
-97.30006653342446
 20
-42.46326476144838
 30
0.0
 11
-92.36308399019087
 21
-42.46326476144838
 31
0.0
  0
LINE
  5
5939
330
A
100
AcDbEntity
  8
0
  6
Continuous
 62
     7
370
     0
100
AcDbLine
 10
-92.36308399019087
 20
-42.46326476144838
 30
0.0
 11
-91.6599957747859
 21
-42.46326476144838
 31
0.0
  0
LINE
  5
593A
330
A
100
AcDbEntity
  8
0
  6
Continuous
 62
     9
370
     0
100
AcDbLine
 10
-91.65999577478618
 20
-8.543116682624827
 30
0.0
 11
-99.04439196533207
 21
-8.543116682624827
 31
0.0
  0
LINE
  5
593B
330
A
100
AcDbEntity
  8
0
  6
Continuous
 62
     9
370
     0
100
AcDbLine
 10
-99.04439196533207
 20
-8.543116682624827
 30
0.0
 11
-99.05006652410843
 21
-8.543116682624827
 31
0.0
  0
LINE
  5
593C
330
A
100
AcDbEntity
  8
0
  6
Continuous
 62
     9
370
     0
100
AcDbLine
 10
-98.38898506624197
 20
-7.755270480215074
 30
0.0
 11
-98.38396291539408
 21
-7.755270480215074
 31
0.0
  0
LINE
  5
593D
330
A
100
AcDbEntity
  8
0
  6
Continuous
 62
     9
370
     0
100
AcDbLine
 10
-98.38396291539408
 20
-7.755270480215074
 30
0.0
 11
-91.65999577478618
 21
-7.755270480215074
 31
0.0
  0
LINE
  5
593E
330
A
100
AcDbEntity
  8
0
  6
Continuous
 62
     7
370
     0
100
AcDbLine
 10
-91.65999577478618
 20
-7.563264761443122
 30
0.0
 11
-97.30006652410843
 21
-7.563264761443122
 31
0.0
  0
LINE
  5
593F
330
A
100
AcDbEntity
  8
0
  6
Continuous
 62
     7
370
     0
100
AcDbLine
 10
-76.89672303438754
 20
14.99923338575143
 30
0.0
 11
-81.89672303438754
 21
14.99923338575143
 31
0.0
  0
LINE
  5
5940
330
A
100
AcDbEntity
  8
0
  6
Continuous
 62
     7
370
     0
100
AcDbLine
 10
-76.89672303438658
 20
14.98173523855155
 30
0.0
 11
-76.89672303438754
 21
14.99923338575143
 31
0.0
  0
LINE
  5
5941
330
A
100
AcDbEntity
  8
0
  6
Continuous
 62
     7
370
     0
100
AcDbLine
 10
-81.89672303438646
 20
14.98173523855155
 30
0.0
 11
-81.89672303438754
 21
14.99923338575143
 31
0.0
  0
LINE
  5
5942
330
A
100
AcDbEntity
  8
0
  6
Continuous
 62
     7
370
     0
100
AcDbLine
 10
-81.89672303438467
 20
-65.04903906136433
 30
0.0
 11
-76.89672303438482
 21
-65.04903906136433
 31
0.0
  0
LINE
  5
5943
330
A
100
AcDbEntity
  8
0
  6
Continuous
 62
     7
370
     0
100
AcDbLine
 10
-76.89672303438482
 20
-65.04903906136433
 30
0.0
 11
-76.89672303438459
 21
-65.01826476144811
 31
0.0
  0
LINE
  5
5944
330
A
100
AcDbEntity
  8
0
  6
Continuous
 62
     7
370
     0
100
AcDbLine
 10
-81.89672303438467
 20
-65.04903906136433
 30
0.0
 11
-81.89672303438467
 21
-65.01826476144811
 31
0.0
  0
LINE
  5
5945
330
A
100
AcDbEntity
  8
0
  6
Continuous
 62
     7
370
     0
100
AcDbLine
 10
-100.8967230343825
 20
-65.01826476144316
 30
0.0
 11
-108.3910475526629
 21
-65.01826476144316
 31
0.0
  0
LINE
  5
5946
330
A
100
AcDbEntity
  8
0
  6
Continuous
 62
     7
370
     0
100
AcDbLine
 10
-100.8967230343825
 20
-42.59326476144309
 30
0.0
 11
-108.3910475526629
 21
-42.59326476144309
 31
0.0
  0
LINE
  5
5947
330
A
100
AcDbEntity
  8
0
  6
Continuous
 62
     7
370
     0
100
AcDbLine
 10
-108.3910475526629
 20
-7.443264761443173
 30
0.0
 11
-100.8967230343825
 21
-7.443264761443173
 31
0.0
  0
LINE
  5
5948
330
A
100
AcDbEntity
  8
0
  6
Continuous
 62
     7
370
     0
100
AcDbLine
 10
-100.8967230343825
 20
14.98173523855672
 30
0.0
 11
-108.3910475526629
 21
14.98173523855672
 31
0.0
  0
LINE
  5
5949
330
A
100
AcDbEntity
  8
0
  6
Continuous
 62
     7
370
     0
100
AcDbLine
 10
-107.4660769968781
 20
-42.59326476144309
 30
0.0
 11
-107.4660769968781
 21
-41.26326476144835
 31
0.0
  0
LINE
  5
594A
330
A
100
AcDbEntity
  8
0
  6
Continuous
 62
     7
370
     0
100
AcDbLine
 10
-107.4660769968781
 20
-8.763264761448112
 30
0.0
 11
-107.4660769968782
 21
-7.443264761443173
 31
0.0
  0
LINE
  5
594B
330
A
100
AcDbEntity
  8
0
  6
Continuous
 62
     9
370
     0
100
AcDbLine
 10
-95.04661367606644
 20
-8.763264761448112
 30
0.0
 11
-95.04661367606644
 21
-41.26326476144835
 31
0.0
  0
LINE
  5
594C
330
A
100
AcDbEntity
  8
0
  6
Continuous
 62
     7
370
     0
100
AcDbLine
 10
-95.04661367606644
 20
-8.763264761448112
 30
0.0
 11
-91.65999577478618
 21
-8.763264761448112
 31
0.0
  0
LINE
  5
594D
330
A
100
AcDbEntity
  8
0
  6
Continuous
 62
     7
370
     0
100
AcDbLine
 10
-95.04661367606644
 20
-41.26326476144835
 30
0.0
 11
-91.65999577478618
 21
-41.26326476144835
 31
0.0
  0
LINE
  5
594E
330
A
100
AcDbEntity
  8
0
  6
Continuous
 62
     9
370
     0
100
AcDbLine
 10
-95.66587068427788
 20
-41.26326476144835
 30
0.0
 11
-95.66587068427788
 21
-8.763264761448112
 31
0.0
  0
LINE
  5
594F
330
A
100
AcDbEntity
  8
0
  6
Continuous
 62
     7
370
     0
100
AcDbLine
 10
-95.66587068427788
 20
-8.763264761448112
 30
0.0
 11
-95.04661367606644
 21
-8.763264761448112
 31
0.0
  0
LINE
  5
5950
330
A
100
AcDbEntity
  8
0
  6
Continuous
 62
     7
370
     0
100
AcDbLine
 10
-95.04661367606644
 20
-41.26326476144835
 30
0.0
 11
-95.66587068427788
 21
-41.26326476144835
 31
0.0
  0
LINE
  5
5951
330
A
100
AcDbEntity
  8
0
  6
Continuous
 62
     9
370
     0
100
AcDbLine
 10
-98.7780030972776
 20
-8.763264761448112
 30
0.0
 11
-98.7780030972776
 21
-41.26326476144835
 31
0.0
  0
LINE
  5
5952
330
A
100
AcDbEntity
  8
0
  6
Continuous
 62
     7
370
     0
100
AcDbLine
 10
-95.66587068427812
 20
-8.763264761448112
 30
0.0
 11
-98.7780030972776
 21
-8.763264761448112
 31
0.0
  0
LINE
  5
5953
330
A
100
AcDbEntity
  8
0
  6
Continuous
 62
     7
370
     0
100
AcDbLine
 10
-95.66587068427798
 20
-41.26326476144835
 30
0.0
 11
-98.7780030972776
 21
-41.26326476144835
 31
0.0
  0
LINE
  5
5954
330
A
100
AcDbEntity
  8
0
  6
Continuous
 62
     9
370
     0
100
AcDbLine
 10
-99.39112289206391
 20
-41.26326476144835
 30
0.0
 11
-99.39112289206391
 21
-8.763264761448112
 31
0.0
  0
LINE
  5
5955
330
A
100
AcDbEntity
  8
0
  6
Continuous
 62
     7
370
     0
100
AcDbLine
 10
-99.39112289206391
 20
-8.763264761448112
 30
0.0
 11
-98.77800309727746
 21
-8.763264761448112
 31
0.0
  0
LINE
  5
5956
330
A
100
AcDbEntity
  8
0
  6
Continuous
 62
     7
370
     0
100
AcDbLine
 10
-98.77800309727746
 20
-41.26326476144835
 30
0.0
 11
-99.39112289206391
 21
-41.26326476144835
 31
0.0
  0
LINE
  5
5957
330
A
100
AcDbEntity
  8
0
  6
Continuous
 62
     9
370
     0
100
AcDbLine
 10
-108.1395366039622
 20
-41.26326476144835
 30
0.0
 11
-108.1395366039622
 21
-8.763264761448112
 31
0.0
  0
LINE
  5
5958
330
A
100
AcDbEntity
  8
0
  6
Continuous
 62
     7
370
     0
100
AcDbLine
 10
-108.1395366039624
 20
-8.763264761448112
 30
0.0
 11
-99.39112289206397
 21
-8.763264761448112
 31
0.0
  0
LINE
  5
5959
330
A
100
AcDbEntity
  8
0
  6
Continuous
 62
     7
370
     0
100
AcDbLine
 10
-108.1395366039622
 20
-41.26326476144835
 30
0.0
 11
-99.39112289206397
 21
-41.26326476144835
 31
0.0
  0
LINE
  5
595A
330
A
100
AcDbEntity
  8
0
  6
Continuous
 62
     7
370
     0
100
AcDbLine
 10
-108.1967232270489
 20
-41.26326476144835
 30
0.0
 11
-108.1395366039622
 21
-41.26326476144835
 31
0.0
  0
LINE
  5
595B
330
A
100
AcDbEntity
  8
0
  6
Continuous
 62
     7
370
     0
100
AcDbLine
 10
-108.1967232270489
 20
-8.763264761448112
 30
0.0
 11
-108.1395366039622
 21
-8.763264761448112
 31
0.0
  0
LINE
  5
595C
330
A
100
AcDbEntity
  8
0
  6
Continuous
 62
     9
370
     0
100
AcDbLine
 10
-106.4467230343822
 20
-41.48341284026678
 30
0.0
 11
-99.05006653342441
 21
-41.48341284026678
 31
0.0
  0
LINE
  5
595D
330
A
100
AcDbEntity
  8
0
  6
Continuous
 62
     9
370
     0
100
AcDbLine
 10
-98.38898507555791
 20
-42.27125904267632
 30
0.0
 11
-105.7856415765161
 21
-42.27125904267632
 31
0.0
  0
LINE
  5
595E
330
A
100
AcDbEntity
  8
0
  6
Continuous
 62
     7
370
     0
100
AcDbLine
 10
-104.6967230343822
 20
-42.46326476144838
 30
0.0
 11
-103.6852279110755
 21
-42.46326476144838
 31
0.0
  0
LINE
  5
595F
330
A
100
AcDbEntity
  8
0
  6
Continuous
 62
     7
370
     0
100
AcDbLine
 10
-103.6852279110755
 20
-42.46326476144838
 30
0.0
 11
-97.30006653342414
 21
-42.46326476144838
 31
0.0
  0
LINE
  5
5960
330
A
100
AcDbEntity
  8
0
  6
Continuous
 62
     9
370
     0
100
AcDbLine
 10
-99.04439196533196
 20
-8.54311668263
 30
0.0
 11
-104.1826261669844
 21
-8.54311668263
 31
0.0
  0
LINE
  5
5961
330
A
100
AcDbEntity
  8
0
  6
Continuous
 62
     9
370
     0
100
AcDbLine
 10
-105.785641580008
 20
-7.755270480220247
 30
0.0
 11
-103.7818494847976
 21
-7.755270480220247
 31
0.0
  0
LINE
  5
5962
330
A
100
AcDbEntity
  8
0
  6
Continuous
 62
     9
370
     0
100
AcDbLine
 10
-104.1826261669843
 20
-8.54311668263
 30
0.0
 11
-106.4467230378748
 21
-8.54311668263
 31
0.0
  0
LINE
  5
5963
330
A
100
AcDbEntity
  8
0
  6
Continuous
 62
     9
370
     0
100
AcDbLine
 10
-103.7818494847976
 20
-7.755270480220247
 30
0.0
 11
-98.38396291539392
 21
-7.755270480220247
 31
0.0
  0
LINE
  5
5964
330
A
100
AcDbEntity
  8
0
  6
Continuous
 62
     7
370
     0
100
AcDbLine
 10
-97.30006652410816
 20
-7.563264761448464
 30
0.0
 11
-104.6967230378746
 21
-7.563264761448464
 31
0.0
  0
LINE
  5
5965
330
A
100
AcDbEntity
  8
0
  6
Continuous
 62
     7
370
     0
100
AcDbLine
 10
-54.14976411014936
 20
-64.01826476144828
 30
0.0
 11
-54.83176247021191
 21
-64.01826476144828
 31
0.0
  0
ELLIPSE
  5
5966
330
A
100
AcDbEntity
  8
0
  6
Continuous
 62
     7
370
     0
100
AcDbEllipse
 10
-54.83176247021191
 20
-57.51826476144827
 30
0.0
 11
0.0
 21
-6.5
 31
0.0
210
0.0
220
0.0
230
1.0
 40
0.7313537016191706
 41
6.283185307179584
 42
7.853981633974482
  0
LINE
  5
5967
330
A
100
AcDbEntity
  8
0
  6
Continuous
 62
     9
370
     0
100
AcDbLine
 10
-50.07796340968724
 20
-57.51826476144827
 30
0.0
 11
-49.39596504962475
 21
-57.51826476144827
 31
0.0
  0
ELLIPSE
  5
5968
330
A
100
AcDbEntity
  8
0
  6
Continuous
 62
     7
370
     0
100
AcDbEllipse
 10
-54.14976411014936
 20
-57.51826476144827
 30
0.0
 11
0.0
 21
6.5
 31
0.0
210
0.0
220
0.0
230
1.0
 40
0.7313537016191706
 41
3.141592653589792
 42
4.712388980384688
  0
LINE
  5
5969
330
A
100
AcDbEntity
  8
0
  6
Continuous
 62
     7
370
     0
100
AcDbLine
 10
-50.07796340968724
 20
-57.51826476144827
 30
0.0
 11
-50.07796340968724
 21
7.481735238551549
 31
0.0
  0
LINE
  5
596A
330
A
100
AcDbEntity
  8
0
  6
Continuous
 62
     9
370
     0
100
AcDbLine
 10
-49.39596504962475
 20
7.481735238551549
 30
0.0
 11
-50.07796340968724
 21
7.481735238551549
 31
0.0
  0
LINE
  5
596B
330
A
100
AcDbEntity
  8
0
  6
Continuous
 62
     7
370
     0
100
AcDbLine
 10
-49.39596504962475
 20
-57.51826476144827
 30
0.0
 11
-49.39596504962475
 21
7.481735238551549
 31
0.0
  0
ELLIPSE
  5
596C
330
A
100
AcDbEntity
  8
0
  6
Continuous
 62
     7
370
     0
100
AcDbEllipse
 10
-54.83176247021191
 20
7.481735238551549
 30
0.0
 11
0.0
 21
-6.5
 31
0.0
210
0.0
220
0.0
230
1.0
 40
0.7313537016191706
 41
1.570796326794896
 42
3.141592653589792
  0
LINE
  5
596D
330
A
100
AcDbEntity
  8
0
  6
Continuous
 62
     7
370
     0
100
AcDbLine
 10
-58.23327273076818
 20
-64.01826476144828
 30
0.0
 11
-54.83176247021191
 21
-64.01826476144828
 31
0.0
  0
LINE
  5
596E
330
A
100
AcDbEntity
  8
0
  6
Continuous
 62
     7
370
     0
100
AcDbLine
 10
-54.83176247021191
 20
13.98173523855155
 30
0.0
 11
-58.23327273076818
 21
13.98173523855155
 31
0.0
  0
LINE
  5
596F
330
A
100
AcDbEntity
  8
0
  6
Continuous
 62
     7
370
     0
100
AcDbLine
 10
-54.83176247021191
 20
13.98173523855155
 30
0.0
 11
-54.14976411014936
 21
13.98173523855155
 31
0.0
  0
ELLIPSE
  5
5970
330
A
100
AcDbEntity
  8
0
  6
Continuous
 62
     7
370
     0
100
AcDbEllipse
 10
-54.14976411014936
 20
7.481735238551549
 30
0.0
 11
0.0
 21
6.5
 31
0.0
210
0.0
220
0.0
230
1.0
 40
0.7313537016191713
 41
4.712388980384688
 42
6.283185307179584
  0
LINE
  5
5971
330
A
100
AcDbEntity
  8
0
  6
Continuous
 62
     9
370
     0
100
AcDbLine
 10
-48.66461134801107
 20
-57.51826476144509
 30
0.0
 11
-45.25461954769865
 21
-57.51826476144509
 31
0.0
  0
ELLIPSE
  5
5972
330
A
100
AcDbEntity
  8
0
  6
Continuous
 62
     7
370
     0
100
AcDbEllipse
 10
-50.73977230984008
 20
-57.51826476144509
 30
0.0
 11
0.0
 21
7.500000000000062
 31
0.0
210
0.0
220
0.0
230
1.0
 40
0.731353701619171
 41
3.141592653589792
 42
4.712388980384688
  0
LINE
  5
5973
330
A
100
AcDbEntity
  8
0
  6
Continuous
 62
     7
370
     0
100
AcDbLine
 10
-50.73977230984008
 20
-65.0182647614418
 30
0.0
 11
-54.1497641101526
 21
-65.0182647614418
 31
0.0
  0
ELLIPSE
  5
5974
330
A
100
AcDbEntity
  8
0
  6
Continuous
 62
     7
370
     0
100
AcDbEllipse
 10
-54.1497641101526
 20
-57.51826476144509
 30
0.0
 11
0.0
 21
-7.49999999999995
 31
0.0
210
0.0
220
0.0
230
1.0
 40
0.7313537016191708
 41
6.283185307179584
 42
7.853981633974482
  0
LINE
  5
5975
330
A
100
AcDbEntity
  8
0
  6
Continuous
 62
     7
370
     0
100
AcDbLine
 10
-48.66461134801107
 20
-57.51826476144509
 30
0.0
 11
-48.66461134801107
 21
7.481735238526367
 31
0.0
  0
LINE
  5
5976
330
A
100
AcDbEntity
  8
0
  6
Continuous
 62
     9
370
     0
100
AcDbLine
 10
-45.25461954769865
 20
7.481735238526367
 30
0.0
 11
-48.66461134801107
 21
7.481735238526367
 31
0.0
  0
LINE
  5
5977
330
A
100
AcDbEntity
  8
0
  6
Continuous
 62
     7
370
     0
100
AcDbLine
 10
-45.25461954769865
 20
-57.51826476144509
 30
0.0
 11
-45.25461954769865
 21
7.481735238526367
 31
0.0
  0
LINE
  5
5978
330
A
100
AcDbEntity
  8
0
  6
Continuous
 62
     7
370
     0
100
AcDbLine
 10
-60.96974771078766
 20
-65.0182647614418
 30
0.0
 11
-54.1497641101526
 21
-65.0182647614418
 31
0.0
  0
LINE
  5
5979
330
A
100
AcDbEntity
  8
0
  6
Continuous
 62
     7
370
     0
100
AcDbLine
 10
-54.1497641101526
 20
14.98173523852318
 30
0.0
 11
-60.96974771076531
 21
14.98173523852318
 31
0.0
  0
ELLIPSE
  5
597A
330
A
100
AcDbEntity
  8
0
  6
Continuous
 62
     7
370
     0
100
AcDbEllipse
 10
-54.1497641101526
 20
7.481735238526367
 30
0.0
 11
0.0
 21
-7.500000000000007
 31
0.0
210
0.0
220
0.0
230
1.0
 40
0.7313537016191708
 41
1.570796326794896
 42
3.141592653589792
  0
LINE
  5
597B
330
A
100
AcDbEntity
  8
0
  6
Continuous
 62
     7
370
     0
100
AcDbLine
 10
-54.1497641101526
 20
14.98173523852318
 30
0.0
 11
-50.73977230984008
 21
14.98173523852318
 31
0.0
  0
ELLIPSE
  5
597C
330
A
100
AcDbEntity
  8
0
  6
Continuous
 62
     7
370
     0
100
AcDbEllipse
 10
-50.73977230984008
 20
7.481735238526367
 30
0.0
 11
0.0
 21
7.49999999999995
 31
0.0
210
0.0
220
0.0
230
1.0
 40
0.731353701619171
 41
4.712388980384688
 42
6.283185307179584
  0
LINE
  5
597D
330
A
100
AcDbEntity
  8
0
  6
Continuous
 62
     7
370
     0
100
AcDbLine
 10
-98.07957777038229
 20
-7.443264761448459
 30
0.0
 11
-91.65999577478618
 21
-7.443264761448459
 31
0.0
  0
LINE
  5
597E
330
A
100
AcDbEntity
  8
0
  6
Continuous
 62
     9
370
     0
100
AcDbLine
 10
-98.07957777038229
 20
-7.443264761448459
 30
0.0
 11
-98.07957777038229
 21
14.98173523855155
 31
0.0
  0
LINE
  5
597F
330
A
100
AcDbEntity
  8
0
  6
Continuous
 62
     7
370
     0
100
AcDbLine
 10
-98.07957777038211
 20
14.98173523855155
 30
0.0
 11
-65.70843763856681
 21
14.98173523855155
 31
0.0
  0
ARC
  5
5980
330
A
100
AcDbEntity
  8
0
  6
Continuous
 62
     7
370
     0
100
AcDbCircle
 10
-65.44568182602154
 20
7.059759402477879
 30
0.0
 40
7.926332176004302
100
AcDbArc
 50
3.051710316249973
 51
91.89968795531958
  0
LINE
  5
5981
330
A
100
AcDbEntity
  8
0
  6
Continuous
 62
     7
370
     0
100
AcDbLine
 10
-57.5305900288198
 20
-57.51826476144827
 30
0.0
 11
-57.5305900288198
 21
7.481735238551549
 31
0.0
  0
ARC
  5
5982
330
A
100
AcDbEntity
  8
0
  6
Continuous
 62
     7
370
     0
100
AcDbCircle
 10
-65.43314131457889
 20
-57.10996284424475
 30
0.0
 40
7.913092144013385
100
AcDbArc
 50
268.0062786101123
 51
357.0423231183204
  0
LINE
  5
5983
330
A
100
AcDbEntity
  8
0
  6
Continuous
 62
     7
370
     0
100
AcDbLine
 10
-98.07957777038211
 20
-65.01826476144811
 30
0.0
 11
-65.70843763856681
 21
-65.01826476144811
 31
0.0
  0
LINE
  5
5984
330
A
100
AcDbEntity
  8
0
  6
Continuous
 62
     9
370
     0
100
AcDbLine
 10
-98.07957777038229
 20
-65.01826476144811
 30
0.0
 11
-98.07957777038229
 21
-42.59326476144844
 31
0.0
  0
LINE
  5
5985
330
A
100
AcDbEntity
  8
0
  6
Continuous
 62
     7
370
     0
100
AcDbLine
 10
-91.65999577478618
 20
-42.59326476144844
 30
0.0
 11
-98.07957777038229
 21
-42.59326476144844
 31
0.0
  0
LINE
  5
5986
330
A
100
AcDbEntity
  8
0
  6
Continuous
 62
     7
370
     0
100
AcDbLine
 10
-91.65999577478618
 20
-42.59326476144844
 30
0.0
 11
-91.65999577478618
 21
-7.443264761448459
 31
0.0
  0
LINE
  5
5987
330
A
100
AcDbEntity
  8
0
  6
Continuous
 62
     9
370
     0
100
AcDbLine
 10
-57.5305900288198
 20
-57.51826476144827
 30
0.0
 11
-55.48459494863227
 21
-57.51826476144827
 31
0.0
  0
ELLIPSE
  5
5988
330
A
100
AcDbEntity
  8
0
  6
Continuous
 62
     7
370
     0
100
AcDbEllipse
 10
-60.96974771077611
 20
-57.51826476144827
 30
0.0
 11
0.0
 21
7.49999999999995
 31
0.0
210
0.0
220
0.0
230
1.0
 40
0.731353701619171
 41
3.141592653589792
 42
4.712388980384688
  0
LINE
  5
5989
330
A
100
AcDbEntity
  8
0
  6
Continuous
 62
     7
370
     0
100
AcDbLine
 10
-60.96974771077611
 20
-65.01826476144811
 30
0.0
 11
-65.70843763856664
 21
-65.01826476144811
 31
0.0
  0
ELLIPSE
  5
598A
330
A
100
AcDbEntity
  8
0
  6
Continuous
 62
     7
370
     0
100
AcDbEllipse
 10
-60.96974771077611
 20
7.481735238551549
 30
0.0
 11
0.0
 21
7.500000000000007
 31
0.0
210
0.0
220
0.0
230
1.0
 40
0.7313537016191708
 41
4.712388980384688
 42
6.283185307179584
  0
LINE
  5
598B
330
A
100
AcDbEntity
  8
0
  6
Continuous
 62
     9
370
     0
100
AcDbLine
 10
-55.48459494863227
 20
7.481735238551549
 30
0.0
 11
-57.5305900288198
 21
7.481735238551549
 31
0.0
  0
LINE
  5
598C
330
A
100
AcDbEntity
  8
0
  6
Continuous
 62
     7
370
     0
100
AcDbLine
 10
-65.70843763856681
 20
14.98173523855155
 30
0.0
 11
-60.96974771077611
 21
14.98173523855155
 31
0.0
  0
LINE
  5
598D
330
A
100
AcDbEntity
  8
0
  6
Continuous
 62
     7
370
     0
100
AcDbLine
 10
-55.48459494863227
 20
-57.51826476144827
 30
0.0
 11
-55.48459494863227
 21
7.481735238551549
 31
0.0
  0
LINE
  5
598E
330
A
100
AcDbEntity
  8
0
  6
Continuous
 62
     7
370
     0
100
AcDbLine
 10
-100.9364662096287
 20
-65.01826476144811
 30
0.0
 11
-98.07957777038229
 21
-65.01826476144811
 31
0.0
  0
LINE
  5
598F
330
A
100
AcDbEntity
  8
0
  6
Continuous
 62
     7
370
     0
100
AcDbLine
 10
-98.07957777038229
 20
-42.59326476144844
 30
0.0
 11
-100.9364662096287
 21
-42.59326476144844
 31
0.0
  0
LINE
  5
5990
330
A
100
AcDbEntity
  8
0
  6
Continuous
 62
     7
370
     0
100
AcDbLine
 10
-100.9364662096287
 20
14.98173523855155
 30
0.0
 11
-98.07957777038229
 21
14.98173523855155
 31
0.0
  0
LINE
  5
5991
330
A
100
AcDbEntity
  8
0
  6
Continuous
 62
     7
370
     0
100
AcDbLine
 10
-100.9364662096287
 20
-7.443264761448459
 30
0.0
 11
-98.07957777038229
 21
-7.443264761448459
 31
0.0
  0
LINE
  5
5992
330
A
100
AcDbEntity
  8
0
  6
Continuous
 62
     7
370
     0
100
AcDbLine
 10
-99.05006653342441
 20
-41.26326476144835
 30
0.0
 11
-99.05006653342441
 21
-41.48341284026662
 31
0.0
  0
ARC
  5
5993
330
A
100
AcDbEntity
  8
0
  6
Continuous
 62
     7
370
     0
100
AcDbCircle
 10
-98.25006653342441
 20
-41.48341284026662
 30
0.0
 40
0.7999999999999674
100
AcDbArc
 50
180.0
 51
259.9999999999982
  0
LINE
  5
5994
330
A
100
AcDbEntity
  8
0
  6
Continuous
 62
     7
370
     0
100
AcDbLine
 10
-98.38898507555791
 20
-42.27125904267632
 30
0.0
 11
-97.30006653342428
 21
-42.46326476144838
 31
0.0
  0
LINE
  5
5995
330
A
100
AcDbEntity
  8
0
  6
Continuous
 62
     7
370
     0
100
AcDbLine
 10
-99.05006652410843
 20
-8.543116682624827
 30
0.0
 11
-99.05006652410843
 21
-8.763264761443167
 31
0.0
  0
ARC
  5
5996
330
A
100
AcDbEntity
  8
0
  6
Continuous
 62
     7
370
     0
100
AcDbCircle
 10
-98.25006652410843
 20
-8.543116682624827
 30
0.0
 40
0.7999999999999714
100
AcDbArc
 50
100.0000000000018
 51
180.0
  0
LINE
  5
5997
330
A
100
AcDbEntity
  8
0
  6
Continuous
 62
     7
370
     0
100
AcDbLine
 10
-97.30006652410843
 20
-7.563264761443122
 30
0.0
 11
-98.38898506624197
 21
-7.755270480215074
 31
0.0
  0
LINE
  5
5998
330
A
100
AcDbEntity
  8
0
  6
Continuous
 62
     7
370
     0
100
AcDbLine
 10
-98.19672303438229
 20
-42.59326476144844
 30
0.0
 11
-98.19672303438229
 21
-42.46326476144838
 31
0.0
  0
LINE
  5
5999
330
A
100
AcDbEntity
  8
0
  6
Continuous
 62
     7
370
     0
100
AcDbLine
 10
-98.19672303438229
 20
-7.563264761448464
 30
0.0
 11
-98.19672303438229
 21
-7.443264761448459
 31
0.0
  0
LINE
  5
599A
330
A
100
AcDbEntity
  8
0
  6
Continuous
 62
     7
370
     0
100
AcDbLine
 10
-103.1967230343822
 20
-7.443264761443173
 30
0.0
 11
-103.1967230343822
 21
-7.563264761448464
 31
0.0
  0
LINE
  5
599B
330
A
100
AcDbEntity
  8
0
  6
Continuous
 62
     7
370
     0
100
AcDbLine
 10
-103.1967230343822
 20
-42.46326476144838
 30
0.0
 11
-103.1967230343822
 21
-42.59326476144309
 31
0.0
  0
ARC
  5
599C
330
A
100
AcDbEntity
  8
0
  6
Continuous
 62
     7
370
     0
100
AcDbCircle
 10
-100.6967230343823
 20
-63.01826476144407
 30
0.0
 40
2.499999999999944
100
AcDbArc
 50
270.0
 51
306.8698976456793
  0
ARC
  5
599D
330
A
100
AcDbEntity
  8
0
  6
Continuous
 62
     7
370
     0
100
AcDbCircle
 10
-100.6967230343823
 20
-63.01826476144407
 30
0.0
 40
2.49999999999998
100
AcDbArc
 50
233.1301023541208
 51
270.0
  0
ARC
  5
599E
330
A
100
AcDbEntity
  8
0
  6
Continuous
 62
     7
370
     0
100
AcDbCircle
 10
-100.6967230343823
 20
12.98173523855581
 30
0.0
 40
2.500000000000055
100
AcDbArc
 50
90.0
 51
126.8698976458095
  0
ARC
  5
599F
330
A
100
AcDbEntity
  8
0
  6
Continuous
 62
     7
370
     0
100
AcDbCircle
 10
-100.6967230343823
 20
12.98173523855581
 30
0.0
 40
2.500000000000043
100
AcDbArc
 50
53.13010235399054
 51
90.0
  0
LINE
  5
59A0
330
A
100
AcDbEntity
  8
0
  6
Continuous
 62
     7
370
     0
100
AcDbLine
 10
-108.3910475526629
 20
-42.59326476144309
 30
0.0
 11
-108.3910475526629
 21
-65.01826476144316
 31
0.0
  0
LINE
  5
59A1
330
A
100
AcDbEntity
  8
0
  6
Continuous
 62
     7
370
     0
100
AcDbLine
 10
-108.3910475526629
 20
14.98173523855672
 30
0.0
 11
-108.3910475526629
 21
-7.443264761443173
 31
0.0
  0
LINE
  5
59A2
330
A
100
AcDbEntity
  8
0
  6
Continuous
 62
     7
370
     0
100
AcDbLine
 10
-108.1967232270489
 20
-8.763264761448112
 30
0.0
 11
-108.1967232270489
 21
-41.26326476144835
 31
0.0
  0
LINE
  5
59A3
330
A
100
AcDbEntity
  8
0
  6
Continuous
 62
     7
370
     0
100
AcDbLine
 10
-106.4467230343822
 20
-41.26326476144835
 30
0.0
 11
-106.4467230343822
 21
-41.48341284026678
 31
0.0
  0
ARC
  5
59A4
330
A
100
AcDbEntity
  8
0
  6
Continuous
 62
     7
370
     0
100
AcDbCircle
 10
-105.6467230343824
 20
-41.48341284026678
 30
0.0
 40
0.7999999999999674
100
AcDbArc
 50
180.0
 51
260.0000000000014
  0
LINE
  5
59A5
330
A
100
AcDbEntity
  8
0
  6
Continuous
 62
     7
370
     0
100
AcDbLine
 10
-105.7856415765159
 20
-42.27125904267632
 30
0.0
 11
-104.6967230343822
 21
-42.46326476144838
 31
0.0
  0
ARC
  5
59A6
330
A
100
AcDbEntity
  8
0
  6
Continuous
 62
     7
370
     0
100
AcDbCircle
 10
-105.6467230378746
 20
-8.54311668263
 30
0.0
 40
0.8000000000000163
100
AcDbArc
 50
99.99999999999538
 51
180.0
  0
LINE
  5
59A7
330
A
100
AcDbEntity
  8
0
  6
Continuous
 62
     7
370
     0
100
AcDbLine
 10
-106.4467230378744
 20
-8.54311668263
 30
0.0
 11
-106.4467230378744
 21
-8.763264761448281
 31
0.0
  0
LINE
  5
59A8
330
A
100
AcDbEntity
  8
0
  6
Continuous
 62
     7
370
     0
100
AcDbLine
 10
-104.6967230378744
 20
-7.563264761448464
 30
0.0
 11
-105.785641580008
 21
-7.755270480220247
 31
0.0
  0
LINE
  5
59A9
330
A
100
AcDbEntity
  8
0
  6
Continuous
 62
     7
370
     0
100
AcDbLine
 10
-95.80006653761897
 20
-7.443264761465628
 30
0.0
 11
-95.80006653761897
 21
-7.563264761460516
 31
0.0
  0
LINE
  5
59AA
330
A
100
AcDbEntity
  8
0
  6
Continuous
 62
     7
370
     0
100
AcDbLine
 10
-95.80006653761897
 20
-42.46326476149164
 30
0.0
 11
-95.80006653761897
 21
-42.59326476149197
 31
0.0
  0
ARC
  5
59AB
330
A
100
AcDbEntity
  8
0
  6
Continuous
 62
     7
370
     0
100
AcDbCircle
 10
-93.30006653761849
 20
-63.01826476147471
 30
0.0
 40
2.500000000000002
100
AcDbArc
 50
270.0
 51
306.8698976468843
  0
ARC
  5
59AC
330
A
100
AcDbEntity
  8
0
  6
Continuous
 62
     7
370
     0
100
AcDbCircle
 10
-93.30006653761849
 20
-63.01826476147471
 30
0.0
 40
2.500000000000013
100
AcDbArc
 50
233.1301023531157
 51
270.0
  0
ARC
  5
59AD
330
A
100
AcDbEntity
  8
0
  6
Continuous
 62
     7
370
     0
100
AcDbCircle
 10
-93.30006653761849
 20
12.98173523855371
 30
0.0
 40
2.500000000000002
100
AcDbArc
 50
90.0
 51
126.869897645956
  0
ARC
  5
59AE
330
A
100
AcDbEntity
  8
0
  6
Continuous
 62
     7
370
     0
100
AcDbCircle
 10
-93.30006653761849
 20
12.98173523855371
 30
0.0
 40
2.499999999999969
100
AcDbArc
 50
53.13010235404394
 51
90.0
  0
LINE
  5
59AF
330
A
100
AcDbEntity
  8
0
  6
Continuous
 62
     7
370
     0
100
AcDbLine
 10
-100.9364662096287
 20
-42.59326476144844
 30
0.0
 11
-100.9364662096287
 21
-65.01826476144811
 31
0.0
  0
LINE
  5
59B0
330
A
100
AcDbEntity
  8
0
  6
Continuous
 62
     7
370
     0
100
AcDbLine
 10
-100.9364662096287
 20
14.98173523855155
 30
0.0
 11
-100.9364662096287
 21
-7.443264761448459
 31
0.0
  0
LINE
  5
59B1
330
A
100
AcDbEntity
  8
0
  6
Continuous
 62
     7
370
     0
100
AcDbLine
 10
137.8039177892935
 20
-43.1182647614296
 30
0.0
 11
137.8039177892935
 21
-56.91826476143012
 31
0.0
  0
LINE
  5
59B2
330
A
100
AcDbEntity
  8
0
  6
Continuous
 62
     7
370
     0
100
AcDbLine
 10
143.8039177892936
 20
-43.1182647614296
 30
0.0
 11
143.8039177892936
 21
-56.91826476143012
 31
0.0
  0
LINE
  5
59B3
330
A
100
AcDbEntity
  8
0
  6
Continuous
 62
     7
370
     0
100
AcDbLine
 10
137.8039177892935
 20
6.881735238557893
 30
0.0
 11
137.8039177892935
 21
-6.918264761442172
 31
0.0
  0
LINE
  5
59B4
330
A
100
AcDbEntity
  8
0
  6
Continuous
 62
     7
370
     0
100
AcDbLine
 10
143.8039177892935
 20
6.881735238557893
 30
0.0
 11
143.8039177892935
 21
-6.918264761442172
 31
0.0
  0
ELLIPSE
  5
59B5
330
A
100
AcDbEntity
  8
0
  6
Continuous
 62
     7
370
     0
100
AcDbEllipse
 10
111.755904572923
 20
-50.0182647615606
 30
0.0
 11
-0.0000000006046275
 21
-6.250000000000031
 31
0.0
210
0.0
220
0.0
230
1.0
 40
0.7313537016191705
 41
5.615547951946457
 42
6.283185307179595
  0
ELLIPSE
  5
59B6
330
A
100
AcDbEntity
  8
0
  6
Continuous
 62
     7
370
     0
100
AcDbEllipse
 10
110.7670069508323
 20
-50.01826476146471
 30
0.0
 11
0.0000000005235812
 21
5.412842109675073
 31
0.0
210
0.0
220
0.0
230
1.0
 40
0.731353701619172
 41
2.221551893082061
 42
2.473955298356681
  0
ELLIPSE
  5
59B7
330
A
100
AcDbEntity
  8
0
  6
Continuous
 62
     7
370
     0
100
AcDbEllipse
 10
110.7670069508323
 20
-50.01826476146471
 30
0.0
 11
0.0000000005235812
 21
5.412842109675073
 31
0.0
210
0.0
220
0.0
230
1.0
 40
0.7313537016191734
 41
0.4712388981092074
 42
0.6676373552331074
  0
ELLIPSE
  5
59B8
330
A
100
AcDbEntity
  8
0
  6
Continuous
 62
     7
370
     0
100
AcDbEllipse
 10
111.755904572923
 20
-50.0182647615606
 30
0.0
 11
-0.0000000006046275
 21
-6.250000000000031
 31
0.0
210
0.0
220
0.0
230
1.0
 40
0.731353701619171
 41
3.141592653660528
 42
3.809230008822903
  0
ELLIPSE
  5
59B9
330
A
100
AcDbEntity
  8
0
  6
Continuous
 62
     9
370
     0
100
AcDbEllipse
 10
110.7670069508323
 20
-50.01826476146471
 30
0.0
 11
0.0000000005235812
 21
5.412842109675073
 31
0.0
210
0.0
220
0.0
230
1.0
 40
0.7313537016191734
 41
2.67035375562206
 42
6.754424205288793
  0
ELLIPSE
  5
59BA
330
A
100
AcDbEntity
  8
0
  6
Continuous
 62
     7
370
     0
100
AcDbEllipse
 10
110.7670069508323
 20
-50.01826476146471
 30
0.0
 11
0.0000000005235812
 21
5.412842109675073
 31
0.0
210
0.0
220
0.0
230
1.0
 40
0.7313537016191757
 41
0.6676373552331074
 42
0.9200572789581878
  0
ELLIPSE
  5
59BB
330
A
100
AcDbEntity
  8
0
  6
Continuous
 62
     7
370
     0
100
AcDbEllipse
 10
110.7670069508323
 20
-50.01826476146471
 30
0.0
 11
0.0000000005235812
 21
5.412842109675073
 31
0.0
210
0.0
220
0.0
230
1.0
 40
0.7313537016191713
 41
2.473955298356681
 42
2.670353755622083
  0
ELLIPSE
  5
59BC
330
A
100
AcDbEntity
  8
0
  6
Continuous
 62
     9
370
     0
100
AcDbEllipse
 10
110.5965073608168
 20
-50.01826476144827
 30
0.0
 11
-0.0000000004817258
 21
-4.979829407782853
 31
0.0
210
0.0
220
0.0
230
1.0
 40
0.7313537016191708
 41
0.0
 42
6.283185307179584
  0
ELLIPSE
  5
59BD
330
A
100
AcDbEntity
  8
0
  6
Continuous
 62
     7
370
     0
100
AcDbEllipse
 10
111.755904572923
 20
-50.0182647615606
 30
0.0
 11
-0.0000000006046275
 21
-6.250000000000031
 31
0.0
210
0.0
220
0.0
230
1.0
 40
0.731353701619171
 41
0.0000000000000089
 42
3.141592653660528
  0
ELLIPSE
  5
59BE
330
A
100
AcDbEntity
  8
0
  6
Continuous
 62
     7
370
     0
100
AcDbEllipse
 10
111.9605040809416
 20
-50.01826476158033
 30
0.0
 11
-0.0000000006046275
 21
-6.249999999999976
 31
0.0
210
0.0
220
0.0
230
1.0
 40
0.7313537016191708
 41
0.0000000000000089
 42
3.141592653589792
  0
ELLIPSE
  5
59BF
330
A
100
AcDbEntity
  8
0
  6
Continuous
 62
     7
370
     0
100
AcDbEllipse
 10
111.755904572923
 20
-0.0182647612044775
 30
0.0
 11
-0.0000000006044054
 21
-6.249999999999976
 31
0.0
210
0.0
220
0.0
230
1.0
 40
0.731353701619171
 41
5.615547951946433
 42
6.28318530717957
  0
ELLIPSE
  5
59C0
330
A
100
AcDbEntity
  8
0
  6
Continuous
 62
     7
370
     0
100
AcDbEllipse
 10
110.7670069508323
 20
-0.0182647611089237
 30
0.0
 11
0.0000000005234702
 21
5.412842109675073
 31
0.0
210
0.0
220
0.0
230
1.0
 40
0.7313537016191715
 41
2.221551893082009
 42
2.473955298356625
  0
ELLIPSE
  5
59C1
330
A
100
AcDbEntity
  8
0
  6
Continuous
 62
     7
370
     0
100
AcDbEllipse
 10
110.7670069508323
 20
-0.0182647611089237
 30
0.0
 11
0.0000000005233591
 21
5.412842109675073
 31
0.0
210
0.0
220
0.0
230
1.0
 40
0.7313537016191744
 41
0.4712388981091812
 42
0.6676373552330827
  0
ELLIPSE
  5
59C2
330
A
100
AcDbEntity
  8
0
  6
Continuous
 62
     7
370
     0
100
AcDbEllipse
 10
111.755904572923
 20
-0.0182647612044775
 30
0.0
 11
-0.0000000006044054
 21
-6.249999999999976
 31
0.0
210
0.0
220
0.0
230
1.0
 40
0.7313537016191708
 41
3.141592653660508
 42
3.809230008822884
  0
ELLIPSE
  5
59C3
330
A
100
AcDbEntity
  8
0
  6
Continuous
 62
     9
370
     0
100
AcDbEllipse
 10
110.7670069508323
 20
-0.0182647611089237
 30
0.0
 11
0.0000000005233591
 21
5.412842109675073
 31
0.0
210
0.0
220
0.0
230
1.0
 40
0.7313537016191729
 41
2.670353755622033
 42
6.754424205288758
  0
ELLIPSE
  5
59C4
330
A
100
AcDbEntity
  8
0
  6
Continuous
 62
     7
370
     0
100
AcDbEllipse
 10
110.7670069508323
 20
-0.0182647611089237
 30
0.0
 11
0.0000000005233591
 21
5.412842109675073
 31
0.0
210
0.0
220
0.0
230
1.0
 40
0.7313537016191734
 41
0.6676373552330947
 42
0.9200572789581775
  0
ELLIPSE
  5
59C5
330
A
100
AcDbEntity
  8
0
  6
Continuous
 62
     7
370
     0
100
AcDbEllipse
 10
110.7670069508323
 20
-0.0182647611089237
 30
0.0
 11
0.0000000005234702
 21
5.412842109675073
 31
0.0
210
0.0
220
0.0
230
1.0
 40
0.7313537016191713
 41
2.473955298356627
 42
2.670353755622035
  0
ELLIPSE
  5
59C6
330
A
100
AcDbEntity
  8
0
  6
Continuous
 62
     9
370
     0
100
AcDbEllipse
 10
110.5965073608168
 20
-0.0182647610923823
 30
0.0
 11
-0.0000000004815037
 21
-4.979829407782853
 31
0.0
210
0.0
220
0.0
230
1.0
 40
0.7313537016191708
 41
0.0
 42
6.283185307179584
  0
ELLIPSE
  5
59C7
330
A
100
AcDbEntity
  8
0
  6
Continuous
 62
     7
370
     0
100
AcDbEllipse
 10
111.755904572923
 20
-0.0182647612044775
 30
0.0
 11
-0.0000000006044054
 21
-6.249999999999976
 31
0.0
210
0.0
220
0.0
230
1.0
 40
0.7313537016191708
 41
6.283185307179567
 42
9.424777960840078
  0
ELLIPSE
  5
59C8
330
A
100
AcDbEntity
  8
0
  6
Continuous
 62
     7
370
     0
100
AcDbEllipse
 10
111.9605040809416
 20
-0.0182647612243159
 30
0.0
 11
-0.0000000006044054
 21
-6.250000000000031
 31
0.0
210
0.0
220
0.0
230
1.0
 40
0.731353701619171
 41
6.283185307179567
 42
9.424777960769336
  0
LINE
  5
59C9
330
A
100
AcDbEntity
  8
0
  6
Continuous
 62
     7
370
     0
100
AcDbLine
 10
130.5039177893019
 20
-6.268342052084959
 30
0.0
 11
130.5039177893019
 21
6.231657947914811
 31
0.0
  0
LINE
  5
59CA
330
A
100
AcDbEntity
  8
0
  6
Continuous
 62
     9
370
     0
100
AcDbLine
 10
129.0539177893019
 20
5.394500057590049
 30
0.0
 11
129.0539177893019
 21
-5.431184161759971
 31
0.0
  0
LINE
  5
59CB
330
A
100
AcDbEntity
  8
0
  6
Continuous
 62
     7
370
     0
100
AcDbLine
 10
128.8039177893019
 20
-4.998171459867876
 30
0.0
 11
128.8039177893019
 21
4.96148735569784
 31
0.0
  0
LINE
  5
59CC
330
A
100
AcDbEntity
  8
0
  6
Continuous
 62
     7
370
     0
100
AcDbLine
 10
130.503917789295
 20
-56.26826462377966
 30
0.0
 11
130.503917789295
 21
-43.76826462377965
 31
0.0
  0
LINE
  5
59CD
330
A
100
AcDbEntity
  8
0
  6
Continuous
 62
     9
370
     0
100
AcDbLine
 10
129.0539177892948
 20
-44.60542251410481
 30
0.0
 11
129.0539177892948
 21
-55.43110673345466
 31
0.0
  0
LINE
  5
59CE
330
A
100
AcDbEntity
  8
0
  6
Continuous
 62
     7
370
     0
100
AcDbLine
 10
128.8039177892948
 20
-54.99809403156252
 30
0.0
 11
128.8039177892948
 21
-45.03843521599685
 31
0.0
  0
LINE
  5
59CF
330
A
100
AcDbEntity
  8
0
  6
Continuous
 62
     9
370
     0
100
AcDbLine
 10
141.4572612883359
 20
-41.48341284026662
 30
0.0
 11
144.8039177892949
 21
-41.48341284026662
 31
0.0
  0
LINE
  5
59D0
330
A
100
AcDbEntity
  8
0
  6
Continuous
 62
     9
370
     0
100
AcDbLine
 10
144.8039177892951
 20
-42.27125904267632
 30
0.0
 11
142.1183427462022
 21
-42.27125904267632
 31
0.0
  0
LINE
  5
59D1
330
A
100
AcDbEntity
  8
0
  6
Continuous
 62
     7
370
     0
100
AcDbLine
 10
143.2072612883361
 20
-42.46326476144838
 30
0.0
 11
144.8039177892949
 21
-42.46326476144838
 31
0.0
  0
LINE
  5
59D2
330
A
100
AcDbEntity
  8
0
  6
Continuous
 62
     9
370
     0
100
AcDbLine
 10
144.8039177892953
 20
-8.543116682624827
 30
0.0
 11
141.457261279021
 21
-8.543116682624827
 31
0.0
  0
LINE
  5
59D3
330
A
100
AcDbEntity
  8
0
  6
Continuous
 62
     9
370
     0
100
AcDbLine
 10
142.1183427368875
 20
-7.755270480215074
 30
0.0
 11
144.8039177892953
 21
-7.755270480215074
 31
0.0
  0
LINE
  5
59D4
330
A
100
AcDbEntity
  8
0
  6
Continuous
 62
     7
370
     0
100
AcDbLine
 10
144.8039177892952
 20
-7.563264761443122
 30
0.0
 11
143.2112087981698
 21
-7.563264761443122
 31
0.0
  0
LINE
  5
59D5
330
A
100
AcDbEntity
  8
0
  6
Continuous
 62
     7
370
     0
100
AcDbLine
 10
143.2112087981698
 20
-7.563264761443122
 30
0.0
 11
143.207261279021
 21
-7.563264761443122
 31
0.0
  0
LINE
  5
59D6
330
A
100
AcDbEntity
  8
0
  6
Continuous
 62
     9
370
     0
100
AcDbLine
 10
145.8039177892951
 20
7.481735238554675
 30
0.0
 11
144.8039177892953
 21
7.481735238554675
 31
0.0
  0
LINE
  5
59D7
330
A
100
AcDbEntity
  8
0
  6
Continuous
 62
     9
370
     0
100
AcDbLine
 10
144.8039177892952
 20
-57.51826476142799
 30
0.0
 11
145.8039177892951
 21
-57.51826476142799
 31
0.0
  0
LINE
  5
59D8
330
A
100
AcDbEntity
  8
0
  6
Continuous
 62
     7
370
     0
100
AcDbLine
 10
144.8039177892953
 20
7.481735238554675
 30
0.0
 11
144.8039177892952
 21
-57.51826476142799
 31
0.0
  0
LINE
  5
59D9
330
A
100
AcDbEntity
  8
0
  6
Continuous
 62
     7
370
     0
100
AcDbLine
 10
145.8039177892951
 20
-64.01826476142611
 30
0.0
 11
144.8039177892952
 21
-64.01826476142611
 31
0.0
  0
LINE
  5
59DA
330
A
100
AcDbEntity
  8
0
  6
Continuous
 62
     7
370
     0
100
AcDbLine
 10
144.8039177892952
 20
-64.01826476142797
 30
0.0
 11
144.8039177892952
 21
-57.51826476142799
 31
0.0
  0
LINE
  5
59DB
330
A
100
AcDbEntity
  8
0
  6
Continuous
 62
     7
370
     0
100
AcDbLine
 10
144.8039177892953
 20
13.98173523855314
 30
0.0
 11
145.8039177892951
 21
13.98173523855314
 31
0.0
  0
LINE
  5
59DC
330
A
100
AcDbEntity
  8
0
  6
Continuous
 62
     7
370
     0
100
AcDbLine
 10
145.8039177892951
 20
13.98173523855468
 30
0.0
 11
145.8039177892951
 21
7.481735238554675
 31
0.0
  0
LINE
  5
59DD
330
A
100
AcDbEntity
  8
0
  6
Continuous
 62
     7
370
     0
100
AcDbLine
 10
144.8039177892953
 20
7.481735238554675
 30
0.0
 11
144.8039177892953
 21
13.98173523855468
 31
0.0
  0
LINE
  5
59DE
330
A
100
AcDbEntity
  8
0
  6
Continuous
 62
     9
370
     0
100
AcDbLine
 10
136.8039177892973
 20
7.452634961331397
 30
0.0
 11
135.803917789297
 21
7.452634961331397
 31
0.0
  0
LINE
  5
59DF
330
A
100
AcDbEntity
  8
0
  6
Continuous
 62
     9
370
     0
100
AcDbLine
 10
135.8039177892964
 20
13.96405371673467
 30
0.0
 11
136.8039177892967
 21
13.96405371673467
 31
0.0
  0
LINE
  5
59E0
330
A
100
AcDbEntity
  8
0
  6
Continuous
 62
     7
370
     0
100
AcDbLine
 10
136.8039177892967
 20
13.96405371673836
 30
0.0
 11
136.8039177892967
 21
7.452634961331397
 31
0.0
  0
LINE
  5
59E1
330
A
100
AcDbEntity
  8
0
  6
Continuous
 62
     9
370
     0
100
AcDbLine
 10
135.803917789297
 20
-57.54726456356332
 30
0.0
 11
136.8039177892973
 21
-57.54726456356332
 31
0.0
  0
LINE
  5
59E2
330
A
100
AcDbEntity
  8
0
  6
Continuous
 62
     7
370
     0
100
AcDbLine
 10
136.8039177892973
 20
-57.54726456356332
 30
0.0
 11
136.8039177892973
 21
7.452634961331397
 31
0.0
  0
LINE
  5
59E3
330
A
100
AcDbEntity
  8
0
  6
Continuous
 62
     7
370
     0
100
AcDbLine
 10
136.8039177892967
 20
-64.03582571313882
 30
0.0
 11
135.8039177892962
 21
-64.03582571313882
 31
0.0
  0
LINE
  5
59E4
330
A
100
AcDbEntity
  8
0
  6
Continuous
 62
     7
370
     0
100
AcDbLine
 10
136.8039177892967
 20
-57.54726456356332
 30
0.0
 11
136.8039177892967
 21
-64.035835760655
 31
0.0
  0
LINE
  5
59E5
330
A
100
AcDbEntity
  8
0
  6
Continuous
 62
     7
370
     0
100
AcDbLine
 10
136.8039177892941
 20
14.00713151233304
 30
0.0
 11
135.8039177892938
 21
14.00713151233304
 31
0.0
  0
LINE
  5
59E6
330
A
100
AcDbEntity
  8
0
  6
Continuous
 62
     7
370
     0
100
AcDbLine
 10
136.8039177892967
 20
13.96405371673467
 30
0.0
 11
136.8039177892941
 21
14.00713151233304
 31
0.0
  0
LINE
  5
59E7
330
A
100
AcDbEntity
  8
0
  6
Continuous
 62
     9
370
     0
100
AcDbLine
 10
135.8039177893002
 20
-65.00064272892967
 30
0.0
 11
130.8039177893002
 21
-65.00064272892967
 31
0.0
  0
LINE
  5
59E8
330
A
100
AcDbEntity
  8
0
  6
Continuous
 62
     7
370
     0
100
AcDbLine
 10
130.8039177893002
 20
-65.00064272892967
 30
0.0
 11
130.8039177893002
 21
-57.48745534342333
 31
0.0
  0
LINE
  5
59E9
330
A
100
AcDbEntity
  8
0
  6
Continuous
 62
     9
370
     0
100
AcDbLine
 10
130.8039177893011
 20
-57.48745534342333
 30
0.0
 11
135.803917789301
 21
-57.48745534342333
 31
0.0
  0
LINE
  5
59EA
330
A
100
AcDbEntity
  8
0
  6
Continuous
 62
     7
370
     0
100
AcDbLine
 10
135.8039177893002
 20
-57.48745534342333
 30
0.0
 11
135.8039177893002
 21
-65.00064272892967
 31
0.0
  0
LINE
  5
59EB
330
A
100
AcDbEntity
  8
0
  6
Continuous
 62
     9
370
     0
100
AcDbLine
 10
135.803917789301
 20
7.512443999755021
 30
0.0
 11
130.8039177893011
 21
7.512443999755021
 31
0.0
  0
LINE
  5
59EC
330
A
100
AcDbEntity
  8
0
  6
Continuous
 62
     7
370
     0
100
AcDbLine
 10
135.803917789301
 20
7.512443999755021
 30
0.0
 11
135.803917789301
 21
-57.48745534342333
 31
0.0
  0
LINE
  5
59ED
330
A
100
AcDbEntity
  8
0
  6
Continuous
 62
     7
370
     0
100
AcDbLine
 10
130.8039177893011
 20
7.512443999755021
 30
0.0
 11
130.8039177893011
 21
-57.48745534342333
 31
0.0
  0
LINE
  5
59EE
330
A
100
AcDbEntity
  8
0
  6
Continuous
 62
     7
370
     0
100
AcDbLine
 10
130.8039177893002
 20
14.99923338575143
 30
0.0
 11
135.8039177893001
 21
14.99923338575143
 31
0.0
  0
LINE
  5
59EF
330
A
100
AcDbEntity
  8
0
  6
Continuous
 62
     7
370
     0
100
AcDbLine
 10
135.8039177893002
 20
14.99924500000014
 30
0.0
 11
135.8039177893002
 21
7.512443999755021
 31
0.0
  0
LINE
  5
59F0
330
A
100
AcDbEntity
  8
0
  6
Continuous
 62
     7
370
     0
100
AcDbLine
 10
130.8039177893002
 20
7.512443999755021
 30
0.0
 11
130.8039177893002
 21
14.99924500000014
 31
0.0
  0
LINE
  5
59F1
330
A
100
AcDbEntity
  8
0
  6
Continuous
 62
     7
370
     0
100
AcDbLine
 10
135.8039177892973
 20
-65.04903906136433
 30
0.0
 11
130.8039177892971
 21
-65.04903906136433
 31
0.0
  0
LINE
  5
59F2
330
A
100
AcDbEntity
  8
0
  6
Continuous
 62
     7
370
     0
100
AcDbLine
 10
135.8039177893002
 20
-65.00064272892967
 30
0.0
 11
135.8039177892973
 21
-65.04903906136433
 31
0.0
  0
LINE
  5
59F3
330
A
100
AcDbEntity
  8
0
  6
Continuous
 62
     7
370
     0
100
AcDbLine
 10
130.8039177893002
 20
-65.00064272892967
 30
0.0
 11
130.8039177892971
 21
-65.04903906136433
 31
0.0
  0
LINE
  5
59F4
330
A
100
AcDbEntity
  8
0
  6
Continuous
 62
     7
370
     0
100
AcDbLine
 10
152.7461815346975
 20
-65.01826476144316
 30
0.0
 11
145.8039177892951
 21
-65.01826476144316
 31
0.0
  0
LINE
  5
59F5
330
A
100
AcDbEntity
  8
0
  6
Continuous
 62
     7
370
     0
100
AcDbLine
 10
145.8039177892951
 20
-65.01826476144316
 30
0.0
 11
145.8039177892951
 21
-57.51826476144316
 31
0.0
  0
LINE
  5
59F6
330
A
100
AcDbEntity
  8
0
  6
Continuous
 62
     9
370
     0
100
AcDbLine
 10
145.8039177892951
 20
-57.51826476144316
 30
0.0
 11
148.7978570955019
 21
-57.51826476144316
 31
0.0
  0
LINE
  5
59FC
330
A
100
AcDbEntity
  8
0
  6
Continuous
 62
     9
370
     0
100
AcDbLine
 10
148.7978570955019
 20
7.481735238556722
 30
0.0
 11
145.8039177892951
 21
7.481735238556722
 31
0.0
  0
LINE
  5
59FD
330
A
100
AcDbEntity
  8
0
  6
Continuous
 62
     7
370
     0
100
AcDbLine
 10
145.8039177892951
 20
14.98173523855683
 30
0.0
 11
152.7461815346975
 21
14.98173523855683
 31
0.0
  0
LINE
  5
5A03
330
A
100
AcDbEntity
  8
0
  6
Continuous
 62
     7
370
     0
100
AcDbLine
 10
145.8039177892951
 20
7.481735238556722
 30
0.0
 11
145.8039177892951
 21
14.98173523855683
 31
0.0
  0
LINE
  5
5A04
330
A
100
AcDbEntity
  8
0
  6
Continuous
 62
     7
370
     0
100
AcDbLine
 10
148.7978570955019
 20
7.481735238556722
 30
0.0
 11
148.7978570955019
 21
-57.51826476144316
 31
0.0
  0
LINE
  5
5A05
330
A
100
AcDbEntity
  8
0
  6
Continuous
 62
     7
370
     0
100
AcDbLine
 10
145.8039177892951
 20
7.481735238556722
 30
0.0
 11
145.8039177892951
 21
-57.51826476144316
 31
0.0
  0
LINE
  5
5A06
330
A
100
AcDbEntity
  8
0
  6
Continuous
 62
     7
370
     0
100
AcDbLine
 10
162.2724686860401
 20
-42.59326476144309
 30
0.0
 11
161.3732717517905
 21
-42.59326476144309
 31
0.0
  0
LINE
  5
5A07
330
A
100
AcDbEntity
  8
0
  6
Continuous
 62
     9
370
     0
100
AcDbLine
 10
162.2724686860401
 20
-42.59326476144309
 30
0.0
 11
162.2724686860401
 21
-65.01826476144316
 31
0.0
  0
LINE
  5
5A08
330
A
100
AcDbEntity
  8
0
  6
Continuous
 62
     7
370
     0
100
AcDbLine
 10
162.2724686860401
 20
-65.01826476144316
 30
0.0
 11
152.7461815346975
 21
-65.01826476144316
 31
0.0
  0
LINE
  5
5A09
330
A
100
AcDbEntity
  8
0
  6
Continuous
 62
     7
370
     0
100
AcDbLine
 10
162.2724686860401
 20
14.98173523855683
 30
0.0
 11
152.7461815346975
 21
14.98173523855683
 31
0.0
  0
LINE
  5
5A0A
330
A
100
AcDbEntity
  8
0
  6
Continuous
 62
     9
370
     0
100
AcDbLine
 10
162.2724686860401
 20
14.98173523855683
 30
0.0
 11
162.2724686860401
 21
-7.443264761443173
 31
0.0
  0
LINE
  5
5A0B
330
A
100
AcDbEntity
  8
0
  6
Continuous
 62
     7
370
     0
100
AcDbLine
 10
161.3732717517905
 20
-7.443264761443173
 30
0.0
 11
162.2724686860401
 21
-7.443264761443173
 31
0.0
  0
LINE
  5
5A0C
330
A
100
AcDbEntity
  8
0
  6
Continuous
 62
     7
370
     0
100
AcDbLine
 10
161.3732717517905
 20
-42.59326476144309
 30
0.0
 11
161.3732717517909
 21
-7.443264761443173
 31
0.0
  0
LINE
  5
5A0D
330
A
100
AcDbEntity
  8
0
  6
Continuous
 62
     7
370
     0
100
AcDbLine
 10
162.2982423075756
 20
-65.01826476144316
 30
0.0
 11
162.2724686860401
 21
-65.01826476144316
 31
0.0
  0
LINE
  5
5A0E
330
A
100
AcDbEntity
  8
0
  6
Continuous
 62
     7
370
     0
100
AcDbLine
 10
162.2982423075756
 20
-42.59326476144309
 30
0.0
 11
162.2724686860401
 21
-42.59326476144309
 31
0.0
  0
LINE
  5
5A0F
330
A
100
AcDbEntity
  8
0
  6
Continuous
 62
     7
370
     0
100
AcDbLine
 10
162.2982423075756
 20
14.98173523855683
 30
0.0
 11
162.2724686860401
 21
14.98173523855683
 31
0.0
  0
LINE
  5
5A10
330
A
100
AcDbEntity
  8
0
  6
Continuous
 62
     7
370
     0
100
AcDbLine
 10
162.2724686860401
 20
-7.443264761443173
 30
0.0
 11
162.2982423075756
 21
-7.443264761443173
 31
0.0
  0
LINE
  5
5A11
330
A
100
AcDbEntity
  8
0
  6
Continuous
 62
     7
370
     0
100
AcDbLine
 10
161.3732717517909
 20
-41.26326476144835
 30
0.0
 11
162.1039179819616
 21
-41.26326476144835
 31
0.0
  0
LINE
  5
5A12
330
A
100
AcDbEntity
  8
0
  6
Continuous
 62
     7
370
     0
100
AcDbLine
 10
161.3732717517909
 20
-8.763264761448112
 30
0.0
 11
162.1039179819616
 21
-8.763264761448112
 31
0.0
  0
LINE
  5
5A13
330
A
100
AcDbEntity
  8
0
  6
Continuous
 62
     9
370
     0
100
AcDbLine
 10
141.9973235140886
 20
-41.26326476144835
 30
0.0
 11
141.9973235140886
 21
-8.763264761448112
 31
0.0
  0
LINE
  5
5A14
330
A
100
AcDbEntity
  8
0
  6
Continuous
 62
     7
370
     0
100
AcDbLine
 10
141.9973235140886
 20
-41.26326476144835
 30
0.0
 11
144.8039177892952
 21
-41.26326476144835
 31
0.0
  0
LINE
  5
5A15
330
A
100
AcDbEntity
  8
0
  6
Continuous
 62
     7
370
     0
100
AcDbLine
 10
141.9973235140886
 20
-8.763264761448112
 30
0.0
 11
144.8039177892953
 21
-8.763264761448112
 31
0.0
  0
LINE
  5
5A16
330
A
100
AcDbEntity
  8
0
  6
Continuous
 62
     9
370
     0
100
AcDbLine
 10
139.708403578858
 20
-41.26326476144835
 30
0.0
 11
139.7084035788584
 21
-8.763264761448112
 31
0.0
  0
LINE
  5
5A17
330
A
100
AcDbEntity
  8
0
  6
Continuous
 62
     7
370
     0
100
AcDbLine
 10
139.7084035788584
 20
-41.26326476144835
 30
0.0
 11
141.9973235140888
 21
-41.26326476144835
 31
0.0
  0
LINE
  5
5A18
330
A
100
AcDbEntity
  8
0
  6
Continuous
 62
     7
370
     0
100
AcDbLine
 10
139.7084035788584
 20
-8.763264761448112
 30
0.0
 11
141.9973235140888
 21
-8.763264761448112
 31
0.0
  0
LINE
  5
5A19
330
A
100
AcDbEntity
  8
0
  6
Continuous
 62
     7
370
     0
100
AcDbLine
 10
139.7072612925311
 20
-41.26326476144835
 30
0.0
 11
139.708403578858
 21
-41.26326476144835
 31
0.0
  0
LINE
  5
5A1A
330
A
100
AcDbEntity
  8
0
  6
Continuous
 62
     7
370
     0
100
AcDbLine
 10
139.7072612925313
 20
-8.763264761448112
 30
0.0
 11
139.7084035788584
 21
-8.763264761448112
 31
0.0
  0
LINE
  5
5A1B
330
A
100
AcDbEntity
  8
0
  6
Continuous
 62
     7
370
     0
100
AcDbLine
 10
130.8039177892995
 20
13.98173523855456
 30
0.0
 11
128.1691856595837
 21
13.98173523855456
 31
0.0
  0
LINE
  5
5A1C
330
A
100
AcDbEntity
  8
0
  6
Continuous
 62
     7
370
     0
100
AcDbLine
 10
128.1691856595837
 20
-64.0182647614618
 30
0.0
 11
130.8039177893096
 21
-64.0182647614618
 31
0.0
  0
LINE
  5
5A1D
330
A
100
AcDbEntity
  8
0
  6
Continuous
 62
     7
370
     0
100
AcDbLine
 10
138.3620108849907
 20
-29.71826476077848
 30
0.0
 11
139.7072612925311
 21
-29.71826476077848
 31
0.0
  0
LINE
  5
5A1E
330
A
100
AcDbEntity
  8
0
  6
Continuous
 62
     7
370
     0
100
AcDbLine
 10
139.7072612925313
 20
-30.01826476077809
 30
0.0
 11
138.3620108849836
 21
-30.01826476077809
 31
0.0
  0
LINE
  5
5A1F
330
A
100
AcDbEntity
  8
0
  6
Continuous
 62
     7
370
     0
100
AcDbLine
 10
138.362010885224
 20
-20.01826476077832
 30
0.0
 11
139.7072612925313
 21
-20.01826476077832
 31
0.0
  0
LINE
  5
5A20
330
A
100
AcDbEntity
  8
0
  6
Continuous
 62
     7
370
     0
100
AcDbLine
 10
139.7072612925313
 20
-20.31826476077851
 30
0.0
 11
138.3620108852166
 21
-20.31826476077851
 31
0.0
  0
ELLIPSE
  5
5A21
330
A
100
AcDbEntity
  8
0
  6
Continuous
 62
     7
370
     0
100
AcDbEllipse
 10
138.2803150302063
 20
-9.76826476053651
 30
0.0
 11
-0.000000000000222
 21
0.5000000000000006
 31
0.0
210
0.0
220
0.0
230
1.0
 40
0.5446390350922857
 41
6.283185307134732
 42
7.853981633929738
  0
LINE
  5
5A22
330
A
100
AcDbEntity
  8
0
  6
Continuous
 62
     7
370
     0
100
AcDbLine
 10
139.7072612925311
 20
-9.268264760653323
 30
0.0
 11
138.2803150302185
 21
-9.26826476053651
 31
0.0
  0
LINE
  5
5A23
330
A
100
AcDbEntity
  8
0
  6
Continuous
 62
     7
370
     0
100
AcDbLine
 10
139.9414640872859
 20
-7.768264760672592
 30
0.0
 11
139.9414640872621
 21
-8.763264761448112
 31
0.0
  0
LINE
  5
5A24
330
A
100
AcDbEntity
  8
0
  6
Continuous
 62
     7
370
     0
100
AcDbLine
 10
142.0582524869654
 20
-7.768264760845794
 30
0.0
 11
139.9414640872859
 21
-7.768264760672592
 31
0.0
  0
LINE
  5
5A25
330
A
100
AcDbEntity
  8
0
  6
Continuous
 62
     7
370
     0
100
AcDbLine
 10
139.9414640864563
 20
-42.26826476067246
 30
0.0
 11
142.1023178704136
 21
-42.26826476084932
 31
0.0
  0
LINE
  5
5A26
330
A
100
AcDbEntity
  8
0
  6
Continuous
 62
     7
370
     0
100
AcDbLine
 10
139.9414640864808
 20
-41.26326476144835
 30
0.0
 11
139.9414640864563
 21
-42.26826476067246
 31
0.0
  0
LINE
  5
5A27
330
A
100
AcDbEntity
  8
0
  6
Continuous
 62
     7
370
     0
100
AcDbLine
 10
138.2803150294612
 20
-40.76826476053651
 30
0.0
 11
139.7072612925311
 21
-40.76826476065331
 31
0.0
  0
ELLIPSE
  5
5A28
330
A
100
AcDbEntity
  8
0
  6
Continuous
 62
     7
370
     0
100
AcDbEllipse
 10
138.2803150294731
 20
-40.26826476053651
 30
0.0
 11
-0.000000000000222
 21
0.5000000000000006
 31
0.0
210
0.0
220
0.0
230
1.0
 40
0.5446390350922494
 41
1.570796326750154
 42
3.141592653545383
  0
LINE
  5
5A29
330
A
100
AcDbEntity
  8
0
  6
Continuous
 62
     7
370
     0
100
AcDbLine
 10
138.0079955126603
 20
-9.768264760513998
 30
0.0
 11
138.007995511927
 21
-40.26826476051417
 31
0.0
  0
LINE
  5
5A2A
330
A
100
AcDbEntity
  8
0
  6
Continuous
 62
     7
370
     0
100
AcDbLine
 10
138.3620108852264
 20
-19.91826476054297
 30
0.0
 11
139.7072612925313
 21
-19.9182647606533
 31
0.0
  0
LINE
  5
5A2B
330
A
100
AcDbEntity
  8
0
  6
Continuous
 62
     7
370
     0
100
AcDbLine
 10
138.3620108852264
 20
-19.91826476054297
 30
0.0
 11
138.3620108849811
 21
-30.11826476054307
 31
0.0
  0
LINE
  5
5A2C
330
A
100
AcDbEntity
  8
0
  6
Continuous
 62
     7
370
     0
100
AcDbLine
 10
138.3620108849811
 20
-30.11826476054307
 30
0.0
 11
139.7072612925311
 21
-30.11826476065329
 31
0.0
  0
LINE
  5
5A2D
330
A
100
AcDbEntity
  8
0
  6
Continuous
 62
     7
370
     0
100
AcDbLine
 10
138.2803150294612
 20
-40.76826476053651
 30
0.0
 11
136.8039177892973
 21
-40.76826476053695
 31
0.0
  0
LINE
  5
5A2E
330
A
100
AcDbEntity
  8
0
  6
Continuous
 62
     9
370
     0
100
AcDbLine
 10
136.8039177892973
 20
-40.26826476051462
 30
0.0
 11
138.007995511927
 21
-40.26826476051417
 31
0.0
  0
LINE
  5
5A2F
330
A
100
AcDbEntity
  8
0
  6
Continuous
 62
     9
370
     0
100
AcDbLine
 10
138.0079955126603
 20
-9.768264760513998
 30
0.0
 11
136.8039177892973
 21
-9.76826476051468
 31
0.0
  0
LINE
  5
5A30
330
A
100
AcDbEntity
  8
0
  6
Continuous
 62
     7
370
     0
100
AcDbLine
 10
136.8039177892973
 20
-9.268264760536963
 30
0.0
 11
138.2803150302185
 21
-9.26826476053651
 31
0.0
  0
LINE
  5
5A31
330
A
100
AcDbEntity
  8
0
  6
Continuous
 62
     7
370
     0
100
AcDbLine
 10
139.9414640864563
 20
-42.26826476067246
 30
0.0
 11
138.442943169748
 21
-42.26826476067282
 31
0.0
  0
LINE
  5
5A32
330
A
100
AcDbEntity
  8
0
  6
Continuous
 62
     7
370
     0
100
AcDbLine
 10
139.9414640872859
 20
-7.768264760672592
 30
0.0
 11
138.442943169748
 21
-7.768264760673047
 31
0.0
  0
LINE
  5
5A33
330
A
100
AcDbEntity
  8
0
  6
Continuous
 62
     7
370
     0
100
AcDbLine
 10
128.1691856595835
 20
14.98173523852318
 30
0.0
 11
124.7591938592711
 21
14.98173523852318
 31
0.0
  0
LINE
  5
5A34
330
A
100
AcDbEntity
  8
0
  6
Continuous
 62
     7
370
     0
100
AcDbLine
 10
128.1691856595835
 20
14.98173523852318
 30
0.0
 11
128.1691856595835
 21
-65.0182647614418
 31
0.0
  0
LINE
  5
5A35
330
A
100
AcDbEntity
  8
0
  6
Continuous
 62
     7
370
     0
100
AcDbLine
 10
128.1691856595835
 20
-65.0182647614418
 30
0.0
 11
124.7591938592711
 21
-65.0182647614418
 31
0.0
  0
LINE
  5
5A36
330
A
100
AcDbEntity
  8
0
  6
Continuous
 62
     7
370
     0
100
AcDbLine
 10
124.7591938592711
 20
14.98173523852318
 30
0.0
 11
124.7591938592711
 21
-65.0182647614418
 31
0.0
  0
LINE
  5
5A37
330
A
100
AcDbEntity
  8
0
  6
Continuous
 62
     7
370
     0
100
AcDbLine
 10
124.7591938592711
 20
-65.0182647614418
 30
0.0
 11
104.6469670647524
 21
-65.0182647614418
 31
0.0
  0
ELLIPSE
  5
5A38
330
A
100
AcDbEntity
  8
0
  6
Continuous
 62
     7
370
     0
100
AcDbEllipse
 10
104.6469670647524
 20
-57.51826476144509
 30
0.0
 11
0.0
 21
-7.500000000000062
 31
0.0
210
0.0
220
0.0
230
1.0
 40
0.7313537016191708
 41
4.712388980384697
 42
6.283185307179584
  0
LINE
  5
5A39
330
A
100
AcDbEntity
  8
0
  6
Continuous
 62
     7
370
     0
100
AcDbLine
 10
99.1618143026114
 20
-57.51826476144509
 30
0.0
 11
99.16181430261152
 21
7.481735238526367
 31
0.0
  0
ELLIPSE
  5
5A3A
330
A
100
AcDbEntity
  8
0
  6
Continuous
 62
     7
370
     0
100
AcDbEllipse
 10
104.6469670647524
 20
7.481735238526367
 30
0.0
 11
0.0
 21
-7.500000000000007
 31
0.0
210
0.0
220
0.0
230
1.0
 40
0.7313537016191708
 41
3.141592653589792
 42
4.712388980384688
  0
LINE
  5
5A3B
330
A
100
AcDbEntity
  8
0
  6
Continuous
 62
     7
370
     0
100
AcDbLine
 10
104.6469670647524
 20
14.98173523852318
 30
0.0
 11
124.7591938592711
 21
14.98173523852318
 31
0.0
  0
ELLIPSE
  5
5A3C
330
A
100
AcDbEntity
  8
0
  6
Continuous
 62
     7
370
     0
100
AcDbEllipse
 10
111.9605040809412
 20
-0.0182647614702773
 30
0.0
 11
0.0
 21
6.199999999999982
 31
0.0
210
0.0
220
0.0
230
1.0
 40
0.7313537016191707
 41
3.141592653589801
 42
6.283185307179584
  0
LINE
  5
5A3D
330
A
100
AcDbEntity
  8
0
  6
Continuous
 62
     9
370
     0
100
AcDbLine
 10
136.4994367206647
 20
-64.03582571313882
 30
0.0
 11
136.4994367206647
 21
-65.01826476144811
 31
0.0
  0
LINE
  5
5A3E
330
A
100
AcDbEntity
  8
0
  6
Continuous
 62
     7
370
     0
100
AcDbLine
 10
144.8039177892953
 20
-42.59326476144844
 30
0.0
 11
136.8039177892973
 21
-42.59326476144844
 31
0.0
  0
LINE
  5
5A3F
330
A
100
AcDbEntity
  8
0
  6
Continuous
 62
     7
370
     0
100
AcDbLine
 10
136.4994367206647
 20
-65.01826476144811
 30
0.0
 11
145.8039177892951
 21
-65.01826476144811
 31
0.0
  0
LINE
  5
5A40
330
A
100
AcDbEntity
  8
0
  6
Continuous
 62
     9
370
     0
100
AcDbLine
 10
136.4994367206647
 20
14.98173523855155
 30
0.0
 11
136.4994367206647
 21
14.00713151233304
 31
0.0
  0
LINE
  5
5A41
330
A
100
AcDbEntity
  8
0
  6
Continuous
 62
     7
370
     0
100
AcDbLine
 10
136.8039177892973
 20
-7.443264761448459
 30
0.0
 11
144.8039177892952
 21
-7.443264761448459
 31
0.0
  0
LINE
  5
5A42
330
A
100
AcDbEntity
  8
0
  6
Continuous
 62
     7
370
     0
100
AcDbLine
 10
136.4994367206647
 20
14.98173523855155
 30
0.0
 11
145.8039177892951
 21
14.98173523855155
 31
0.0
  0
LINE
  5
5A43
330
A
100
AcDbEntity
  8
0
  6
Continuous
 62
     7
370
     0
100
AcDbLine
 10
138.442943169748
 20
-42.31826476144834
 30
0.0
 11
138.442943169748
 21
-40.86826476144834
 31
0.0
  0
LINE
  5
5A44
330
A
100
AcDbEntity
  8
0
  6
Continuous
 62
     7
370
     0
100
AcDbLine
 10
138.442943169748
 20
-42.31826476144834
 30
0.0
 11
141.7670357332836
 21
-42.31826476144834
 31
0.0
  0
LINE
  5
5A45
330
A
100
AcDbEntity
  8
0
  6
Continuous
 62
     7
370
     0
100
AcDbLine
 10
141.7670357332836
 20
-42.31826476144834
 30
0.0
 11
141.7670357332836
 21
-42.2682647608221
 31
0.0
  0
LINE
  5
5A46
330
A
100
AcDbEntity
  8
0
  6
Continuous
 62
     7
370
     0
100
AcDbLine
 10
141.7670357332836
 20
-7.76826476082209
 30
0.0
 11
141.7670357332836
 21
-7.718264761448381
 31
0.0
  0
LINE
  5
5A47
330
A
100
AcDbEntity
  8
0
  6
Continuous
 62
     7
370
     0
100
AcDbLine
 10
141.7670357332836
 20
-7.718264761448381
 30
0.0
 11
138.442943169748
 21
-7.718264761448381
 31
0.0
  0
LINE
  5
5A48
330
A
100
AcDbEntity
  8
0
  6
Continuous
 62
     7
370
     0
100
AcDbLine
 10
138.442943169748
 20
-9.168264761448426
 30
0.0
 11
138.442943169748
 21
-7.718264761448381
 31
0.0
  0
LINE
  5
5A49
330
A
100
AcDbEntity
  8
0
  6
Continuous
 62
     7
370
     0
100
AcDbLine
 10
138.442943169748
 20
-9.168264761448426
 30
0.0
 11
136.8039177892973
 21
-9.168264761448426
 31
0.0
  0
LINE
  5
5A4A
330
A
100
AcDbEntity
  8
0
  6
Continuous
 62
     9
370
     0
100
AcDbLine
 10
136.2167663083284
 20
14.00713151233304
 30
0.0
 11
136.2167663083284
 21
14.98173523855155
 31
0.0
  0
LINE
  5
5A4B
330
A
100
AcDbEntity
  8
0
  6
Continuous
 62
     9
370
     0
100
AcDbLine
 10
136.2167663083284
 20
-65.01826476144811
 30
0.0
 11
136.2167663083284
 21
-64.03582571313882
 31
0.0
  0
LINE
  5
5A4C
330
A
100
AcDbEntity
  8
0
  6
Continuous
 62
     7
370
     0
100
AcDbLine
 10
136.8039177892973
 20
-40.86826476144834
 30
0.0
 11
138.442943169748
 21
-40.86826476144834
 31
0.0
  0
LINE
  5
5A4D
330
A
100
AcDbEntity
  8
0
  6
Continuous
 62
     7
370
     0
100
AcDbLine
 10
135.8039177892991
 20
-65.01826476144811
 30
0.0
 11
136.2167663083284
 21
-65.01826476144811
 31
0.0
  0
LINE
  5
5A4E
330
A
100
AcDbEntity
  8
0
  6
Continuous
 62
     7
370
     0
100
AcDbLine
 10
135.8039177893002
 20
14.98173523855155
 30
0.0
 11
136.2167663083284
 21
14.98173523855155
 31
0.0
  0
LINE
  5
5A4F
330
A
100
AcDbEntity
  8
0
  6
Continuous
 62
     7
370
     0
100
AcDbLine
 10
128.1691856595835
 20
-65.01826476144811
 30
0.0
 11
130.803917789299
 21
-65.01826476144811
 31
0.0
  0
LINE
  5
5A50
330
A
100
AcDbEntity
  8
0
  6
Continuous
 62
     7
370
     0
100
AcDbLine
 10
128.1691856595835
 20
14.98173523855155
 30
0.0
 11
130.8039177893003
 21
14.98173523855155
 31
0.0
  0
LINE
  5
5A51
330
A
100
AcDbEntity
  8
0
  6
Continuous
 62
     7
370
     0
100
AcDbLine
 10
136.2167663083284
 20
-65.01826476144811
 30
0.0
 11
136.4994367206647
 21
-65.01826476144811
 31
0.0
  0
LINE
  5
5A52
330
A
100
AcDbEntity
  8
0
  6
Continuous
 62
     7
370
     0
100
AcDbLine
 10
136.4994367206647
 20
14.98173523855155
 30
0.0
 11
136.2167663083284
 21
14.98173523855155
 31
0.0
  0
LINE
  5
5A53
330
A
100
AcDbEntity
  8
0
  6
Continuous
 62
     9
370
     0
100
AcDbLine
 10
137.8039177892935
 20
2.481657947918165
 30
0.0
 11
136.8039177892973
 21
2.481657947918165
 31
0.0
  0
LINE
  5
5A54
330
A
100
AcDbEntity
  8
0
  6
Continuous
 62
     9
370
     0
100
AcDbLine
 10
136.8039177892973
 20
-2.518342052081834
 30
0.0
 11
137.8039177892935
 21
-2.518342052081834
 31
0.0
  0
LINE
  5
5A55
330
A
100
AcDbEntity
  8
0
  6
Continuous
 62
     9
370
     0
100
AcDbLine
 10
137.8039177892935
 20
-47.51826462377607
 30
0.0
 11
136.8039177892973
 21
-47.51826462377607
 31
0.0
  0
LINE
  5
5A56
330
A
100
AcDbEntity
  8
0
  6
Continuous
 62
     9
370
     0
100
AcDbLine
 10
136.8039177892973
 20
-52.51826462377607
 30
0.0
 11
137.8039177892935
 21
-52.51826462377607
 31
0.0
  0
LINE
  5
5A57
330
A
100
AcDbEntity
  8
0
  6
Continuous
 62
     7
370
     0
100
AcDbLine
 10
137.8039177892935
 20
-56.91826476142995
 30
0.0
 11
143.8039177892936
 21
-56.91826476142995
 31
0.0
  0
LINE
  5
5A58
330
A
100
AcDbEntity
  8
0
  6
Continuous
 62
     7
370
     0
100
AcDbLine
 10
143.8039177892936
 20
-43.1182647614296
 30
0.0
 11
137.8039177892935
 21
-43.1182647614296
 31
0.0
  0
LINE
  5
5A59
330
A
100
AcDbEntity
  8
0
  6
Continuous
 62
     7
370
     0
100
AcDbLine
 10
137.8039177892935
 20
-6.918264761442172
 30
0.0
 11
143.8039177892935
 21
-6.918264761442172
 31
0.0
  0
LINE
  5
5A5A
330
A
100
AcDbEntity
  8
0
  6
Continuous
 62
     7
370
     0
100
AcDbLine
 10
143.8039177892935
 20
6.881735238557893
 30
0.0
 11
137.8039177892935
 21
6.881735238557893
 31
0.0
  0
LINE
  5
5A5B
330
A
100
AcDbEntity
  8
0
  6
Continuous
 62
     7
370
     0
100
AcDbLine
 10
108.9258749123526
 20
-45.11022322298799
 30
0.0
 11
108.3160463558939
 21
-45.76763213490147
 31
0.0
  0
LINE
  5
5A5C
330
A
100
AcDbEntity
  8
0
  6
Continuous
 62
     7
370
     0
100
AcDbLine
 10
108.3160463550717
 20
-54.26889738755386
 30
0.0
 11
108.925874911403
 21
-54.92630629958558
 31
0.0
  0
ARC
  5
5A5D
330
A
100
AcDbEntity
  8
0
  6
Continuous
 62
     7
370
     0
100
AcDbCircle
 10
113.5514009119679
 20
-49.96169959102632
 30
0.0
 40
6.756147839192934
100
AcDbArc
 50
151.6982363097352
 51
180.4797087741452
  0
ARC
  5
5A5E
330
A
100
AcDbEntity
  8
0
  6
Continuous
 62
     7
370
     0
100
AcDbCircle
 10
113.5668085636174
 20
-50.07101171037682
 30
0.0
 40
6.771524133508787
100
AcDbArc
 50
179.5536886439364
 51
208.2689729572332
  0
LINE
  5
5A5F
330
A
100
AcDbEntity
  8
0
  6
Continuous
 62
     7
370
     0
100
AcDbLine
 10
111.7559045723184
 20
-56.2682647615606
 30
0.0
 11
111.9605040803371
 21
-56.26826476158033
 31
0.0
  0
LINE
  5
5A60
330
A
100
AcDbEntity
  8
0
  6
Continuous
 62
     7
370
     0
100
AcDbLine
 10
111.9605040815462
 20
-43.76826476158032
 30
0.0
 11
111.7559045735273
 21
-43.7682647615606
 31
0.0
  0
LINE
  5
5A61
330
A
100
AcDbEntity
  8
0
  6
Continuous
 62
     7
370
     0
100
AcDbLine
 10
108.9258749123526
 20
4.889776777368183
 30
0.0
 11
108.3160463558939
 21
4.232367865454306
 31
0.0
  0
LINE
  5
5A62
330
A
100
AcDbEntity
  8
0
  6
Continuous
 62
     7
370
     0
100
AcDbLine
 10
108.3160463550717
 20
-4.268897387197966
 30
0.0
 11
108.925874911403
 21
-4.926306299229564
 31
0.0
  0
ARC
  5
5A63
330
A
100
AcDbEntity
  8
0
  6
Continuous
 62
     7
370
     0
100
AcDbCircle
 10
113.5514009119679
 20
0.0383004093295085
 30
0.0
 40
6.756147839192934
100
AcDbArc
 50
151.6982363097352
 51
180.4797087741452
  0
ARC
  5
5A64
330
A
100
AcDbEntity
  8
0
  6
Continuous
 62
     7
370
     0
100
AcDbCircle
 10
113.5668085636176
 20
-0.0710117100205707
 30
0.0
 40
6.771524133508896
100
AcDbArc
 50
179.5536886439397
 51
208.2689729572375
  0
LINE
  5
5A65
330
A
100
AcDbEntity
  8
0
  6
Continuous
 62
     7
370
     0
100
AcDbLine
 10
111.7559045723184
 20
-6.268264761204477
 30
0.0
 11
111.9605040803371
 21
-6.268264761224314
 31
0.0
  0
LINE
  5
5A66
330
A
100
AcDbEntity
  8
0
  6
Continuous
 62
     7
370
     0
100
AcDbLine
 10
111.9605040815462
 20
6.231735238775683
 30
0.0
 11
111.7559045735273
 21
6.231735238795407
 31
0.0
  0
LINE
  5
5A67
330
A
100
AcDbEntity
  8
0
  6
Continuous
 62
     7
370
     0
100
AcDbLine
 10
130.5039177893019
 20
-6.268342052082458
 30
0.0
 11
130.8039177893019
 21
-6.268342052082458
 31
0.0
  0
LINE
  5
5A68
330
A
100
AcDbEntity
  8
0
  6
Continuous
 62
     7
370
     0
100
AcDbLine
 10
130.8039177893019
 20
6.231657947912423
 30
0.0
 11
130.5039177893019
 21
6.231657947912423
 31
0.0
  0
LINE
  5
5A69
330
A
100
AcDbEntity
  8
0
  6
Continuous
 62
     7
370
     0
100
AcDbLine
 10
130.5039177893019
 20
6.231657947912423
 30
0.0
 11
129.0539177893019
 21
5.394500057587833
 31
0.0
  0
LINE
  5
5A6A
330
A
100
AcDbEntity
  8
0
  6
Continuous
 62
     7
370
     0
100
AcDbLine
 10
129.0539177893019
 20
-5.431184161757811
 30
0.0
 11
130.5039177893019
 21
-6.268342052082458
 31
0.0
  0
ARC
  5
5A6B
330
A
100
AcDbEntity
  8
0
  6
Continuous
 62
     7
370
     0
100
AcDbCircle
 10
129.303917789302
 20
-4.998171459863669
 30
0.0
 40
0.4999999999999451
100
AcDbArc
 50
180.0000000001205
 51
240.0000000000491
  0
ARC
  5
5A6C
330
A
100
AcDbEntity
  8
0
  6
Continuous
 62
     7
370
     0
100
AcDbCircle
 10
129.303917789302
 20
4.961487355693748
 30
0.0
 40
0.4999999999999658
100
AcDbArc
 50
119.9999999999552
 51
179.9999999998795
  0
LINE
  5
5A6D
330
A
100
AcDbEntity
  8
0
  6
Continuous
 62
     7
370
     0
100
AcDbLine
 10
130.503917789295
 20
-56.26826462377966
 30
0.0
 11
130.8039177892948
 21
-56.26826462377966
 31
0.0
  0
LINE
  5
5A6E
330
A
100
AcDbEntity
  8
0
  6
Continuous
 62
     7
370
     0
100
AcDbLine
 10
130.8039177892948
 20
-43.76826462377965
 30
0.0
 11
130.5039177892948
 21
-43.76826462377965
 31
0.0
  0
LINE
  5
5A6F
330
A
100
AcDbEntity
  8
0
  6
Continuous
 62
     7
370
     0
100
AcDbLine
 10
130.5039177892948
 20
-43.76826462377965
 30
0.0
 11
129.0539177892948
 21
-44.60542251410481
 31
0.0
  0
LINE
  5
5A70
330
A
100
AcDbEntity
  8
0
  6
Continuous
 62
     7
370
     0
100
AcDbLine
 10
129.0539177892948
 20
-55.43110673345466
 30
0.0
 11
130.5039177892948
 21
-56.26826462377966
 31
0.0
  0
ARC
  5
5A71
330
A
100
AcDbEntity
  8
0
  6
Continuous
 62
     7
370
     0
100
AcDbCircle
 10
129.3039177892951
 20
-54.99809403156064
 30
0.0
 40
0.4999999999999451
100
AcDbArc
 50
180.000000000114
 51
240.0000000000564
  0
ARC
  5
5A72
330
A
100
AcDbEntity
  8
0
  6
Continuous
 62
     7
370
     0
100
AcDbCircle
 10
129.3039177892951
 20
-45.03843521599907
 30
0.0
 40
0.500000000000062
100
AcDbArc
 50
119.999999999948
 51
179.999999999886
  0
LINE
  5
5A73
330
A
100
AcDbEntity
  8
0
  6
Continuous
 62
     7
370
     0
100
AcDbLine
 10
141.4572612883361
 20
-41.26326476144835
 30
0.0
 11
141.4572612883361
 21
-41.48341284026662
 31
0.0
  0
ARC
  5
5A74
330
A
100
AcDbEntity
  8
0
  6
Continuous
 62
     7
370
     0
100
AcDbCircle
 10
142.2572612883363
 20
-41.48341284026662
 30
0.0
 40
0.7999999999999119
100
AcDbArc
 50
180.0
 51
259.9999999999982
  0
LINE
  5
5A75
330
A
100
AcDbEntity
  8
0
  6
Continuous
 62
     7
370
     0
100
AcDbLine
 10
142.1183427462028
 20
-42.27125904267632
 30
0.0
 11
143.2072612883364
 21
-42.46326476144838
 31
0.0
  0
ARC
  5
5A76
330
A
100
AcDbEntity
  8
0
  6
Continuous
 62
     7
370
     0
100
AcDbCircle
 10
142.2572612790209
 20
-8.543116682624827
 30
0.0
 40
0.8000000000000259
100
AcDbArc
 50
99.99999999999859
 51
180.0
  0
LINE
  5
5A77
330
A
100
AcDbEntity
  8
0
  6
Continuous
 62
     7
370
     0
100
AcDbLine
 10
141.457261279021
 20
-8.543116682624827
 30
0.0
 11
141.457261279021
 21
-8.763264761443167
 31
0.0
  0
LINE
  5
5A78
330
A
100
AcDbEntity
  8
0
  6
Continuous
 62
     7
370
     0
100
AcDbLine
 10
143.207261279021
 20
-7.563264761443122
 30
0.0
 11
142.1183427368875
 21
-7.755270480215074
 31
0.0
  0
LINE
  5
5A79
330
A
100
AcDbEntity
  8
0
  6
Continuous
 62
     7
370
     0
100
AcDbLine
 10
137.8039177892935
 20
2.981657947918165
 30
0.0
 11
136.8039177892973
 21
2.981657947918165
 31
0.0
  0
LINE
  5
5A7A
330
A
100
AcDbEntity
  8
0
  6
Continuous
 62
     7
370
     0
100
AcDbLine
 10
136.8039177892973
 20
-3.018342052081834
 30
0.0
 11
137.8039177892935
 21
-3.018342052081834
 31
0.0
  0
LINE
  5
5A7B
330
A
100
AcDbEntity
  8
0
  6
Continuous
 62
     7
370
     0
100
AcDbLine
 10
137.8039177892935
 20
-47.01826462377607
 30
0.0
 11
136.8039177892973
 21
-47.01826462377607
 31
0.0
  0
LINE
  5
5A7C
330
A
100
AcDbEntity
  8
0
  6
Continuous
 62
     7
370
     0
100
AcDbLine
 10
136.8039177892973
 20
-53.01826462377595
 30
0.0
 11
137.8039177892935
 21
-53.01826462377595
 31
0.0
  0
ARC
  5
5A7D
330
A
100
AcDbEntity
  8
0
  6
Continuous
 62
     7
370
     0
100
AcDbCircle
 10
154.6039177892949
 20
-63.01826476144407
 30
0.0
 40
2.500000000000002
100
AcDbArc
 50
270.0
 51
306.8698976458792
  0
ARC
  5
5A7E
330
A
100
AcDbEntity
  8
0
  6
Continuous
 62
     7
370
     0
100
AcDbCircle
 10
154.6039177892949
 20
-63.01826476144407
 30
0.0
 40
2.500000000000009
100
AcDbArc
 50
233.1301023541183
 51
270.0
  0
ARC
  5
5A7F
330
A
100
AcDbEntity
  8
0
  6
Continuous
 62
     7
370
     0
100
AcDbCircle
 10
154.6039177892949
 20
12.98173523855581
 30
0.0
 40
2.500000000000002
100
AcDbArc
 50
90.0
 51
126.8698976458095
  0
ARC
  5
5A80
330
A
100
AcDbEntity
  8
0
  6
Continuous
 62
     7
370
     0
100
AcDbCircle
 10
154.6039177892949
 20
12.98173523855581
 30
0.0
 40
2.500000000000013
100
AcDbArc
 50
53.1301023541905
 51
90.0
  0
LINE
  5
5A81
330
A
100
AcDbEntity
  8
0
  6
Continuous
 62
     7
370
     0
100
AcDbLine
 10
143.8039177892934
 20
-4.918264761443197
 30
0.0
 11
144.8039177892952
 21
-4.918264761443197
 31
0.0
  0
LINE
  5
5A82
330
A
100
AcDbEntity
  8
0
  6
Continuous
 62
     7
370
     0
100
AcDbLine
 10
144.8039177892952
 20
4.881735238556757
 30
0.0
 11
143.8039177892935
 21
4.881735238556757
 31
0.0
  0
LINE
  5
5A83
330
A
100
AcDbEntity
  8
0
  6
Continuous
 62
     7
370
     0
100
AcDbLine
 10
143.8039177892936
 20
-54.9182647614432
 30
0.0
 11
144.8039177892952
 21
-54.9182647614432
 31
0.0
  0
LINE
  5
5A84
330
A
100
AcDbEntity
  8
0
  6
Continuous
 62
     7
370
     0
100
AcDbLine
 10
144.8039177892953
 20
-45.11826476144324
 30
0.0
 11
143.8039177892936
 21
-45.11826476144324
 31
0.0
  0
LINE
  5
5A85
330
A
100
AcDbEntity
  8
0
  6
Continuous
 62
     7
370
     0
100
AcDbLine
 10
162.2982423075756
 20
-65.01826476144316
 30
0.0
 11
162.2982423075756
 21
-42.59326476144309
 31
0.0
  0
LINE
  5
5A86
330
A
100
AcDbEntity
  8
0
  6
Continuous
 62
     7
370
     0
100
AcDbLine
 10
162.2982423075756
 20
-7.443264761443173
 30
0.0
 11
162.2982423075756
 21
14.98173523855683
 31
0.0
  0
LINE
  5
5A87
330
A
100
AcDbEntity
  8
0
  6
Continuous
 62
     7
370
     0
100
AcDbLine
 10
162.1039179819616
 20
-41.26326476144835
 30
0.0
 11
162.1039179819616
 21
-8.763264761448112
 31
0.0
  0
LINE
  5
5A88
330
A
100
AcDbEntity
  8
0
  6
Continuous
 62
     7
370
     0
100
AcDbLine
 10
139.7072612925313
 20
-8.763264761448112
 30
0.0
 11
139.7072612925311
 21
-41.26326476144835
 31
0.0
  0
LINE
  5
5A89
330
A
100
AcDbEntity
  8
0
  6
Continuous
 62
     7
370
     0
100
AcDbLine
 10
144.7072612925306
 20
-7.443264761465628
 30
0.0
 11
144.7072612925306
 21
-7.563264761460516
 31
0.0
  0
LINE
  5
5A8A
330
A
100
AcDbEntity
  8
0
  6
Continuous
 62
     7
370
     0
100
AcDbLine
 10
144.7072612925306
 20
-42.46326476149164
 30
0.0
 11
144.7072612925306
 21
-42.59326476149197
 31
0.0
  0
ARC
  5
5A8B
330
A
100
AcDbEntity
  8
0
  6
Continuous
 62
     7
370
     0
100
AcDbCircle
 10
147.2072612925309
 20
-63.01826476147471
 30
0.0
 40
2.500000000000002
100
AcDbArc
 50
270.0
 51
306.8698976468843
  0
ARC
  5
5A8C
330
A
100
AcDbEntity
  8
0
  6
Continuous
 62
     7
370
     0
100
AcDbCircle
 10
147.2072612925309
 20
-63.01826476147471
 30
0.0
 40
2.500000000000013
100
AcDbArc
 50
233.1301023531157
 51
270.0
  0
ARC
  5
5A8D
330
A
100
AcDbEntity
  8
0
  6
Continuous
 62
     7
370
     0
100
AcDbCircle
 10
147.2072612925309
 20
12.98173523855371
 30
0.0
 40
2.500000000000002
100
AcDbArc
 50
90.0
 51
126.869897645956
  0
ARC
  5
5A8E
330
A
100
AcDbEntity
  8
0
  6
Continuous
 62
     7
370
     0
100
AcDbCircle
 10
147.2072612925309
 20
12.98173523855371
 30
0.0
 40
2.500000000000013
100
AcDbArc
 50
53.13010235404394
 51
90.0
  0
LINE
  5
5A8F
330
A
100
AcDbEntity
  8
0
  6
Continuous
 62
     7
370
     0
100
AcDbLine
 10
52.47794925960999
 20
-101.6913853747708
 30
0.0
 11
43.06637189074763
 21
-111.7840664571155
 31
0.0
  0
LINE
  5
5A90
330
A
100
AcDbEntity
  8
0
  6
Continuous
 62
     7
370
     0
100
AcDbLine
 10
56.86607146932522
 20
-105.7833755351458
 30
0.0
 11
47.45449410046245
 21
-115.8760566174905
 31
0.0
  0
LINE
  5
5A91
330
A
100
AcDbEntity
  8
0
  6
Continuous
 62
     7
370
     0
100
AcDbLine
 10
6.975454383758914
 20
-127.0757974022376
 30
0.0
 11
4.868625620492082
 21
-127.0757974022376
 31
0.0
  0
LINE
  5
5A92
330
A
100
AcDbEntity
  8
0
  6
Continuous
 62
     7
370
     0
100
AcDbLine
 10
6.975454383758914
 20
-133.075797402238
 30
0.0
 11
4.868625620492082
 21
-133.075797402238
 31
0.0
  0
LINE
  5
5A93
330
A
100
AcDbEntity
  8
0
  6
Continuous
 62
     7
370
     0
100
AcDbLine
 10
4.868625620492082
 20
-127.0757974022376
 30
0.0
 11
-6.824545616240983
 21
-127.0757974022379
 31
0.0
  0
LINE
  5
5A94
330
A
100
AcDbEntity
  8
0
  6
Continuous
 62
     7
370
     0
100
AcDbLine
 10
4.868625620492082
 20
-133.0757974022378
 30
0.0
 11
-6.824545616240983
 21
-133.0757974022377
 31
0.0
  0
LINE
  5
5A95
330
A
100
AcDbEntity
  8
0
  6
Continuous
 62
     7
370
     0
100
AcDbLine
 10
38.85278716303043
 20
-105.5987448209869
 30
0.0
 11
43.11527691342087
 21
-101.0277841858673
 31
0.0
  0
LINE
  5
5A96
330
A
100
AcDbEntity
  8
0
  6
Continuous
 62
     7
370
     0
100
AcDbLine
 10
43.11527691342087
 20
-101.0277841858674
 30
0.0
 11
47.3777666638116
 21
-96.45682355074775
 31
0.0
  0
LINE
  5
5A97
330
A
100
AcDbEntity
  8
0
  6
Continuous
 62
     9
370
     0
100
AcDbLine
 10
45.7463634881489
 20
-96.08018445058576
 30
0.0
 11
38.36326460399761
 21
-103.9975886769678
 31
0.0
  0
LINE
  5
5A98
330
A
100
AcDbEntity
  8
0
  6
Continuous
 62
     7
370
     0
100
AcDbLine
 10
38.47574013116953
 20
-103.5104036445751
 30
0.0
 11
45.26821111016732
 21
-96.22637030294709
 31
0.0
  0
LINE
  5
5A99
330
A
100
AcDbEntity
  8
0
  6
Continuous
 62
     7
370
     0
100
AcDbLine
 10
-6.262459485418105
 20
-119.7757974022462
 30
0.0
 11
4.774423987600186
 21
-119.7757974022462
 31
0.0
  0
LINE
  5
5A9A
330
A
100
AcDbEntity
  8
0
  6
Continuous
 62
     9
370
     0
100
AcDbLine
 10
5.400382624256906
 20
-118.3257974022462
 30
0.0
 11
-5.425301595093117
 21
-118.3257974022462
 31
0.0
  0
LINE
  5
5A9B
330
A
100
AcDbEntity
  8
0
  6
Continuous
 62
     7
370
     0
100
AcDbLine
 10
4.77442398760013
 20
-119.7757974022462
 30
0.0
 11
6.237540514581893
 21
-119.7757974022462
 31
0.0
  0
LINE
  5
5A9C
330
A
100
AcDbEntity
  8
0
  6
Continuous
 62
     7
370
     0
100
AcDbLine
 10
-4.992288893200964
 20
-118.0757974022463
 30
0.0
 11
4.967369922364753
 21
-118.0757974022461
 31
0.0
  0
LINE
  5
5AA0
330
A
100
AcDbEntity
  8
0
  6
Continuous
 62
     7
370
     0
100
AcDbLine
 10
39.12547767182685
 20
-130.1230952687863
 30
0.0
 11
36.39748423157687
 21
-133.0485100752631
 31
0.0
  0
LINE
  5
5AA1
330
A
100
AcDbEntity
  8
0
  6
Continuous
 62
     7
370
     0
100
AcDbLine
 10
38.37382118167557
 20
-130.3792934748964
 30
0.0
 11
36.60062544551335
 21
-132.280813099106
 31
0.0
  0
LINE
  5
5AA2
330
A
100
AcDbEntity
  8
0
  6
Continuous
 62
     9
370
     0
100
AcDbLine
 10
-9.924545616221394
 20
-134.0757974022397
 30
0.0
 11
-9.924545616221394
 21
-135.0757974022397
 31
0.0
  0
LINE
  5
5AA3
330
A
100
AcDbEntity
  8
0
  6
Continuous
 62
     7
370
     0
100
AcDbLine
 10
-16.42454561621963
 20
-135.0757974022393
 30
0.0
 11
-16.42454561621963
 21
-134.0757974022394
 31
0.0
  0
LINE
  5
5AA4
330
A
100
AcDbEntity
  8
0
  6
Continuous
 62
     7
370
     0
100
AcDbLine
 10
-30.12993671483651
 20
-134.0757974022397
 30
0.0
 11
28.07545438377537
 21
-134.0757974022397
 31
0.0
  0
LINE
  5
5AA5
330
A
100
AcDbEntity
  8
0
  6
Continuous
 62
     9
370
     0
100
AcDbLine
 10
14.57545438377207
 20
-135.0757974022393
 30
0.0
 11
14.57545438377207
 21
-134.0757974022394
 31
0.0
  0
LINE
  5
5AA7
330
A
100
AcDbEntity
  8
0
  6
Continuous
 62
     7
370
     0
100
AcDbLine
 10
16.57545438377139
 20
-134.0757974022394
 30
0.0
 11
16.57545438377139
 21
-135.0757974022393
 31
0.0
  0
LINE
  5
5AA9
330
A
100
AcDbEntity
  8
0
  6
Continuous
 62
     9
370
     0
100
AcDbLine
 10
14.46290221801683
 20
-126.0757974022386
 30
0.0
 11
14.46290221801678
 21
-125.0757974022382
 31
0.0
  0
LINE
  5
5AAA
330
A
100
AcDbEntity
  8
0
  6
Continuous
 62
     9
370
     0
100
AcDbLine
 10
16.46641568121833
 20
-125.0757974022379
 30
0.0
 11
16.46641568121845
 21
-126.0757974022383
 31
0.0
  0
LINE
  5
5AAC
330
A
100
AcDbEntity
  8
0
  6
Continuous
 62
     9
370
     0
100
AcDbLine
 10
-10.0370599106044
 20
-125.0757974022406
 30
0.0
 11
-10.03705991060406
 21
-126.0757974022409
 31
0.0
  0
LINE
  5
5AAE
330
A
100
AcDbEntity
  8
0
  6
Continuous
 62
     7
370
     0
100
AcDbLine
 10
-16.52562106018149
 20
-126.0757974022416
 30
0.0
 11
-16.52562106018166
 21
-125.0757974022411
 31
0.0
  0
LINE
  5
5AB0
330
A
100
AcDbEntity
  8
0
  6
Continuous
 62
     7
370
     0
100
AcDbLine
 10
16.5965282066989
 20
-126.0757974022382
 30
0.0
 11
16.59652820669885
 21
-125.0757974022379
 31
0.0
  0
LINE
  5
5AB2
330
A
100
AcDbEntity
  8
0
  6
Continuous
 62
     9
370
     0
100
AcDbLine
 10
-17.49923338575138
 20
-125.0757974022451
 30
0.0
 11
-17.49923338575178
 21
-120.0757974022453
 31
0.0
  0
LINE
  5
5AB3
330
A
100
AcDbEntity
  8
0
  6
Continuous
 62
     9
370
     0
100
AcDbLine
 10
-9.986046000245552
 20
-120.0757974022446
 30
0.0
 11
-9.986046000245096
 21
-125.0757974022443
 31
0.0
  0
LINE
  5
5AB4
330
A
100
AcDbEntity
  8
0
  6
Continuous
 62
     7
370
     0
100
AcDbLine
 10
-9.986046000245096
 20
-125.0757974022447
 30
0.0
 11
-17.49923338575138
 21
-125.0757974022451
 31
0.0
  0
LINE
  5
5AB5
330
A
100
AcDbEntity
  8
0
  6
Continuous
 62
     7
370
     0
100
AcDbLine
 10
-17.49923338575178
 20
-120.0757974022453
 30
0.0
 11
-9.986046000245552
 21
-120.0757974022446
 31
0.0
  0
LINE
  5
5AB6
330
A
100
AcDbEntity
  8
0
  6
Continuous
 62
     7
370
     0
100
AcDbLine
 10
17.51391141417673
 20
-125.0757974022416
 30
0.0
 11
17.51391141417611
 21
-120.0757974022416
 31
0.0
  0
LINE
  5
5AB7
330
A
100
AcDbEntity
  8
0
  6
Continuous
 62
     7
370
     0
100
AcDbLine
 10
17.51391141417673
 20
-125.0757974022416
 30
0.0
 11
-9.986046000245096
 21
-125.0757974022447
 31
0.0
  0
LINE
  5
5AB8
330
A
100
AcDbEntity
  8
0
  6
Continuous
 62
     7
370
     0
100
AcDbLine
 10
17.51391141417611
 20
-120.0757974022416
 30
0.0
 11
-9.986046000245552
 21
-120.0757974022446
 31
0.0
  0
LINE
  5
5AB9
330
A
100
AcDbEntity
  8
0
  6
Continuous
 62
     7
370
     0
100
AcDbLine
 10
-17.61362471696111
 20
-120.0757974022453
 30
0.0
 11
-17.61362471696026
 21
-125.0757974022451
 31
0.0
  0
LINE
  5
5ABA
330
A
100
AcDbEntity
  8
0
  6
Continuous
 62
     7
370
     0
100
AcDbLine
 10
-17.49923338575138
 20
-125.0757974022451
 30
0.0
 11
-17.61362471696026
 21
-125.0757974022451
 31
0.0
  0
LINE
  5
5ABB
330
A
100
AcDbEntity
  8
0
  6
Continuous
 62
     7
370
     0
100
AcDbLine
 10
-17.49923338575178
 20
-120.0757974022453
 30
0.0
 11
-17.61362471696111
 21
-120.0757974022453
 31
0.0
  0
CIRCLE
  5
5ABC
330
A
100
AcDbEntity
  8
0
  6
Continuous
 62
     7
370
     0
100
AcDbCircle
 10
26.07545438377588
 20
-143.8757974022394
 30
0.0
 40
2.499999999999923
  0
LINE
  5
5ABD
330
A
100
AcDbEntity
  8
0
  6
Continuous
 62
     7
370
     0
100
AcDbLine
 10
17.57545438377588
 20
-135.0757974022393
 30
0.0
 11
17.57545438377588
 21
-136.7757974022396
 31
0.0
  0
ARC
  5
5ABE
330
A
100
AcDbEntity
  8
0
  6
Continuous
 62
     7
370
     0
100
AcDbCircle
 10
17.87545438377589
 20
-136.7757974022395
 30
0.0
 40
0.2999999999999669
100
AcDbArc
 50
180.0000000000065
 51
270.0
  0
LINE
  5
5ABF
330
A
100
AcDbEntity
  8
0
  6
Continuous
 62
     7
370
     0
100
AcDbLine
 10
17.87545438377589
 20
-137.0757974022396
 30
0.0
 11
32.57545438377588
 21
-137.0757974022396
 31
0.0
  0
LINE
  5
5AC0
330
A
100
AcDbEntity
  8
0
  6
Continuous
 62
     7
370
     0
100
AcDbLine
 10
33.57545438377588
 20
-139.0757974022393
 30
0.0
 11
32.57545438377588
 21
-137.0757974022396
 31
0.0
  0
LINE
  5
5AC1
330
A
100
AcDbEntity
  8
0
  6
Continuous
 62
     7
370
     0
100
AcDbLine
 10
33.57545438377588
 20
-139.0757974022393
 30
0.0
 11
33.57545438377588
 21
-144.0757974022394
 31
0.0
  0
ARC
  5
5AC2
330
A
100
AcDbEntity
  8
0
  6
Continuous
 62
     7
370
     0
100
AcDbCircle
 10
26.0754565311824
 20
-144.0701219205199
 30
0.0
 40
7.499999999999968
100
AcDbArc
 50
265.2486265025035
 51
359.9566425092973
  0
ARC
  5
5AC3
330
A
100
AcDbEntity
  8
0
  6
Continuous
 62
     7
370
     0
100
AcDbCircle
 10
33.9254543837759
 20
-49.62579740223946
 30
0.0
 40
102.2699999999996
100
AcDbArc
 50
244.6106643894916
 51
265.2486265025035
  0
LINE
  5
5AC4
330
A
100
AcDbEntity
  8
0
  6
Continuous
 62
     9
370
     0
100
AcDbLine
 10
-9.924545616224122
 20
-135.0757974022393
 30
0.0
 11
-9.924545616224122
 21
-142.0180611476418
 31
0.0
  0
LINE
  5
5AC5
330
A
100
AcDbEntity
  8
0
  6
Continuous
 62
     7
370
     0
100
AcDbLine
 10
-9.924545616224122
 20
-135.0757974022393
 30
0.0
 11
17.57545438377588
 21
-135.0757974022393
 31
0.0
  0
LINE
  5
5AC6
330
A
100
AcDbEntity
  8
0
  6
Continuous
 62
     7
370
     0
100
AcDbLine
 10
-17.42454561622412
 20
-138.0697367084461
 30
0.0
 11
-17.42454561622412
 21
-135.0757974022393
 31
0.0
  0
ARC
  5
5AC7
330
A
100
AcDbEntity
  8
0
  6
Continuous
 62
     7
370
     0
100
AcDbCircle
 10
33.92545438376601
 20
-49.6257974022596
 30
0.0
 40
102.2699999999775
100
AcDbArc
 50
239.8608166489375
 51
244.6106643894945
  0
LINE
  5
5AC8
330
A
100
AcDbEntity
  8
0
  6
Continuous
 62
     7
370
     0
100
AcDbLine
 10
-17.42454561622412
 20
-135.0757974022393
 30
0.0
 11
-9.924545616224122
 21
-135.0757974022393
 31
0.0
  0
ARC
  5
5AC9
330
A
100
AcDbEntity
  8
0
  6
Continuous
 62
     7
370
     0
100
AcDbCircle
 10
22.06968877825443
 20
-111.6236062949481
 30
0.0
 40
39.99999999999985
100
AcDbArc
 50
279.7156305930398
 51
307.437831804416
  0
LINE
  5
5ACA
330
A
100
AcDbEntity
  8
0
  6
Continuous
 62
     7
370
     0
100
AcDbLine
 10
31.89156747532388
 20
-136.7732106631746
 30
0.0
 11
17.70244234475791
 21
-137.0208827636032
 31
0.0
  0
ARC
  5
5ACB
330
A
100
AcDbEntity
  8
0
  6
Continuous
 62
     7
370
     0
100
AcDbCircle
 10
31.87411506888646
 20
-135.7733629680183
 30
0.0
 40
1.000000000000021
100
AcDbArc
 50
270.9999999999985
 51
316.0000000000021
  0
LINE
  5
5ACC
330
A
100
AcDbEntity
  8
0
  6
Continuous
 62
     7
370
     0
100
AcDbLine
 10
36.5868983552719
 20
-132.332689552266
 30
0.0
 11
32.59345486922497
 21
-136.4680213384772
 31
0.0
  0
ARC
  5
5ACD
330
A
100
AcDbEntity
  8
0
  6
Continuous
 62
     7
370
     0
100
AcDbCircle
 10
43.00894376081926
 20
-136.4791409054753
 30
0.0
 40
7.499999999999922
100
AcDbArc
 50
112.0486989073234
 51
123.076691534387
  0
LINE
  5
5ACE
330
A
100
AcDbEntity
  8
0
  6
Continuous
 62
     9
370
     0
100
AcDbLine
 10
61.12497214882136
 20
-104.148822078631
 30
0.0
 11
60.39361844720196
 21
-103.4668237185685
 31
0.0
  0
LINE
  5
5ACF
330
A
100
AcDbEntity
  8
0
  6
Continuous
 62
     7
370
     0
100
AcDbLine
 10
60.39361844720196
 20
-103.4668237185685
 30
0.0
 11
73.19106885023565
 21
-89.74323833826282
 31
0.0
  0
LINE
  5
5AD0
330
A
100
AcDbEntity
  8
0
  6
Continuous
 62
     7
370
     0
100
AcDbLine
 10
64.82660778760936
 20
-98.71302465804285
 30
0.0
 11
65.55796148922836
 21
-99.39502301810527
 31
0.0
  0
LINE
  5
5AD1
330
A
100
AcDbEntity
  8
0
  6
Continuous
 62
     9
370
     0
100
AcDbLine
 10
43.6846586256675
 20
-121.3849894082418
 30
0.0
 11
44.41601232728664
 21
-122.0669877683043
 31
0.0
  0
LINE
  5
5AD2
330
A
100
AcDbEntity
  8
0
  6
Continuous
 62
     7
370
     0
100
AcDbLine
 10
36.25022925175426
 20
-129.3574388457149
 30
0.0
 11
60.39361844720196
 21
-103.4668237185682
 31
0.0
  0
LINE
  5
5AD3
330
A
100
AcDbEntity
  8
0
  6
Continuous
 62
     7
370
     0
100
AcDbLine
 10
43.05201560716143
 20
-123.5296951715428
 30
0.0
 11
42.320661905542
 21
-122.8476968114802
 31
0.0
  0
LINE
  5
5AD4
330
A
100
AcDbEntity
  8
0
  6
Continuous
 62
     7
370
     0
100
AcDbLine
 10
42.32066190554228
 20
-122.8476968114802
 30
0.0
 11
43.6846586256675
 21
-121.3849894082418
 31
0.0
  0
LINE
  5
5AD5
330
A
100
AcDbEntity
  8
0
  6
Continuous
 62
     7
370
     0
100
AcDbLine
 10
42.1829231080269
 20
-127.2798751256045
 30
0.0
 11
43.4745102813349
 21
-125.2910052901164
 31
0.0
  0
LINE
  5
5AD6
330
A
100
AcDbEntity
  8
0
  6
Continuous
 62
     7
370
     0
100
AcDbLine
 10
42.24934638216836
 20
-127.3230109042058
 30
0.0
 11
42.1829231080269
 21
-127.2798751256045
 31
0.0
  0
LINE
  5
5AD7
330
A
100
AcDbEntity
  8
0
  6
Continuous
 62
     7
370
     0
100
AcDbLine
 10
58.24442447303322
 20
-92.5750394174816
 30
0.0
 11
58.97577817465236
 21
-93.25703777754416
 31
0.0
  0
LINE
  5
5AD8
330
A
100
AcDbEntity
  8
0
  6
Continuous
 62
     9
370
     0
100
AcDbLine
 10
54.54278883424592
 20
-98.01083683806877
 30
0.0
 11
53.81143513262703
 21
-97.32883847800641
 31
0.0
  0
LINE
  5
5AD9
330
A
100
AcDbEntity
  8
0
  6
Continuous
 62
     7
370
     0
100
AcDbLine
 10
67.44148587142859
 20
-84.17867773530659
 30
0.0
 11
54.54278883424592
 21
-98.01083683806877
 31
0.0
  0
LINE
  5
5ADA
330
A
100
AcDbEntity
  8
0
  6
Continuous
 62
     9
370
     0
100
AcDbLine
 10
37.10247531109582
 20
-115.2470041676757
 30
0.0
 11
37.83382901271483
 21
-115.9290025277383
 31
0.0
  0
LINE
  5
5ADB
330
A
100
AcDbEntity
  8
0
  6
Continuous
 62
     7
370
     0
100
AcDbLine
 10
54.54278883424592
 20
-98.01083683806877
 30
0.0
 11
30.39939963879938
 21
-123.9014519652136
 31
0.0
  0
LINE
  5
5ADC
330
A
100
AcDbEntity
  8
0
  6
Continuous
 62
     7
370
     0
100
AcDbLine
 10
36.46983229258973
 20
-117.3917099309768
 30
0.0
 11
35.73847859097083
 21
-116.7097115709143
 31
0.0
  0
LINE
  5
5ADD
330
A
100
AcDbEntity
  8
0
  6
Continuous
 62
     7
370
     0
100
AcDbLine
 10
37.83382901271483
 20
-115.9290025277383
 30
0.0
 11
36.46983229258973
 21
-117.3917099309768
 31
0.0
  0
LINE
  5
5ADE
330
A
100
AcDbEntity
  8
0
  6
Continuous
 62
     7
370
     0
100
AcDbLine
 10
35.05648023091357
 20
-117.4410652725278
 30
0.0
 11
31.39971172281764
 21
-114.0310734722155
 31
0.0
  0
LINE
  5
5ADF
330
A
100
AcDbEntity
  8
0
  6
Continuous
 62
     7
370
     0
100
AcDbLine
 10
50.15466662452821
 20
-93.91884667769716
 30
0.0
 11
31.39971172281764
 21
-114.0310734722155
 31
0.0
  0
LINE
  5
5AE0
330
A
100
AcDbEntity
  8
0
  6
Continuous
 62
     9
370
     0
100
AcDbLine
 10
53.81143513262408
 20
-97.32883847800952
 30
0.0
 11
50.15466662452821
 21
-93.91884667769716
 31
0.0
  0
LINE
  5
5AE1
330
A
100
AcDbEntity
  8
0
  6
Continuous
 62
     7
370
     0
100
AcDbLine
 10
53.81143513262408
 20
-97.32883847800952
 30
0.0
 11
35.05648023091357
 21
-117.4410652725278
 31
0.0
  0
LINE
  5
5AE2
330
A
100
AcDbEntity
  8
0
  6
Continuous
 62
     7
370
     0
100
AcDbLine
 10
55.26965432499475
 20
-88.43369391555565
 30
0.0
 11
58.92642283309054
 21
-91.84368571586814
 31
0.0
  0
LINE
  5
5AE3
330
A
100
AcDbEntity
  8
0
  6
Continuous
 62
     7
370
     0
100
AcDbLine
 10
50.15466662452821
 20
-93.91884667769716
 30
0.0
 11
55.26965432499689
 21
-88.43369391555333
 31
0.0
  0
LINE
  5
5AE4
330
A
100
AcDbEntity
  8
0
  6
Continuous
 62
     7
370
     0
100
AcDbLine
 10
58.92642283309271
 20
-91.84368571586579
 30
0.0
 11
53.81143513262408
 21
-97.32883847800952
 31
0.0
  0
LINE
  5
5AE5
330
A
100
AcDbEntity
  8
0
  6
Continuous
 62
     9
370
     0
100
AcDbLine
 10
66.20659495389237
 20
-108.8875120064237
 30
0.0
 11
61.12497214882036
 21
-104.1488220786331
 31
0.0
  0
LINE
  5
5AE6
330
A
100
AcDbEntity
  8
0
  6
Continuous
 62
     7
370
     0
100
AcDbLine
 10
66.2399598492891
 20
-98.6636693164892
 30
0.0
 11
68.4340209541466
 21
-100.7096643966767
 31
0.0
  0
ARC
  5
5AE7
330
A
100
AcDbEntity
  8
0
  6
Continuous
 62
     7
370
     0
100
AcDbCircle
 10
-31.2704049023281
 20
-77.94512654764274
 30
0.0
 40
102.2702142309742
100
AcDbArc
 50
342.3888606181725
 51
347.1386769767037
  0
LINE
  5
5AE8
330
A
100
AcDbEntity
  8
0
  6
Continuous
 62
     7
370
     0
100
AcDbLine
 10
61.12497214882036
 20
-104.1488220786331
 30
0.0
 11
66.2399598492891
 21
-98.6636693164892
 31
0.0
  0
ARC
  5
5AE9
330
A
100
AcDbEntity
  8
0
  6
Continuous
 62
     7
370
     0
100
AcDbCircle
 10
43.15521450114306
 20
-136.6155405774856
 30
0.0
 40
7.499999999999895
100
AcDbArc
 50
227.0000000000008
 51
321.7509052580866
  0
LINE
  5
5AEA
330
A
100
AcDbEntity
  8
0
  6
Continuous
 62
     7
370
     0
100
AcDbLine
 10
34.38345829257844
 20
-138.6907015393169
 30
0.0
 11
38.04022680067435
 21
-142.1006933396294
 31
0.0
  0
LINE
  5
5AEB
330
A
100
AcDbEntity
  8
0
  6
Continuous
 62
     7
370
     0
100
AcDbLine
 10
33.60274924940286
 20
-136.5953511175726
 30
0.0
 11
34.38345829257844
 21
-138.6907015393168
 31
0.0
  0
LINE
  5
5AEC
330
A
100
AcDbEntity
  8
0
  6
Continuous
 62
     7
370
     0
100
AcDbLine
 10
43.6963249783276
 20
-125.771316333609
 30
0.0
 11
33.60274924940286
 21
-136.5953511175726
 31
0.0
  0
LINE
  5
5AED
330
A
100
AcDbEntity
  8
0
  6
Continuous
 62
     7
370
     0
100
AcDbLine
 10
42.3700172471016
 20
-124.2610488731601
 30
0.0
 11
43.68645391001644
 21
-125.4886459212728
 31
0.0
  0
CIRCLE
  5
5AEE
330
A
100
AcDbEntity
  8
0
  6
Continuous
 62
     7
370
     0
100
AcDbCircle
 10
43.00894376081926
 20
-136.4791409054731
 30
0.0
 40
2.500000000000043
  0
ARC
  5
5AEF
330
A
100
AcDbEntity
  8
0
  6
Continuous
 62
     7
370
     0
100
AcDbCircle
 10
43.55005423800384
 20
-125.6349166615963
 30
0.0
 40
0.1999999999999869
100
AcDbArc
 50
316.9999999999915
 51
46.99999999999153
  0
ARC
  5
5AF0
330
A
100
AcDbEntity
  8
0
  6
Continuous
 62
     7
370
     0
100
AcDbCircle
 10
-31.27019802376998
 20
-77.94518289580378
 30
0.0
 40
102.2699999999996
100
AcDbArc
 50
321.7509052580866
 51
342.388855640464
  0
LINE
  5
5AF1
330
A
100
AcDbEntity
  8
0
  6
Continuous
 62
     7
370
     0
100
AcDbLine
 10
61.12497214882036
 20
-104.1488220786331
 30
0.0
 11
42.3700172471016
 21
-124.2610488731601
 31
0.0
  0
LINE
  5
5AF2
330
A
100
AcDbEntity
  8
0
  6
Continuous
 62
     9
370
     0
100
AcDbLine
 10
39.16103588391207
 20
-130.6348184493763
 30
0.0
 11
38.74964942675132
 21
-130.2511943718414
 31
0.0
  0
LINE
  5
5AF3
330
A
100
AcDbEntity
  8
0
  6
Continuous
 62
     9
370
     0
100
AcDbLine
 10
36.49905483854502
 20
-132.6646615871846
 30
0.0
 11
36.9104412957056
 21
-133.0482856647196
 31
0.0
  0
LINE
  5
5AF4
330
A
100
AcDbEntity
  8
0
  6
Continuous
 62
     9
370
     0
100
AcDbLine
 10
50.15915483539743
 20
-104.1779879602762
 30
0.0
 11
49.42780113377732
 21
-103.4959896002126
 31
0.0
  0
LINE
  5
5AF5
330
A
100
AcDbEntity
  8
0
  6
Continuous
 62
     9
370
     0
100
AcDbLine
 10
46.01780933346492
 20
-107.1527581083085
 30
0.0
 11
46.74916303508523
 21
-107.8347564683719
 31
0.0
  0
LINE
  5
5AF6
330
A
100
AcDbEntity
  8
0
  6
Continuous
 62
     9
370
     0
100
AcDbLine
 10
2.487540514579108
 20
-127.0757974022379
 30
0.0
 11
2.487540514579619
 21
-126.0757974022398
 31
0.0
  0
LINE
  5
5AF7
330
A
100
AcDbEntity
  8
0
  6
Continuous
 62
     9
370
     0
100
AcDbLine
 10
-2.512459485420436
 20
-126.0757974022401
 30
0.0
 11
-2.512459485420662
 21
-127.0757974022376
 31
0.0
  0
LINE
  5
5AF8
330
A
100
AcDbEntity
  8
0
  6
Continuous
 62
     7
370
     0
100
AcDbLine
 10
56.86607146932522
 20
-105.7833755351458
 30
0.0
 11
52.47794925960999
 21
-101.6913853747708
 31
0.0
  0
LINE
  5
5AF9
330
A
100
AcDbEntity
  8
0
  6
Continuous
 62
     7
370
     0
100
AcDbLine
 10
43.06637189074763
 20
-111.7840664571155
 30
0.0
 11
47.45449410046245
 21
-115.8760566174907
 31
0.0
  0
LINE
  5
5AFA
330
A
100
AcDbEntity
  8
0
  6
Continuous
 62
     7
370
     0
100
AcDbLine
 10
-6.824545616240983
 20
-127.0757974022379
 30
0.0
 11
-6.824545616240983
 21
-133.0757974022378
 31
0.0
  0
LINE
  5
5AFB
330
A
100
AcDbEntity
  8
0
  6
Continuous
 62
     7
370
     0
100
AcDbLine
 10
6.975454383758914
 20
-133.0757974022378
 30
0.0
 11
6.975454383758914
 21
-127.0757974022376
 31
0.0
  0
LINE
  5
5AFC
330
A
100
AcDbEntity
  8
0
  6
Continuous
 62
     7
370
     0
100
AcDbLine
 10
47.3777666638116
 20
-96.45682355074768
 30
0.0
 11
45.7463634881489
 21
-96.08018445058576
 31
0.0
  0
LINE
  5
5AFD
330
A
100
AcDbEntity
  8
0
  6
Continuous
 62
     7
370
     0
100
AcDbLine
 10
38.36326460399761
 20
-103.9975886769678
 30
0.0
 11
38.85278716303043
 21
-105.598744820987
 31
0.0
  0
LINE
  5
5AFE
330
A
100
AcDbEntity
  8
0
  6
Continuous
 62
     7
370
     0
100
AcDbLine
 10
38.85278716303043
 20
-105.5987448209869
 30
0.0
 11
39.07219327351601
 21
-105.8033443290058
 31
0.0
  0
LINE
  5
5AFF
330
A
100
AcDbEntity
  8
0
  6
Continuous
 62
     7
370
     0
100
AcDbLine
 10
47.59717277429735
 20
-96.6614230587665
 30
0.0
 11
47.3777666638116
 21
-96.45682355074768
 31
0.0
  0
ARC
  5
5B00
330
A
100
AcDbEntity
  8
0
  6
Continuous
 62
     7
370
     0
100
AcDbCircle
 10
38.84141698197903
 20
-103.8514028246063
 30
0.0
 40
0.49999999999997
100
AcDbArc
 50
137.0000000000007
 51
197.0000000000053
  0
ARC
  5
5B01
330
A
100
AcDbEntity
  8
0
  6
Continuous
 62
     7
370
     0
100
AcDbCircle
 10
45.63388796097688
 20
-96.5673694829783
 30
0.0
 40
0.4999999999999158
100
AcDbArc
 50
76.999999999999
 51
137.0000000000007
  0
LINE
  5
5B02
330
A
100
AcDbEntity
  8
0
  6
Continuous
 62
     7
370
     0
100
AcDbLine
 10
6.237540514579221
 20
-119.7757974022462
 30
0.0
 11
5.400382624254518
 21
-118.3257974022461
 31
0.0
  0
LINE
  5
5B03
330
A
100
AcDbEntity
  8
0
  6
Continuous
 62
     7
370
     0
100
AcDbLine
 10
-5.425301595090957
 20
-118.3257974022462
 30
0.0
 11
-6.262459485415548
 21
-119.7757974022462
 31
0.0
  0
LINE
  5
5B04
330
A
100
AcDbEntity
  8
0
  6
Continuous
 62
     7
370
     0
100
AcDbLine
 10
-6.262459485415548
 20
-119.7757974022462
 30
0.0
 11
-6.262459485415548
 21
-120.0757974022461
 31
0.0
  0
LINE
  5
5B05
330
A
100
AcDbEntity
  8
0
  6
Continuous
 62
     7
370
     0
100
AcDbLine
 10
6.237540514579335
 20
-120.0757974022461
 30
0.0
 11
6.237540514579221
 21
-119.7757974022462
 31
0.0
  0
ARC
  5
5B06
330
A
100
AcDbEntity
  8
0
  6
Continuous
 62
     7
370
     0
100
AcDbCircle
 10
-4.992288893196756
 20
-118.5757974022463
 30
0.0
 40
0.4999999999999451
100
AcDbArc
 50
90.0000000001205
 51
150.0000000000519
  0
ARC
  5
5B07
330
A
100
AcDbEntity
  8
0
  6
Continuous
 62
     7
370
     0
100
AcDbCircle
 10
4.967369922360603
 20
-118.5757974022463
 30
0.0
 40
0.5000000000000138
100
AcDbArc
 50
29.99999999995085
 51
89.99999999988274
  0
LINE
  5
5B0B
330
A
100
AcDbEntity
  8
0
  6
Continuous
 62
     7
370
     0
100
AcDbLine
 10
39.12547767182685
 20
-130.1230952687863
 30
0.0
 11
38.74964942675132
 21
-130.2511943718412
 31
0.0
  0
LINE
  5
5B0C
330
A
100
AcDbEntity
  8
0
  6
Continuous
 62
     7
370
     0
100
AcDbLine
 10
38.74964942675132
 20
-130.2511943718412
 30
0.0
 11
38.37382118167557
 21
-130.3792934748964
 31
0.0
  0
LINE
  5
5B0D
330
A
100
AcDbEntity
  8
0
  6
Continuous
 62
     7
370
     0
100
AcDbLine
 10
36.60062544551335
 20
-132.280813099106
 30
0.0
 11
36.49905483854502
 21
-132.6646615871846
 31
0.0
  0
LINE
  5
5B0E
330
A
100
AcDbEntity
  8
0
  6
Continuous
 62
     7
370
     0
100
AcDbLine
 10
36.49905483854502
 20
-132.6646615871846
 30
0.0
 11
36.39748423157687
 21
-133.0485100752631
 31
0.0
  0
LINE
  5
5B0F
330
A
100
AcDbEntity
  8
0
  6
Continuous
 62
     7
370
     0
100
AcDbLine
 10
39.39973530993404
 20
-130.3788446538096
 30
0.0
 11
39.12547767182685
 21
-130.1230952687863
 31
0.0
  0
LINE
  5
5B10
330
A
100
AcDbEntity
  8
0
  6
Continuous
 62
     7
370
     0
100
AcDbLine
 10
36.39748423157687
 20
-133.0485100752631
 30
0.0
 11
36.67174186968401
 21
-133.3042594602865
 31
0.0
  0
LINE
  5
5B11
330
A
100
AcDbEntity
  8
0
  6
Continuous
 62
     7
370
     0
100
AcDbLine
 10
50.50015401542885
 20
-103.8123111094666
 30
0.0
 11
49.76880031380858
 21
-103.130312749403
 31
0.0
  0
LINE
  5
5B12
330
A
100
AcDbEntity
  8
0
  6
Continuous
 62
     7
370
     0
100
AcDbLine
 10
45.67681015343362
 20
-107.5184349591181
 30
0.0
 11
46.40816385505388
 21
-108.2004333191813
 31
0.0
  0
LINE
  5
5B13
330
A
100
AcDbEntity
  8
0
  6
Continuous
 62
     7
370
     0
100
AcDbLine
 10
2.987540514579336
 20
-127.0757974022376
 30
0.0
 11
2.98754051457962
 21
-126.0757974022397
 31
0.0
  0
LINE
  5
5B14
330
A
100
AcDbEntity
  8
0
  6
Continuous
 62
     7
370
     0
100
AcDbLine
 10
-3.012459485420436
 20
-126.0757974022401
 30
0.0
 11
-3.012459485420606
 21
-127.0757974022379
 31
0.0
  0
LINE
  5
5B15
330
A
100
AcDbEntity
  8
0
  6
Continuous
 62
     7
370
     0
100
AcDbLine
 10
-3.10045281711956
 20
-126.0757974022401
 30
0.0
 11
-3.100452817119901
 21
-127.0757974022379
 31
0.0
  0
LINE
  5
5B16
330
A
100
AcDbEntity
  8
0
  6
Continuous
 62
     7
370
     0
100
AcDbLine
 10
-4.824545616224098
 20
-133.0757974022378
 30
0.0
 11
-4.824545616224098
 21
-134.0757974022394
 31
0.0
  0
LINE
  5
5B17
330
A
100
AcDbEntity
  8
0
  6
Continuous
 62
     7
370
     0
100
AcDbLine
 10
4.975454383775853
 20
-134.0757974022394
 30
0.0
 11
4.975454383775853
 21
-133.0757974022377
 31
0.0
  0
LINE
  5
5B18
330
A
100
AcDbEntity
  8
0
  6
Continuous
 62
     7
370
     0
100
AcDbLine
 10
49.50048918065011
 20
-113.6819955126328
 30
0.0
 11
50.23184288226953
 21
-114.3639938726956
 31
0.0
  0
LINE
  5
5B19
330
A
100
AcDbEntity
  8
0
  6
Continuous
 62
     7
370
     0
100
AcDbLine
 10
56.91542681088202
 20
-107.1967275968277
 30
0.0
 11
56.18407310926261
 21
-106.514729236765
 31
0.0
  0
LINE
  5
5B1A
330
A
100
AcDbEntity
  8
0
  6
Continuous
 62
     7
370
     0
100
AcDbLine
 10
47.20667740818709
 20
52.39317838946892
 30
0.0
 11
48.33764374216992
 21
51.18036548081471
 31
0.0
  0
LINE
  5
5B1B
330
A
100
AcDbEntity
  8
0
  6
Continuous
 62
     7
370
     0
100
AcDbLine
 10
47.20667740818709
 20
52.39317838946892
 30
0.0
 11
51.59479961790232
 21
56.48516854984439
 31
0.0
  0
LINE
  5
5B1C
330
A
100
AcDbEntity
  8
0
  6
Continuous
 62
     7
370
     0
100
AcDbLine
 10
51.59479961790232
 20
56.48516854984439
 30
0.0
 11
52.72576595188525
 21
55.27235564119003
 31
0.0
  0
LINE
  5
5B1D
330
A
100
AcDbEntity
  8
0
  6
Continuous
 62
     7
370
     0
100
AcDbLine
 10
52.72576595188525
 20
55.27235564119003
 30
0.0
 11
48.33764374216992
 21
51.18036548081471
 31
0.0
  0
LINE
  5
5B1E
330
A
100
AcDbEntity
  8
0
  6
Continuous
 62
     7
370
     0
100
AcDbLine
 10
43.06637189074654
 20
56.83311247631485
 30
0.0
 11
47.20667740818709
 21
52.39317838946902
 31
0.0
  0
LINE
  5
5B1F
330
A
100
AcDbEntity
  8
0
  6
Continuous
 62
     7
370
     0
100
AcDbLine
 10
47.45449410046171
 20
60.92510263669016
 30
0.0
 11
51.59479961790232
 21
56.48516854984439
 31
0.0
  0
LINE
  5
5B20
330
A
100
AcDbEntity
  8
0
  6
Continuous
 62
     7
370
     0
100
AcDbLine
 10
48.33764374216992
 20
51.18036548081471
 30
0.0
 11
52.47794925961085
 21
46.74043139396849
 31
0.0
  0
LINE
  5
5B21
330
A
100
AcDbEntity
  8
0
  6
Continuous
 62
     7
370
     0
100
AcDbLine
 10
52.72576595188531
 20
55.27235564118989
 30
0.0
 11
56.86607146932623
 21
50.83242155434374
 31
0.0
  0
LINE
  5
5B22
330
A
100
AcDbEntity
  8
0
  6
Continuous
 62
     7
370
     0
100
AcDbLine
 10
-6.824545616239047
 20
72.12484342143669
 30
0.0
 11
6.975454383761586
 21
72.12484342143669
 31
0.0
  0
LINE
  5
5B23
330
A
100
AcDbEntity
  8
0
  6
Continuous
 62
     7
370
     0
100
AcDbLine
 10
-6.824545616239047
 20
78.12484342143682
 30
0.0
 11
6.975454383761586
 21
78.12484342143682
 31
0.0
  0
LINE
  5
5B24
330
A
100
AcDbEntity
  8
0
  6
Continuous
 62
     7
370
     0
100
AcDbLine
 10
47.3777666638116
 20
41.50586956994652
 30
0.0
 11
38.85278716303043
 21
50.64779084018603
 31
0.0
  0
LINE
  5
5B25
330
A
100
AcDbEntity
  8
0
  6
Continuous
 62
     9
370
     0
100
AcDbLine
 10
38.36326460399761
 20
49.04663469616668
 30
0.0
 11
45.7463634881489
 21
41.12923046978482
 31
0.0
  0
LINE
  5
5B26
330
A
100
AcDbEntity
  8
0
  6
Continuous
 62
     7
370
     0
100
AcDbLine
 10
45.26821111016732
 20
41.27541632214597
 30
0.0
 11
38.47574013116953
 21
48.55944966377387
 31
0.0
  0
LINE
  5
5B27
330
A
100
AcDbEntity
  8
0
  6
Continuous
 62
     7
370
     0
100
AcDbLine
 10
6.237540514581893
 20
64.82484342144516
 30
0.0
 11
6.149547182889874
 21
64.82484342144522
 31
0.0
  0
LINE
  5
5B28
330
A
100
AcDbEntity
  8
0
  6
Continuous
 62
     9
370
     0
100
AcDbLine
 10
5.312389292562897
 20
63.37484342144517
 30
0.0
 11
5.400382624256906
 21
63.37484342144517
 31
0.0
  0
LINE
  5
5B29
330
A
100
AcDbEntity
  8
0
  6
Continuous
 62
     7
370
     0
100
AcDbLine
 10
4.967369922364753
 20
63.12484342144518
 30
0.0
 11
4.879376590667447
 21
63.12484342144518
 31
0.0
  0
LINE
  5
5B2A
330
A
100
AcDbEntity
  8
0
  6
Continuous
 62
     7
370
     0
100
AcDbLine
 10
6.14954718288402
 20
64.82484342143971
 30
0.0
 11
-6.350452817115751
 21
64.82484342143663
 31
0.0
  0
LINE
  5
5B2B
330
A
100
AcDbEntity
  8
0
  6
Continuous
 62
     9
370
     0
100
AcDbLine
 10
-5.513294926790478
 20
63.37484342143682
 30
0.0
 11
3.379777840305848
 21
63.37484342143904
 31
0.0
  0
LINE
  5
5B2C
330
A
100
AcDbEntity
  8
0
  6
Continuous
 62
     9
370
     0
100
AcDbLine
 10
3.379777840305848
 20
63.37484342143904
 30
0.0
 11
5.312389292559544
 21
63.37484342143949
 31
0.0
  0
LINE
  5
5B2D
330
A
100
AcDbEntity
  8
0
  6
Continuous
 62
     7
370
     0
100
AcDbLine
 10
4.879376590667447
 20
63.12484342143938
 30
0.0
 11
3.101368817902595
 21
63.12484342143902
 31
0.0
  0
LINE
  5
5B2E
330
A
100
AcDbEntity
  8
0
  6
Continuous
 62
     7
370
     0
100
AcDbLine
 10
3.101368817902595
 20
63.12484342143902
 30
0.0
 11
-5.080282224898268
 21
63.12484342143694
 31
0.0
  0
LINE
  5
5B2F
330
A
100
AcDbEntity
  8
0
  6
Continuous
 62
     7
370
     0
100
AcDbLine
 10
36.60062544551335
 20
77.32985911830519
 30
0.0
 11
38.37382118167557
 21
75.42833949409519
 31
0.0
  0
LINE
  5
5B30
330
A
100
AcDbEntity
  8
0
  6
Continuous
 62
     9
370
     0
100
AcDbLine
 10
-9.924545616221394
 20
80.1248434214384
 30
0.0
 11
-9.924545616221449
 21
79.12484342143841
 31
0.0
  0
LINE
  5
5B31
330
A
100
AcDbEntity
  8
0
  6
Continuous
 62
     9
370
     0
100
AcDbLine
 10
14.57545438377207
 20
79.12484342143836
 30
0.0
 11
14.57545438377207
 21
80.12484342143833
 31
0.0
  0
LINE
  5
5B32
330
A
100
AcDbEntity
  8
0
  6
Continuous
 62
     7
370
     0
100
AcDbLine
 10
-9.924545616221449
 20
79.12484342143841
 30
0.0
 11
14.57545438377207
 21
79.12484342143836
 31
0.0
  0
LINE
  5
5B33
330
A
100
AcDbEntity
  8
0
  6
Continuous
 62
     7
370
     0
100
AcDbLine
 10
16.57545438377139
 20
80.12484342143833
 30
0.0
 11
16.57545438377139
 21
79.12484342143836
 31
0.0
  0
LINE
  5
5B34
330
A
100
AcDbEntity
  8
0
  6
Continuous
 62
     7
370
     0
100
AcDbLine
 10
16.57545438377207
 20
79.12484342143836
 30
0.0
 11
14.57545438377207
 21
79.12484342143836
 31
0.0
  0
LINE
  5
5B35
330
A
100
AcDbEntity
  8
0
  6
Continuous
 62
     7
370
     0
100
AcDbLine
 10
-16.42454561622003
 20
79.12484342143841
 30
0.0
 11
-16.42454561622003
 21
80.1248434214384
 31
0.0
  0
LINE
  5
5B36
330
A
100
AcDbEntity
  8
0
  6
Continuous
 62
     7
370
     0
100
AcDbLine
 10
-9.924545616221449
 20
79.12484342143841
 30
0.0
 11
-16.42454561622145
 21
79.12484342143851
 31
0.0
  0
LINE
  5
5B37
330
A
100
AcDbEntity
  8
0
  6
Continuous
 62
     9
370
     0
100
AcDbLine
 10
-9.899914275638252
 20
71.12484342143983
 30
0.0
 11
-9.899914275638424
 21
70.12484342143938
 31
0.0
  0
LINE
  5
5B38
330
A
100
AcDbEntity
  8
0
  6
Continuous
 62
     9
370
     0
100
AcDbLine
 10
-16.41133303104339
 20
70.12484342144023
 30
0.0
 11
-16.41133303104339
 21
71.12484342144056
 31
0.0
  0
LINE
  5
5B39
330
A
100
AcDbEntity
  8
0
  6
Continuous
 62
     7
370
     0
100
AcDbLine
 10
-16.41133303104499
 20
71.12484342144056
 30
0.0
 11
-9.899914275638252
 21
71.12484342143983
 31
0.0
  0
LINE
  5
5B3A
330
A
100
AcDbEntity
  8
0
  6
Continuous
 62
     9
370
     0
100
AcDbLine
 10
14.60004785298258
 20
70.12484342143705
 30
0.0
 11
14.60004785298287
 21
71.12484342143734
 31
0.0
  0
LINE
  5
5B3B
330
A
100
AcDbEntity
  8
0
  6
Continuous
 62
     7
370
     0
100
AcDbLine
 10
14.60004785298287
 20
71.12484342143734
 30
0.0
 11
-9.899914275638252
 21
71.12484342143983
 31
0.0
  0
LINE
  5
5B3C
330
A
100
AcDbEntity
  8
0
  6
Continuous
 62
     7
370
     0
100
AcDbLine
 10
16.59652820669885
 20
71.12484342143705
 30
0.0
 11
16.59652820669885
 21
70.12484342143682
 31
0.0
  0
LINE
  5
5B3D
330
A
100
AcDbEntity
  8
0
  6
Continuous
 62
     7
370
     0
100
AcDbLine
 10
14.60004785298287
 20
71.12484342143734
 30
0.0
 11
16.59653129824181
 21
71.12484342143716
 31
0.0
  0
LINE
  5
5B3E
330
A
100
AcDbEntity
  8
0
  6
Continuous
 62
     7
370
     0
100
AcDbLine
 10
-16.52562106018149
 20
71.12484342144056
 30
0.0
 11
-16.52562106018166
 21
70.12484342144023
 31
0.0
  0
LINE
  5
5B3F
330
A
100
AcDbEntity
  8
0
  6
Continuous
 62
     7
370
     0
100
AcDbLine
 10
-16.41133303104339
 20
71.12484342144056
 30
0.0
 11
-16.52562106018149
 21
71.12484342144056
 31
0.0
  0
LINE
  5
5B40
330
A
100
AcDbEntity
  8
0
  6
Continuous
 62
     7
370
     0
100
AcDbLine
 10
17.37312208345776
 20
70.12484342144069
 30
0.0
 11
17.37312208345702
 21
65.12484342144057
 31
0.0
  0
LINE
  5
5B41
330
A
100
AcDbEntity
  8
0
  6
Continuous
 62
     7
370
     0
100
AcDbLine
 10
17.51391141417673
 20
70.12484342144069
 30
0.0
 11
17.51391141417611
 21
65.12484342144057
 31
0.0
  0
LINE
  5
5B42
330
A
100
AcDbEntity
  8
0
  6
Continuous
 62
     7
370
     0
100
AcDbLine
 10
17.37312208345702
 20
65.12484342144057
 30
0.0
 11
17.51391141417611
 21
65.12484342144057
 31
0.0
  0
LINE
  5
5B43
330
A
100
AcDbEntity
  8
0
  6
Continuous
 62
     7
370
     0
100
AcDbLine
 10
17.37312208345776
 20
70.12484342144069
 30
0.0
 11
17.51391141417673
 21
70.12484342144069
 31
0.0
  0
LINE
  5
5B44
330
A
100
AcDbEntity
  8
0
  6
Continuous
 62
     9
370
     0
100
AcDbLine
 10
-10.1268353309639
 20
70.1248434214434
 30
0.0
 11
-10.12683533096458
 21
65.1248434214434
 31
0.0
  0
LINE
  5
5B45
330
A
100
AcDbEntity
  8
0
  6
Continuous
 62
     7
370
     0
100
AcDbLine
 10
-10.12683533096458
 20
65.1248434214434
 30
0.0
 11
17.37312208345702
 21
65.12484342144057
 31
0.0
  0
LINE
  5
5B46
330
A
100
AcDbEntity
  8
0
  6
Continuous
 62
     7
370
     0
100
AcDbLine
 10
-10.1268353309639
 20
70.1248434214434
 30
0.0
 11
17.37312208345776
 21
70.12484342144069
 31
0.0
  0
LINE
  5
5B47
330
A
100
AcDbEntity
  8
0
  6
Continuous
 62
     7
370
     0
100
AcDbLine
 10
-17.61362471696111
 20
65.12484342144421
 30
0.0
 11
-17.61362471696043
 21
70.12484342144421
 31
0.0
  0
LINE
  5
5B48
330
A
100
AcDbEntity
  8
0
  6
Continuous
 62
     7
370
     0
100
AcDbLine
 10
-10.12683533096458
 20
65.1248434214434
 30
0.0
 11
-17.61363633120948
 21
65.12484342144421
 31
0.0
  0
LINE
  5
5B49
330
A
100
AcDbEntity
  8
0
  6
Continuous
 62
     7
370
     0
100
AcDbLine
 10
-17.61363633120896
 20
70.12484342144421
 30
0.0
 11
-10.1268353309639
 21
70.1248434214434
 31
0.0
  0
LINE
  5
5B4A
330
A
100
AcDbEntity
  8
0
  6
Continuous
 62
     9
370
     0
100
AcDbLine
 10
-9.924545616224122
 20
87.06710716684069
 30
0.0
 11
-9.924545616224122
 21
80.12484342143833
 31
0.0
  0
LINE
  5
5B4B
330
A
100
AcDbEntity
  8
0
  6
Continuous
 62
     7
370
     0
100
AcDbLine
 10
-17.42454561622412
 20
80.12484342143833
 30
0.0
 11
-17.42454561622412
 21
83.11878272764515
 31
0.0
  0
ARC
  5
5B4C
330
A
100
AcDbEntity
  8
0
  6
Continuous
 62
     7
370
     0
100
AcDbCircle
 10
33.92555641600063
 20
-5.325350392848577
 30
0.0
 40
102.2702188428064
100
AcDbArc
 50
115.3893406953974
 51
120.1391782661701
  0
LINE
  5
5B4D
330
A
100
AcDbEntity
  8
0
  6
Continuous
 62
     7
370
     0
100
AcDbLine
 10
-9.924545616224122
 20
80.12484342143833
 30
0.0
 11
-17.42454561622412
 21
80.12484342143833
 31
0.0
  0
CIRCLE
  5
5B4E
330
A
100
AcDbEntity
  8
0
  6
Continuous
 62
     7
370
     0
100
AcDbCircle
 10
26.07545438377588
 20
88.92484342143831
 30
0.0
 40
2.500000000000003
  0
ARC
  5
5B4F
330
A
100
AcDbEntity
  8
0
  6
Continuous
 62
     7
370
     0
100
AcDbCircle
 10
33.9254543837759
 20
-5.32515657856146
 30
0.0
 40
102.2699999999996
100
AcDbArc
 50
94.75137349749649
 51
115.3893356105055
  0
ARC
  5
5B50
330
A
100
AcDbEntity
  8
0
  6
Continuous
 62
     7
370
     0
100
AcDbCircle
 10
17.87545438377589
 20
81.82484342143835
 30
0.0
 40
0.2999999999999669
100
AcDbArc
 50
89.99999999999673
 51
179.9999999999902
  0
LINE
  5
5B51
330
A
100
AcDbEntity
  8
0
  6
Continuous
 62
     7
370
     0
100
AcDbLine
 10
17.57545438377588
 20
80.12484342143833
 30
0.0
 11
17.57545438377588
 21
81.82484342143835
 31
0.0
  0
ARC
  5
5B52
330
A
100
AcDbEntity
  8
0
  6
Continuous
 62
     7
370
     0
100
AcDbCircle
 10
26.0754565311824
 20
89.11916793971888
 30
0.0
 40
7.499999999999968
100
AcDbArc
 50
0.0433574907027818
 51
94.75137349749649
  0
LINE
  5
5B53
330
A
100
AcDbEntity
  8
0
  6
Continuous
 62
     7
370
     0
100
AcDbLine
 10
32.57545438377588
 20
82.12484342143836
 30
0.0
 11
33.57545438377588
 21
84.12484342143836
 31
0.0
  0
LINE
  5
5B54
330
A
100
AcDbEntity
  8
0
  6
Continuous
 62
     7
370
     0
100
AcDbLine
 10
-9.924545616224122
 20
80.12484342143833
 30
0.0
 11
17.57545438377588
 21
80.12484342143833
 31
0.0
  0
LINE
  5
5B55
330
A
100
AcDbEntity
  8
0
  6
Continuous
 62
     7
370
     0
100
AcDbLine
 10
33.57545438377588
 20
84.12484342143836
 30
0.0
 11
33.57545438377588
 21
89.12484342143836
 31
0.0
  0
LINE
  5
5B56
330
A
100
AcDbEntity
  8
0
  6
Continuous
 62
     7
370
     0
100
AcDbLine
 10
17.87545438377589
 20
82.12484342143836
 30
0.0
 11
32.57545438377588
 21
82.12484342143836
 31
0.0
  0
ARC
  5
5B57
330
A
100
AcDbEntity
  8
0
  6
Continuous
 62
     7
370
     0
100
AcDbCircle
 10
43.00894376081926
 20
81.52818692467439
 30
0.0
 40
7.499999999999992
100
AcDbArc
 50
224.0000000000002
 51
247.9513010926754
  0
LINE
  5
5B58
330
A
100
AcDbEntity
  8
0
  6
Continuous
 62
     7
370
     0
100
AcDbLine
 10
37.61389525827946
 20
76.31824914623184
 30
0.0
 11
32.59345486922497
 21
81.5170673576762
 31
0.0
  0
ARC
  5
5B59
330
A
100
AcDbEntity
  8
0
  6
Continuous
 62
     7
370
     0
100
AcDbCircle
 10
31.87411506888646
 20
80.82240898721716
 30
0.0
 40
0.9999999999999833
100
AcDbArc
 50
44.00000000000021
 51
89.00000000000151
  0
LINE
  5
5B5A
330
A
100
AcDbEntity
  8
0
  6
Continuous
 62
     7
370
     0
100
AcDbLine
 10
31.89156747532388
 20
81.82225668237355
 30
0.0
 11
17.70244234475791
 21
82.06992878280216
 31
0.0
  0
ARC
  5
5B5B
330
A
100
AcDbEntity
  8
0
  6
Continuous
 62
     7
370
     0
100
AcDbCircle
 10
22.06968877825443
 20
56.67265231414694
 30
0.0
 40
39.99999999999989
100
AcDbArc
 50
52.56216819558402
 51
80.28436940728362
  0
LINE
  5
5B5C
330
A
100
AcDbEntity
  8
0
  6
Continuous
 62
     7
370
     0
100
AcDbLine
 10
42.320661905542
 20
67.89674283067937
 30
0.0
 11
43.05201560716143
 21
68.57874119074181
 31
0.0
  0
LINE
  5
5B5D
330
A
100
AcDbEntity
  8
0
  6
Continuous
 62
     7
370
     0
100
AcDbLine
 10
43.6846586256675
 20
66.43403542744073
 30
0.0
 11
42.32066190554228
 21
67.89674283067903
 31
0.0
  0
LINE
  5
5B5E
330
A
100
AcDbEntity
  8
0
  6
Continuous
 62
     7
370
     0
100
AcDbLine
 10
65.55796148922836
 20
44.44406903730423
 30
0.0
 11
64.82660778760936
 21
43.76207067724175
 31
0.0
  0
LINE
  5
5B5F
330
A
100
AcDbEntity
  8
0
  6
Continuous
 62
     7
370
     0
100
AcDbLine
 10
64.82660778760845
 20
43.76207067724272
 30
0.0
 11
60.39361844720196
 21
48.51586973776739
 31
0.0
  0
LINE
  5
5B60
330
A
100
AcDbEntity
  8
0
  6
Continuous
 62
     9
370
     0
100
AcDbLine
 10
60.39361844720196
 20
48.51586973776739
 30
0.0
 11
61.12497214882115
 21
49.19786809782983
 31
0.0
  0
LINE
  5
5B61
330
A
100
AcDbEntity
  8
0
  6
Continuous
 62
     7
370
     0
100
AcDbLine
 10
60.39361844720196
 20
48.51586973776739
 30
0.0
 11
43.6846586256675
 21
66.43403542744073
 31
0.0
  0
LINE
  5
5B62
330
A
100
AcDbEntity
  8
0
  6
Continuous
 62
     9
370
     0
100
AcDbLine
 10
44.41601232728664
 20
67.11603378750322
 30
0.0
 11
43.6846586256675
 21
66.43403542744073
 31
0.0
  0
LINE
  5
5B63
330
A
100
AcDbEntity
  8
0
  6
Continuous
 62
     7
370
     0
100
AcDbLine
 10
43.4745102803244
 20
70.34005130837321
 30
0.0
 11
42.18292310688082
 21
72.32892114407036
 31
0.0
  0
LINE
  5
5B64
330
A
100
AcDbEntity
  8
0
  6
Continuous
 62
     7
370
     0
100
AcDbLine
 10
42.18292310688082
 20
72.32892114407036
 30
0.0
 11
42.24934638216189
 21
72.37205692341155
 31
0.0
  0
LINE
  5
5B65
330
A
100
AcDbEntity
  8
0
  6
Continuous
 62
     7
370
     0
100
AcDbLine
 10
35.73847859097083
 20
61.75875759011325
 30
0.0
 11
36.46983229258973
 21
62.44075595017569
 31
0.0
  0
LINE
  5
5B66
330
A
100
AcDbEntity
  8
0
  6
Continuous
 62
     9
370
     0
100
AcDbLine
 10
37.83382901271483
 20
60.97804854693731
 30
0.0
 11
37.10247531109582
 21
60.29605018687481
 31
0.0
  0
LINE
  5
5B67
330
A
100
AcDbEntity
  8
0
  6
Continuous
 62
     7
370
     0
100
AcDbLine
 10
36.46983229258973
 20
62.44075595017569
 30
0.0
 11
37.83382901271483
 21
60.97804854693731
 31
0.0
  0
LINE
  5
5B68
330
A
100
AcDbEntity
  8
0
  6
Continuous
 62
     9
370
     0
100
AcDbLine
 10
53.81143513262703
 20
42.37788449720517
 30
0.0
 11
54.54278883424592
 21
43.05988285726765
 31
0.0
  0
LINE
  5
5B69
330
A
100
AcDbEntity
  8
0
  6
Continuous
 62
     7
370
     0
100
AcDbLine
 10
37.83382901271483
 20
60.97804854693731
 30
0.0
 11
54.54278883424592
 21
43.05988285726765
 31
0.0
  0
LINE
  5
5B6A
330
A
100
AcDbEntity
  8
0
  6
Continuous
 62
     7
370
     0
100
AcDbLine
 10
58.97577817465236
 20
38.30608379674318
 30
0.0
 11
58.24442447303328
 21
37.62408543668068
 31
0.0
  0
LINE
  5
5B6B
330
A
100
AcDbEntity
  8
0
  6
Continuous
 62
     7
370
     0
100
AcDbLine
 10
54.54278883424592
 20
43.05988285726765
 30
0.0
 11
58.97577817465236
 21
38.30608379674318
 31
0.0
  0
LINE
  5
5B6C
330
A
100
AcDbEntity
  8
0
  6
Continuous
 62
     7
370
     0
100
AcDbLine
 10
35.05648023091357
 20
62.49011129172686
 30
0.0
 11
31.39971172281764
 21
59.08011949141439
 31
0.0
  0
LINE
  5
5B6D
330
A
100
AcDbEntity
  8
0
  6
Continuous
 62
     7
370
     0
100
AcDbLine
 10
35.05648023091357
 20
62.49011129172686
 30
0.0
 11
53.81143513262408
 21
42.37788449720841
 31
0.0
  0
LINE
  5
5B6E
330
A
100
AcDbEntity
  8
0
  6
Continuous
 62
     9
370
     0
100
AcDbLine
 10
50.15466662452821
 20
38.96789269689589
 30
0.0
 11
53.81143513262408
 21
42.37788449720841
 31
0.0
  0
LINE
  5
5B6F
330
A
100
AcDbEntity
  8
0
  6
Continuous
 62
     7
370
     0
100
AcDbLine
 10
31.39971172281764
 20
59.08011949141439
 30
0.0
 11
50.15466662452821
 21
38.96789269689589
 31
0.0
  0
LINE
  5
5B70
330
A
100
AcDbEntity
  8
0
  6
Continuous
 62
     7
370
     0
100
AcDbLine
 10
58.92642283309054
 20
36.89273173506706
 30
0.0
 11
55.26965432499475
 21
33.48273993475465
 31
0.0
  0
LINE
  5
5B71
330
A
100
AcDbEntity
  8
0
  6
Continuous
 62
     7
370
     0
100
AcDbLine
 10
55.26965432499689
 20
33.48273993475221
 30
0.0
 11
50.15466662452821
 21
38.96789269689589
 31
0.0
  0
LINE
  5
5B72
330
A
100
AcDbEntity
  8
0
  6
Continuous
 62
     7
370
     0
100
AcDbLine
 10
53.81143513262408
 20
42.37788449720841
 30
0.0
 11
58.92642283309271
 21
36.89273173506467
 31
0.0
  0
ARC
  5
5B73
330
A
100
AcDbEntity
  8
0
  6
Continuous
 62
     7
370
     0
100
AcDbCircle
 10
43.15521450114306
 20
81.66458659668442
 30
0.0
 40
7.499999999999936
100
AcDbArc
 50
38.24909474191339
 51
132.9999999999992
  0
ARC
  5
5B74
330
A
100
AcDbEntity
  8
0
  6
Continuous
 62
     7
370
     0
100
AcDbCircle
 10
-31.27019802376998
 20
22.99422891500285
 30
0.0
 40
102.2699999999996
100
AcDbArc
 50
17.61114435953601
 51
38.24909474191339
  0
LINE
  5
5B75
330
A
100
AcDbEntity
  8
0
  6
Continuous
 62
     9
370
     0
100
AcDbLine
 10
61.12497214882036
 20
49.19786809783187
 30
0.0
 11
66.20659495389237
 21
53.93655802562268
 31
0.0
  0
LINE
  5
5B76
330
A
100
AcDbEntity
  8
0
  6
Continuous
 62
     7
370
     0
100
AcDbLine
 10
61.12497214882036
 20
49.19786809783187
 30
0.0
 11
42.3700172471016
 21
69.31009489235908
 31
0.0
  0
LINE
  5
5B77
330
A
100
AcDbEntity
  8
0
  6
Continuous
 62
     7
370
     0
100
AcDbLine
 10
42.3700172471016
 20
69.31009489235908
 30
0.0
 11
43.68645391001644
 21
70.53769194047162
 31
0.0
  0
ARC
  5
5B78
330
A
100
AcDbEntity
  8
0
  6
Continuous
 62
     7
370
     0
100
AcDbCircle
 10
43.55005423800384
 20
70.68396268079538
 30
0.0
 40
0.1999999999999869
100
AcDbArc
 50
313.0000000000085
 51
43.00000000000846
  0
LINE
  5
5B79
330
A
100
AcDbEntity
  8
0
  6
Continuous
 62
     7
370
     0
100
AcDbLine
 10
43.6963249783276
 20
70.82036235280781
 30
0.0
 11
33.60274924940286
 21
81.64439713677166
 31
0.0
  0
LINE
  5
5B7A
330
A
100
AcDbEntity
  8
0
  6
Continuous
 62
     7
370
     0
100
AcDbLine
 10
34.38345829257844
 20
83.73974755851572
 30
0.0
 11
33.60274924940286
 21
81.64439713677166
 31
0.0
  0
LINE
  5
5B7B
330
A
100
AcDbEntity
  8
0
  6
Continuous
 62
     7
370
     0
100
AcDbLine
 10
34.38345829257844
 20
83.73974755851572
 30
0.0
 11
38.04022680067435
 21
87.14973935882836
 31
0.0
  0
CIRCLE
  5
5B7C
330
A
100
AcDbEntity
  8
0
  6
Continuous
 62
     7
370
     0
100
AcDbCircle
 10
43.00894376081926
 20
81.52818692467183
 30
0.0
 40
2.499999999999964
  0
LINE
  5
5B7D
330
A
100
AcDbEntity
  8
0
  6
Continuous
 62
     7
370
     0
100
AcDbLine
 10
68.4340209541466
 20
45.7587104158756
 30
0.0
 11
66.2399598492891
 21
43.71271533568818
 31
0.0
  0
ARC
  5
5B7E
330
A
100
AcDbEntity
  8
0
  6
Continuous
 62
     7
370
     0
100
AcDbCircle
 10
-31.27019802382995
 20
22.99422891498716
 30
0.0
 40
102.2700000000617
100
AcDbArc
 50
12.86131804558541
 51
17.61114435953601
  0
LINE
  5
5B7F
330
A
100
AcDbEntity
  8
0
  6
Continuous
 62
     7
370
     0
100
AcDbLine
 10
66.2399598492891
 20
43.71271533568818
 30
0.0
 11
61.12497214882036
 21
49.19786809783204
 31
0.0
  0
LINE
  5
5B80
330
A
100
AcDbEntity
  8
0
  6
Continuous
 62
     9
370
     0
100
AcDbLine
 10
38.74964942675132
 20
75.30024039104024
 30
0.0
 11
38.78347523831707
 21
75.33178347062612
 31
0.0
  0
LINE
  5
5B81
330
A
100
AcDbEntity
  8
0
  6
Continuous
 62
     9
370
     0
100
AcDbLine
 10
46.74916303508484
 20
52.88380248757068
 30
0.0
 11
46.01780933346492
 21
52.20180412750739
 31
0.0
  0
LINE
  5
5B82
330
A
100
AcDbEntity
  8
0
  6
Continuous
 62
     9
370
     0
100
AcDbLine
 10
49.42780113377732
 20
48.54503561941153
 30
0.0
 11
50.15915483539736
 21
49.22703397947469
 31
0.0
  0
LINE
  5
5B83
330
A
100
AcDbEntity
  8
0
  6
Continuous
 62
     9
370
     0
100
AcDbLine
 10
-2.600452817119958
 20
72.12484342143669
 30
0.0
 11
-2.6004528171199
 21
71.12484342143915
 31
0.0
  0
LINE
  5
5B84
330
A
100
AcDbEntity
  8
0
  6
Continuous
 62
     9
370
     0
100
AcDbLine
 10
2.399547182880326
 20
71.12484342143869
 30
0.0
 11
2.399547182879871
 21
72.12484342143669
 31
0.0
  0
LINE
  5
5B85
330
A
100
AcDbEntity
  8
0
  6
Continuous
 62
     7
370
     0
100
AcDbLine
 10
47.45449410046211
 20
60.92510263668993
 30
0.0
 11
43.06637189074684
 21
56.83311247631467
 31
0.0
  0
LINE
  5
5B86
330
A
100
AcDbEntity
  8
0
  6
Continuous
 62
     7
370
     0
100
AcDbLine
 10
52.47794925960999
 20
46.74043139396906
 30
0.0
 11
56.86607146932544
 21
50.8324215543443
 31
0.0
  0
LINE
  5
5B87
330
A
100
AcDbEntity
  8
0
  6
Continuous
 62
     7
370
     0
100
AcDbLine
 10
6.975454383761357
 20
72.12484342143669
 30
0.0
 11
6.975454383761357
 21
78.12484342143682
 31
0.0
  0
LINE
  5
5B88
330
A
100
AcDbEntity
  8
0
  6
Continuous
 62
     7
370
     0
100
AcDbLine
 10
-6.824545616238764
 20
78.12484342143682
 30
0.0
 11
-6.824545616238764
 21
72.12484342143669
 31
0.0
  0
LINE
  5
5B89
330
A
100
AcDbEntity
  8
0
  6
Continuous
 62
     7
370
     0
100
AcDbLine
 10
47.3777666638116
 20
41.50586956994652
 30
0.0
 11
47.59717277429735
 21
41.71046907796521
 31
0.0
  0
LINE
  5
5B8A
330
A
100
AcDbEntity
  8
0
  6
Continuous
 62
     7
370
     0
100
AcDbLine
 10
39.07219327351601
 20
50.85239034820483
 30
0.0
 11
38.85278716303043
 21
50.64779084018603
 31
0.0
  0
LINE
  5
5B8B
330
A
100
AcDbEntity
  8
0
  6
Continuous
 62
     7
370
     0
100
AcDbLine
 10
38.85278716303043
 20
50.64779084018603
 30
0.0
 11
38.36326460399761
 21
49.04663469616668
 31
0.0
  0
LINE
  5
5B8C
330
A
100
AcDbEntity
  8
0
  6
Continuous
 62
     7
370
     0
100
AcDbLine
 10
45.7463634881489
 20
41.12923046978482
 30
0.0
 11
47.3777666638116
 21
41.50586956994652
 31
0.0
  0
ARC
  5
5B8D
330
A
100
AcDbEntity
  8
0
  6
Continuous
 62
     7
370
     0
100
AcDbCircle
 10
45.63388796097688
 20
41.61641550217734
 30
0.0
 40
0.5000000000000079
100
AcDbArc
 50
223.0000000000039
 51
283.0000000000073
  0
ARC
  5
5B8E
330
A
100
AcDbEntity
  8
0
  6
Continuous
 62
     7
370
     0
100
AcDbCircle
 10
38.84141698197903
 20
48.90044884380523
 30
0.0
 40
0.4999999999999197
100
AcDbArc
 50
162.9999999999977
 51
222.9999999999993
  0
LINE
  5
5B8F
330
A
100
AcDbEntity
  8
0
  6
Continuous
 62
     7
370
     0
100
AcDbLine
 10
6.237540514579221
 20
64.82484342144522
 30
0.0
 11
6.237540514579335
 21
65.12484342144516
 31
0.0
  0
LINE
  5
5B90
330
A
100
AcDbEntity
  8
0
  6
Continuous
 62
     7
370
     0
100
AcDbLine
 10
5.400382624254518
 20
63.37484342144517
 30
0.0
 11
6.237540514579221
 21
64.82484342144522
 31
0.0
  0
ARC
  5
5B91
330
A
100
AcDbEntity
  8
0
  6
Continuous
 62
     7
370
     0
100
AcDbCircle
 10
4.967369922360603
 20
63.62484342144522
 30
0.0
 40
0.5000000000000006
100
AcDbArc
 50
270.000000000114
 51
330.0000000000447
  0
LINE
  5
5B92
330
A
100
AcDbEntity
  8
0
  6
Continuous
 62
     7
370
     0
100
AcDbLine
 10
6.14954718288402
 20
64.82484342143971
 30
0.0
 11
6.14954718288402
 21
65.12484342143972
 31
0.0
  0
LINE
  5
5B93
330
A
100
AcDbEntity
  8
0
  6
Continuous
 62
     7
370
     0
100
AcDbLine
 10
-6.350452817115978
 20
65.12484342143665
 30
0.0
 11
-6.350452817115751
 21
64.82484342143663
 31
0.0
  0
LINE
  5
5B94
330
A
100
AcDbEntity
  8
0
  6
Continuous
 62
     7
370
     0
100
AcDbLine
 10
-6.350452817115751
 20
64.82484342143663
 30
0.0
 11
-5.513294926790478
 21
63.37484342143682
 31
0.0
  0
LINE
  5
5B95
330
A
100
AcDbEntity
  8
0
  6
Continuous
 62
     7
370
     0
100
AcDbLine
 10
5.312389292559544
 20
63.37484342143949
 30
0.0
 11
6.14954718288402
 21
64.82484342143971
 31
0.0
  0
ARC
  5
5B96
330
A
100
AcDbEntity
  8
0
  6
Continuous
 62
     7
370
     0
100
AcDbCircle
 10
4.879376590665231
 20
63.62484342143938
 30
0.0
 40
0.5000000000000006
100
AcDbArc
 50
270.0000000001335
 51
330.000000000071
  0
ARC
  5
5B97
330
A
100
AcDbEntity
  8
0
  6
Continuous
 62
     7
370
     0
100
AcDbCircle
 10
-5.080282224896278
 20
63.62484342143704
 30
0.0
 40
0.5000000000000419
100
AcDbArc
 50
209.9999999999581
 51
269.9999999998958
  0
LINE
  5
5B98
330
A
100
AcDbEntity
  8
0
  6
Continuous
 62
     7
370
     0
100
AcDbLine
 10
36.5868983552719
 20
77.38173557146502
 30
0.0
 11
36.60062544551335
 21
77.32985911830519
 31
0.0
  0
LINE
  5
5B99
330
A
100
AcDbEntity
  8
0
  6
Continuous
 62
     7
370
     0
100
AcDbLine
 10
38.37382118167557
 20
75.42833949409519
 30
0.0
 11
38.74964942675132
 21
75.30024039104024
 31
0.0
  0
LINE
  5
5B9A
330
A
100
AcDbEntity
  8
0
  6
Continuous
 62
     7
370
     0
100
AcDbLine
 10
38.74964942675132
 20
75.30024039104024
 30
0.0
 11
38.91573533134675
 21
75.24363087409319
 31
0.0
  0
LINE
  5
5B9B
330
A
100
AcDbEntity
  8
0
  6
Continuous
 62
     7
370
     0
100
AcDbLine
 10
2.98754051457962
 20
71.12484342143853
 30
0.0
 11
2.987540514579336
 21
72.12484342143669
 31
0.0
  0
LINE
  5
5B9C
330
A
100
AcDbEntity
  8
0
  6
Continuous
 62
     7
370
     0
100
AcDbLine
 10
46.40816385505347
 20
53.24947933838018
 30
0.0
 11
45.67681015343362
 21
52.56748097831689
 31
0.0
  0
LINE
  5
5B9D
330
A
100
AcDbEntity
  8
0
  6
Continuous
 62
     7
370
     0
100
AcDbLine
 10
49.76880031380858
 20
48.1793587686019
 30
0.0
 11
50.50015401542862
 21
48.86135712866513
 31
0.0
  0
LINE
  5
5B9E
330
A
100
AcDbEntity
  8
0
  6
Continuous
 62
     7
370
     0
100
AcDbLine
 10
-3.100452817119901
 20
72.12484342143669
 30
0.0
 11
-3.100452817119787
 21
71.12484342143919
 31
0.0
  0
LINE
  5
5B9F
330
A
100
AcDbEntity
  8
0
  6
Continuous
 62
     7
370
     0
100
AcDbLine
 10
2.899547182880326
 20
71.12484342143853
 30
0.0
 11
2.899547182879871
 21
72.12484342143669
 31
0.0
  0
LINE
  5
5BA0
330
A
100
AcDbEntity
  8
0
  6
Continuous
 62
     7
370
     0
100
AcDbLine
 10
4.975454383775853
 20
78.12484342143682
 30
0.0
 11
4.975454383775853
 21
79.12484342143841
 31
0.0
  0
LINE
  5
5BA1
330
A
100
AcDbEntity
  8
0
  6
Continuous
 62
     7
370
     0
100
AcDbLine
 10
-4.824545616224098
 20
79.12484342143841
 30
0.0
 11
-4.824545616224098
 21
78.12484342143682
 31
0.0
  0
LINE
  5
5BA2
330
A
100
AcDbEntity
  8
0
  6
Continuous
 62
     7
370
     0
100
AcDbLine
 10
56.18407310926261
 20
51.56377525596406
 30
0.0
 11
56.91542681088202
 21
52.24577361602666
 31
0.0
  0
LINE
  5
5BA3
330
A
100
AcDbEntity
  8
0
  6
Continuous
 62
     7
370
     0
100
AcDbLine
 10
50.23184288226953
 20
59.41303989189453
 30
0.0
 11
49.50048918065011
 21
58.73104153183185
 31
0.0
  0
ELLIPSE
  5
5BA4
330
A
100
AcDbEntity
  8
0
  6
Continuous
 62
     7
370
     0
100
AcDbEllipse
 10
54.42438113675972
 20
-15.01826476144828
 30
0.0
 11
0.0
 21
3.000000000000001
 31
0.0
210
0.0
220
0.0
230
1.0
 40
0.544639035015019
 41
0.7162873521339247
 42
2.425305301455855
  0
ELLIPSE
  5
5BA5
330
A
100
AcDbEntity
  8
0
  6
Continuous
 62
     7
370
     0
100
AcDbEllipse
 10
53.58571056881425
 20
-15.01826476144828
 30
0.0
 11
0.0
 21
3.000000000000001
 31
0.0
210
0.0
220
0.0
230
1.0
 40
0.5446390350150212
 41
0.6407705062312493
 42
2.500822147358507
  0
ELLIPSE
  5
5BA6
330
A
100
AcDbEntity
  8
0
  6
Continuous
 62
     7
370
     0
100
AcDbEllipse
 10
54.42438113683993
 20
-35.01826476144829
 30
0.0
 11
0.0
 21
3.000000000000001
 31
0.0
210
0.0
220
0.0
230
1.0
 40
0.5446390350150204
 41
0.7162873521291099
 42
2.425305301460654
  0
ELLIPSE
  5
5BA7
330
A
100
AcDbEntity
  8
0
  6
Continuous
 62
     7
370
     0
100
AcDbEllipse
 10
53.58571056889451
 20
-35.01826476144829
 30
0.0
 11
0.0
 21
3.000000000000001
 31
0.0
210
0.0
220
0.0
230
1.0
 40
0.5446390350150147
 41
0.6407705062383215
 42
2.500822147351486
  0
LINE
  5
5BA8
330
A
100
AcDbEntity
  8
0
  6
Continuous
 62
     9
370
     0
100
AcDbLine
 10
37.25894375980806
 20
-41.48341284026662
 30
0.0
 11
37.41892345833873
 21
-41.48341284026662
 31
0.0
  0
LINE
  5
5BA9
330
A
100
AcDbEntity
  8
0
  6
Continuous
 62
     9
370
     0
100
AcDbLine
 10
37.41892345833873
 20
-41.48341284026662
 30
0.0
 11
48.75894375980948
 21
-41.48341284026662
 31
0.0
  0
LINE
  5
5BAA
330
A
100
AcDbEntity
  8
0
  6
Continuous
 62
     9
370
     0
100
AcDbLine
 10
48.09786230194294
 20
-42.27125904267632
 30
0.0
 11
38.0616119401472
 21
-42.27125904267632
 31
0.0
  0
LINE
  5
5BAB
330
A
100
AcDbEntity
  8
0
  6
Continuous
 62
     9
370
     0
100
AcDbLine
 10
38.0616119401472
 20
-42.27125904267632
 30
0.0
 11
37.92002521767444
 21
-42.27125904267632
 31
0.0
  0
LINE
  5
5BAC
330
A
100
AcDbEntity
  8
0
  6
Continuous
 62
     7
370
     0
100
AcDbLine
 10
39.00894375980822
 20
-42.46326476144838
 30
0.0
 11
47.00894375980936
 21
-42.46326476144838
 31
0.0
  0
LINE
  5
5BAD
330
A
100
AcDbEntity
  8
0
  6
Continuous
 62
     9
370
     0
100
AcDbLine
 10
48.7589440654499
 20
-8.543116682624827
 30
0.0
 11
43.2643363623401
 21
-8.543116682624827
 31
0.0
  0
LINE
  5
5BAE
330
A
100
AcDbEntity
  8
0
  6
Continuous
 62
     9
370
     0
100
AcDbLine
 10
37.92002552331644
 20
-7.755270480215074
 30
0.0
 11
43.23497373417375
 21
-7.755270480215074
 31
0.0
  0
LINE
  5
5BAF
330
A
100
AcDbEntity
  8
0
  6
Continuous
 62
     9
370
     0
100
AcDbLine
 10
43.2643363623401
 20
-8.543116682624827
 30
0.0
 11
37.25894406544985
 21
-8.543116682624827
 31
0.0
  0
LINE
  5
5BB0
330
A
100
AcDbEntity
  8
0
  6
Continuous
 62
     9
370
     0
100
AcDbLine
 10
43.23497373417375
 20
-7.755270480215074
 30
0.0
 11
48.09786260758357
 21
-7.755270480215074
 31
0.0
  0
LINE
  5
5BB1
330
A
100
AcDbEntity
  8
0
  6
Continuous
 62
     7
370
     0
100
AcDbLine
 10
47.00894406544988
 20
-7.563264761443122
 30
0.0
 11
39.00894406544985
 21
-7.563264761443122
 31
0.0
  0
LINE
  5
5BB3
330
A
100
AcDbEntity
  8
0
  6
Continuous
 62
     7
370
     0
100
AcDbLine
 10
-0.0431788762466567
 20
14.98173523855683
 30
0.0
 11
-9.986046000245096
 21
14.99923338575143
 31
0.0
  0
LINE
  5
5BB4
330
A
100
AcDbEntity
  8
0
  6
Continuous
 62
     7
370
     0
100
AcDbLine
 10
17.37312208345776
 20
-65.04903906136433
 30
0.0
 11
17.37317624220503
 21
-65.01826476144316
 31
0.0
  0
LINE
  5
5BB5
330
A
100
AcDbEntity
  8
0
  6
Continuous
 62
     7
370
     0
100
AcDbLine
 10
-0.1135735961132127
 20
-65.01826476144316
 30
0.0
 11
17.37312208345776
 21
-65.04903906136433
 31
0.0
  0
LINE
  5
5BB8
330
A
100
AcDbEntity
  8
0
  6
Continuous
 62
     7
370
     0
100
AcDbLine
 10
33.57545438377588
 20
14.98173523855683
 30
0.0
 11
25.45421580210734
 21
14.98173523855683
 31
0.0
  0
LINE
  5
5BB9
330
A
100
AcDbEntity
  8
0
  6
Continuous
 62
     7
370
     0
100
AcDbLine
 10
33.57545438377588
 20
14.98173523855683
 30
0.0
 11
33.57545438377588
 21
-7.443264761443173
 31
0.0
  0
LINE
  5
5BBA
330
A
100
AcDbEntity
  8
0
  6
Continuous
 62
     9
370
     0
100
AcDbLine
 10
25.45421580210734
 20
14.98173523855683
 30
0.0
 11
25.45421580210734
 21
-7.443264761443173
 31
0.0
  0
LINE
  5
5BBB
330
A
100
AcDbEntity
  8
0
  6
Continuous
 62
     7
370
     0
100
AcDbLine
 10
25.45421580210734
 20
-7.443264761443173
 30
0.0
 11
33.57545438377588
 21
-7.443264761443173
 31
0.0
  0
LINE
  5
5BBC
330
A
100
AcDbEntity
  8
0
  6
Continuous
 62
     7
370
     0
100
AcDbLine
 10
33.57545438377588
 20
-65.01826476144316
 30
0.0
 11
25.45421580210734
 21
-65.01826476144316
 31
0.0
  0
LINE
  5
5BBD
330
A
100
AcDbEntity
  8
0
  6
Continuous
 62
     9
370
     0
100
AcDbLine
 10
25.45421580210734
 20
-42.59326476144309
 30
0.0
 11
25.45421580210734
 21
-65.01826476144316
 31
0.0
  0
LINE
  5
5BBE
330
A
100
AcDbEntity
  8
0
  6
Continuous
 62
     7
370
     0
100
AcDbLine
 10
33.57545438377588
 20
-42.59326476144309
 30
0.0
 11
33.57545438377588
 21
-65.01826476144316
 31
0.0
  0
LINE
  5
5BBF
330
A
100
AcDbEntity
  8
0
  6
Continuous
 62
     7
370
     0
100
AcDbLine
 10
33.57545438377588
 20
-42.59326476144309
 30
0.0
 11
25.45421580210734
 21
-42.59326476144309
 31
0.0
  0
ARC
  5
5BC0
330
A
100
AcDbEntity
  8
0
  6
Continuous
 62
     7
370
     0
100
AcDbCircle
 10
-9.924493030629546
 20
-57.51821217584829
 30
0.0
 40
7.500052585778956
100
AcDbArc
 50
180.0004017215335
 51
269.9995982784665
  0
LINE
  5
5BC1
330
A
100
AcDbEntity
  8
0
  6
Continuous
 62
     7
370
     0
100
AcDbLine
 10
-17.42454561622412
 20
7.481735238556722
 30
0.0
 11
-17.42454561622412
 21
-57.51826476144316
 31
0.0
  0
ARC
  5
5BC2
330
A
100
AcDbEntity
  8
0
  6
Continuous
 62
     7
370
     0
100
AcDbCircle
 10
-9.924545616224122
 20
7.481735238556722
 30
0.0
 40
7.500000000000007
100
AcDbArc
 50
90.0
 51
180.0
  0
LINE
  5
5BC3
330
A
100
AcDbEntity
  8
0
  6
Continuous
 62
     7
370
     0
100
AcDbLine
 10
17.98045438377585
 20
-42.59326476144309
 30
0.0
 11
17.98045438377585
 21
-7.443264761443173
 31
0.0
  0
LINE
  5
5BC4
330
A
100
AcDbEntity
  8
0
  6
Continuous
 62
     7
370
     0
100
AcDbLine
 10
25.45421580210734
 20
-65.01826476144316
 30
0.0
 11
-9.924545616224122
 21
-65.01826476144316
 31
0.0
  0
LINE
  5
5BC5
330
A
100
AcDbEntity
  8
0
  6
Continuous
 62
     7
370
     0
100
AcDbLine
 10
25.45421580210734
 20
-42.59326476144309
 30
0.0
 11
17.98045438377534
 21
-42.59326476144309
 31
0.0
  0
LINE
  5
5BC6
330
A
100
AcDbEntity
  8
0
  6
Continuous
 62
     7
370
     0
100
AcDbLine
 10
25.45421580210734
 20
14.98173523855683
 30
0.0
 11
-9.924545616224122
 21
14.98173523855683
 31
0.0
  0
LINE
  5
5BC7
330
A
100
AcDbEntity
  8
0
  6
Continuous
 62
     7
370
     0
100
AcDbLine
 10
17.98045438377585
 20
-7.443264761443173
 30
0.0
 11
25.45421580210757
 21
-7.443264761443173
 31
0.0
  0
LINE
  5
5BC8
330
A
100
AcDbEntity
  8
0
  6
Continuous
 62
     9
370
     0
100
AcDbLine
 10
26.99986156459483
 20
-41.26326476144835
 30
0.0
 11
26.99986156459483
 21
-8.763264761448112
 31
0.0
  0
LINE
  5
5BC9
330
A
100
AcDbEntity
  8
0
  6
Continuous
 62
     9
370
     0
100
AcDbLine
 10
18.57659645348303
 20
-41.26326476144835
 30
0.0
 11
18.57659645348303
 21
-8.763264761448112
 31
0.0
  0
LINE
  5
5BCA
330
A
100
AcDbEntity
  8
0
  6
Continuous
 62
     7
370
     0
100
AcDbLine
 10
18.57659645348303
 20
-41.26326476144835
 30
0.0
 11
26.99986156459483
 21
-41.26326476144835
 31
0.0
  0
LINE
  5
5BCB
330
A
100
AcDbEntity
  8
0
  6
Continuous
 62
     7
370
     0
100
AcDbLine
 10
18.57659645348303
 20
-8.763264761448112
 30
0.0
 11
26.99986156459483
 21
-8.763264761448112
 31
0.0
  0
LINE
  5
5BCC
330
A
100
AcDbEntity
  8
0
  6
Continuous
 62
     9
370
     0
100
AcDbLine
 10
47.41349487849634
 20
-41.26326476144835
 30
0.0
 11
47.41349487849634
 21
-8.763264761448112
 31
0.0
  0
LINE
  5
5BCD
330
A
100
AcDbEntity
  8
0
  6
Continuous
 62
     7
370
     0
100
AcDbLine
 10
26.99986156459483
 20
-41.26326476144835
 30
0.0
 11
47.41349487849641
 21
-41.26326476144835
 31
0.0
  0
LINE
  5
5BCE
330
A
100
AcDbEntity
  8
0
  6
Continuous
 62
     7
370
     0
100
AcDbLine
 10
26.99986156459483
 20
-8.763264761448112
 30
0.0
 11
47.41349487849641
 21
-8.763264761448112
 31
0.0
  0
LINE
  5
5BCF
330
A
100
AcDbEntity
  8
0
  6
Continuous
 62
     7
370
     0
100
AcDbLine
 10
18.50678682773395
 20
-41.26326476144835
 30
0.0
 11
18.50678682773395
 21
-8.763264761448112
 31
0.0
  0
LINE
  5
5BD0
330
A
100
AcDbEntity
  8
0
  6
Continuous
 62
     7
370
     0
100
AcDbLine
 10
18.50678682773395
 20
-41.26326476144835
 30
0.0
 11
18.57659645348303
 21
-41.26326476144835
 31
0.0
  0
LINE
  5
5BD1
330
A
100
AcDbEntity
  8
0
  6
Continuous
 62
     7
370
     0
100
AcDbLine
 10
18.50678682773395
 20
-8.763264761448112
 30
0.0
 11
18.57659645348303
 21
-8.763264761448112
 31
0.0
  0
LINE
  5
5BD2
330
A
100
AcDbEntity
  8
0
  6
Continuous
 62
     9
370
     0
100
AcDbLine
 10
47.76692825121608
 20
-8.763264761448112
 30
0.0
 11
47.76692825121608
 21
-41.26326476144835
 31
0.0
  0
LINE
  5
5BD3
330
A
100
AcDbEntity
  8
0
  6
Continuous
 62
     7
370
     0
100
AcDbLine
 10
47.76692825121608
 20
-41.26326476144835
 30
0.0
 11
47.41349487849634
 21
-41.26326476144835
 31
0.0
  0
LINE
  5
5BD4
330
A
100
AcDbEntity
  8
0
  6
Continuous
 62
     7
370
     0
100
AcDbLine
 10
47.41349487849634
 20
-8.763264761448112
 30
0.0
 11
47.76692825121608
 21
-8.763264761448112
 31
0.0
  0
LINE
  5
5BD5
330
A
100
AcDbEntity
  8
0
  6
Continuous
 62
     9
370
     0
100
AcDbLine
 10
49.85357057272034
 20
-41.26326476144835
 30
0.0
 11
49.85357057272034
 21
-8.763264761448112
 31
0.0
  0
LINE
  5
5BD6
330
A
100
AcDbEntity
  8
0
  6
Continuous
 62
     7
370
     0
100
AcDbLine
 10
49.85357057272034
 20
-41.26326476144835
 30
0.0
 11
47.76692825121608
 21
-41.26326476144835
 31
0.0
  0
LINE
  5
5BD7
330
A
100
AcDbEntity
  8
0
  6
Continuous
 62
     7
370
     0
100
AcDbLine
 10
49.85357057272034
 20
-8.763264761448112
 30
0.0
 11
47.76692825121608
 21
-8.763264761448112
 31
0.0
  0
LINE
  5
5BD8
330
A
100
AcDbEntity
  8
0
  6
Continuous
 62
     7
370
     0
100
AcDbLine
 10
17.98045438377585
 20
-41.26326476144835
 30
0.0
 11
18.50678682773395
 21
-41.26326476144835
 31
0.0
  0
LINE
  5
5BD9
330
A
100
AcDbEntity
  8
0
  6
Continuous
 62
     7
370
     0
100
AcDbLine
 10
17.98045438377585
 20
-8.763264761448112
 30
0.0
 11
18.50678682773395
 21
-8.763264761448112
 31
0.0
  0
LINE
  5
5BDA
330
A
100
AcDbEntity
  8
0
  6
Continuous
 62
     9
370
     0
100
AcDbLine
 10
50.30274750736885
 20
-8.763264761448112
 30
0.0
 11
50.30274750736885
 21
-41.26326476144835
 31
0.0
  0
LINE
  5
5BDB
330
A
100
AcDbEntity
  8
0
  6
Continuous
 62
     7
370
     0
100
AcDbLine
 10
50.30274750736885
 20
-41.26326476144835
 30
0.0
 11
49.85357057272034
 21
-41.26326476144835
 31
0.0
  0
LINE
  5
5BDC
330
A
100
AcDbEntity
  8
0
  6
Continuous
 62
     7
370
     0
100
AcDbLine
 10
49.85357057272034
 20
-8.763264761448112
 30
0.0
 11
50.30274750736885
 21
-8.763264761448112
 31
0.0
  0
LINE
  5
5BDD
330
A
100
AcDbEntity
  8
0
  6
Continuous
 62
     7
370
     0
100
AcDbLine
 10
50.30274750736885
 20
-41.26326476144835
 30
0.0
 11
50.50894376081908
 21
-41.26326476144835
 31
0.0
  0
LINE
  5
5BDE
330
A
100
AcDbEntity
  8
0
  6
Continuous
 62
     7
370
     0
100
AcDbLine
 10
50.30274750736885
 20
-8.763264761448112
 30
0.0
 11
50.50894376081908
 21
-8.763264761448112
 31
0.0
  0
LINE
  5
5BDF
330
A
100
AcDbEntity
  8
0
  6
Continuous
 62
     7
370
     0
100
AcDbLine
 10
51.53409993966254
 20
-20.31826476077851
 30
0.0
 11
50.50894376081908
 21
-20.31826476077851
 31
0.0
  0
LINE
  5
5BE0
330
A
100
AcDbEntity
  8
0
  6
Continuous
 62
     7
370
     0
100
AcDbLine
 10
50.50894376081908
 20
-29.71826476077848
 30
0.0
 11
51.53409993930933
 21
-29.71826476077848
 31
0.0
  0
LINE
  5
5BE1
330
A
100
AcDbEntity
  8
0
  6
Continuous
 62
     7
370
     0
100
AcDbLine
 10
51.53409993929813
 20
-30.01826476077809
 30
0.0
 11
50.50894376081908
 21
-30.01826476077809
 31
0.0
  0
LINE
  5
5BE2
330
A
100
AcDbEntity
  8
0
  6
Continuous
 62
     7
370
     0
100
AcDbLine
 10
50.50894376081908
 20
-20.01826476077832
 30
0.0
 11
51.53409993967386
 21
-20.01826476077832
 31
0.0
  0
LINE
  5
5BE3
330
A
100
AcDbEntity
  8
0
  6
Continuous
 62
     7
370
     0
100
AcDbLine
 10
49.10195529323795
 20
-7.768264760882117
 30
0.0
 11
48.15795285745132
 21
-7.768264760831981
 31
0.0
  0
LINE
  5
5BE4
330
A
100
AcDbEntity
  8
0
  6
Continuous
 62
     7
370
     0
100
AcDbLine
 10
49.10195529320055
 20
-8.763264761448112
 30
0.0
 11
49.10195529323795
 21
-7.768264760882117
 31
0.0
  0
LINE
  5
5BE5
330
A
100
AcDbEntity
  8
0
  6
Continuous
 62
     7
370
     0
100
AcDbLine
 10
51.65990052526193
 20
-9.268264761018317
 30
0.0
 11
50.50894376081908
 21
-9.268264760957093
 31
0.0
  0
ELLIPSE
  5
5BE6
330
A
100
AcDbEntity
  8
0
  6
Continuous
 62
     7
370
     0
100
AcDbEllipse
 10
51.65990052524302
 20
-9.768264761018144
 30
0.0
 11
-0.0000000000002776
 21
-0.5000000000000006
 31
0.0
210
0.0
220
0.0
230
1.0
 40
0.8386705678952456
 41
1.570796326750706
 42
3.141592653545495
  0
LINE
  5
5BE7
330
A
100
AcDbEntity
  8
0
  6
Continuous
 62
     7
370
     0
100
AcDbLine
 10
52.07923580804475
 20
-40.26826476104026
 30
0.0
 11
52.07923580819858
 21
-36.17982044247361
 31
0.0
  0
LINE
  5
5BE8
330
A
100
AcDbEntity
  8
0
  6
Continuous
 62
     7
370
     0
100
AcDbLine
 10
52.07923580828583
 20
-33.85670908004158
 30
0.0
 11
52.07923580894981
 21
-16.17982044611028
 31
0.0
  0
LINE
  5
5BE9
330
A
100
AcDbEntity
  8
0
  6
Continuous
 62
     7
370
     0
100
AcDbLine
 10
52.07923580903713
 20
-13.85670907640508
 30
0.0
 11
52.07923580919082
 21
-9.768264761040427
 31
0.0
  0
ELLIPSE
  5
5BEA
330
A
100
AcDbEntity
  8
0
  6
Continuous
 62
     7
370
     0
100
AcDbEllipse
 10
51.65990052409722
 20
-40.26826476101797
 30
0.0
 11
-0.0000000000002776
 21
-0.5000000000000006
 31
0.0
210
0.0
220
0.0
230
1.0
 40
0.8386705678952514
 41
6.283185307135509
 42
7.853981633930294
  0
LINE
  5
5BEB
330
A
100
AcDbEntity
  8
0
  6
Continuous
 62
     7
370
     0
100
AcDbLine
 10
50.50894376081908
 20
-40.76826476095698
 30
0.0
 11
51.65990052407841
 21
-40.7682647610181
 31
0.0
  0
LINE
  5
5BEC
330
A
100
AcDbEntity
  8
0
  6
Continuous
 62
     7
370
     0
100
AcDbLine
 10
49.10195529194163
 20
-42.26826476088212
 30
0.0
 11
49.10195529197938
 21
-41.26326476144835
 31
0.0
  0
LINE
  5
5BED
330
A
100
AcDbEntity
  8
0
  6
Continuous
 62
     7
370
     0
100
AcDbLine
 10
48.11388717783273
 20
-42.26826476082959
 30
0.0
 11
49.10195529194163
 21
-42.26826476088212
 31
0.0
  0
LINE
  5
5BEE
330
A
100
AcDbEntity
  8
0
  6
Continuous
 62
     7
370
     0
100
AcDbLine
 10
50.50894376081908
 20
-30.11826476095695
 30
0.0
 11
51.53409993929439
 21
-30.11826476101158
 31
0.0
  0
LINE
  5
5BEF
330
A
100
AcDbEntity
  8
0
  6
Continuous
 62
     7
370
     0
100
AcDbLine
 10
51.53409993967746
 20
-19.91826476101158
 30
0.0
 11
51.53409993929439
 21
-30.11826476101158
 31
0.0
  0
LINE
  5
5BF0
330
A
100
AcDbEntity
  8
0
  6
Continuous
 62
     7
370
     0
100
AcDbLine
 10
50.50894376081908
 20
-19.9182647609569
 30
0.0
 11
51.53409993967746
 21
-19.91826476101158
 31
0.0
  0
LINE
  5
5BF1
330
A
100
AcDbEntity
  8
0
  6
Continuous
 62
     7
370
     0
100
AcDbLine
 10
51.65990052526193
 20
-9.268264761018317
 30
0.0
 11
52.46040601658092
 21
-9.268264761018599
 31
0.0
  0
LINE
  5
5BF2
330
A
100
AcDbEntity
  8
0
  6
Continuous
 62
     9
370
     0
100
AcDbLine
 10
52.46040601658092
 20
-9.768264761040596
 30
0.0
 11
52.07923580919082
 21
-9.768264761040427
 31
0.0
  0
LINE
  5
5BF3
330
A
100
AcDbEntity
  8
0
  6
Continuous
 62
     9
370
     0
100
AcDbLine
 10
52.07923580804475
 20
-40.26826476104026
 30
0.0
 11
52.46040601658092
 21
-40.26826476104083
 31
0.0
  0
LINE
  5
5BF4
330
A
100
AcDbEntity
  8
0
  6
Continuous
 62
     7
370
     0
100
AcDbLine
 10
52.46040601658092
 20
-40.76826476101865
 30
0.0
 11
51.65990052407841
 21
-40.7682647610181
 31
0.0
  0
LINE
  5
5BF5
330
A
100
AcDbEntity
  8
0
  6
Continuous
 62
     7
370
     0
100
AcDbLine
 10
49.10195529323795
 20
-7.768264760882117
 30
0.0
 11
49.63838917354503
 21
-7.768264760882517
 31
0.0
  0
LINE
  5
5BF6
330
A
100
AcDbEntity
  8
0
  6
Continuous
 62
     7
370
     0
100
AcDbLine
 10
49.10195529194163
 20
-42.26826476088212
 30
0.0
 11
49.63838917354503
 21
-42.26826476088256
 31
0.0
  0
LINE
  5
5BF7
330
A
100
AcDbEntity
  8
0
  6
Continuous
 62
     9
370
     0
100
AcDbLine
 10
20.32545438377571
 20
-41.48341284026662
 30
0.0
 11
31.82545438377588
 21
-41.48341284026662
 31
0.0
  0
LINE
  5
5BF8
330
A
100
AcDbEntity
  8
0
  6
Continuous
 62
     9
370
     0
100
AcDbLine
 10
31.16437292590945
 20
-42.27125904267632
 30
0.0
 11
20.98653584164225
 21
-42.27125904267632
 31
0.0
  0
LINE
  5
5BF9
330
A
100
AcDbEntity
  8
0
  6
Continuous
 62
     7
370
     0
100
AcDbLine
 10
22.07545438377588
 20
-42.46326476144838
 30
0.0
 11
28.73418314052788
 21
-42.46326476144838
 31
0.0
  0
LINE
  5
5BFA
330
A
100
AcDbEntity
  8
0
  6
Continuous
 62
     7
370
     0
100
AcDbLine
 10
28.73418314052788
 20
-42.46326476144838
 30
0.0
 11
30.07545438377588
 21
-42.46326476144838
 31
0.0
  0
LINE
  5
5BFB
330
A
100
AcDbEntity
  8
0
  6
Continuous
 62
     9
370
     0
100
AcDbLine
 10
31.82545431139647
 20
-8.54311668263
 30
0.0
 11
30.64830674444801
 21
-8.54311668263
 31
0.0
  0
LINE
  5
5BFC
330
A
100
AcDbEntity
  8
0
  6
Continuous
 62
     9
370
     0
100
AcDbLine
 10
20.98653576926261
 20
-7.755270480220247
 30
0.0
 11
30.12256275261325
 21
-7.755270480220247
 31
0.0
  0
LINE
  5
5BFD
330
A
100
AcDbEntity
  8
0
  6
Continuous
 62
     9
370
     0
100
AcDbLine
 10
30.64830674444801
 20
-8.54311668263
 30
0.0
 11
20.32545431139602
 21
-8.54311668263
 31
0.0
  0
LINE
  5
5BFE
330
A
100
AcDbEntity
  8
0
  6
Continuous
 62
     9
370
     0
100
AcDbLine
 10
30.12256275261325
 20
-7.755270480220247
 30
0.0
 11
31.16437285353021
 21
-7.755270480220247
 31
0.0
  0
LINE
  5
5BFF
330
A
100
AcDbEntity
  8
0
  6
Continuous
 62
     7
370
     0
100
AcDbLine
 10
30.07545431139643
 20
-7.563264761448464
 30
0.0
 11
22.07545431139636
 21
-7.563264761448464
 31
0.0
  0
LINE
  5
5C00
330
A
100
AcDbEntity
  8
0
  6
Continuous
 62
     7
370
     0
100
AcDbLine
 10
36.46983229258973
 20
-7.443264761448459
 30
0.0
 11
36.46983229258973
 21
-8.763264761448112
 31
0.0
  0
LINE
  5
5C01
330
A
100
AcDbEntity
  8
0
  6
Continuous
 62
     7
370
     0
100
AcDbLine
 10
36.46983229258978
 20
-41.26326476144835
 30
0.0
 11
36.46983229258978
 21
-42.59326476144844
 31
0.0
  0
LINE
  5
5C02
330
A
100
AcDbEntity
  8
0
  6
Continuous
 62
     7
370
     0
100
AcDbLine
 10
35.73847859097083
 20
-7.443264761448459
 30
0.0
 11
35.73847859097083
 21
-8.763264761448112
 31
0.0
  0
LINE
  5
5C03
330
A
100
AcDbEntity
  8
0
  6
Continuous
 62
     7
370
     0
100
AcDbLine
 10
35.73847859097096
 20
-41.26326476144835
 30
0.0
 11
35.73847859097096
 21
-42.59326476144844
 31
0.0
  0
LINE
  5
5C04
330
A
100
AcDbEntity
  8
0
  6
Continuous
 62
     7
370
     0
100
AcDbLine
 10
35.05648023091362
 20
-7.443264761448459
 30
0.0
 11
35.05648023091362
 21
-8.763264761427706
 31
0.0
  0
LINE
  5
5C05
330
A
100
AcDbEntity
  8
0
  6
Continuous
 62
     7
370
     0
100
AcDbLine
 10
35.05648023091362
 20
-41.26326476139917
 30
0.0
 11
35.05648023091362
 21
-42.59326476144837
 31
0.0
  0
LINE
  5
5C06
330
A
100
AcDbEntity
  8
0
  6
Continuous
 62
     7
370
     0
100
AcDbLine
 10
33.60274924940274
 20
14.98173523852318
 30
0.0
 11
33.57545438377588
 21
14.98173523853978
 31
0.0
  0
LINE
  5
5C07
330
A
100
AcDbEntity
  8
0
  6
Continuous
 62
     7
370
     0
100
AcDbLine
 10
33.60274924940262
 20
-65.0182647614418
 30
0.0
 11
33.57545438377588
 21
-65.01826476144248
 31
0.0
  0
LINE
  5
5C08
330
A
100
AcDbEntity
  8
0
  6
Continuous
 62
     7
370
     0
100
AcDbLine
 10
31.39971172281764
 20
-7.443264761423505
 30
0.0
 11
31.39971172281764
 21
-7.836058417686786
 31
0.0
  0
LINE
  5
5C09
330
A
100
AcDbEntity
  8
0
  6
Continuous
 62
     7
370
     0
100
AcDbLine
 10
31.39971172281764
 20
-42.1904711434517
 30
0.0
 11
31.39971172281764
 21
-42.59326476139285
 31
0.0
  0
LINE
  5
5C0A
330
A
100
AcDbEntity
  8
0
  6
Continuous
 62
     7
370
     0
100
AcDbLine
 10
38.04022680067435
 20
14.98173523855155
 30
0.0
 11
49.04516484341235
 21
14.98173523855155
 31
0.0
  0
LINE
  5
5C0B
330
A
100
AcDbEntity
  8
0
  6
Continuous
 62
     9
370
     0
100
AcDbLine
 10
49.04516484341235
 20
-7.443264761448459
 30
0.0
 11
49.0451648434124
 21
14.98173523855155
 31
0.0
  0
LINE
  5
5C0C
330
A
100
AcDbEntity
  8
0
  6
Continuous
 62
     9
370
     0
100
AcDbLine
 10
38.04022680067435
 20
-7.443264761448459
 30
0.0
 11
38.04022680067435
 21
14.98173523855155
 31
0.0
  0
LINE
  5
5C0D
330
A
100
AcDbEntity
  8
0
  6
Continuous
 62
     7
370
     0
100
AcDbLine
 10
38.04022680067435
 20
-7.443264761448459
 30
0.0
 11
49.0451648434124
 21
-7.443264761448459
 31
0.0
  0
LINE
  5
5C0E
330
A
100
AcDbEntity
  8
0
  6
Continuous
 62
     9
370
     0
100
AcDbLine
 10
38.04022680067435
 20
-65.01826476144811
 30
0.0
 11
38.04022680067435
 21
-42.59326476144837
 31
0.0
  0
LINE
  5
5C0F
330
A
100
AcDbEntity
  8
0
  6
Continuous
 62
     7
370
     0
100
AcDbLine
 10
49.0451648434124
 20
-42.59326476144837
 30
0.0
 11
38.04022680067435
 21
-42.59326476144837
 31
0.0
  0
LINE
  5
5C10
330
A
100
AcDbEntity
  8
0
  6
Continuous
 62
     9
370
     0
100
AcDbLine
 10
49.0451648434124
 20
-65.01826476144811
 30
0.0
 11
49.04516484341235
 21
-42.59326476144837
 31
0.0
  0
LINE
  5
5C11
330
A
100
AcDbEntity
  8
0
  6
Continuous
 62
     7
370
     0
100
AcDbLine
 10
38.04022680067435
 20
-65.01826476144811
 30
0.0
 11
49.04516484341235
 21
-65.01826476144811
 31
0.0
  0
LINE
  5
5C12
330
A
100
AcDbEntity
  8
0
  6
Continuous
 62
     7
370
     0
100
AcDbLine
 10
34.38345829257844
 20
14.98173523855155
 30
0.0
 11
34.38345829257844
 21
-7.443264761448459
 31
0.0
  0
LINE
  5
5C13
330
A
100
AcDbEntity
  8
0
  6
Continuous
 62
     7
370
     0
100
AcDbLine
 10
34.38345829257844
 20
14.98173523855155
 30
0.0
 11
38.04022680067435
 21
14.98173523855155
 31
0.0
  0
LINE
  5
5C14
330
A
100
AcDbEntity
  8
0
  6
Continuous
 62
     7
370
     0
100
AcDbLine
 10
34.38345829257844
 20
-7.443264761448459
 30
0.0
 11
38.04022680067435
 21
-7.443264761448459
 31
0.0
  0
LINE
  5
5C15
330
A
100
AcDbEntity
  8
0
  6
Continuous
 62
     7
370
     0
100
AcDbLine
 10
34.38345829257844
 20
-42.59326476144837
 30
0.0
 11
34.38345829257844
 21
-65.01826476144811
 31
0.0
  0
LINE
  5
5C16
330
A
100
AcDbEntity
  8
0
  6
Continuous
 62
     7
370
     0
100
AcDbLine
 10
38.04022680067435
 20
-42.59326476144837
 30
0.0
 11
34.38345829257844
 21
-42.59326476144837
 31
0.0
  0
LINE
  5
5C17
330
A
100
AcDbEntity
  8
0
  6
Continuous
 62
     7
370
     0
100
AcDbLine
 10
34.38345829257844
 20
-65.01826476144811
 30
0.0
 11
38.04022680067435
 21
-65.01826476144811
 31
0.0
  0
LINE
  5
5C22
330
A
100
AcDbEntity
  8
0
  6
Continuous
 62
     7
370
     0
100
AcDbLine
 10
68.43402095414671
 20
-57.51826476144827
 30
0.0
 11
68.43402095414671
 21
7.481735238551549
 31
0.0
  0
LINE
  5
5C2D
330
A
100
AcDbEntity
  8
0
  6
Continuous
 62
     7
370
     0
100
AcDbLine
 10
53.71355627047091
 20
-42.59326476144837
 30
0.0
 11
53.71355627047091
 21
-7.443264761448459
 31
0.0
  0
LINE
  5
5C2E
330
A
100
AcDbEntity
  8
0
  6
Continuous
 62
     7
370
     0
100
AcDbLine
 10
53.71355627047075
 20
-42.59326476144837
 30
0.0
 11
49.04516484341211
 21
-42.59326476144837
 31
0.0
  0
LINE
  5
5C2F
330
A
100
AcDbEntity
  8
0
  6
Continuous
 62
     7
370
     0
100
AcDbLine
 10
49.04516484341235
 20
-65.01826476144811
 30
0.0
 11
66.20659495389225
 21
-65.01826476144811
 31
0.0
  0
LINE
  5
5C30
330
A
100
AcDbEntity
  8
0
  6
Continuous
 62
     7
370
     0
100
AcDbLine
 10
49.04516484341235
 20
14.98173523855155
 30
0.0
 11
66.20659495389225
 21
14.98173523855155
 31
0.0
  0
LINE
  5
5C31
330
A
100
AcDbEntity
  8
0
  6
Continuous
 62
     7
370
     0
100
AcDbLine
 10
49.0451648434124
 20
-7.443264761448459
 30
0.0
 11
53.71355627047115
 21
-7.443264761448459
 31
0.0
  0
LINE
  5
5C32
330
A
100
AcDbEntity
  8
0
  6
Continuous
 62
     7
370
     0
100
AcDbLine
 10
33.60274924940286
 20
-7.443264761448459
 30
0.0
 11
33.60274924940286
 21
14.98173523855155
 31
0.0
  0
LINE
  5
5C33
330
A
100
AcDbEntity
  8
0
  6
Continuous
 62
     7
370
     0
100
AcDbLine
 10
33.60274924940286
 20
14.98173523855155
 30
0.0
 11
34.38345829257844
 21
14.98173523855155
 31
0.0
  0
LINE
  5
5C34
330
A
100
AcDbEntity
  8
0
  6
Continuous
 62
     7
370
     0
100
AcDbLine
 10
34.38345829257844
 20
-7.443264761448459
 30
0.0
 11
33.60274924940286
 21
-7.443264761448459
 31
0.0
  0
LINE
  5
5C35
330
A
100
AcDbEntity
  8
0
  6
Continuous
 62
     7
370
     0
100
AcDbLine
 10
33.60274924940286
 20
-65.01826476144811
 30
0.0
 11
33.60274924940286
 21
-42.59326476144837
 31
0.0
  0
LINE
  5
5C36
330
A
100
AcDbEntity
  8
0
  6
Continuous
 62
     7
370
     0
100
AcDbLine
 10
33.60274924940286
 20
-42.59326476144837
 30
0.0
 11
34.38345829257844
 21
-42.59326476144837
 31
0.0
  0
LINE
  5
5C37
330
A
100
AcDbEntity
  8
0
  6
Continuous
 62
     7
370
     0
100
AcDbLine
 10
34.38345829257844
 20
-65.01826476144811
 30
0.0
 11
33.60274924940286
 21
-65.01826476144811
 31
0.0
  0
LINE
  5
5C38
330
A
100
AcDbEntity
  8
0
  6
Continuous
 62
     7
370
     0
100
AcDbLine
 10
47.83127962365314
 20
-42.31826476144834
 30
0.0
 11
49.63838917354503
 21
-42.31826476144834
 31
0.0
  0
LINE
  5
5C39
330
A
100
AcDbEntity
  8
0
  6
Continuous
 62
     7
370
     0
100
AcDbLine
 10
49.63838917354503
 20
-42.31826476144834
 30
0.0
 11
49.63838917354503
 21
-41.26326476144835
 31
0.0
  0
LINE
  5
5C3A
330
A
100
AcDbEntity
  8
0
  6
Continuous
 62
     7
370
     0
100
AcDbLine
 10
50.50894376081908
 20
-40.86826476144834
 30
0.0
 11
52.46040601658092
 21
-40.86826476144834
 31
0.0
  0
LINE
  5
5C3B
330
A
100
AcDbEntity
  8
0
  6
Continuous
 62
     7
370
     0
100
AcDbLine
 10
52.46040601658092
 20
-40.86826476144834
 30
0.0
 11
52.46040601658092
 21
-37.44907174364977
 31
0.0
  0
ELLIPSE
  5
5C3C
330
A
100
AcDbEntity
  8
0
  6
Continuous
 62
     7
370
     0
100
AcDbEllipse
 10
45.05550598679405
 20
-35.01826476144829
 30
0.0
 11
12.63509432886694
 21
0.0
 31
0.0
210
0.0
220
0.0
230
0.9999999999999998
 40
0.2374339218937221
 41
5.353159486622912
 42
5.428676332513803
  0
ELLIPSE
  5
5C3D
330
A
100
AcDbEntity
  8
0
  6
Continuous
 62
     7
370
     0
100
AcDbEllipse
 10
45.05550598679405
 20
-35.01826476144829
 30
0.0
 11
12.63509432886694
 21
0.0
 31
0.0
210
0.0
220
0.0
230
0.9999999999999998
 40
0.2374339218937221
 41
5.338574348854415
 42
5.353159486622912
  0
LINE
  5
5C3E
330
A
100
AcDbEntity
  8
0
  6
Continuous
 62
     7
370
     0
100
AcDbLine
 10
53.3515692301712
 20
-32.75551894564217
 30
0.0
 11
53.3515692301712
 21
-37.28101057725456
 31
0.0
  0
ELLIPSE
  5
5C3F
330
A
100
AcDbEntity
  8
0
  6
Continuous
 62
     7
370
     0
100
AcDbEllipse
 10
45.05550598679405
 20
-35.01826476144829
 30
0.0
 11
12.63509432886694
 21
0.0
 31
0.0
210
0.0
220
0.0
230
0.9999999999999998
 40
0.2374339218937221
 41
0.9300258205566267
 42
0.9446109583251699
  0
ELLIPSE
  5
5C40
330
A
100
AcDbEntity
  8
0
  6
Continuous
 62
     7
370
     0
100
AcDbEllipse
 10
45.05550598679405
 20
-35.01826476144829
 30
0.0
 11
12.63509432886694
 21
0.0
 31
0.0
210
0.0
220
0.0
230
0.9999999999999998
 40
0.2374339218937221
 41
0.8545089746657867
 42
0.9300258205566267
  0
LINE
  5
5C41
330
A
100
AcDbEntity
  8
0
  6
Continuous
 62
     7
370
     0
100
AcDbLine
 10
52.46040601658092
 20
-32.58745777924696
 30
0.0
 11
52.46040601658092
 21
-17.44907174364982
 31
0.0
  0
ELLIPSE
  5
5C42
330
A
100
AcDbEntity
  8
0
  6
Continuous
 62
     7
370
     0
100
AcDbEllipse
 10
45.05550598679405
 20
-15.01826476144811
 30
0.0
 11
12.63509432886689
 21
0.0
 31
0.0
210
0.0
220
0.0
230
1.0
 40
0.2374339218937221
 41
5.353159486616164
 42
5.428676332513803
  0
ELLIPSE
  5
5C43
330
A
100
AcDbEntity
  8
0
  6
Continuous
 62
     7
370
     0
100
AcDbEllipse
 10
45.05550598679405
 20
-15.01826476144811
 30
0.0
 11
12.63509432886689
 21
0.0
 31
0.0
210
0.0
220
0.0
230
1.0
 40
0.2374339218937221
 41
5.338574348854415
 42
5.353159486616164
  0
LINE
  5
5C44
330
A
100
AcDbEntity
  8
0
  6
Continuous
 62
     7
370
     0
100
AcDbLine
 10
53.3515692301712
 20
-12.75551894564216
 30
0.0
 11
53.3515692301712
 21
-17.28101057725456
 31
0.0
  0
ELLIPSE
  5
5C45
330
A
100
AcDbEntity
  8
0
  6
Continuous
 62
     7
370
     0
100
AcDbEllipse
 10
45.05550598679405
 20
-15.01826476144811
 30
0.0
 11
12.63509432886689
 21
0.0
 31
0.0
210
0.0
220
0.0
230
1.0
 40
0.2374339218937221
 41
0.9300258205634415
 42
0.9446109583251731
  0
ELLIPSE
  5
5C46
330
A
100
AcDbEntity
  8
0
  6
Continuous
 62
     7
370
     0
100
AcDbEllipse
 10
45.05550598679405
 20
-15.01826476144811
 30
0.0
 11
12.63509432886689
 21
0.0
 31
0.0
210
0.0
220
0.0
230
1.0
 40
0.2374339218937221
 41
0.8545089746657888
 42
0.9300258205634415
  0
LINE
  5
5C47
330
A
100
AcDbEntity
  8
0
  6
Continuous
 62
     7
370
     0
100
AcDbLine
 10
52.46040601658092
 20
-12.58745777924696
 30
0.0
 11
52.46040601658092
 21
-9.168264761448426
 31
0.0
  0
LINE
  5
5C48
330
A
100
AcDbEntity
  8
0
  6
Continuous
 62
     7
370
     0
100
AcDbLine
 10
52.46040601658092
 20
-9.168264761448426
 30
0.0
 11
50.50894376081908
 21
-9.168264761448426
 31
0.0
  0
LINE
  5
5C49
330
A
100
AcDbEntity
  8
0
  6
Continuous
 62
     7
370
     0
100
AcDbLine
 10
49.63838917354503
 20
-8.763264761448112
 30
0.0
 11
49.63838917354503
 21
-7.718264761448381
 31
0.0
  0
LINE
  5
5C4A
330
A
100
AcDbEntity
  8
0
  6
Continuous
 62
     7
370
     0
100
AcDbLine
 10
49.63838917354503
 20
-7.718264761448381
 30
0.0
 11
47.88799274751993
 21
-7.718264761448381
 31
0.0
  0
LINE
  5
5C4B
330
A
100
AcDbEntity
  8
0
  6
Continuous
 62
     7
370
     0
100
AcDbLine
 10
37.25894375980875
 20
-41.26326476144835
 30
0.0
 11
37.25894375980875
 21
-41.48341284026662
 31
0.0
  0
LINE
  5
5C4C
330
A
100
AcDbEntity
  8
0
  6
Continuous
 62
     7
370
     0
100
AcDbLine
 10
48.75894375980873
 20
-41.48341284026662
 30
0.0
 11
48.75894375980873
 21
-41.26326476144835
 31
0.0
  0
ARC
  5
5C4D
330
A
100
AcDbEntity
  8
0
  6
Continuous
 62
     7
370
     0
100
AcDbCircle
 10
47.95894375980913
 20
-41.48341284026662
 30
0.0
 40
0.7999999999999618
100
AcDbArc
 50
279.9999999999954
 51
0.0
  0
ARC
  5
5C4E
330
A
100
AcDbEntity
  8
0
  6
Continuous
 62
     7
370
     0
100
AcDbCircle
 10
38.05894375980841
 20
-41.48341284026662
 30
0.0
 40
0.8000000000000229
100
AcDbArc
 50
180.0
 51
260.0000000000014
  0
LINE
  5
5C4F
330
A
100
AcDbEntity
  8
0
  6
Continuous
 62
     7
370
     0
100
AcDbLine
 10
37.92002521767518
 20
-42.27125904267632
 30
0.0
 11
39.00894375980858
 21
-42.46326476144838
 31
0.0
  0
LINE
  5
5C50
330
A
100
AcDbEntity
  8
0
  6
Continuous
 62
     7
370
     0
100
AcDbLine
 10
47.00894375980873
 20
-42.46326476144838
 30
0.0
 11
48.09786230194237
 21
-42.27125904267632
 31
0.0
  0
ARC
  5
5C51
330
A
100
AcDbEntity
  8
0
  6
Continuous
 62
     7
370
     0
100
AcDbCircle
 10
38.05894406544985
 20
-8.543116682624827
 30
0.0
 40
0.8000000000000355
100
AcDbArc
 50
100.000000000005
 51
180.0
  0
ARC
  5
5C52
330
A
100
AcDbEntity
  8
0
  6
Continuous
 62
     7
370
     0
100
AcDbCircle
 10
47.95894406544993
 20
-8.543116682624827
 30
0.0
 40
0.8000000000000229
100
AcDbArc
 50
0.0
 51
79.99999999999818
  0
LINE
  5
5C53
330
A
100
AcDbEntity
  8
0
  6
Continuous
 62
     7
370
     0
100
AcDbLine
 10
48.7589440654499
 20
-8.763264761443167
 30
0.0
 11
48.7589440654499
 21
-8.543116682624827
 31
0.0
  0
LINE
  5
5C54
330
A
100
AcDbEntity
  8
0
  6
Continuous
 62
     7
370
     0
100
AcDbLine
 10
37.25894406544985
 20
-8.543116682624827
 30
0.0
 11
37.25894406544985
 21
-8.763264761443167
 31
0.0
  0
LINE
  5
5C55
330
A
100
AcDbEntity
  8
0
  6
Continuous
 62
     7
370
     0
100
AcDbLine
 10
48.09786260758357
 20
-7.755270480215074
 30
0.0
 11
47.00894406544988
 21
-7.563264761443122
 31
0.0
  0
LINE
  5
5C56
330
A
100
AcDbEntity
  8
0
  6
Continuous
 62
     7
370
     0
100
AcDbLine
 10
39.00894406544985
 20
-7.563264761443122
 30
0.0
 11
37.92002552331644
 21
-7.755270480215074
 31
0.0
  0
LINE
  5
5C57
330
A
100
AcDbEntity
  8
0
  6
Continuous
 62
     7
370
     0
100
AcDbLine
 10
28.57545438377588
 20
-42.59326476144309
 30
0.0
 11
28.57545438377588
 21
-42.46326476144838
 31
0.0
  0
LINE
  5
5C58
330
A
100
AcDbEntity
  8
0
  6
Continuous
 62
     7
370
     0
100
AcDbLine
 10
28.57545438377588
 20
-7.563264761448464
 30
0.0
 11
28.57545438377588
 21
-7.443264761443173
 31
0.0
  0
LINE
  5
5C59
330
A
100
AcDbEntity
  8
0
  6
Continuous
 62
     7
370
     0
100
AcDbLine
 10
23.57545438377588
 20
-7.443264761443173
 30
0.0
 11
23.57545438377588
 21
-7.563264761448464
 31
0.0
  0
LINE
  5
5C5A
330
A
100
AcDbEntity
  8
0
  6
Continuous
 62
     7
370
     0
100
AcDbLine
 10
23.57545438377588
 20
-42.46326476144838
 30
0.0
 11
23.57545438377588
 21
-42.59326476144309
 31
0.0
  0
ARC
  5
5C5B
330
A
100
AcDbEntity
  8
0
  6
Continuous
 62
     7
370
     0
100
AcDbCircle
 10
26.07545438377588
 20
-63.01826476144379
 30
0.0
 40
2.500000000000055
100
AcDbArc
 50
270.0
 51
306.8698976458792
  0
ARC
  5
5C5C
330
A
100
AcDbEntity
  8
0
  6
Continuous
 62
     7
370
     0
100
AcDbCircle
 10
26.07545438377588
 20
-63.01826476144379
 30
0.0
 40
2.49999999999998
100
AcDbArc
 50
233.1301023541208
 51
270.0
  0
ARC
  5
5C5D
330
A
100
AcDbEntity
  8
0
  6
Continuous
 62
     7
370
     0
100
AcDbCircle
 10
26.07545438377588
 20
12.98173523855581
 30
0.0
 40
2.500000000000002
100
AcDbArc
 50
90.0
 51
126.8698976458095
  0
ARC
  5
5C5E
330
A
100
AcDbEntity
  8
0
  6
Continuous
 62
     7
370
     0
100
AcDbCircle
 10
26.07545438377588
 20
12.98173523855581
 30
0.0
 40
2.500000000000013
100
AcDbArc
 50
53.1301023541905
 51
90.0
  0
LINE
  5
5C5F
330
A
100
AcDbEntity
  8
0
  6
Continuous
 62
     7
370
     0
100
AcDbLine
 10
50.50894376081908
 20
-41.26326476144835
 30
0.0
 11
50.50894376081908
 21
-8.763264761448112
 31
0.0
  0
LINE
  5
5C60
330
A
100
AcDbEntity
  8
0
  6
Continuous
 62
     7
370
     0
100
AcDbLine
 10
51.03731608090975
 20
-30.11826476085355
 30
0.0
 11
51.03731608090554
 21
-30.01826476077809
 31
0.0
  0
LINE
  5
5C61
330
A
100
AcDbEntity
  8
0
  6
Continuous
 62
     7
370
     0
100
AcDbLine
 10
51.03731608050289
 20
-20.01826476077832
 30
0.0
 11
51.03731608049907
 21
-19.91826476085355
 31
0.0
  0
ARC
  5
5C62
330
A
100
AcDbEntity
  8
0
  6
Continuous
 62
     7
370
     0
100
AcDbCircle
 10
31.02545438377588
 20
-41.48341284026662
 30
0.0
 40
0.8000000000000259
100
AcDbArc
 50
279.9999999999986
 51
0.0
  0
ARC
  5
5C63
330
A
100
AcDbEntity
  8
0
  6
Continuous
 62
     7
370
     0
100
AcDbCircle
 10
21.12545438377589
 20
-41.48341284026662
 30
0.0
 40
0.8000000000000229
100
AcDbArc
 50
180.0
 51
259.9999999999982
  0
LINE
  5
5C64
330
A
100
AcDbEntity
  8
0
  6
Continuous
 62
     7
370
     0
100
AcDbLine
 10
20.32545438377588
 20
-41.26326476144835
 30
0.0
 11
20.32545438377588
 21
-41.48341284026662
 31
0.0
  0
LINE
  5
5C65
330
A
100
AcDbEntity
  8
0
  6
Continuous
 62
     7
370
     0
100
AcDbLine
 10
31.82545438377588
 20
-41.48341284026662
 30
0.0
 11
31.82545438377588
 21
-41.26326476144835
 31
0.0
  0
LINE
  5
5C66
330
A
100
AcDbEntity
  8
0
  6
Continuous
 62
     7
370
     0
100
AcDbLine
 10
20.98653584164231
 20
-42.27125904267632
 30
0.0
 11
22.07545438377588
 21
-42.46326476144838
 31
0.0
  0
LINE
  5
5C67
330
A
100
AcDbEntity
  8
0
  6
Continuous
 62
     7
370
     0
100
AcDbLine
 10
30.07545438377588
 20
-42.46326476144838
 30
0.0
 11
31.16437292590945
 21
-42.27125904267632
 31
0.0
  0
ARC
  5
5C68
330
A
100
AcDbEntity
  8
0
  6
Continuous
 62
     7
370
     0
100
AcDbCircle
 10
21.12545431139642
 20
-8.54311668263
 30
0.0
 40
0.7999999999999714
100
AcDbArc
 50
100.0000000000018
 51
180.0
  0
ARC
  5
5C69
330
A
100
AcDbEntity
  8
0
  6
Continuous
 62
     7
370
     0
100
AcDbCircle
 10
31.0254543113964
 20
-8.54311668263
 30
0.0
 40
0.7999999999999674
100
AcDbArc
 50
0.0
 51
80.0000000000014
  0
LINE
  5
5C6A
330
A
100
AcDbEntity
  8
0
  6
Continuous
 62
     7
370
     0
100
AcDbLine
 10
31.82545431139636
 20
-8.763264761448112
 30
0.0
 11
31.82545431139636
 21
-8.54311668263
 31
0.0
  0
LINE
  5
5C6B
330
A
100
AcDbEntity
  8
0
  6
Continuous
 62
     7
370
     0
100
AcDbLine
 10
20.32545431139642
 20
-8.54311668263
 30
0.0
 11
20.32545431139642
 21
-8.763264761448112
 31
0.0
  0
LINE
  5
5C6C
330
A
100
AcDbEntity
  8
0
  6
Continuous
 62
     7
370
     0
100
AcDbLine
 10
31.16437285353004
 20
-7.755270480220247
 30
0.0
 11
30.07545431139636
 21
-7.563264761448464
 31
0.0
  0
LINE
  5
5C6D
330
A
100
AcDbEntity
  8
0
  6
Continuous
 62
     7
370
     0
100
AcDbLine
 10
22.07545431139636
 20
-7.563264761448464
 30
0.0
 11
20.98653576926296
 21
-7.755270480220247
 31
0.0
  0
LINE
  5
5C6E
330
A
100
AcDbEntity
  8
0
  6
Continuous
 62
     7
370
     0
100
AcDbLine
 10
40.50894376081885
 20
-7.443264761465628
 30
0.0
 11
40.50894376081885
 21
-7.563264761460516
 31
0.0
  0
LINE
  5
5C6F
330
A
100
AcDbEntity
  8
0
  6
Continuous
 62
     7
370
     0
100
AcDbLine
 10
40.50894376081885
 20
-42.46326476149164
 30
0.0
 11
40.50894376081885
 21
-42.59326476149186
 31
0.0
  0
LINE
  5
5C70
330
A
100
AcDbEntity
  8
0
  6
Continuous
 62
     7
370
     0
100
AcDbLine
 10
45.50894376081986
 20
-42.59326476149186
 30
0.0
 11
45.50894376081986
 21
-42.46326476149164
 31
0.0
  0
LINE
  5
5C71
330
A
100
AcDbEntity
  8
0
  6
Continuous
 62
     7
370
     0
100
AcDbLine
 10
45.50894376081986
 20
-7.563264761460516
 30
0.0
 11
45.50894376081986
 21
-7.443264761465628
 31
0.0
  0
ARC
  5
5C72
330
A
100
AcDbEntity
  8
0
  6
Continuous
 62
     7
370
     0
100
AcDbCircle
 10
43.00894376081942
 20
12.98173523855371
 30
0.0
 40
2.500000000000002
100
AcDbArc
 50
90.0
 51
126.869897645956
  0
ARC
  5
5C73
330
A
100
AcDbEntity
  8
0
  6
Continuous
 62
     7
370
     0
100
AcDbCircle
 10
43.00894376081942
 20
12.98173523855371
 30
0.0
 40
2.500000000000013
100
AcDbArc
 50
53.13010235404394
 51
90.0
  0
ARC
  5
5C74
330
A
100
AcDbEntity
  8
0
  6
Continuous
 62
     7
370
     0
100
AcDbCircle
 10
43.00894376081942
 20
-63.01826476147471
 30
0.0
 40
2.500000000000002
100
AcDbArc
 50
270.0
 51
306.8698976468868
  0
ARC
  5
5C75
330
A
100
AcDbEntity
  8
0
  6
Continuous
 62
     7
370
     0
100
AcDbCircle
 10
43.00894376081942
 20
-63.01826476147471
 30
0.0
 40
2.500000000000002
100
AcDbArc
 50
233.1301023531131
 51
270.0
  0
TEXT
  5
ABD2
330
A
100
AcDbEntity
  8
0
  6
Continuous
 62
     7
370
     0
100
AcDbText
 10
81.7627953780892
 20
72.53184365381622
 30
0.0
 40
10.0
  1
8567
100
AcDbText
  0
ARC
  5
ABD4
330
A
100
AcDbEntity
  8
0
  6
Continuous
 62
     7
370
     0
100
AcDbCircle
 10
153.8070385355033
 20
10.72442328379873
 30
0.0
 40
4.387496171654672
100
AcDbArc
 50
103.9922696116317
 51
167.9890832122097
  0
ARC
  5
ABD5
330
A
100
AcDbEntity
  8
0
  6
Continuous
 62
     7
370
     0
100
AcDbCircle
 10
160.83703358848
 20
7.542280892026155
 30
0.0
 40
12.03932873565767
100
AcDbArc
 50
160.1140164540566
 51
180.2881410675196
  0
ARC
  5
ABD6
330
A
100
AcDbEntity
  8
0
  6
Continuous
 62
     7
370
     0
100
AcDbCircle
 10
157.7425749612544
 20
-58.09486161670969
 30
0.0
 40
8.963282971736402
100
AcDbArc
 50
176.3116868912841
 51
227.3792997409283
  0
ARC
  5
ABD7
330
A
100
AcDbEntity
  8
0
  6
Continuous
 62
     7
370
     0
100
AcDbCircle
 10
152.8001986110731
 20
-62.92105666487197
 30
0.0
 40
2.097903630976396
100
AcDbArc
 50
237.5053420104476
 51
268.5245782844024
  0
LINE
  5
ABD8
330
A
100
AcDbEntity
  8
0
  6
Continuous
 62
     7
370
     0
100
AcDbLine
 10
66.20659495389237
 20
-65.01826476144811
 30
0.0
 11
66.32169696115074
 21
-65.01030343580788
 31
0.0
  0
LINE
  5
ABD9
330
A
100
AcDbEntity
  8
0
  6
Continuous
 62
     7
370
     0
100
AcDbLine
 10
66.32169696115074
 20
-65.01030343580788
 30
0.0
 11
66.43523933889202
 21
-64.98649105269942
 31
0.0
  0
LINE
  5
ABDA
330
A
100
AcDbEntity
  8
0
  6
Continuous
 62
     7
370
     0
100
AcDbLine
 10
66.43523933889202
 20
-64.98649105269942
 30
0.0
 11
66.54798101351254
 21
-64.94650926384537
 31
0.0
  0
LINE
  5
ABDB
330
A
100
AcDbEntity
  8
0
  6
Continuous
 62
     7
370
     0
100
AcDbLine
 10
66.54798101351254
 20
-64.94650926384537
 30
0.0
 11
66.65877081808236
 21
-64.89061028715116
 31
0.0
  0
LINE
  5
ABDC
330
A
100
AcDbEntity
  8
0
  6
Continuous
 62
     7
370
     0
100
AcDbLine
 10
66.65877081808236
 20
-64.89061028715116
 30
0.0
 11
66.76859035712897
 21
-64.81804328141483
 31
0.0
  0
ARC
  5
ABDD
330
A
100
AcDbEntity
  8
0
  6
Continuous
 62
     7
370
     0
100
AcDbCircle
 10
59.53709934051033
 20
-59.69712153029366
 30
0.0
 40
8.861055349367084
100
AcDbArc
 50
324.6960911775627
 51
3.190651795832978
  0
ARC
  5
ABDE
330
A
100
AcDbEntity
  8
0
  6
Continuous
 62
     7
370
     0
100
AcDbCircle
 10
40.04297403767753
 20
-57.52639372508127
 30
0.0
 40
28.39104808021724
100
AcDbArc
 50
356.6126074401783
 51
0.0164050060081839
  0
ARC
  5
ABDF
330
A
100
AcDbEntity
  8
0
  6
Continuous
 62
     7
370
     0
100
AcDbCircle
 10
55.08118065151558
 20
8.474614823306126
 30
0.0
 40
13.38970328339633
100
AcDbArc
 50
355.7474731315369
 51
27.01436961235972
  0
LINE
  5
ABE0
330
A
100
AcDbEntity
  8
0
  6
Continuous
 62
     7
370
     0
100
AcDbLine
 10
67.00996871416612
 20
14.55640480436938
 30
0.0
 11
66.88585914207789
 21
14.68396256994452
 31
0.0
  0
LINE
  5
ABE1
330
A
100
AcDbEntity
  8
0
  6
Continuous
 62
     7
370
     0
100
AcDbLine
 10
66.88585914207789
 20
14.68396256994452
 30
0.0
 11
66.75676950189785
 21
14.79017205480886
 31
0.0
  0
LINE
  5
ABE2
330
A
100
AcDbEntity
  8
0
  6
Continuous
 62
     7
370
     0
100
AcDbLine
 10
66.75676950189785
 20
14.79017205480886
 30
0.0
 11
66.62435058804675
 21
14.87326371134992
 31
0.0
  0
LINE
  5
ABE3
330
A
100
AcDbEntity
  8
0
  6
Continuous
 62
     7
370
     0
100
AcDbLine
 10
66.62435058804675
 20
14.87326371134992
 30
0.0
 11
66.48774877170962
 21
14.93340388477821
 31
0.0
  0
LINE
  5
ABE4
330
A
100
AcDbEntity
  8
0
  6
Continuous
 62
     7
370
     0
100
AcDbLine
 10
66.48774877170962
 20
14.93340388477821
 30
0.0
 11
66.34836703350487
 21
14.96962938968619
 31
0.0
  0
LINE
  5
ABE5
330
A
100
AcDbEntity
  8
0
  6
Continuous
 62
     7
370
     0
100
AcDbLine
 10
66.34836703350487
 20
14.96962938968619
 30
0.0
 11
66.20659495389237
 21
14.98173523855155
 31
0.0
  0
LINE
  5
BA29
330
A
100
AcDbEntity
  8
0
  6
CENTER
 62
     1
100
AcDbLine
 10
9.5
 20
0.0
 30
0.0
 11
-9.5
 21
0.0
 31
0.0
  0
LINE
  5
BA2A
330
A
100
AcDbEntity
  8
0
  6
CENTER
 62
     1
100
AcDbLine
 10
0.0
 20
-9.5
 30
0.0
 11
0.0
 21
9.5
 31
0.0
  0
LINE
  5
BA2B
330
A
100
AcDbEntity
  8
0
  6
CENTER
 62
     1
100
AcDbLine
 10
9.5
 20
-50.0
 30
0.0
 11
-9.5
 21
-50.0
 31
0.0
  0
LINE
  5
BA2C
330
A
100
AcDbEntity
  8
0
  6
CENTER
 62
     1
100
AcDbLine
 10
0.0
 20
-59.5
 30
0.0
 11
0.0
 21
-40.49999999999999
 31
0.0
  0
CIRCLE
  5
BA89
330
A
100
AcDbEntity
  8
0
  6
CENTER
 62
     1
100
AcDbCircle
 10
0.0
 20
0.0
 30
0.0
 40
7.0
  0
CIRCLE
  5
BA8A
330
A
100
AcDbEntity
  8
0
  6
CENTER
 62
     1
100
AcDbCircle
 10
0.0
 20
-50.0
 30
0.0
 40
7.0
  0
LINE
  5
BAA4
330
A
100
AcDbEntity
  8
0
  6
Continuous
 62
     7
370
     0
100
AcDbLine
 10
-30.23101215879837
 20
-126.0757974022416
 30
0.0
 11
28.07545438377537
 21
-126.0757974022416
 31
0.0
  0
LINE
  5
BAA8
330
A
100
AcDbEntity
  8
0
  6
Continuous
370
     0
100
AcDbLine
 10
28.07545438377537
 20
-126.0757974022416
 30
0.0
 11
28.07545438377537
 21
-134.0757974022397
 31
0.0
  0
LINE
  5
BAA9
330
A
100
AcDbEntity
  8
0
  6
Continuous
370
     0
100
AcDbLine
 10
30.39939963879938
 20
-123.9014519652136
 30
0.0
 11
36.25022925175431
 21
-129.357438845715
 31
0.0
  0
LINE
  5
BAAB
330
A
100
AcDbEntity
  8
0
  6
CENTER
 62
     1
100
AcDbLine
 10
-30.12993671483651
 20
-134.0757974022397
 30
0.0
 11
-28.49131690754848
 21
-131.9604473000539
 31
0.0
  0
LINE
  5
BAAC
330
A
100
AcDbEntity
  8
0
  6
CENTER
 62
     1
100
AcDbLine
 10
-28.49131690754848
 20
-131.9604473000539
 30
0.0
 11
-30.22671173169602
 21
-129.7844021906452
 31
0.0
  0
LINE
  5
BAAD
330
A
100
AcDbEntity
  8
0
  6
CENTER
 62
     1
100
AcDbLine
 10
-30.22671173169602
 20
-129.7844021906452
 30
0.0
 11
-28.36510583655195
 21
-128.5860009405766
 31
0.0
  0
LINE
  5
BAAE
330
A
100
AcDbEntity
  8
0
  6
CENTER
 62
     1
100
AcDbLine
 10
-28.36510583655195
 20
-128.5860009405766
 30
0.0
 11
-30.23101215879837
 21
-126.0757974022416
 31
0.0
  0
LINE
  5
BAAF
330
A
100
AcDbEntity
  8
0
  6
CENTER
 62
     1
100
AcDbLine
 10
73.19106885023565
 20
-89.74323833826284
 30
0.0
 11
72.84378553242577
 21
-87.08914202126411
 31
0.0
  0
LINE
  5
BAB0
330
A
100
AcDbEntity
  8
0
  6
CENTER
 62
     1
100
AcDbLine
 10
72.84378553242577
 20
-87.08914202126411
 30
0.0
 11
70.0768183659272
 21
-86.78804367623618
 31
0.0
  0
LINE
  5
BAB1
330
A
100
AcDbEntity
  8
0
  6
CENTER
 62
     1
100
AcDbLine
 10
70.0768183659272
 20
-86.78804367623618
 30
0.0
 11
70.53756789199042
 21
-84.62252943263635
 31
0.0
  0
LINE
  5
BAB2
330
A
100
AcDbEntity
  8
0
  6
CENTER
 62
     1
100
AcDbLine
 10
70.53756789199042
 20
-84.62252943263635
 30
0.0
 11
67.44148587142859
 21
-84.17867773530659
 31
0.0
  0
LINE
  5
BAB5
330
A
100
AcDbEntity
  8
0
  6
Continuous
370
     0
100
AcDbLine
 10
26.0754543837758
 20
-143.8757974022394
 30
0.0
 11
43.00894376081926
 21
-136.4791409054732
 31
0.0
  0
LINE
  5
BACC
330
A
100
AcDbEntity
  8
0
  6
Continuous
 62
     7
370
     0
100
AcDbLine
 10
-30.12993456742998
 20
79.31916793971921
 30
0.0
 11
28.07545653118189
 21
79.31916793971921
 31
0.0
  0
LINE
  5
BAF1
330
A
100
AcDbEntity
  8
0
  6
Continuous
 62
     7
370
     0
100
AcDbLine
 10
60.39362059460848
 20
48.71019425604798
 30
0.0
 11
73.19107099764217
 21
34.98660887574231
 31
0.0
  0
LINE
  5
BAF4
330
A
100
AcDbEntity
  8
0
  6
Continuous
 62
     7
370
     0
100
AcDbLine
 10
36.25023139916078
 20
74.60080938319443
 30
0.0
 11
60.39362059460848
 21
48.7101942560477
 31
0.0
  0
LINE
  5
BAFB
330
A
100
AcDbEntity
  8
0
  6
Continuous
 62
     7
370
     0
100
AcDbLine
 10
67.44148801883511
 20
29.42204827278608
 30
0.0
 11
54.54279098165244
 21
43.25420737554826
 31
0.0
  0
LINE
  5
BAFD
330
A
100
AcDbEntity
  8
0
  6
Continuous
 62
     7
370
     0
100
AcDbLine
 10
54.54279098165244
 20
43.25420737554826
 30
0.0
 11
30.3994017862059
 21
69.14482250269315
 31
0.0
  0
LINE
  5
BB44
330
A
100
AcDbEntity
  8
0
  6
Continuous
 62
     7
370
     0
100
AcDbLine
 10
-30.23101001139184
 20
71.31916793972108
 30
0.0
 11
28.07545653118189
 21
71.31916793972108
 31
0.0
  0
LINE
  5
BB45
330
A
100
AcDbEntity
  8
0
  6
Continuous
370
     0
100
AcDbLine
 10
28.07545653118189
 20
71.31916793972108
 30
0.0
 11
28.07545653118189
 21
79.31916793971921
 31
0.0
  0
LINE
  5
BB46
330
A
100
AcDbEntity
  8
0
  6
Continuous
370
     0
100
AcDbLine
 10
30.3994017862059
 20
69.14482250269312
 30
0.0
 11
36.25023139916083
 21
74.60080938319446
 31
0.0
  0
LINE
  5
BB47
330
A
100
AcDbEntity
  8
0
  6
CENTER
 62
     1
100
AcDbLine
 10
-30.12993456742998
 20
79.31916793971921
 30
0.0
 11
-28.49131476014196
 21
77.20381783753343
 31
0.0
  0
LINE
  5
BB48
330
A
100
AcDbEntity
  8
0
  6
CENTER
 62
     1
100
AcDbLine
 10
-28.49131476014196
 20
77.20381783753343
 30
0.0
 11
-30.22670958428949
 21
75.0277727281247
 31
0.0
  0
LINE
  5
BB49
330
A
100
AcDbEntity
  8
0
  6
CENTER
 62
     1
100
AcDbLine
 10
-30.22670958428949
 20
75.0277727281247
 30
0.0
 11
-28.36510368914543
 21
73.82937147805607
 31
0.0
  0
LINE
  5
BB4A
330
A
100
AcDbEntity
  8
0
  6
CENTER
 62
     1
100
AcDbLine
 10
-28.36510368914543
 20
73.82937147805607
 30
0.0
 11
-30.23101001139184
 21
71.31916793972108
 31
0.0
  0
LINE
  5
BB4B
330
A
100
AcDbEntity
  8
0
  6
CENTER
 62
     1
100
AcDbLine
 10
73.19107099764217
 20
34.98660887574234
 30
0.0
 11
72.84378767983229
 21
32.3325125587436
 31
0.0
  0
LINE
  5
BB4C
330
A
100
AcDbEntity
  8
0
  6
CENTER
 62
     1
100
AcDbLine
 10
72.84378767983229
 20
32.3325125587436
 30
0.0
 11
70.07682051333372
 21
32.03141421371568
 31
0.0
  0
LINE
  5
BB4D
330
A
100
AcDbEntity
  8
0
  6
CENTER
 62
     1
100
AcDbLine
 10
70.07682051333372
 20
32.03141421371568
 30
0.0
 11
70.53757003939693
 21
29.86589997011585
 31
0.0
  0
LINE
  5
BB4E
330
A
100
AcDbEntity
  8
0
  6
CENTER
 62
     1
100
AcDbLine
 10
70.53757003939693
 20
29.86589997011585
 30
0.0
 11
67.44148801883511
 21
29.42204827278608
 31
0.0
  0
ENDSEC
  0
SECTION
  2
OBJECTS
  0
DICTIONARY
  5
19
330
0
100
AcDbDictionary
281
     1
  3
ACAD_COLOR
350
5829
  3
ACAD_GROUP
350
1A
  3
ACAD_LAYOUT
350
1E
  3
ACAD_MATERIAL
350
57FF
  3
ACAD_MLEADERSTYLE
350
584E
  3
ACAD_MLINESTYLE
350
1B
  3
ACAD_PLOTSETTINGS
350
22
  3
ACAD_PLOTSTYLENAME
350
1F
  3
ACAD_SCALELIST
350
582C
  3
ACAD_TABLESTYLE
350
582A
  3
ACAD_VISUALSTYLE
350
5818
  3
ACAD_WIPEOUT_VARS
350
23
  3
ACDB_RECOMPOSE_DATA
350
AB90
  3
AcDbVariableDictionary
350
AB91
  3
ASE_INDEX_DICTIONARY
350
B60C
  3
DWGPROPS
350
BB51
  0
DICTIONARY
  5
5858
330
14
100
AcDbDictionary
280
     1
281
     1
  3
ADSK_XREC_LAYER_RECONCILED
360
5859
  0
DICTIONARY
  5
5864
330
A
100
AcDbDictionary
280
     1
281
     1
  3
ACAD_SORTENTS
360
5865
  0
DICTIONARY
  5
5829
102
{ACAD_REACTORS
330
19
102
}
330
19
100
AcDbDictionary
281
     1
  0
DICTIONARY
  5
1A
102
{ACAD_REACTORS
330
19
102
}
330
19
100
AcDbDictionary
281
     1
  0
DICTIONARY
  5
1E
102
{ACAD_REACTORS
330
19
102
}
330
19
100
AcDbDictionary
281
     1
  3
Layout1
350
21
  3
Model
350
20
  0
DICTIONARY
  5
57FF
102
{ACAD_REACTORS
330
19
102
}
330
19
100
AcDbDictionary
281
     1
  3
ByBlock
350
5808
  3
ByLayer
350
5800
  3
Global
350
5810
  0
DICTIONARY
  5
584E
102
{ACAD_REACTORS
330
19
102
}
330
19
100
AcDbDictionary
281
     1
  3
Standard
350
584F
  0
DICTIONARY
  5
1B
102
{ACAD_REACTORS
330
19
102
}
330
19
100
AcDbDictionary
281
     1
  3
Standard
350
1C
  0
DICTIONARY
  5
22
102
{ACAD_REACTORS
330
19
102
}
330
19
100
AcDbDictionary
281
     1
  0
ACDBDICTIONARYWDFLT
  5
1F
102
{ACAD_REACTORS
330
19
102
}
330
19
100
AcDbDictionary
281
     1
  3
Normal
350
1D
100
AcDbDictionaryWithDefault
340
1D
  0
DICTIONARY
  5
582C
102
{ACAD_REACTORS
330
19
102
}
330
19
100
AcDbDictionary
281
     1
  3
A0
350
582D
  3
A1
350
582E
  3
A2
350
582F
  3
A3
350
5830
  3
A4
350
5831
  3
A5
350
5832
  3
A6
350
5833
  3
A7
350
5834
  3
A8
350
5835
  3
A9
350
5836
  3
B0
350
5837
  3
B1
350
5838
  3
B2
350
5839
  3
B3
350
583A
  3
B4
350
583B
  3
B5
350
583C
  3
B6
350
583D
  3
B7
350
583E
  3
B8
350
583F
  3
B9
350
5840
  3
C0
350
5841
  3
C1
350
5842
  3
C2
350
5843
  3
C3
350
5844
  3
C4
350
5845
  3
C5
350
5846
  3
C6
350
5847
  3
C7
350
5848
  3
C8
350
5849
  3
C9
350
584A
  3
D0
350
584B
  3
D1
350
584C
  3
D2
350
584D
  0
DICTIONARY
  5
582A
102
{ACAD_REACTORS
330
19
102
}
330
19
100
AcDbDictionary
281
     1
  3
Standard
350
582B
  0
DICTIONARY
  5
5818
102
{ACAD_REACTORS
330
19
102
}
330
19
100
AcDbDictionary
281
     1
  3
2dWireframe
350
581E
  3
3D Hidden
350
5820
  3
3dWireframe
350
581F
  3
Basic
350
581D
  3
Brighten
350
5824
  3
ColorChange
350
5828
  3
Conceptual
350
5821
  3
Dim
350
5823
  3
Facepattern
350
5827
  3
Flat
350
5819
  3
FlatWithEdges
350
581A
  3
Gouraud
350
581B
  3
GouraudWithEdges
350
581C
  3
Linepattern
350
5826
  3
Realistic
350
5822
  3
Thicken
350
5825
  0
WIPEOUTVARIABLES
  5
23
330
19
100
AcDbWipeoutVariables
 70
     1
  0
XRECORD
  5
AB90
102
{ACAD_REACTORS
330
19
102
}
330
19
100
AcDbXrecord
280
     1
 90
        1
330
582B
  0
DICTIONARY
  5
AB91
102
{ACAD_REACTORS
330
19
102
}
330
19
100
AcDbDictionary
281
     1
  3
CANNOSCALE
350
AB95
  3
CMLEADERSTYLE
350
AB93
  3
CTABLESTYLE
350
AB92
  3
DIMASSOC
350
B616
  3
INDEXCTL
350
B615
  3
LIGHTINGUNITS
350
AB96
  3
MSLTSCALE
350
AB94
  3
SORTENTS
350
B614
  0
DICTIONARY
  5
B60C
102
{ACAD_REACTORS
330
19
102
}
330
19
100
AcDbDictionary
281
     1
  3
ASEBlockHierarchyIndexRecord
350
B60D
1001
DCO15
1040
1684840282.966
  0
XRECORD
  5
BB51
102
{ACAD_REACTORS
330
19
102
}
330
19
100
AcDbXrecord
280
     1
  1
DWGPROPS COOKIE
  2

  3

  4

  6

  7

  8
renzo.ceresoli
  9

300
=
301
=
302
=
303
=
304
=
305
=
306
=
307
=
308
=
309
=
 40
0.1706340277777778
 41
2455301.802361111
 42
2455306.401408785
  1

 90
        0
  0
XRECORD
  5
5859
102
{ACAD_REACTORS
330
5858
102
}
330
5858
100
AcDbXrecord
280
     1
290
     1
  0
SORTENTSTABLE
  5
5865
102
{ACAD_REACTORS
330
5864
102
}
330
5864
100
AcDbSortentsTable
330
A
331
BAA4
  5
BAA9
331
ABD6
  5
ABD8
331
5C5F
  5
A6C8
331
5C02
  5
A665
331
5BC4
  5
A61C
331
5BE3
  5
A646
331
5C40
  5
A691
331
5996
  5
A9DF
331
59B5
  5
A857
331
5977
  5
A9C0
331
5922
  5
AAF7
331
5941
  5
A98A
331
5958
  5
A9A1
331
5903
  5
AAD8
331
58CD
  5
AA9A
331
58AE
  5
AA59
331
57E9
  5
AB83
331
5870
  5
A9FD
331
588F
  5
AA34
331
57CA
  5
AB64
331
58E4
  5
AAB9
331
ABD7
  5
ABD9
331
5C41
  5
A692
331
5BE4
  5
A647
331
5C03
  5
A666
331
5BC5
  5
A61D
331
5C60
  5
A6C9
331
5997
  5
A9E0
331
59B6
  5
A858
331
5978
  5
A9C1
331
5959
  5
A9A2
331
5923
  5
AAF8
331
5904
  5
AAD9
331
5942
  5
A98B
331
58E5
  5
AABA
331
58AF
  5
AA5A
331
5890
  5
AA35
331
57EA
  5
AB84
331
57CB
  5
AB65
331
5871
  5
A9FE
331
58CE
  5
AA9B
331
ABD8
  5
ABDA
331
5C42
  5
A693
331
5C04
  5
A667
331
5C61
  5
A6CA
331
5BC6
  5
A61E
331
5BE5
  5
A648
331
5998
  5
A9E1
331
59B7
  5
A859
331
5979
  5
A9C2
331
5924
  5
AAF9
331
5943
  5
A98C
331
595A
  5
A9A3
331
5905
  5
AADA
331
58CF
  5
AAA4
331
58B0
  5
AA5B
331
57EB
  5
AB85
331
5872
  5
A9FF
331
5891
  5
AA36
331
57CC
  5
AB66
331
58E6
  5
AABB
331
ABD9
  5
ABDB
331
5C43
  5
A694
331
5BE6
  5
A649
331
5C05
  5
A668
331
5BC7
  5
A61F
331
5C62
  5
A6CB
331
5999
  5
A9E2
331
59B8
  5
A85A
331
597A
  5
A9C3
331
595B
  5
A9A4
331
5925
  5
AAFA
331
5906
  5
AADB
331
5944
  5
A98D
331
58D0
  5
AAA5
331
5892
  5
AA37
331
58B1
  5
AA5C
331
57EC
  5
AB86
331
57CD
  5
AB67
331
5873
  5
AA18
331
58E7
  5
AABC
331
BAA8
  5
BAAA
331
ABDA
  5
ABDC
331
5C44
  5
A695
331
5C06
  5
A669
331
5C63
  5
A6CC
331
5BE7
  5
A64A
331
599A
  5
A9E3
331
59B9
  5
A85B
331
597B
  5
A9C4
331
5926
  5
AAFB
331
5945
  5
A98E
331
595C
  5
A9A5
331
5907
  5
AADC
331
58D1
  5
AAA6
331
58B2
  5
AA5D
331
57ED
  5
AB87
331
5874
  5
AA19
331
5893
  5
AA38
331
57CE
  5
AB68
331
58E8
  5
AABD
331
BAA9
  5
BAAB
331
ABDB
  5
ABDD
331
5C64
  5
A6CD
331
5C45
  5
A696
331
5C07
  5
A66A
331
599B
  5
A9E4
331
59BA
  5
A85C
331
597C
  5
A9C5
331
595D
  5
A9A6
331
5927
  5
AAFC
331
5908
  5
AADD
331
5946
  5
A98F
331
58D2
  5
AAA7
331
5894
  5
AA39
331
58B3
  5
AA6A
331
57EE
  5
AB88
331
57CF
  5
AB69
331
5875
  5
AA1A
331
58E9
  5
AABE
331
ABDC
  5
ABDE
331
5C46
  5
A697
331
5C65
  5
A6DC
331
599C
  5
A9E5
331
59BB
  5
A85D
331
597D
  5
A9C6
331
5928
  5
AAFD
331
5947
  5
A990
331
595E
  5
A9A7
331
58EA
  5
AABF
331
58B4
  5
AA6B
331
58D3
  5
AAA8
331
57EF
  5
AB89
331
5876
  5
AA1B
331
5895
  5
AA3A
331
5909
  5
AADE
331
BA89
  5
BAA4
331
57D0
  5
AB6A
331
BAAB
  5
BAAC
331
ABDD
  5
ABDF
331
5C66
  5
A6E1
331
5C47
  5
A69C
331
599D
  5
A9E6
331
59BC
  5
A85E
331
597E
  5
A9C7
331
595F
  5
A9A8
331
5929
  5
AAFE
331
590A
  5
AADF
331
5948
  5
A991
331
58D4
  5
AAA9
331
5896
  5
AA3B
331
58B5
  5
AA6C
331
BA8A
  5
BAA8
331
57D1
  5
AB6B
331
5877
  5
AA1C
331
58EB
  5
AAC0
331
BAAC
  5
BAAD
331
ABDE
  5
ABE0
331
5C67
  5
A6E2
331
599E
  5
A9E7
331
59BD
  5
A85F
331
597F
  5
A9C8
331
592A
  5
AAFF
331
5949
  5
A992
331
5960
  5
A9A9
331
58EC
  5
AAC1
331
58B6
  5
AA6D
331
58D5
  5
AAAA
331
57D2
  5
AB6C
331
5878
  5
AA1D
331
5897
  5
AA3C
331
590B
  5
AAE0
331
BAAD
  5
BAAE
331
ABDF
  5
ABE1
331
599F
  5
A9E8
331
59BE
  5
A860
331
5980
  5
A9C9
331
5961
  5
A9AA
331
592B
  5
AB00
331
590C
  5
AAE1
331
58D6
  5
AAAB
331
58ED
  5
AAC2
331
5898
  5
AA3D
331
58B7
  5
AA6E
331
594A
  5
A993
331
57D3
  5
AB6D
331
5879
  5
AA1E
331
BAAE
  5
BAAF
331
59A0
  5
A9E9
331
59BF
  5
A861
331
5981
  5
A9CA
331
592C
  5
AB01
331
594B
  5
A994
331
5962
  5
A9AB
331
58EE
  5
AAC3
331
58B8
  5
AA6F
331
58D7
  5
AAAC
331
57D4
  5
AB6E
331
587A
  5
AA1F
331
5899
  5
AA3E
331
590D
  5
AAE2
331
BAAF
  5
BAB0
331
59A1
  5
A9EA
331
59C0
  5
A862
331
5982
  5
A9CB
331
5963
  5
A9AC
331
592D
  5
AB02
331
590E
  5
AAE3
331
58B9
  5
AA70
331
58EF
  5
AAC4
331
57D5
  5
AB6F
331
587B
  5
AA20
331
589A
  5
AA3F
331
594C
  5
A995
331
59C8
  5
A86A
331
59A2
  5
A9EB
331
59C1
  5
A863
331
5983
  5
A9CC
331
592E
  5
AB03
331
594D
  5
A996
331
590F
  5
AAE4
331
58F0
  5
AAC5
331
589B
  5
AA40
331
57D6
  5
AB70
331
587C
  5
AA21
331
58BA
  5
AA71
331
5964
  5
A9AD
331
59E8
  5
A89D
331
59C9
  5
A86B
331
59A3
  5
A9EC
331
59C2
  5
A864
331
5965
  5
A9AE
331
5984
  5
A9CD
331
592F
  5
AB04
331
5910
  5
AAE5
331
58BB
  5
AA72
331
58F1
  5
AAC6
331
57D7
  5
AB71
331
587D
  5
AA22
331
589C
  5
AA41
331
594E
  5
A997
331
5A08
  5
A8BA
331
59E9
  5
A89E
331
59CA
  5
A86C
331
59A4
  5
A9ED
331
5985
  5
A9CE
331
59C3
  5
A865
331
5930
  5
AB05
331
594F
  5
A998
331
5911
  5
AAE6
331
58F2
  5
AAC7
331
589D
  5
AA42
331
587E
  5
AA23
331
58BC
  5
AA73
331
5966
  5
A9AF
331
5A28
  5
A8DA
331
5A09
  5
A8BB
331
59EA
  5
A89F
331
59A5
  5
A9EE
331
59C4
  5
A866
331
59CB
  5
A86D
331
5931
  5
AB06
331
5967
  5
A9B0
331
5912
  5
AAE7
331
58BD
  5
AA74
331
58F3
  5
AAC8
331
5986
  5
A9CF
331
587F
  5
AA24
331
589E
  5
AA43
331
5A40
  5
A8F2
331
5A29
  5
A8DB
331
5A0A
  5
A8BC
331
59CC
  5
A86E
331
59EB
  5
A8A0
331
59A6
  5
A9EF
331
5987
  5
A9D0
331
59C5
  5
A867
331
5932
  5
AB61
331
5913
  5
AAE8
331
58F4
  5
AAC9
331
589F
  5
AA44
331
58BE
  5
AA75
331
5968
  5
A9B1
331
5A60
  5
A912
331
5A41
  5
A8F3
331
5A2A
  5
A8DC
331
5A0B
  5
A8BD
331
59EC
  5
A8A1
331
59A7
  5
A9F0
331
59C6
  5
A868
331
59CD
  5
A86F
331
5933
  5
AB62
331
5969
  5
A9B2
331
5914
  5
AAE9
331
58BF
  5
AA76
331
58F5
  5
AACA
331
5988
  5
A9D1
331
5A80
  5
A964
331
5A61
  5
A913
331
5A42
  5
A8F4
331
5A2B
  5
A8DD
331
5A0C
  5
A8BE
331
59CE
  5
A870
331
59ED
  5
A8A2
331
59A8
  5
A9F1
331
5989
  5
A9D2
331
596A
  5
A9B3
331
5915
  5
AAEA
331
58F6
  5
AACB
331
5934
  5
A97D
331
59C7
  5
A869
331
5A81
  5
A965
331
5A62
  5
A914
331
5A43
  5
A8F5
331
5A2C
  5
A8DE
331
59EE
  5
A8A3
331
5A0D
  5
A8BF
331
59A9
  5
A9F2
331
598A
  5
A9D3
331
59CF
  5
A871
331
5AA0
  5
A7AA
331
5916
  5
AAEB
331
5935
  5
A97E
331
58F7
  5
AACC
331
596B
  5
A9B4
331
5AB8
  5
A7D7
331
5A82
  5
A966
331
5A63
  5
A915
331
5AA1
  5
A7AB
331
5A2D
  5
A8DF
331
5A0E
  5
A8C0
331
59AA
  5
A9F3
331
59D0
  5
A872
331
59EF
  5
A8A4
331
596C
  5
A9B5
331
5917
  5
AAEC
331
5936
  5
A97F
331
598B
  5
A9D4
331
5A44
  5
A8F6
331
5AD8
  5
A810
331
5AB9
  5
A7D8
331
5A83
  5
A967
331
5A64
  5
A916
331
5A45
  5
A8F7
331
5A2E
  5
A8E0
331
59F0
  5
A8A5
331
5A0F
  5
A8C1
331
59AB
  5
A9F4
331
598C
  5
A9D5
331
5937
  5
A980
331
596D
  5
A9B6
331
59D1
  5
A873
331
5AA2
  5
A7AC
331
5AF8
  5
A831
331
5AD9
  5
A811
331
5ABA
  5
A7D9
331
5A84
  5
A972
331
5A65
  5
A917
331
5A46
  5
A8F8
331
5A10
  5
A8C2
331
5A2F
  5
A8E1
331
59AC
  5
A9F5
331
59D2
  5
A874
331
59F1
  5
A8AB
331
5AA3
  5
A7B9
331
596E
  5
A9B7
331
598D
  5
A9D6
331
5B18
  5
A851
331
5AF9
  5
A832
331
5ADA
  5
A812
331
5ABB
  5
A7DA
331
5A85
  5
A973
331
5A66
  5
A918
331
5A47
  5
A8F9
331
5A30
  5
A8E2
331
59F2
  5
A8AC
331
5A11
  5
A8C3
331
59AD
  5
A9F6
331
598E
  5
A9D7
331
596F
  5
A9B8
331
59D3
  5
A875
331
5AA4
  5
A7BA
331
5B19
  5
A852
331
5AFA
  5
A833
331
5B30
  5
A707
331
5ABC
  5
A7DB
331
5ADB
  5
A813
331
5A86
  5
A974
331
5A67
  5
A919
331
5A48
  5
A8FA
331
5A12
  5
A8C4
331
5A31
  5
A8E3
331
59AE
  5
A9F7
331
59D4
  5
A876
331
598F
  5
A9D8
331
59F3
  5
A8AD
331
5AA5
  5
A7BD
331
5B31
  5
A708
331
5B50
  5
A73F
331
5AFB
  5
A834
331
5ADC
  5
A815
331
5B1A
  5
A6F1
331
5A87
  5
A975
331
5A68
  5
A91A
331
5A49
  5
A8FB
331
5A32
  5
A8E4
331
59F4
  5
A8AE
331
5A13
  5
A8C5
331
5ABD
  5
A7DC
331
59AF
  5
A9F8
331
59D5
  5
A877
331
5B51
  5
A740
331
5B70
  5
A75F
331
5AFC
  5
A835
331
5ADD
  5
A816
331
5B1B
  5
A6F2
331
5B32
  5
A709
331
5ABE
  5
A7DD
331
5A88
  5
A976
331
5A69
  5
A91B
331
5A4A
  5
A8FC
331
5A14
  5
A8C6
331
5A33
  5
A8E5
331
59D6
  5
A878
331
59F5
  5
A8B0
331
5AA7
  5
A7BF
331
5B90
  5
A77F
331
5B33
  5
A70A
331
5B52
  5
A741
331
5AFD
  5
A836
331
5ADE
  5
A817
331
5B1C
  5
A6F3
331
5A89
  5
A977
331
5A6A
  5
A91C
331
5A4B
  5
A8FD
331
5A34
  5
A8E6
331
59F6
  5
A8B1
331
59D7
  5
A879
331
5A15
  5
A8C7
331
5ABF
  5
A7DE
331
5B71
  5
A760
331
5B53
  5
A742
331
5B72
  5
A761
331
5AFE
  5
A837
331
5ADF
  5
A818
331
5B1D
  5
A6F4
331
5B34
  5
A70B
331
5A8A
  5
A978
331
5A6B
  5
A91D
331
5AA9
  5
A7C0
331
5A4C
  5
A8FE
331
5A16
  5
A8C8
331
5A35
  5
A8E7
331
5AC0
  5
A7E5
331
5B91
  5
A780
331
59D8
  5
A87A
331
5B73
  5
A762
331
5B92
  5
A781
331
5B35
  5
A70C
331
5B54
  5
A743
331
5AFF
  5
A838
331
5AE0
  5
A819
331
5B1E
  5
A6F5
331
5A8B
  5
A979
331
5A6C
  5
A91E
331
5AAA
  5
A7C2
331
5A36
  5
A8E8
331
5A4D
  5
A8FF
331
59D9
  5
A87B
331
5A17
  5
A8C9
331
5AC1
  5
A7E6
331
5B55
  5
A744
331
5B74
  5
A763
331
5B00
  5
A839
331
5AE1
  5
A81A
331
5B1F
  5
A6F6
331
5B36
  5
A70D
331
5A8C
  5
A97A
331
5A6D
  5
A91F
331
5A4E
  5
A900
331
5A18
  5
A8CA
331
59DA
  5
A87C
331
5A37
  5
A8E9
331
5AC2
  5
A7E7
331
5B93
  5
A782
331
5B75
  5
A764
331
5B94
  5
A783
331
5B37
  5
A70E
331
5B56
  5
A745
331
5B01
  5
A83A
331
5AE2
  5
A81B
331
5AC3
  5
A7E8
331
5A8D
  5
A97B
331
5A6E
  5
A920
331
5AAC
  5
A7C4
331
5A38
  5
A8EA
331
5A4F
  5
A901
331
5B20
  5
A6F7
331
59DB
  5
A87D
331
5A19
  5
A8CB
331
5B95
  5
A784
331
5B57
  5
A746
331
5B76
  5
A765
331
5B02
  5
A83B
331
5AE3
  5
A81C
331
5B21
  5
A6F8
331
5B38
  5
A70F
331
5A8E
  5
A97C
331
5A6F
  5
A921
331
5A50
  5
A902
331
5A1A
  5
A8CC
331
59DC
  5
A87E
331
5A39
  5
A8EB
331
5AC4
  5
A7E9
331
5B77
  5
A766
331
5B96
  5
A785
331
5B39
  5
A710
331
5B58
  5
A747
331
5B03
  5
A83C
331
5AE4
  5
A81D
331
5AC5
  5
A7EA
331
5AAE
  5
A7C6
331
5A70
  5
A922
331
5A51
  5
A903
331
5A3A
  5
A8EC
331
5A1B
  5
A8CD
331
59DD
  5
A883
331
59FC
  5
A8B3
331
5A8F
  5
A793
331
5B22
  5
A6F9
331
5B97
  5
A786
331
5B59
  5
A748
331
5B78
  5
A767
331
5B04
  5
A83D
331
5AE5
  5
A81E
331
5B23
  5
A6FA
331
5AC6
  5
A7F1
331
5A71
  5
A923
331
5A52
  5
A904
331
5A90
  5
A794
331
5B3A
  5
A711
331
5A1C
  5
A8CE
331
59FD
  5
A8B4
331
59DE
  5
A884
331
5A3B
  5
A8ED
331
5B79
  5
A768
331
5B98
  5
A787
331
5B3B
  5
A712
331
5B5A
  5
A749
331
5B05
  5
A83E
331
5AE6
  5
A81F
331
5AC7
  5
A7F2
331
5AB0
  5
A7C8
331
5A72
  5
A924
331
5A53
  5
A905
331
5A3C
  5
A8EE
331
5A1D
  5
A8CF
331
59DF
  5
A885
331
5A91
  5
A795
331
5B24
  5
A6FB
331
5BA8
  5
A600
331
5B99
  5
A788
331
5B5B
  5
A74A
331
5B7A
  5
A769
331
5B06
  5
A83F
331
5AE7
  5
A820
331
5B25
  5
A6FC
331
5AC8
  5
A7F3
331
5A73
  5
A925
331
5A54
  5
A906
331
5A3D
  5
A8EF
331
59E0
  5
A88A
331
5A1E
  5
A8D0
331
5A92
  5
A796
331
5B3C
  5
A713
331
5BA9
  5
A601
331
5BC8
  5
A620
331
5B7B
  5
A76A
331
5B9A
  5
A789
331
5B07
  5
A843
331
5AE8
  5
A821
331
5B26
  5
A6FD
331
5B3D
  5
A714
331
5AC9
  5
A7F4
331
5AB2
  5
A7C9
331
5B5C
  5
A74B
331
5A74
  5
A926
331
5A55
  5
A907
331
5A3E
  5
A8F0
331
5A1F
  5
A8D1
331
59E1
  5
A88B
331
5A93
  5
A797
331
5BE8
  5
A64B
331
5BAA
  5
A602
331
5BC9
  5
A621
331
5B9B
  5
A78A
331
5B5D
  5
A74C
331
5B7C
  5
A76B
331
5AE9
  5
A822
331
5B27
  5
A6FE
331
5AB3
  5
A7D2
331
5ACA
  5
A7F5
331
5A75
  5
A927
331
5A56
  5
A908
331
5A3F
  5
A8F1
331
59E2
  5
A891
331
5A20
  5
A8D2
331
5A94
  5
A798
331
5B3E
  5
A715
331
5C08
  5
A66B
331
5BAB
  5
A603
331
5BCA
  5
A622
331
5BE9
  5
A64C
331
5B7D
  5
A76C
331
5B9C
  5
A78B
331
5AEA
  5
A823
331
5B28
  5
A6FF
331
5B3F
  5
A716
331
5ACB
  5
A7F6
331
5A76
  5
A933
331
5A57
  5
A909
331
5A95
  5
A79F
331
59E3
  5
A892
331
5A21
  5
A8D3
331
5AB4
  5
A7D3
331
5B5E
  5
A74D
331
5BCB
  5
A623
331
5BEA
  5
A64D
331
5BAC
  5
A604
331
5C09
  5
A66C
331
5B9D
  5
A78C
331
5B40
  5
A717
331
5B5F
  5
A74E
331
5AEB
  5
A824
331
5B29
  5
A700
331
5AB5
  5
A7D4
331
5ACC
  5
A7F7
331
5B7E
  5
A76D
331
5A77
  5
A934
331
5A58
  5
A90A
331
5A22
  5
A8D4
331
5A03
  5
A8B5
331
59E4
  5
A893
331
5A96
  5
A7A0
331
5C48
  5
A69D
331
5C0A
  5
A66D
331
5BAD
  5
A605
331
5BCC
  5
A624
331
5BEB
  5
A64E
331
5B7F
  5
A76E
331
5B9E
  5
A78D
331
5B0B
  5
A844
331
5AEC
  5
A825
331
5B2A
  5
A701
331
5B41
  5
A718
331
5ACD
  5
A7F8
331
5A78
  5
A935
331
5A59
  5
A90B
331
5A97
  5
A7A1
331
5A04
  5
A8B6
331
59E5
  5
A894
331
5A23
  5
A8D5
331
5AB6
  5
A7D5
331
5B60
  5
A74F
331
5C68
  5
A6E3
331
5C49
  5
A69E
331
5BCD
  5
A625
331
5BEC
  5
A64F
331
5BAE
  5
A606
331
5C0B
  5
A66E
331
5B9F
  5
A78E
331
5B42
  5
A719
331
5B61
  5
A750
331
5B0C
  5
A845
331
5AED
  5
A826
331
5B2B
  5
A702
331
5AB7
  5
A7D6
331
5A79
  5
A936
331
5A5A
  5
A90C
331
5A24
  5
A8D6
331
5A98
  5
A7A2
331
5A05
  5
A8B7
331
5ACE
  5
A7F9
331
5B80
  5
A76F
331
59E6
  5
A895
331
ABE0
  5
ABE2
331
5C4A
  5
A6A3
331
5BED
  5
A650
331
5C0C
  5
A66F
331
5BAF
  5
A607
331
5BCE
  5
A631
331
5C69
  5
A6E4
331
5B62
  5
A751
331
5B81
  5
A770
331
5B0D
  5
A846
331
5AEE
  5
A827
331
5B2C
  5
A703
331
5B43
  5
A71A
331
5ACF
  5
A7FA
331
5BA0
  5
A78F
331
5A7A
  5
A95E
331
5A5B
  5
A90D
331
5A25
  5
A8D7
331
5A06
  5
A8B8
331
59E7
  5
A89C
331
5A99
  5
A7A3
331
ABE1
  5
ABE3
331
5C6A
  5
A6E5
331
5C4B
  5
A6A4
331
5BCF
  5
A632
331
5BEE
  5
A651
331
5BB0
  5
A608
331
5C0D
  5
A670
331
5BA1
  5
A790
331
5B44
  5
A71B
331
5B63
  5
A752
331
5B0E
  5
A847
331
5AEF
  5
A828
331
5B2D
  5
A704
331
5A7B
  5
A95F
331
5A5C
  5
A90E
331
5A26
  5
A8D8
331
5A9A
  5
A7A4
331
5A07
  5
A8B9
331
5AD0
  5
A7FB
331
5B82
  5
A771
331
BAB0
  5
BAB1
331
ABE2
  5
ABE4
331
5C4C
  5
A6AA
331
5C6B
  5
A6E6
331
5BEF
  5
A652
331
5C0E
  5
A671
331
5BB1
  5
A609
331
5BD0
  5
A633
331
5C2D
  5
A67E
331
5B64
  5
A753
331
5B83
  5
A772
331
5B0F
  5
A848
331
5AF0
  5
A829
331
5B2E
  5
A705
331
5B45
  5
A71C
331
5A7C
  5
A960
331
5A5D
  5
A90F
331
5A9B
  5
A7A5
331
5A27
  5
A8D9
331
5AD1
  5
A804
331
5BA2
  5
A791
331
BAB1
  5
BAB2
331
ABE3
  5
ABE5
331
5C6C
  5
A6E7
331
5C0F
  5
A672
331
5C2E
  5
A67F
331
5BD1
  5
A634
331
5BF0
  5
A653
331
5C4D
  5
A6AB
331
5B84
  5
A773
331
5BA3
  5
A792
331
5B46
  5
A71D
331
5B65
  5
A754
331
5B10
  5
A849
331
5AF1
  5
A82A
331
5B2F
  5
A706
331
5A7D
  5
A961
331
5A5E
  5
A910
331
5A9C
  5
A7A6
331
5AD2
  5
A805
331
BAB2
  5
BAB5
331
ABE4
  5
BA29
331
5C4E
  5
A6AC
331
5C6D
  5
A6E8
331
5BF1
  5
A654
331
5C10
  5
A673
331
5BB3
  5
A60B
331
5BD2
  5
A635
331
5C2F
  5
A680
331
57D8
  5
AB72
331
5B66
  5
A755
331
5B85
  5
A774
331
5B11
  5
A84A
331
5AF2
  5
A82B
331
5B47
  5
A71E
331
5A7E
  5
A962
331
5A5F
  5
A911
331
5AD3
  5
A806
331
5BA4
  5
A5FC
331
ABE5
  5
BA2A
331
5C6E
  5
A6E9
331
5C11
  5
A674
331
5C30
  5
A681
331
5BD3
  5
A636
331
5BF2
  5
A655
331
5BB4
  5
A60C
331
5C4F
  5
A6B3
331
57F0
  5
AB8A
331
57D9
  5
AB73
331
5B86
  5
A775
331
5BA5
  5
A5FD
331
5B12
  5
A84B
331
5AF3
  5
A82C
331
5B48
  5
A71F
331
5A7F
  5
A963
331
5AD4
  5
A807
331
5B67
  5
A756
331
5C31
  5
A682
331
5C50
  5
A6B4
331
5BF3
  5
A656
331
5C12
  5
A675
331
5BB5
  5
A60D
331
5BD4
  5
A637
331
5C6F
  5
A6EA
331
57F1
  5
ABD4
331
5880
  5
AA25
331
57DA
  5
AB74
331
5BA6
  5
A5FE
331
5B68
  5
A757
331
5B87
  5
A776
331
5B13
  5
A84C
331
5AF4
  5
A82D
331
5B49
  5
A720
331
5AD5
  5
A808
331
BAB5
  5
BAB6
331
5C70
  5
A6EB
331
5C13
  5
A676
331
5C32
  5
A683
331
5BD5
  5
A638
331
5BF4
  5
A657
331
5C51
  5
A6B5
331
58A0
  5
AA45
331
57DB
  5
AB75
331
5881
  5
AA26
331
5B88
  5
A777
331
5BA7
  5
A5FF
331
5B14
  5
A84D
331
5AF5
  5
A82E
331
5B4A
  5
A721
331
5AD6
  5
A809
331
5B69
  5
A758
331
5C33
  5
A684
331
5C52
  5
A6B6
331
5BF5
  5
A658
331
5C14
  5
A677
331
5BD6
  5
A639
331
5C71
  5
A6EC
331
58C0
  5
AA77
331
58A1
  5
AA46
331
57DC
  5
AB76
331
5882
  5
AA27
331
5B6A
  5
A759
331
5B89
  5
A778
331
5B15
  5
A84E
331
5AF6
  5
A82F
331
5AD7
  5
A80A
331
5B4B
  5
A722
331
BA29
  5
BA2B
331
5C53
  5
A6B7
331
5C72
  5
A6ED
331
5C15
  5
A678
331
5C34
  5
A685
331
5BD7
  5
A63A
331
5BF6
  5
A659
331
5BB8
  5
A610
331
58D8
  5
AAAD
331
58C1
  5
AA78
331
58A2
  5
AA47
331
57DD
  5
AB77
331
5883
  5
AA28
331
5B8A
  5
A779
331
5B16
  5
A84F
331
5AF7
  5
A830
331
5B4C
  5
A723
331
5B6B
  5
A75A
331
BA2A
  5
BA2C
331
5C35
  5
A686
331
5C54
  5
A6B8
331
5BF7
  5
A65A
331
5C16
  5
A679
331
5BB9
  5
A611
331
5BD8
  5
A63B
331
5C73
  5
A6EE
331
58F8
  5
AACD
331
58D9
  5
AAAE
331
58C2
  5
AA79
331
58A3
  5
AA48
331
57DE
  5
AB78
331
5884
  5
AA29
331
5B6C
  5
A75B
331
5B8B
  5
A77A
331
5B17
  5
A850
331
5B4D
  5
A724
331
BA2B
  5
BA89
331
5C55
  5
A6B9
331
5C74
  5
A6EF
331
5C17
  5
A67A
331
5C36
  5
A687
331
5BBA
  5
A612
331
5BD9
  5
A63C
331
5BF8
  5
A65B
331
5918
  5
AAED
331
58F9
  5
AACE
331
58DA
  5
AAAF
331
58C3
  5
AA7A
331
57DF
  5
AB79
331
5885
  5
AA2A
331
58A4
  5
AA49
331
5B8C
  5
A77B
331
5B4E
  5
A725
331
5B6D
  5
A75C
331
BA2C
  5
BA8A
331
5C75
  5
A6F0
331
5C37
  5
A688
331
5BF9
  5
A65C
331
5C56
  5
A6BF
331
5BBB
  5
A613
331
5BDA
  5
A63D
331
5919
  5
AAEE
331
5938
  5
A981
331
58FA
  5
AACF
331
58DB
  5
AAB0
331
58A5
  5
AA50
331
58C4
  5
AA7B
331
57E0
  5
AB7A
331
5886
  5
AA2B
331
5B6E
  5
A75D
331
5B8D
  5
A77C
331
5B4F
  5
A73E
331
5C57
  5
A6C0
331
5C38
  5
A689
331
5BBC
  5
A614
331
5BDB
  5
A63E
331
5BFA
  5
A65D
331
5950
  5
A999
331
591A
  5
AAEF
331
5939
  5
A982
331
58FB
  5
AAD0
331
58C5
  5
AA7C
331
58DC
  5
AAB1
331
57E1
  5
AB7B
331
5887
  5
AA2C
331
58A6
  5
AA51
331
5B8E
  5
A77D
331
5B6F
  5
A75E
331
5C39
  5
A68A
331
5C58
  5
A6C1
331
5BDC
  5
A63F
331
5BFB
  5
A65E
331
5BBD
  5
A615
331
5C22
  5
A67C
331
5970
  5
A9B9
331
5951
  5
A99A
331
591B
  5
AAF0
331
593A
  5
A983
331
58DD
  5
AAB2
331
58A7
  5
AA52
331
58C6
  5
AA7D
331
57E2
  5
AB7C
331
5888
  5
AA2D
331
58FC
  5
AAD1
331
5B8F
  5
A77E
331
5C59
  5
A6C2
331
5C3A
  5
A68B
331
5BBE
  5
A616
331
5BDD
  5
A640
331
5BFC
  5
A65F
331
5990
  5
A9D9
331
5971
  5
A9BA
331
5952
  5
A99B
331
591C
  5
AAF1
331
58FD
  5
AAD2
331
58C7
  5
AA7E
331
58DE
  5
AAB3
331
57E3
  5
AB7D
331
5889
  5
AA2E
331
58A8
  5
AA53
331
593B
  5
A984
331
5C3B
  5
A68C
331
5BDE
  5
A641
331
5BFD
  5
A660
331
5BBF
  5
A617
331
5C5A
  5
A6C3
331
59B0
  5
A9F9
331
5991
  5
A9DA
331
5972
  5
A9BB
331
591D
  5
AAF2
331
593C
  5
A985
331
58FE
  5
AAD3
331
58DF
  5
AAB4
331
58A9
  5
AA54
331
58C8
  5
AA8A
331
5953
  5
A99C
331
57E4
  5
AB7E
331
588A
  5
AA2F
331
ABD2
  5
ABD5
331
5C5B
  5
A6C4
331
5BFE
  5
A661
331
5BC0
  5
A618
331
5BDF
  5
A642
331
5C3C
  5
A68D
331
5992
  5
A9DB
331
59B1
  5
A853
331
5973
  5
A9BC
331
5954
  5
A99D
331
591E
  5
AAF3
331
58FF
  5
AAD4
331
58C9
  5
AA8B
331
58E0
  5
AAB5
331
57E5
  5
AB81
331
588B
  5
AA30
331
58AA
  5
AA55
331
593D
  5
A986
331
5C3D
  5
A68E
331
5BE0
  5
A643
331
5BFF
  5
A662
331
5BC1
  5
A619
331
5C5C
  5
A6C5
331
5993
  5
A9DC
331
59B2
  5
A854
331
5974
  5
A9BD
331
591F
  5
AAF4
331
593E
  5
A987
331
5900
  5
AAD5
331
58E1
  5
AAB6
331
58AB
  5
AA56
331
588C
  5
AA31
331
586D
  5
A9FA
331
58CA
  5
AA97
331
5955
  5
A99E
331
ABD4
  5
ABD6
331
5C5D
  5
A6C6
331
5C00
  5
A663
331
5BC2
  5
A61A
331
5BE1
  5
A644
331
5C3E
  5
A68F
331
5994
  5
A9DD
331
59B3
  5
A855
331
5975
  5
A9BE
331
5920
  5
AAF5
331
593F
  5
A988
331
5956
  5
A99F
331
5901
  5
AAD6
331
58CB
  5
AA98
331
58E2
  5
AAB7
331
588D
  5
AA32
331
586E
  5
A9FB
331
58AC
  5
AA57
331
ABD5
  5
ABD7
331
5C3F
  5
A690
331
5BE2
  5
A645
331
5C01
  5
A664
331
5BC3
  5
A61B
331
5C5E
  5
A6C7
331
5995
  5
A9DE
331
59B4
  5
A856
331
5976
  5
A9BF
331
5921
  5
AAF6
331
5940
  5
A989
331
5902
  5
AAD7
331
58E3
  5
AAB8
331
58AD
  5
AA58
331
588E
  5
AA33
331
57E8
  5
AB82
331
57C9
  5
AB63
331
586F
  5
A9FC
331
58CC
  5
AA99
331
5957
  5
A9A0
  0
LAYOUT
  5
21
102
{ACAD_XDICTIONARY
360
BB54
102
}
102
{ACAD_REACTORS
330
1E
102
}
330
1E
100
AcDbPlotSettings
  1

  2

  4

  6

 40
0.0
 41
0.0
 42
0.0
 43
0.0
 44
0.0
 45
0.0
 46
0.0
 47
0.0
 48
0.0
 49
0.0
140
0.0
141
0.0
142
1.0
143
1.0
 70
     0
 72
     0
 73
     0
 74
     0
  7

 75
     0
147
1.0
148
0.0
149
0.0
100
AcDbLayout
  1
Layout1
 70
     0
 71
     1
 10
0.0
 20
0.0
 11
12.0
 21
9.0
 12
0.0
 22
0.0
 32
0.0
 14
1.000000000000000E+20
 24
1.000000000000000E+20
 34
1.000000000000000E+20
 15
-1.000000000000000E+20
 25
-1.000000000000000E+20
 35
-1.000000000000000E+20
146
0.0
 13
0.0
 23
0.0
 33
0.0
 16
1.0
 26
0.0
 36
0.0
 17
0.0
 27
1.0
 37
0.0
 76
     0
330
B
  0
LAYOUT
  5
20
102
{ACAD_XDICTIONARY
360
BB52
102
}
102
{ACAD_REACTORS
330
1E
102
}
330
1E
100
AcDbPlotSettings
  1

  2

  4

  6

 40
0.0
 41
0.0
 42
0.0
 43
0.0
 44
0.0
 45
0.0
 46
0.0
 47
0.0
 48
0.0
 49
0.0
140
0.0
141
0.0
142
1.0
143
1.0
 70
  1024
 72
     0
 73
     0
 74
     0
  7

 75
     0
147
1.0
148
0.0
149
0.0
100
AcDbLayout
  1
Model
 70
     0
 71
     0
 10
0.0
 20
0.0
 11
0.0
 21
0.0
 12
0.0
 22
0.0
 32
0.0
 14
0.0
 24
0.0
 34
0.0
 15
0.0
 25
0.0
 35
0.0
146
0.0
 13
0.0
 23
0.0
 33
0.0
 16
0.0
 26
0.0
 36
0.0
 17
0.0
 27
0.0
 37
0.0
 76
     0
330
A
331
15
  0
MATERIAL
  5
5808
102
{ACAD_XDICTIONARY
360
5809
102
}
102
{ACAD_REACTORS
330
57FF
102
}
330
57FF
100
AcDbMaterial
  1
ByBlock
 72
     0
 43
0.0208333333333333
 43
0.0
 43
0.0
 43
0.0
 43
0.0
 43
0.0208333333333333
 43
0.0
 43
0.0
 43
0.0
 43
0.0
 43
1.0
 43
0.0
 43
0.0
 43
0.0
 43
0.0
 43
1.0
 77
     0
 47
0.0208333333333333
 47
0.0
 47
0.0
 47
0.0
 47
0.0
 47
0.0208333333333333
 47
0.0
 47
0.0
 47
0.0
 47
0.0
 47
1.0
 47
0.0
 47
0.0
 47
0.0
 47
0.0
 47
1.0
171
     0
 49
0.0208333333333333
 49
0.0
 49
0.0
 49
0.0
 49
0.0
 49
0.0208333333333333
 49
0.0
 49
0.0
 49
0.0
 49
0.0
 49
1.0
 49
0.0
 49
0.0
 49
0.0
 49
0.0
 49
1.0
175
     0
142
0.0208333333333333
142
0.0
142
0.0
142
0.0
142
0.0
142
0.0208333333333333
142
0.0
142
0.0
142
0.0
142
0.0
142
1.0
142
0.0
142
0.0
142
0.0
142
0.0
142
1.0
179
     0
144
0.0208333333333333
144
0.0
144
0.0
144
0.0
144
0.0
144
0.0208333333333333
144
0.0
144
0.0
144
0.0
144
0.0
144
1.0
144
0.0
144
0.0
144
0.0
144
0.0
144
1.0
147
0.0208333333333333
147
0.0
147
0.0
147
0.0
147
0.0
147
0.0208333333333333
147
0.0
147
0.0
147
0.0
147
0.0
147
1.0
147
0.0
147
0.0
147
0.0
147
0.0
147
1.0
  0
MATERIAL
  5
5800
102
{ACAD_XDICTIONARY
360
5801
102
}
102
{ACAD_REACTORS
330
57FF
102
}
330
57FF
100
AcDbMaterial
  1
ByLayer
 72
     0
 43
0.0208333333333333
 43
0.0
 43
0.0
 43
0.0
 43
0.0
 43
0.0208333333333333
 43
0.0
 43
0.0
 43
0.0
 43
0.0
 43
1.0
 43
0.0
 43
0.0
 43
0.0
 43
0.0
 43
1.0
 77
     0
 47
0.0208333333333333
 47
0.0
 47
0.0
 47
0.0
 47
0.0
 47
0.0208333333333333
 47
0.0
 47
0.0
 47
0.0
 47
0.0
 47
1.0
 47
0.0
 47
0.0
 47
0.0
 47
0.0
 47
1.0
171
     0
 49
0.0208333333333333
 49
0.0
 49
0.0
 49
0.0
 49
0.0
 49
0.0208333333333333
 49
0.0
 49
0.0
 49
0.0
 49
0.0
 49
1.0
 49
0.0
 49
0.0
 49
0.0
 49
0.0
 49
1.0
175
     0
142
0.0208333333333333
142
0.0
142
0.0
142
0.0
142
0.0
142
0.0208333333333333
142
0.0
142
0.0
142
0.0
142
0.0
142
1.0
142
0.0
142
0.0
142
0.0
142
0.0
142
1.0
179
     0
144
0.0208333333333333
144
0.0
144
0.0
144
0.0
144
0.0
144
0.0208333333333333
144
0.0
144
0.0
144
0.0
144
0.0
144
1.0
144
0.0
144
0.0
144
0.0
144
0.0
144
1.0
147
0.0208333333333333
147
0.0
147
0.0
147
0.0
147
0.0
147
0.0208333333333333
147
0.0
147
0.0
147
0.0
147
0.0
147
1.0
147
0.0
147
0.0
147
0.0
147
0.0
147
1.0
  0
MATERIAL
  5
5810
102
{ACAD_XDICTIONARY
360
5811
102
}
102
{ACAD_REACTORS
330
57FF
102
}
330
57FF
100
AcDbMaterial
  1
Global
 72
     0
 43
0.0208333333333333
 43
0.0
 43
0.0
 43
0.0
 43
0.0
 43
0.0208333333333333
 43
0.0
 43
0.0
 43
0.0
 43
0.0
 43
1.0
 43
0.0
 43
0.0
 43
0.0
 43
0.0
 43
1.0
 77
     0
 47
0.0208333333333333
 47
0.0
 47
0.0
 47
0.0
 47
0.0
 47
0.0208333333333333
 47
0.0
 47
0.0
 47
0.0
 47
0.0
 47
1.0
 47
0.0
 47
0.0
 47
0.0
 47
0.0
 47
1.0
171
     0
 49
0.0208333333333333
 49
0.0
 49
0.0
 49
0.0
 49
0.0
 49
0.0208333333333333
 49
0.0
 49
0.0
 49
0.0
 49
0.0
 49
1.0
 49
0.0
 49
0.0
 49
0.0
 49
0.0
 49
1.0
175
     0
142
0.0208333333333333
142
0.0
142
0.0
142
0.0
142
0.0
142
0.0208333333333333
142
0.0
142
0.0
142
0.0
142
0.0
142
1.0
142
0.0
142
0.0
142
0.0
142
0.0
142
1.0
179
     0
144
0.0208333333333333
144
0.0
144
0.0
144
0.0
144
0.0
144
0.0208333333333333
144
0.0
144
0.0
144
0.0
144
0.0
144
1.0
144
0.0
144
0.0
144
0.0
144
0.0
144
1.0
147
0.0208333333333333
147
0.0
147
0.0
147
0.0
147
0.0
147
0.0208333333333333
147
0.0
147
0.0
147
0.0
147
0.0
147
1.0
147
0.0
147
0.0
147
0.0
147
0.0
147
1.0
  0
MLEADERSTYLE
  5
584F
102
{ACAD_REACTORS
330
584E
102
}
330
584E
100
AcDbMLeaderStyle
170
     2
171
     1
172
     0
 90
        2
 40
0.0
 41
0.0
173
     1
 91
-1056964608
340
11
 92
       -2
290
     1
 42
2.0
291
     1
 43
0.36
  3
Standard
 44
4.0
300

342
17
174
     1
178
     6
175
     1
176
     0
 93
-1056964608
 45
4.0
292
     0
297
     0
 46
4.0
 94
-1056964608
 47
1.0
 49
1.0
140
1.0
293
     1
141
0.0
294
     1
177
     0
142
1.0
295
     0
296
     0
143
0.125
1001
ACAD_MLEADERVER
1070
     2
  0
MLINESTYLE
  5
1C
102
{ACAD_REACTORS
330
1B
102
}
330
1B
100
AcDbMlineStyle
  2
STANDARD
 70
     0
  3

 62
     0
 51
90.0
 52
90.0
 71
     2
 49
0.5
 62
   256
  6
BYLAYER
 49
-0.5
 62
   256
  6
BYLAYER
  0
ACDBPLACEHOLDER
  5
1D
102
{ACAD_REACTORS
330
1F
102
}
330
1F
  0
SCALE
  5
582D
102
{ACAD_REACTORS
330
582C
102
}
330
582C
100
AcDbScale
 70
     0
300
1:1
140
1.0
141
1.0
290
     1
  0
SCALE
  5
582E
102
{ACAD_REACTORS
330
582C
102
}
330
582C
100
AcDbScale
 70
     0
300
1:2
140
1.0
141
2.0
290
     0
  0
SCALE
  5
582F
102
{ACAD_REACTORS
330
582C
102
}
330
582C
100
AcDbScale
 70
     0
300
1:4
140
1.0
141
4.0
290
     0
  0
SCALE
  5
5830
102
{ACAD_REACTORS
330
582C
102
}
330
582C
100
AcDbScale
 70
     0
300
1:5
140
1.0
141
5.0
290
     0
  0
SCALE
  5
5831
102
{ACAD_REACTORS
330
582C
102
}
330
582C
100
AcDbScale
 70
     0
300
1:8
140
1.0
141
8.0
290
     0
  0
SCALE
  5
5832
102
{ACAD_REACTORS
330
582C
102
}
330
582C
100
AcDbScale
 70
     0
300
1:10
140
1.0
141
10.0
290
     0
  0
SCALE
  5
5833
102
{ACAD_REACTORS
330
582C
102
}
330
582C
100
AcDbScale
 70
     0
300
1:16
140
1.0
141
16.0
290
     0
  0
SCALE
  5
5834
102
{ACAD_REACTORS
330
582C
102
}
330
582C
100
AcDbScale
 70
     0
300
1:20
140
1.0
141
20.0
290
     0
  0
SCALE
  5
5835
102
{ACAD_REACTORS
330
582C
102
}
330
582C
100
AcDbScale
 70
     0
300
1:30
140
1.0
141
30.0
290
     0
  0
SCALE
  5
5836
102
{ACAD_REACTORS
330
582C
102
}
330
582C
100
AcDbScale
 70
     0
300
1:40
140
1.0
141
40.0
290
     0
  0
SCALE
  5
5837
102
{ACAD_REACTORS
330
582C
102
}
330
582C
100
AcDbScale
 70
     0
300
1:50
140
1.0
141
50.0
290
     0
  0
SCALE
  5
5838
102
{ACAD_REACTORS
330
582C
102
}
330
582C
100
AcDbScale
 70
     0
300
1:100
140
1.0
141
100.0
290
     0
  0
SCALE
  5
5839
102
{ACAD_REACTORS
330
582C
102
}
330
582C
100
AcDbScale
 70
     0
300
2:1
140
2.0
141
1.0
290
     0
  0
SCALE
  5
583A
102
{ACAD_REACTORS
330
582C
102
}
330
582C
100
AcDbScale
 70
     0
300
4:1
140
4.0
141
1.0
290
     0
  0
SCALE
  5
583B
102
{ACAD_REACTORS
330
582C
102
}
330
582C
100
AcDbScale
 70
     0
300
8:1
140
8.0
141
1.0
290
     0
  0
SCALE
  5
583C
102
{ACAD_REACTORS
330
582C
102
}
330
582C
100
AcDbScale
 70
     0
300
10:1
140
10.0
141
1.0
290
     0
  0
SCALE
  5
583D
102
{ACAD_REACTORS
330
582C
102
}
330
582C
100
AcDbScale
 70
     0
300
100:1
140
100.0
141
1.0
290
     0
  0
SCALE
  5
583E
102
{ACAD_REACTORS
330
582C
102
}
330
582C
100
AcDbScale
 70
     0
300
1/128" = 1'-0"
140
0.0078125
141
12.0
290
     0
  0
SCALE
  5
583F
102
{ACAD_REACTORS
330
582C
102
}
330
582C
100
AcDbScale
 70
     0
300
1/64" = 1'-0"
140
0.015625
141
12.0
290
     0
  0
SCALE
  5
5840
102
{ACAD_REACTORS
330
582C
102
}
330
582C
100
AcDbScale
 70
     0
300
1/32" = 1'-0"
140
0.03125
141
12.0
290
     0
  0
SCALE
  5
5841
102
{ACAD_REACTORS
330
582C
102
}
330
582C
100
AcDbScale
 70
     0
300
1/16" = 1'-0"
140
0.0625
141
12.0
290
     0
  0
SCALE
  5
5842
102
{ACAD_REACTORS
330
582C
102
}
330
582C
100
AcDbScale
 70
     0
300
3/32" = 1'-0"
140
0.09375
141
12.0
290
     0
  0
SCALE
  5
5843
102
{ACAD_REACTORS
330
582C
102
}
330
582C
100
AcDbScale
 70
     0
300
1/8" = 1'-0"
140
0.125
141
12.0
290
     0
  0
SCALE
  5
5844
102
{ACAD_REACTORS
330
582C
102
}
330
582C
100
AcDbScale
 70
     0
300
3/16" = 1'-0"
140
0.1875
141
12.0
290
     0
  0
SCALE
  5
5845
102
{ACAD_REACTORS
330
582C
102
}
330
582C
100
AcDbScale
 70
     0
300
1/4" = 1'-0"
140
0.25
141
12.0
290
     0
  0
SCALE
  5
5846
102
{ACAD_REACTORS
330
582C
102
}
330
582C
100
AcDbScale
 70
     0
300
3/8" = 1'-0"
140
0.375
141
12.0
290
     0
  0
SCALE
  5
5847
102
{ACAD_REACTORS
330
582C
102
}
330
582C
100
AcDbScale
 70
     0
300
1/2" = 1'-0"
140
0.5
141
12.0
290
     0
  0
SCALE
  5
5848
102
{ACAD_REACTORS
330
582C
102
}
330
582C
100
AcDbScale
 70
     0
300
3/4" = 1'-0"
140
0.75
141
12.0
290
     0
  0
SCALE
  5
5849
102
{ACAD_REACTORS
330
582C
102
}
330
582C
100
AcDbScale
 70
     0
300
1" = 1'-0"
140
1.0
141
12.0
290
     0
  0
SCALE
  5
584A
102
{ACAD_REACTORS
330
582C
102
}
330
582C
100
AcDbScale
 70
     0
300
1-1/2" = 1'-0"
140
1.5
141
12.0
290
     0
  0
SCALE
  5
584B
102
{ACAD_REACTORS
330
582C
102
}
330
582C
100
AcDbScale
 70
     0
300
3" = 1'-0"
140
3.0
141
12.0
290
     0
  0
SCALE
  5
584C
102
{ACAD_REACTORS
330
582C
102
}
330
582C
100
AcDbScale
 70
     0
300
6" = 1'-0"
140
6.0
141
12.0
290
     0
  0
SCALE
  5
584D
102
{ACAD_REACTORS
330
582C
102
}
330
582C
100
AcDbScale
 70
     0
300
1'-0" = 1'-0"
140
12.0
141
12.0
290
     0
  0
TABLESTYLE
  5
582B
102
{ACAD_XDICTIONARY
360
AB8E
102
}
102
{ACAD_REACTORS
330
582A
102
}
330
582A
100
AcDbTableStyle
  3
Standard
 70
     0
 71
     0
 40
1.5
 41
1.5
280
     0
281
     0
  7
Standard
140
4.5
170
     2
 62
     0
 63
     7
283
     0
274
    -2
284
     1
 64
     0
275
    -2
285
     1
 65
     0
276
    -2
286
     1
 66
     0
277
    -2
287
     1
 67
     0
278
    -2
288
     1
 68
     0
279
    -2
289
     1
 69
     0
  7
Standard
140
6.0
170
     5
 62
     0
 63
     7
283
     0
274
    -2
284
     1
 64
     0
275
    -2
285
     1
 65
     0
276
    -2
286
     1
 66
     0
277
    -2
287
     1
 67
     0
278
    -2
288
     1
 68
     0
279
    -2
289
     1
 69
     0
  7
Standard
140
4.5
170
     5
 62
     0
 63
     7
283
     0
274
    -2
284
     1
 64
     0
275
    -2
285
     1
 65
     0
276
    -2
286
     1
 66
     0
277
    -2
287
     1
 67
     0
278
    -2
288
     1
 68
     0
279
    -2
289
     1
 69
     0
  0
VISUALSTYLE
  5
581E
102
{ACAD_REACTORS
330
5818
102
}
330
5818
100
AcDbVisualStyle
  2
2dWireframe
 70
     4
 71
     0
 72
     2
 73
     0
 90
        0
 40
-0.6
 41
-30.0
 62
     5
 63
     7
 74
     1
 91
        4
 64
     7
 65
   257
 75
     1
175
     1
 42
1.0
 92
        0
 66
   257
 43
1.0
 76
     1
 77
     6
 78
     2
 67
     7
 79
     5
170
     0
171
     0
290
     0
174
     0
 93
        1
 44
0.0
173
     0
291
     0
 45
0.0
1001
ACAD
1000
AcDbSavedByObjectVersion
1070
     0
1000
AcDbSavedByObjectVersion
1070
     0
1000
AcDbSavedByObjectVersion
1070
     0
1000
AcDbSavedByObjectVersion
1070
     0
1000
AcDbSavedByObjectVersion
1070
     0
  0
VISUALSTYLE
  5
5820
102
{ACAD_REACTORS
330
5818
102
}
330
5818
100
AcDbVisualStyle
  2
3D Hidden
 70
     6
 71
     1
 72
     2
 73
     2
 90
        0
 40
-0.6
 41
-30.0
 62
     5
 63
     7
 74
     2
 91
        2
 64
     7
 65
   257
 75
     2
175
     1
 42
40.0
 92
        0
 66
   257
 43
1.0
 76
     1
 77
     6
 78
     2
 67
     7
 79
     3
170
     0
171
     0
290
     0
174
     0
 93
        1
 44
0.0
173
     0
291
     0
 45
0.0
1001
ACAD
1000
AcDbSavedByObjectVersion
1070
     0
1000
AcDbSavedByObjectVersion
1070
     0
1000
AcDbSavedByObjectVersion
1070
     0
1000
AcDbSavedByObjectVersion
1070
     0
1000
AcDbSavedByObjectVersion
1070
     0
  0
VISUALSTYLE
  5
581F
102
{ACAD_REACTORS
330
5818
102
}
330
5818
100
AcDbVisualStyle
  2
3dWireframe
 70
     5
 71
     0
 72
     2
 73
     0
 90
        0
 40
-0.6
 41
-30.0
 62
     5
 63
     7
 74
     1
 91
        4
 64
     7
 65
   257
 75
     1
175
     1
 42
1.0
 92
        0
 66
   257
 43
1.0
 76
     1
 77
     6
 78
     2
 67
     7
 79
     5
170
     0
171
     0
290
     0
174
     0
 93
        1
 44
0.0
173
     0
291
     0
 45
0.0
1001
ACAD
1000
AcDbSavedByObjectVersion
1070
     0
1000
AcDbSavedByObjectVersion
1070
     0
1000
AcDbSavedByObjectVersion
1070
     0
1000
AcDbSavedByObjectVersion
1070
     0
1000
AcDbSavedByObjectVersion
1070
     0
  0
VISUALSTYLE
  5
581D
102
{ACAD_REACTORS
330
5818
102
}
330
5818
100
AcDbVisualStyle
  2
Basic
 70
     7
 71
     1
 72
     0
 73
     1
 90
        0
 40
-0.6
 41
-30.0
 62
     5
 63
     7
 74
     0
 91
        4
 64
     7
 65
   257
 75
     1
175
     1
 42
1.0
 92
        8
 66
     7
 43
1.0
 76
     1
 77
     6
 78
     2
 67
     7
 79
     5
170
     0
171
     0
290
     0
174
     0
 93
        1
 44
0.0
173
     0
291
     1
 45
0.0
1001
ACAD
1000
AcDbSavedByObjectVersion
1070
     0
1000
AcDbSavedByObjectVersion
1070
     0
1000
AcDbSavedByObjectVersion
1070
     0
1000
AcDbSavedByObjectVersion
1070
     0
1000
AcDbSavedByObjectVersion
1070
     0
  0
VISUALSTYLE
  5
5824
102
{ACAD_REACTORS
330
5818
102
}
330
5818
100
AcDbVisualStyle
  2
Brighten
 70
    12
 71
     2
 72
     2
 73
     0
 90
        0
 40
-0.6
 41
-30.0
 62
     5
 63
     7
 74
     1
 91
        4
 64
     7
 65
   257
 75
     1
175
     1
 42
1.0
 92
        8
 66
     7
 43
1.0
 76
     1
 77
     6
 78
     2
 67
     7
 79
     5
170
     0
171
     0
290
     0
174
     0
 93
        1
 44
50.0
173
     0
291
     1
 45
0.0
1001
ACAD
1000
AcDbSavedByObjectVersion
1070
     0
1000
AcDbSavedByObjectVersion
1070
     0
1000
AcDbSavedByObjectVersion
1070
     0
1000
AcDbSavedByObjectVersion
1070
     0
1000
AcDbSavedByObjectVersion
1070
     0
  0
VISUALSTYLE
  5
5828
102
{ACAD_REACTORS
330
5818
102
}
330
5818
100
AcDbVisualStyle
  2
ColorChange
 70
    16
 71
     2
 72
     2
 73
     3
 90
        0
 40
-0.6
 41
-30.0
 62
     5
 63
     8
 74
     1
 91
        4
 64
     7
 65
   257
 75
     1
175
     1
 42
1.0
 92
        8
 66
     8
 43
1.0
 76
     1
 77
     6
 78
     2
 67
     7
 79
     5
170
     0
171
     0
290
     0
174
     0
 93
        1
 44
0.0
173
     0
291
     1
 45
0.0
1001
ACAD
1000
AcDbSavedByObjectVersion
1070
     0
1000
AcDbSavedByObjectVersion
1070
     0
1000
AcDbSavedByObjectVersion
1070
     0
1000
AcDbSavedByObjectVersion
1070
     0
1000
AcDbSavedByObjectVersion
1070
     0
  0
VISUALSTYLE
  5
5821
102
{ACAD_REACTORS
330
5818
102
}
330
5818
100
AcDbVisualStyle
  2
Conceptual
 70
     9
 71
     3
 72
     2
 73
     0
 90
        0
 40
-0.6
 41
-30.0
 62
     5
 63
     7
 74
     2
 91
        2
 64
     7
 65
   257
 75
     1
175
     1
 42
40.0
 92
        8
 66
     7
 43
1.0
 76
     1
 77
     6
 78
     2
 67
     7
 79
     3
170
     0
171
     0
290
     0
174
     0
 93
        1
 44
0.0
173
     0
291
     0
 45
0.0
1001
ACAD
1000
AcDbSavedByObjectVersion
1070
     0
1000
AcDbSavedByObjectVersion
1070
     0
1000
AcDbSavedByObjectVersion
1070
     0
1000
AcDbSavedByObjectVersion
1070
     0
1000
AcDbSavedByObjectVersion
1070
     0
  0
VISUALSTYLE
  5
5823
102
{ACAD_REACTORS
330
5818
102
}
330
5818
100
AcDbVisualStyle
  2
Dim
 70
    11
 71
     2
 72
     2
 73
     0
 90
        0
 40
-0.6
 41
-30.0
 62
     5
 63
     7
 74
     1
 91
        4
 64
     7
 65
   257
 75
     1
175
     1
 42
1.0
 92
        8
 66
     7
 43
1.0
 76
     1
 77
     6
 78
     2
 67
     7
 79
     5
170
     0
171
     0
290
     0
174
     0
 93
        1
 44
-50.0
173
     0
291
     1
 45
0.0
1001
ACAD
1000
AcDbSavedByObjectVersion
1070
     0
1000
AcDbSavedByObjectVersion
1070
     0
1000
AcDbSavedByObjectVersion
1070
     0
1000
AcDbSavedByObjectVersion
1070
     0
1000
AcDbSavedByObjectVersion
1070
     0
  0
VISUALSTYLE
  5
5827
102
{ACAD_REACTORS
330
5818
102
}
330
5818
100
AcDbVisualStyle
  2
Facepattern
 70
    15
 71
     2
 72
     2
 73
     0
 90
        0
 40
-0.6
 41
-30.0
 62
     5
 63
     7
 74
     1
 91
        4
 64
     7
 65
   257
 75
     1
175
     1
 42
1.0
 92
        8
 66
     7
 43
1.0
 76
     1
 77
     6
 78
     2
 67
     7
 79
     5
170
     0
171
     0
290
     0
174
     0
 93
        1
 44
0.0
173
     0
291
     1
 45
0.0
1001
ACAD
1000
AcDbSavedByObjectVersion
1070
     0
1000
AcDbSavedByObjectVersion
1070
     0
1000
AcDbSavedByObjectVersion
1070
     0
1000
AcDbSavedByObjectVersion
1070
     0
1000
AcDbSavedByObjectVersion
1070
     0
  0
VISUALSTYLE
  5
5819
102
{ACAD_REACTORS
330
5818
102
}
330
5818
100
AcDbVisualStyle
  2
Flat
 70
     0
 71
     2
 72
     1
 73
     1
 90
        2
 40
-0.6
 41
30.0
 62
     5
 63
     7
 74
     0
 91
        4
 64
     7
 65
   257
 75
     1
175
     1
 42
1.0
 92
        8
 66
     7
 43
1.0
 76
     1
 77
     6
 78
     2
 67
     7
 79
     5
170
     0
171
     0
290
     0
174
     0
 93
       13
 44
0.0
173
     0
291
     1
 45
0.0
1001
ACAD
1000
AcDbSavedByObjectVersion
1070
     0
1000
AcDbSavedByObjectVersion
1070
     0
1000
AcDbSavedByObjectVersion
1070
     0
1000
AcDbSavedByObjectVersion
1070
     0
1000
AcDbSavedByObjectVersion
1070
     0
  0
VISUALSTYLE
  5
581A
102
{ACAD_REACTORS
330
5818
102
}
330
5818
100
AcDbVisualStyle
  2
FlatWithEdges
 70
     1
 71
     2
 72
     1
 73
     1
 90
        2
 40
-0.6
 41
30.0
 62
     5
 63
     7
 74
     1
 91
        4
 64
     7
 65
   257
 75
     1
175
     1
 42
1.0
 92
        0
 66
   257
 43
1.0
 76
     1
 77
     6
 78
     2
 67
     7
 79
     5
170
     0
171
     0
290
     0
174
     0
 93
       13
 44
0.0
173
     0
291
     1
 45
0.0
1001
ACAD
1000
AcDbSavedByObjectVersion
1070
     0
1000
AcDbSavedByObjectVersion
1070
     0
1000
AcDbSavedByObjectVersion
1070
     0
1000
AcDbSavedByObjectVersion
1070
     0
1000
AcDbSavedByObjectVersion
1070
     0
  0
VISUALSTYLE
  5
581B
102
{ACAD_REACTORS
330
5818
102
}
330
5818
100
AcDbVisualStyle
  2
Gouraud
 70
     2
 71
     2
 72
     2
 73
     1
 90
        2
 40
-0.6
 41
30.0
 62
     5
 63
     7
 74
     0
 91
        4
 64
     7
 65
   257
 75
     1
175
     1
 42
1.0
 92
        0
 66
     7
 43
1.0
 76
     1
 77
     6
 78
     2
 67
     7
 79
     5
170
     0
171
     0
290
     0
174
     0
 93
       13
 44
0.0
173
     0
291
     1
 45
0.0
1001
ACAD
1000
AcDbSavedByObjectVersion
1070
     0
1000
AcDbSavedByObjectVersion
1070
     0
1000
AcDbSavedByObjectVersion
1070
     0
1000
AcDbSavedByObjectVersion
1070
     0
1000
AcDbSavedByObjectVersion
1070
     0
  0
VISUALSTYLE
  5
581C
102
{ACAD_REACTORS
330
5818
102
}
330
5818
100
AcDbVisualStyle
  2
GouraudWithEdges
 70
     3
 71
     2
 72
     2
 73
     1
 90
        2
 40
-0.6
 41
30.0
 62
     5
 63
     7
 74
     1
 91
        4
 64
     7
 65
   257
 75
     1
175
     1
 42
1.0
 92
        0
 66
   257
 43
1.0
 76
     1
 77
     6
 78
     2
 67
     7
 79
     5
170
     0
171
     0
290
     0
174
     0
 93
       13
 44
0.0
173
     0
291
     1
 45
0.0
1001
ACAD
1000
AcDbSavedByObjectVersion
1070
     0
1000
AcDbSavedByObjectVersion
1070
     0
1000
AcDbSavedByObjectVersion
1070
     0
1000
AcDbSavedByObjectVersion
1070
     0
1000
AcDbSavedByObjectVersion
1070
     0
  0
VISUALSTYLE
  5
5826
102
{ACAD_REACTORS
330
5818
102
}
330
5818
100
AcDbVisualStyle
  2
Linepattern
 70
    14
 71
     2
 72
     2
 73
     0
 90
        0
 40
-0.6
 41
-30.0
 62
     5
 63
     7
 74
     1
 91
        4
 64
     7
 65
   257
 75
     7
175
     7
 42
1.0
 92
        8
 66
     7
 43
1.0
 76
     1
 77
     6
 78
     2
 67
     7
 79
     5
170
     0
171
     0
290
     0
174
     0
 93
        1
 44
0.0
173
     0
291
     1
 45
0.0
1001
ACAD
1000
AcDbSavedByObjectVersion
1070
     0
1000
AcDbSavedByObjectVersion
1070
     0
1000
AcDbSavedByObjectVersion
1070
     0
1000
AcDbSavedByObjectVersion
1070
     0
1000
AcDbSavedByObjectVersion
1070
     0
  0
VISUALSTYLE
  5
5822
102
{ACAD_REACTORS
330
5818
102
}
330
5818
100
AcDbVisualStyle
  2
Realistic
 70
     8
 71
     2
 72
     2
 73
     0
 90
        0
 40
-0.6
 41
-30.0
 62
     5
 63
     7
 74
     1
 91
        0
 64
     7
 65
   257
 75
     1
175
     1
 42
1.0
 92
        8
 66
     8
 43
1.0
 76
     1
 77
     6
 78
     2
 67
     7
 79
     5
170
     0
171
     0
290
     0
174
     0
 93
       13
 44
0.0
173
     0
291
     0
 45
0.0
1001
ACAD
1000
AcDbSavedByObjectVersion
1070
     0
1000
AcDbSavedByObjectVersion
1070
     0
1000
AcDbSavedByObjectVersion
1070
     0
1000
AcDbSavedByObjectVersion
1070
     0
1000
AcDbSavedByObjectVersion
1070
     0
  0
VISUALSTYLE
  5
5825
102
{ACAD_REACTORS
330
5818
102
}
330
5818
100
AcDbVisualStyle
  2
Thicken
 70
    13
 71
     2
 72
     2
 73
     0
 90
        0
 40
-0.6
 41
-30.0
 62
     5
 63
     7
 74
     1
 91
        4
 64
     7
 65
   257
 75
     1
175
     1
 42
1.0
 92
       12
 66
     7
 43
1.0
 76
     1
 77
     6
 78
     2
 67
     7
 79
     5
170
     0
171
     0
290
     0
174
     0
 93
        1
 44
0.0
173
     0
291
     1
 45
0.0
1001
ACAD
1000
AcDbSavedByObjectVersion
1070
     0
1000
AcDbSavedByObjectVersion
1070
     0
1000
AcDbSavedByObjectVersion
1070
     0
1000
AcDbSavedByObjectVersion
1070
     0
1000
AcDbSavedByObjectVersion
1070
     0
  0
DICTIONARYVAR
  5
AB95
102
{ACAD_REACTORS
330
AB91
102
}
330
AB91
100
DictionaryVariables
280
     0
  1
1:1
  0
DICTIONARYVAR
  5
AB93
102
{ACAD_REACTORS
330
AB91
102
}
330
AB91
100
DictionaryVariables
280
     0
  1
STANDARD
  0
DICTIONARYVAR
  5
AB92
102
{ACAD_REACTORS
330
AB91
102
}
330
AB91
100
DictionaryVariables
280
     0
  1
STANDARD
  0
DICTIONARYVAR
  5
B616
102
{ACAD_REACTORS
330
AB91
102
}
330
AB91
100
DictionaryVariables
280
     0
  1
1
  0
DICTIONARYVAR
  5
B615
102
{ACAD_REACTORS
330
AB91
102
}
330
AB91
100
DictionaryVariables
280
     0
  1
0
  0
DICTIONARYVAR
  5
AB96
102
{ACAD_REACTORS
330
AB91
102
}
330
AB91
100
DictionaryVariables
280
     0
  1
0
  0
DICTIONARYVAR
  5
AB94
102
{ACAD_REACTORS
330
AB91
102
}
330
AB91
100
DictionaryVariables
280
     0
  1
0
  0
DICTIONARYVAR
  5
B614
102
{ACAD_REACTORS
330
AB91
102
}
330
AB91
100
DictionaryVariables
280
     0
  1
127
  0
XRECORD
  5
B60D
102
{ACAD_REACTORS
330
B60C
102
}
330
B60C
100
AcDbXrecord
280
     1
  0
DICTIONARY
  5
BB54
330
21
100
AcDbDictionary
280
     1
281
     1
  3
ACAD_XREC_ROUNDTRIP
360
BB55
  0
DICTIONARY
  5
BB52
330
20
100
AcDbDictionary
280
     1
281
     1
  3
ACAD_XREC_ROUNDTRIP
360
BB53
  0
DICTIONARY
  5
5809
330
5808
100
AcDbDictionary
280
     1
281
     1
  3
ACAD_XREC_ROUNDTRIP
360
B61E
  3
BUMPTILE
360
580B
  3
DIFFUSETILE
360
580A
  3
OPACITYTILE
360
580E
  3
REFLECTIONTILE
360
580D
  3
REFRACTIONTILE
360
580F
  3
SPECULARTILE
360
580C
  0
DICTIONARY
  5
5801
330
5800
100
AcDbDictionary
280
     1
281
     1
  3
ACAD_XREC_ROUNDTRIP
360
B61D
  3
BUMPTILE
360
5803
  3
DIFFUSETILE
360
5802
  3
OPACITYTILE
360
5806
  3
REFLECTIONTILE
360
5805
  3
REFRACTIONTILE
360
5807
  3
SPECULARTILE
360
5804
  0
DICTIONARY
  5
5811
330
5810
100
AcDbDictionary
280
     1
281
     1
  3
ACAD_XREC_ROUNDTRIP
360
B61F
  3
BUMPTILE
360
5813
  3
DIFFUSETILE
360
5812
  3
OPACITYTILE
360
5816
  3
REFLECTIONTILE
360
5815
  3
REFRACTIONTILE
360
5817
  3
SPECULARTILE
360
5814
  0
DICTIONARY
  5
AB8E
330
582B
100
AcDbDictionary
280
     1
281
     1
  3
ACAD_ROUNDTRIP_2008_TABLESTYLE_CELLSTYLEMAP
360
BB50
  3
ACAD_XREC_ROUNDTRIP
360
BB56
  0
XRECORD
  5
BB55
102
{ACAD_REACTORS
330
BB54
102
}
330
BB54
100
AcDbXrecord
280
     1
102
SHADEPLOT
 70
     0
102
SHADEPLOTRESLEVEL
 70
     2
102
SHADEPLOTCUSTOMDPI
 70
   300
  0
XRECORD
  5
BB53
102
{ACAD_REACTORS
330
BB52
102
}
330
BB52
100
AcDbXrecord
280
     1
102
SHADEPLOT
 70
     0
102
SHADEPLOTRESLEVEL
 70
     2
102
SHADEPLOTCUSTOMDPI
 70
   300
  0
XRECORD
  5
B61E
102
{ACAD_REACTORS
330
5809
102
}
330
5809
100
AcDbXrecord
280
     1
102
MATERIAL
148
0.0
149
0.0
149
0.0
 93
        0
 94
      127
282
     0
 72
     0
 77
     0
171
     0
175
     0
179
     0
273
     0
  0
XRECORD
  5
580B
102
{ACAD_REACTORS
330
5809
102
}
330
5809
100
AcDbXrecord
280
     1
270
     1
271
     1
  0
XRECORD
  5
580A
102
{ACAD_REACTORS
330
5809
102
}
330
5809
100
AcDbXrecord
280
     1
270
     1
271
     1
  0
XRECORD
  5
580E
102
{ACAD_REACTORS
330
5809
102
}
330
5809
100
AcDbXrecord
280
     1
270
     1
271
     1
  0
XRECORD
  5
580D
102
{ACAD_REACTORS
330
5809
102
}
330
5809
100
AcDbXrecord
280
     1
270
     1
271
     1
  0
XRECORD
  5
580F
102
{ACAD_REACTORS
330
5809
102
}
330
5809
100
AcDbXrecord
280
     1
270
     1
271
     1
  0
XRECORD
  5
580C
102
{ACAD_REACTORS
330
5809
102
}
330
5809
100
AcDbXrecord
280
     1
270
     1
271
     1
  0
XRECORD
  5
B61D
102
{ACAD_REACTORS
330
5801
102
}
330
5801
100
AcDbXrecord
280
     1
102
MATERIAL
148
0.0
149
0.0
149
0.0
 93
        0
 94
      127
282
     0
 72
     0
 77
     0
171
     0
175
     0
179
     0
273
     0
  0
XRECORD
  5
5803
102
{ACAD_REACTORS
330
5801
102
}
330
5801
100
AcDbXrecord
280
     1
270
     1
271
     1
  0
XRECORD
  5
5802
102
{ACAD_REACTORS
330
5801
102
}
330
5801
100
AcDbXrecord
280
     1
270
     1
271
     1
  0
XRECORD
  5
5806
102
{ACAD_REACTORS
330
5801
102
}
330
5801
100
AcDbXrecord
280
     1
270
     1
271
     1
  0
XRECORD
  5
5805
102
{ACAD_REACTORS
330
5801
102
}
330
5801
100
AcDbXrecord
280
     1
270
     1
271
     1
  0
XRECORD
  5
5807
102
{ACAD_REACTORS
330
5801
102
}
330
5801
100
AcDbXrecord
280
     1
270
     1
271
     1
  0
XRECORD
  5
5804
102
{ACAD_REACTORS
330
5801
102
}
330
5801
100
AcDbXrecord
280
     1
270
     1
271
     1
  0
XRECORD
  5
B61F
102
{ACAD_REACTORS
330
5811
102
}
330
5811
100
AcDbXrecord
280
     1
102
MATERIAL
148
0.0
149
0.0
149
0.0
 93
        0
 94
      127
282
     0
 72
     0
 77
     0
171
     0
175
     0
179
     0
273
     0
  0
XRECORD
  5
5813
102
{ACAD_REACTORS
330
5811
102
}
330
5811
100
AcDbXrecord
280
     1
270
     1
271
     1
  0
XRECORD
  5
5812
102
{ACAD_REACTORS
330
5811
102
}
330
5811
100
AcDbXrecord
280
     1
270
     1
271
     1
  0
XRECORD
  5
5816
102
{ACAD_REACTORS
330
5811
102
}
330
5811
100
AcDbXrecord
280
     1
270
     1
271
     1
  0
XRECORD
  5
5815
102
{ACAD_REACTORS
330
5811
102
}
330
5811
100
AcDbXrecord
280
     1
270
     1
271
     1
  0
XRECORD
  5
5817
102
{ACAD_REACTORS
330
5811
102
}
330
5811
100
AcDbXrecord
280
     1
270
     1
271
     1
  0
XRECORD
  5
5814
102
{ACAD_REACTORS
330
5811
102
}
330
5811
100
AcDbXrecord
280
     1
270
     1
271
     1
  0
CELLSTYLEMAP
  5
BB50
102
{ACAD_REACTORS
330
AB8E
102
}
330
AB8E
100
AcDbCellStyleMap
 90
        3
300
CELLSTYLE
  1
TABLEFORMAT_BEGIN
 90
        5
170
     1
 91
        0
 92
    32768
 62
   257
 93
        1
300
CONTENTFORMAT
  1
CONTENTFORMAT_BEGIN
 90
        0
 91
        0
 92
      512
 93
        0
300

 40
0.0
140
1.0
 94
        5
 62
     0
340
17
144
6.0
309
CONTENTFORMAT_END
171
     1
301
MARGIN
  1
CELLMARGIN_BEGIN
 40
1.5
 40
1.5
 40
1.5
 40
1.5
 40
0.18
 40
0.18
309
CELLMARGIN_END
 94
        6
 95
        1
302
GRIDFORMAT
  1
GRIDFORMAT_BEGIN
 90
        0
 91
        1
 62
     0
 92
       -2
340
0
 93
        0
 40
1.125
309
GRIDFORMAT_END
 95
        2
302
GRIDFORMAT
  1
GRIDFORMAT_BEGIN
 90
        0
 91
        1
 62
     0
 92
       -2
340
0
 93
        0
 40
1.125
309
GRIDFORMAT_END
 95
        4
302
GRIDFORMAT
  1
GRIDFORMAT_BEGIN
 90
        0
 91
        1
 62
     0
 92
       -2
340
0
 93
        0
 40
1.125
309
GRIDFORMAT_END
 95
        8
302
GRIDFORMAT
  1
GRIDFORMAT_BEGIN
 90
        0
 91
        1
 62
     0
 92
       -2
340
0
 93
        0
 40
1.125
309
GRIDFORMAT_END
 95
       16
302
GRIDFORMAT
  1
GRIDFORMAT_BEGIN
 90
        0
 91
        1
 62
     0
 92
       -2
340
0
 93
        0
 40
1.125
309
GRIDFORMAT_END
 95
       32
302
GRIDFORMAT
  1
GRIDFORMAT_BEGIN
 90
        0
 91
        1
 62
     0
 92
       -2
340
0
 93
        0
 40
1.125
309
GRIDFORMAT_END
309
TABLEFORMAT_END
  1
CELLSTYLE_BEGIN
 90
        1
 91
        1
300
_TITLE
309
CELLSTYLE_END
300
CELLSTYLE
  1
TABLEFORMAT_BEGIN
 90
        5
170
     1
 91
        0
 92
        0
 62
   257
 93
        1
300
CONTENTFORMAT
  1
CONTENTFORMAT_BEGIN
 90
        0
 91
        0
 92
      512
 93
        0
300

 40
0.0
140
1.0
 94
        5
 62
     0
340
17
144
4.5
309
CONTENTFORMAT_END
171
     1
301
MARGIN
  1
CELLMARGIN_BEGIN
 40
1.5
 40
1.5
 40
1.5
 40
1.5
 40
0.18
 40
0.18
309
CELLMARGIN_END
 94
        6
 95
        1
302
GRIDFORMAT
  1
GRIDFORMAT_BEGIN
 90
        0
 91
        1
 62
     0
 92
       -2
340
0
 93
        0
 40
1.125
309
GRIDFORMAT_END
 95
        2
302
GRIDFORMAT
  1
GRIDFORMAT_BEGIN
 90
        0
 91
        1
 62
     0
 92
       -2
340
0
 93
        0
 40
1.125
309
GRIDFORMAT_END
 95
        4
302
GRIDFORMAT
  1
GRIDFORMAT_BEGIN
 90
        0
 91
        1
 62
     0
 92
       -2
340
0
 93
        0
 40
1.125
309
GRIDFORMAT_END
 95
        8
302
GRIDFORMAT
  1
GRIDFORMAT_BEGIN
 90
        0
 91
        1
 62
     0
 92
       -2
340
0
 93
        0
 40
1.125
309
GRIDFORMAT_END
 95
       16
302
GRIDFORMAT
  1
GRIDFORMAT_BEGIN
 90
        0
 91
        1
 62
     0
 92
       -2
340
0
 93
        0
 40
1.125
309
GRIDFORMAT_END
 95
       32
302
GRIDFORMAT
  1
GRIDFORMAT_BEGIN
 90
        0
 91
        1
 62
     0
 92
       -2
340
0
 93
        0
 40
1.125
309
GRIDFORMAT_END
309
TABLEFORMAT_END
  1
CELLSTYLE_BEGIN
 90
        2
 91
        1
300
_HEADER
309
CELLSTYLE_END
300
CELLSTYLE
  1
TABLEFORMAT_BEGIN
 90
        5
170
     1
 91
        0
 92
        0
 62
   257
 93
        1
300
CONTENTFORMAT
  1
CONTENTFORMAT_BEGIN
 90
        0
 91
        0
 92
      512
 93
        0
300

 40
0.0
140
1.0
 94
        2
 62
     0
340
17
144
4.5
309
CONTENTFORMAT_END
171
     1
301
MARGIN
  1
CELLMARGIN_BEGIN
 40
1.5
 40
1.5
 40
1.5
 40
1.5
 40
0.18
 40
0.18
309
CELLMARGIN_END
 94
        6
 95
        1
302
GRIDFORMAT
  1
GRIDFORMAT_BEGIN
 90
        0
 91
        1
 62
     0
 92
       -2
340
0
 93
        0
 40
1.125
309
GRIDFORMAT_END
 95
        2
302
GRIDFORMAT
  1
GRIDFORMAT_BEGIN
 90
        0
 91
        1
 62
     0
 92
       -2
340
0
 93
        0
 40
1.125
309
GRIDFORMAT_END
 95
        4
302
GRIDFORMAT
  1
GRIDFORMAT_BEGIN
 90
        0
 91
        1
 62
     0
 92
       -2
340
0
 93
        0
 40
1.125
309
GRIDFORMAT_END
 95
        8
302
GRIDFORMAT
  1
GRIDFORMAT_BEGIN
 90
        0
 91
        1
 62
     0
 92
       -2
340
0
 93
        0
 40
1.125
309
GRIDFORMAT_END
 95
       16
302
GRIDFORMAT
  1
GRIDFORMAT_BEGIN
 90
        0
 91
        1
 62
     0
 92
       -2
340
0
 93
        0
 40
1.125
309
GRIDFORMAT_END
 95
       32
302
GRIDFORMAT
  1
GRIDFORMAT_BEGIN
 90
        0
 91
        1
 62
     0
 92
       -2
340
0
 93
        0
 40
1.125
309
GRIDFORMAT_END
309
TABLEFORMAT_END
  1
CELLSTYLE_BEGIN
 90
        3
 91
        2
300
_DATA
309
CELLSTYLE_END
  0
XRECORD
  5
BB56
102
{ACAD_REACTORS
330
AB8E
102
}
330
AB8E
100
AcDbXrecord
280
     1
102
ACAD_ROUNDTRIP_PRE2007_TABLESTYLE
 90
      512
 91
        0
  1

 92
      512
 93
        0
  2

 94
      512
 95
        0
  3

  0
ENDSEC
  0
EOF
