  0
SECTION
  2
HEADER
  9
$ACADVER
  1
AC1015
  9
$ACADMAINTVER
 70
    20
  9
$DWGCODEPAGE
  3
ANSI_1252
  9
$INSBASE
 10
0.0
 20
0.0
 30
0.0
  9
$EXTMIN
 10
-123.6335210026864
 20
-164.3822829019418
 30
-0.0000000000000098
  9
$EXTMAX
 10
104.0461913635445
 20
90.08474180572056
 30
0.0000000000000207
  9
$LIMMIN
 10
-20.0
 20
-575.8499999999997
  9
$LIMMAX
 10
1785.35
 20
579.8499999999997
  9
$ORTHOMODE
 70
     0
  9
$REGENMODE
 70
     1
  9
$FILLMODE
 70
     1
  9
$QTEXTMODE
 70
     0
  9
$MIRRTEXT
 70
     1
  9
$LTSCALE
 40
10.0
  9
$ATTMODE
 70
     1
  9
$TEXTSIZE
 40
0.0
  9
$TRACEWID
 40
0.05
  9
$TEXTSTYLE
  7
Standard
  9
$CLAYER
  8
0
  9
$CELTYPE
  6
Continuous
  9
$CECOLOR
 62
   256
  9
$CELTSCALE
 40
1.0
  9
$DISPSILH
 70
     0
  9
$DIMSCALE
 40
1.0
  9
$DIMASZ
 40
1.25
  9
$DIMEXO
 40
0.0
  9
$DIMDLI
 40
0.38
  9
$DIMRND
 40
0.0
  9
$DIMDLE
 40
0.0
  9
$DIMEXE
 40
0.75
  9
$DIMTP
 40
0.0
  9
$DIMTM
 40
0.0
  9
$DIMTXT
 40
2.5
  9
$DIMCEN
 40
0.09
  9
$DIMTSZ
 40
0.0
  9
$DIMTOL
 70
     0
  9
$DIMLIM
 70
     0
  9
$DIMTIH
 70
     0
  9
$DIMTOH
 70
     0
  9
$DIMSE1
 70
     0
  9
$DIMSE2
 70
     0
  9
$DIMTAD
 70
     1
  9
$DIMZIN
 70
     0
  9
$DIMBLK
  1

  9
$DIMASO
 70
     1
  9
$DIMSHO
 70
     1
  9
$DIMPOST
  1

  9
$DIMAPOST
  1

  9
$DIMALT
 70
     0
  9
$DIMALTD
 70
     2
  9
$DIMALTF
 40
25.4
  9
$DIMLFAC
 40
1.0
  9
$DIMTOFL
 70
     0
  9
$DIMTVP
 40
0.0
  9
$DIMTIX
 70
     0
  9
$DIMSOXD
 70
     0
  9
$DIMSAH
 70
     0
  9
$DIMBLK1
  1

  9
$DIMBLK2
  1

  9
$DIMSTYLE
  2
Standard
  9
$DIMCLRD
 70
     7
  9
$DIMCLRE
 70
     7
  9
$DIMCLRT
 70
     7
  9
$DIMTFAC
 40
0.8
  9
$DIMGAP
 40
1.25
  9
$DIMJUST
 70
     0
  9
$DIMSD1
 70
     0
  9
$DIMSD2
 70
     0
  9
$DIMTOLJ
 70
     1
  9
$DIMTZIN
 70
     0
  9
$DIMALTZ
 70
     0
  9
$DIMALTTZ
 70
     0
  9
$DIMUPT
 70
     0
  9
$DIMDEC
 70
     2
  9
$DIMTDEC
 70
     4
  9
$DIMALTU
 70
     2
  9
$DIMALTTD
 70
     2
  9
$DIMTXSTY
  7
Standard
  9
$DIMAUNIT
 70
     0
  9
$DIMADEC
 70
     0
  9
$DIMALTRND
 40
0.0
  9
$DIMAZIN
 70
     0
  9
$DIMDSEP
 70
     0
  9
$DIMATFIT
 70
     3
  9
$DIMFRAC
 70
     0
  9
$DIMLDRBLK
  1

  9
$DIMLUNIT
 70
     2
  9
$DIMLWD
 70
     0
  9
$DIMLWE
 70
     0
  9
$DIMTMOVE
 70
     0
  9
$LUNITS
 70
     2
  9
$LUPREC
 70
     4
  9
$SKETCHINC
 40
0.1
  9
$FILLETRAD
 40
0.0
  9
$AUNITS
 70
     0
  9
$AUPREC
 70
     0
  9
$MENU
  1
acad
  9
$ELEVATION
 40
0.0
  9
$PELEVATION
 40
0.0
  9
$THICKNESS
 40
0.0
  9
$LIMCHECK
 70
     0
  9
$CHAMFERA
 40
0.0
  9
$CHAMFERB
 40
0.0
  9
$CHAMFERC
 40
0.0
  9
$CHAMFERD
 40
0.0
  9
$SKPOLY
 70
     0
  9
$TDCREATE
 40
2455301.802361111
  9
$TDUCREATE
 40
2455301.719027778
  9
$TDUPDATE
 40
2455303.703690834
  9
$TDUUPDATE
 40
2455303.620357500
  9
$TDINDWG
 40
0.1643268866
  9
$TDUSRTIMER
 40
0.1643267014
  9
$USRTIMER
 70
     1
  9
$ANGBASE
 50
0.0
  9
$ANGDIR
 70
     0
  9
$PDMODE
 70
     0
  9
$PDSIZE
 40
0.0
  9
$PLINEWID
 40
0.0
  9
$SPLFRAME
 70
     0
  9
$SPLINETYPE
 70
     6
  9
$SPLINESEGS
 70
     8
  9
$HANDSEED
  5
B954
  9
$SURFTAB1
 70
     6
  9
$SURFTAB2
 70
     6
  9
$SURFTYPE
 70
     6
  9
$SURFU
 70
     6
  9
$SURFV
 70
     6
  9
$UCSBASE
  2

  9
$UCSNAME
  2

  9
$UCSORG
 10
0.0
 20
0.0
 30
0.0
  9
$UCSXDIR
 10
1.0
 20
0.0
 30
0.0
  9
$UCSYDIR
 10
0.0
 20
1.0
 30
0.0
  9
$UCSORTHOREF
  2

  9
$UCSORTHOVIEW
 70
     0
  9
$UCSORGTOP
 10
0.0
 20
0.0
 30
0.0
  9
$UCSORGBOTTOM
 10
0.0
 20
0.0
 30
0.0
  9
$UCSORGLEFT
 10
0.0
 20
0.0
 30
0.0
  9
$UCSORGRIGHT
 10
0.0
 20
0.0
 30
0.0
  9
$UCSORGFRONT
 10
0.0
 20
0.0
 30
0.0
  9
$UCSORGBACK
 10
0.0
 20
0.0
 30
0.0
  9
$PUCSBASE
  2

  9
$PUCSNAME
  2

  9
$PUCSORG
 10
0.0
 20
0.0
 30
0.0
  9
$PUCSXDIR
 10
1.0
 20
0.0
 30
0.0
  9
$PUCSYDIR
 10
0.0
 20
1.0
 30
0.0
  9
$PUCSORTHOREF
  2

  9
$PUCSORTHOVIEW
 70
     0
  9
$PUCSORGTOP
 10
0.0
 20
0.0
 30
0.0
  9
$PUCSORGBOTTOM
 10
0.0
 20
0.0
 30
0.0
  9
$PUCSORGLEFT
 10
0.0
 20
0.0
 30
0.0
  9
$PUCSORGRIGHT
 10
0.0
 20
0.0
 30
0.0
  9
$PUCSORGFRONT
 10
0.0
 20
0.0
 30
0.0
  9
$PUCSORGBACK
 10
0.0
 20
0.0
 30
0.0
  9
$USERI1
 70
     0
  9
$USERI2
 70
     0
  9
$USERI3
 70
     0
  9
$USERI4
 70
     0
  9
$USERI5
 70
     0
  9
$USERR1
 40
0.0
  9
$USERR2
 40
0.0
  9
$USERR3
 40
0.0
  9
$USERR4
 40
0.0
  9
$USERR5
 40
0.0
  9
$WORLDVIEW
 70
     1
  9
$SHADEDGE
 70
     3
  9
$SHADEDIF
 70
    70
  9
$TILEMODE
 70
     1
  9
$MAXACTVP
 70
    16
  9
$PINSBASE
 10
0.0
 20
0.0
 30
0.0
  9
$PLIMCHECK
 70
     0
  9
$PEXTMIN
 10
1.000000000000000E+20
 20
1.000000000000000E+20
 30
1.000000000000000E+20
  9
$PEXTMAX
 10
-1.000000000000000E+20
 20
-1.000000000000000E+20
 30
-1.000000000000000E+20
  9
$PLIMMIN
 10
0.0
 20
0.0
  9
$PLIMMAX
 10
12.0
 20
9.0
  9
$UNITMODE
 70
     0
  9
$VISRETAIN
 70
     0
  9
$PLINEGEN
 70
     1
  9
$PSLTSCALE
 70
     0
  9
$TREEDEPTH
 70
  3020
  9
$CMLSTYLE
  2
Standard
  9
$CMLJUST
 70
     0
  9
$CMLSCALE
 40
1.0
  9
$PROXYGRAPHICS
 70
     0
  9
$MEASUREMENT
 70
     1
  9
$CELWEIGHT
370
     0
  9
$ENDCAPS
280
     0
  9
$JOINSTYLE
280
     0
  9
$LWDISPLAY
290
     0
  9
$INSUNITS
 70
     0
  9
$HYPERLINKBASE
  1

  9
$STYLESHEET
  1

  9
$XEDIT
290
     1
  9
$CEPSNTYPE
380
     0
  9
$PSTYLEMODE
290
     1
  9
$FINGERPRINTGUID
  2

  9
$VERSIONGUID
  2
{5FFB53B6-5605-44B3-B8AD-BE68F762F6F0}
  9
$EXTNAMES
290
     1
  9
$PSVPSCALE
 40
0.0
  9
$OLESTARTUP
290
     0
  0
ENDSEC
  0
SECTION
  2
CLASSES
  0
CLASS
  1
IMAGE
  2
AcDbRasterImage
  3
ISM
 90
    34943
280
     0
281
     1
  0
CLASS
  1
DICTIONARYVAR
  2
AcDbDictionaryVar
  3
ObjectDBX Classes
 90
        0
280
     0
281
     0
  0
CLASS
  1
RASTERVARIABLES
  2
AcDbRasterVariables
  3
ISM
 90
    32768
280
     0
281
     0
  0
CLASS
  1
IMAGEDEF
  2
AcDbRasterImageDef
  3
ISM
 90
    32768
280
     0
281
     0
  0
CLASS
  1
IMAGEDEF_REACTOR
  2
AcDbRasterImageDefReactor
  3
ISM
 90
    32769
280
     0
281
     0
  0
CLASS
  1
IDBUFFER
  2
AcDbIdBuffer
  3
ObjectDBX Classes
 90
    32768
280
     0
281
     0
  0
CLASS
  1
SPATIAL_FILTER
  2
AcDbSpatialFilter
  3
ObjectDBX Classes
 90
    32768
280
     0
281
     0
  0
CLASS
  1
SORTENTSTABLE
  2
AcDbSortentsTable
  3
ObjectDBX Classes
 90
        0
280
     0
281
     0
  0
CLASS
  1
LAYER_INDEX
  2
AcDbLayerIndex
  3
ObjectDBX Classes
 90
    32768
280
     0
281
     0
  0
CLASS
  1
SPATIAL_INDEX
  2
AcDbSpatialIndex
  3
ObjectDBX Classes
 90
    32768
280
     0
281
     0
  0
CLASS
  1
OBJECT_PTR
  2
CAseDLPNTableRecord
  3
ASE-LPNTableRecord
 90
    32769
280
     0
281
     0
  0
CLASS
  1
LAYOUT
  2
AcDbLayout
  3
ObjectDBX Classes
 90
        0
280
     0
281
     0
  0
CLASS
  1
PLOTSETTINGS
  2
AcDbPlotSettings
  3
ObjectDBX Classes
 90
    32768
280
     0
281
     0
  0
CLASS
  1
ACDBDICTIONARYWDFLT
  2
AcDbDictionaryWithDefault
  3
ObjectDBX Classes
 90
        0
280
     0
281
     0
  0
CLASS
  1
ACDBPLACEHOLDER
  2
AcDbPlaceHolder
  3
ObjectDBX Classes
 90
        0
280
     0
281
     0
  0
CLASS
  1
VBA_PROJECT
  2
AcDbVbaProject
  3
acad
 90
    32768
280
     0
281
     0
  0
CLASS
  1
WIPEOUT
  2
AcDbWipeout
  3
"WipeOut|Product Desc: Object Enabler for WipeOut entity                        |Company: Autodesk, Inc.                        |WEB Address: www.autodesk.com"
 90
    34943
280
     0
281
     1
  0
CLASS
  1
WIPEOUTVARIABLES
  2
AcDbWipeoutVariables
  3
"WipeOut|Product Desc:     WipeOut Dbx Application|Company:          Autodesk, Inc.|WEB Address:      www.autodesk.com"
 90
        0
280
     0
281
     0
  0
CLASS
  1
RTEXT
  2
RText
  3
RText|AutoCAD Express Tool|expresstools@autodesk.com
 90
    35839
280
     0
281
     1
  0
CLASS
  1
ARCALIGNEDTEXT
  2
AcDbArcAlignedText
  3
ATEXT|AutoCAD Express Tool|expresstools@autodesk.com
 90
    32768
280
     0
281
     1
  0
CLASS
  1
MATERIAL
  2
AcDbMaterial
  3
ObjectDBX Classes
 90
     1153
280
     0
281
     0
  0
CLASS
  1
VISUALSTYLE
  2
AcDbVisualStyle
  3
ObjectDBX Classes
 90
     4095
280
     0
281
     0
  0
CLASS
  1
TABLESTYLE
  2
AcDbTableStyle
  3
ObjectDBX Classes
 90
     4095
280
     0
281
     0
  0
CLASS
  1
SCALE
  2
AcDbScale
  3
ObjectDBX Classes
 90
     1153
280
     0
281
     0
  0
CLASS
  1
MLEADERSTYLE
  2
AcDbMLeaderStyle
  3
ACDB_MLEADERSTYLE_CLASS
 90
     4095
280
     0
281
     0
  0
CLASS
  1
CELLSTYLEMAP
  2
AcDbCellStyleMap
  3
ObjectDBX Classes
 90
     1152
280
     0
281
     0
  0
ENDSEC
  0
SECTION
  2
TABLES
  0
TABLE
  2
VPORT
  5
7
330
0
100
AcDbSymbolTable
 70
     1
  0
VPORT
  5
15
330
7
100
AcDbSymbolTableRecord
100
AcDbViewportTableRecord
  2
*ACTIVE
 70
     0
 10
0.0
 20
0.0
 11
1.0
 21
1.0
 12
-13.43337770311908
 22
-38.25285555121627
 13
0.0
 23
0.0
 14
1.0
 24
1.0
 15
0.0
 25
0.0
 16
0.0
 26
0.0
 36
1.0
 17
0.0
 27
0.0
 37
0.0
 40
287.9071340640867
 41
1.611330698287219
 42
50.0
 43
0.0
 44
0.0
 50
0.0
 51
0.0
 71
     0
 72
   100
 73
     1
 74
     1
 75
     0
 76
     0
 77
     0
 78
     0
281
     0
 65
     0
110
0.0
120
0.0
130
0.0
111
1.0
121
0.0
131
0.0
112
0.0
122
1.0
132
0.0
 79
     0
146
0.0
  0
ENDTAB
  0
TABLE
  2
LTYPE
  5
4
330
0
100
AcDbSymbolTable
 70
     3
  0
LTYPE
  5
11
330
4
100
AcDbSymbolTableRecord
100
AcDbLinetypeTableRecord
  2
ByBlock
 70
     0
  3

 72
    65
 73
     0
 40
0.0
  0
LTYPE
  5
12
330
4
100
AcDbSymbolTableRecord
100
AcDbLinetypeTableRecord
  2
ByLayer
 70
     0
  3

 72
    65
 73
     0
 40
0.0
  0
LTYPE
  5
13
330
4
100
AcDbSymbolTableRecord
100
AcDbLinetypeTableRecord
  2
Continuous
 70
     0
  3
Solid line
 72
    65
 73
     0
 40
0.0
  0
LTYPE
  5
108
330
4
100
AcDbSymbolTableRecord
100
AcDbLinetypeTableRecord
  2
CENTER
 70
     0
  3
____ _ ____ _ ____ _ ____ _ ____ _ ____ _ ____
 72
    65
 73
     4
 40
2.0
 49
1.25
 74
     0
 49
-0.25
 74
     0
 49
0.25
 74
     0
 49
-0.25
 74
     0
  0
ENDTAB
  0
TABLE
  2
LAYER
  5
2
330
0
100
AcDbSymbolTable
 70
     1
  0
LAYER
  5
14
102
{ACAD_XDICTIONARY
360
5858
102
}
330
2
100
AcDbSymbolTableRecord
100
AcDbLayerTableRecord
  2
0
 70
     0
 62
     7
  6
Continuous
370
    -3
390
1D
  0
ENDTAB
  0
TABLE
  2
STYLE
  5
3
330
0
100
AcDbSymbolTable
 70
     1
  0
STYLE
  5
17
330
3
100
AcDbSymbolTableRecord
100
AcDbTextStyleTableRecord
  2
Standard
 70
     0
 40
0.0
 41
1.0
 50
0.0
 71
     0
 42
0.0
  3
I011000D.TTF
  4

1001
ACAD
1000
IsonormD
1071
        0
  0
ENDTAB
  0
TABLE
  2
VIEW
  5
5
330
0
100
AcDbSymbolTable
 70
     0
  0
ENDTAB
  0
TABLE
  2
UCS
  5
6
330
0
100
AcDbSymbolTable
 70
     0
  0
ENDTAB
  0
TABLE
  2
APPID
  5
8
330
0
100
AcDbSymbolTable
 70
     5
  0
APPID
  5
16
330
8
100
AcDbSymbolTableRecord
100
AcDbRegAppTableRecord
  2
ACAD
 70
     0
  0
APPID
  5
26
330
8
100
AcDbSymbolTableRecord
100
AcDbRegAppTableRecord
  2
TopSolid'Draft
 70
     0
  0
APPID
  5
5850
330
8
100
AcDbSymbolTableRecord
100
AcDbRegAppTableRecord
  2
ACAD_MLEADERVER
 70
     0
  0
APPID
  5
5856
330
8
100
AcDbSymbolTableRecord
100
AcDbRegAppTableRecord
  2
DCO15
 70
     0
  0
APPID
  5
B62D
330
8
100
AcDbSymbolTableRecord
100
AcDbRegAppTableRecord
  2
ACAD_EXEMPT_FROM_CAD_STANDARDS
 70
     0
  0
ENDTAB
  0
TABLE
  2
DIMSTYLE
  5
9
330
0
100
AcDbSymbolTable
 70
     2
100
AcDbDimStyleTable
 71
     1
340
18
  0
DIMSTYLE
105
18
330
9
100
AcDbSymbolTableRecord
100
AcDbDimStyleTableRecord
  2
Standard
 70
     0
 41
1.25
 42
0.0
 44
0.75
 73
     0
 74
     0
 77
     1
140
2.5
146
0.8
147
1.25
176
     7
177
     7
178
     7
271
     2
340
17
  0
ENDTAB
  0
TABLE
  2
BLOCK_RECORD
  5
1
330
0
100
AcDbSymbolTable
 70
     2
  0
BLOCK_RECORD
  5
A
102
{ACAD_XDICTIONARY
360
5864
102
}
330
1
100
AcDbSymbolTableRecord
100
AcDbBlockTableRecord
  2
*MODEL_SPACE
340
20
  0
BLOCK_RECORD
  5
B
330
1
100
AcDbSymbolTableRecord
100
AcDbBlockTableRecord
  2
*PAPER_SPACE
340
21
  0
ENDTAB
  0
ENDSEC
  0
SECTION
  2
BLOCKS
  0
BLOCK
  5
D
330
A
100
AcDbEntity
  8
0
100
AcDbBlockBegin
  2
*MODEL_SPACE
 70
     0
 10
0.0
 20
0.0
 30
0.0
  3
*MODEL_SPACE
  1

  0
ENDBLK
  5
E
330
A
100
AcDbEntity
  8
0
100
AcDbBlockEnd
  0
BLOCK
  5
F
330
B
100
AcDbEntity
 67
     1
  8
0
100
AcDbBlockBegin
  2
*PAPER_SPACE
 70
     0
 10
0.0
 20
0.0
 30
0.0
  3
*PAPER_SPACE
  1

  0
ENDBLK
  5
10
330
B
100
AcDbEntity
 67
     1
  8
0
100
AcDbBlockEnd
  0
ENDSEC
  0
SECTION
  2
ENTITIES
  0
LINE
  5
3570
330
A
100
AcDbEntity
  8
0
  6
CENTER
 62
     1
100
AcDbLine
 10
-8.000000000000312
 20
0.0000000000000142
 30
0.0
 11
8.000000000000397
 21
0.0000000000000142
 31
0.0
  0
LINE
  5
3571
330
A
100
AcDbEntity
  8
0
  6
CENTER
 62
     1
100
AcDbLine
 10
0.0
 20
-8.000000000000341
 30
0.0
 11
0.0
 21
8.000000000000341
 31
0.0
  0
LINE
  5
3572
330
A
100
AcDbEntity
  8
0
  6
CENTER
 62
     1
100
AcDbLine
 10
-8.250000000989672
 20
-49.99999999998085
 30
0.0
 11
8.249999999010412
 21
-49.99999999998085
 31
0.0
  0
LINE
  5
3573
330
A
100
AcDbEntity
  8
0
  6
CENTER
 62
     1
100
AcDbLine
 10
-0.0000000009895871
 20
-58.24999999998086
 30
0.0
 11
-0.0000000009895871
 21
-41.74999999998085
 31
0.0
  0
LINE
  5
3574
330
A
100
AcDbEntity
  8
0
  6
CENTER
 62
     1
100
AcDbLine
 10
-33.01818181754209
 20
65.00000000002287
 30
0.0
 11
-38.46818181754209
 21
65.00000000002287
 31
0.0
  0
LINE
  5
3575
330
A
100
AcDbEntity
  8
0
  6
CENTER
 62
     1
100
AcDbLine
 10
-50.49999999935649
 20
65.0000000000196
 30
0.0
 11
-40.49999999935638
 21
65.0000000000196
 31
0.0
  0
LINE
  5
3576
330
A
100
AcDbEntity
  8
0
  6
CENTER
 62
     1
100
AcDbLine
 10
-25.25000000095929
 20
81.00000000180619
 30
0.0
 11
-17.75000000095929
 21
81.00000000180619
 31
0.0
  0
LINE
  5
3577
330
A
100
AcDbEntity
  8
0
  6
CENTER
 62
     1
100
AcDbLine
 10
-21.50000000095929
 20
77.25000000180618
 30
0.0
 11
-21.50000000095929
 21
84.75000000180619
 31
0.0
  0
LINE
  5
3578
330
A
100
AcDbEntity
  8
0
  6
CENTER
 62
     1
100
AcDbLine
 10
-0.0000000010128076
 20
74.00000000180781
 30
0.0
 11
-0.0000000009463008
 21
68.25000000180782
 31
0.0
  0
LINE
  5
3579
330
A
100
AcDbEntity
  8
0
  6
CENTER
 62
     1
100
AcDbLine
 10
-98.50000000015544
 20
-58.24999999998095
 30
0.0
 11
-98.50000000015544
 21
-41.74999999998094
 31
0.0
  0
LINE
  5
357A
330
A
100
AcDbEntity
  8
0
  6
CENTER
 62
     1
100
AcDbLine
 10
-98.50000000015544
 20
-8.249999999980943
 30
0.0
 11
-98.50000000015544
 21
8.250000000019014
 31
0.0
  0
LINE
  5
357B
330
A
100
AcDbEntity
  8
0
  6
CENTER
 62
     1
100
AcDbLine
 10
-107.5000000019438
 20
-49.99999999998085
 30
0.0
 11
-90.25000000015543
 21
-49.99999999998085
 31
0.0
  0
LINE
  5
357C
330
A
100
AcDbEntity
  8
0
  6
CENTER
 62
     1
100
AcDbLine
 10
-107.5000000019438
 20
0.0000000000001279
 30
0.0
 11
-90.25000000015543
 21
0.0000000000001279
 31
0.0
  0
LINE
  5
357D
330
A
100
AcDbEntity
  8
0
  6
CENTER
 62
     1
100
AcDbLine
 10
-33.0181818175309
 20
-117.4999999999806
 30
0.0
 11
-38.468181817531
 21
-117.4999999999806
 31
0.0
  0
LINE
  5
357E
330
A
100
AcDbEntity
  8
0
  6
CENTER
 62
     1
100
AcDbLine
 10
-50.49999999935649
 20
-117.4999999999808
 30
0.0
 11
-40.49999999935649
 21
-117.4999999999808
 31
0.0
  0
LINE
  5
357F
330
A
100
AcDbEntity
  8
0
  6
CENTER
 62
     1
100
AcDbLine
 10
-26.00000000095839
 20
-133.5000000017667
 30
0.0
 11
-17.00000000095838
 21
-133.5000000017667
 31
0.0
  0
LINE
  5
3580
330
A
100
AcDbEntity
  8
0
  6
CENTER
 62
     1
100
AcDbLine
 10
-21.50000000095838
 20
-138.0000000017667
 30
0.0
 11
-21.50000000095838
 21
-129.0000000017667
 31
0.0
  0
LINE
  5
3581
330
A
100
AcDbEntity
  8
0
  6
CENTER
 62
     1
100
AcDbLine
 10
-0.0000000000370051
 20
-126.5000000017689
 30
0.0
 11
0.000000000016172
 21
-120.7500000017689
 31
0.0
  0
LINE
  5
7916
330
A
100
AcDbEntity
  8
0
  6
Continuous
 62
     7
370
     0
100
AcDbLine
 10
50.73610076482052
 20
-98.41719854252698
 30
0.0
 11
50.73610076482052
 21
-153.919751036364
 31
0.0
  0
ELLIPSE
  5
7917
330
A
100
AcDbEntity
  8
0
  6
Continuous
 62
     7
370
     0
100
AcDbEllipse
 10
51.09387164122032
 20
-98.12507984519097
 30
0.0
 11
0.1599999999999935
 21
0.7838367176906393
 31
0.0
210
0.0
220
0.0
230
1.0
 40
0.4082482904638633
 41
0.4636476090008129
 42
2.034443935795712
  0
LINE
  5
7918
330
A
100
AcDbEntity
  8
0
  6
Continuous
 62
     7
370
     0
100
AcDbLine
 10
62.54253968601521
 20
-88.04698478709944
 30
0.0
 11
51.09387164122032
 21
-97.39478310185097
 31
0.0
  0
ELLIPSE
  5
7919
330
A
100
AcDbEntity
  8
0
  6
Continuous
 62
     7
370
     0
100
AcDbEllipse
 10
62.54253968601521
 20
-91.69846850379924
 30
0.0
 11
0.7999999999999954
 21
3.919183588453085
 31
0.0
210
0.0
220
0.0
230
1.0
 40
0.4082482904638633
 41
5.176036589385496
 42
6.283185307179588
  0
LINE
  5
791A
330
A
100
AcDbEntity
  8
0
  6
Continuous
 62
     7
370
     0
100
AcDbLine
 10
64.33139406801434
 20
-90.96817176042234
 30
0.0
 11
64.33139406801434
 21
-90.23787501711938
 31
0.0
  0
LINE
  5
791B
330
A
100
AcDbEntity
  8
0
  6
Continuous
 62
     7
370
     0
100
AcDbLine
 10
51.09387164122032
 20
-154.357929082368
 30
0.0
 11
55.02935128161539
 21
-151.1446234116748
 31
0.0
  0
ELLIPSE
  5
791C
330
A
100
AcDbEntity
  8
0
  6
Continuous
 62
     7
370
     0
100
AcDbEllipse
 10
51.09387164122032
 20
-153.627632339028
 30
0.0
 11
0.1599999999999935
 21
0.7838367176906113
 31
0.0
210
0.0
220
0.0
230
1.0
 40
0.4082482904638633
 41
2.034443935795712
 42
3.141592653589828
  0
LINE
  5
791D
330
A
100
AcDbEntity
  8
0
  6
Continuous
 62
     9
370
     0
100
AcDbLine
 10
49.30501725922062
 20
-98.12507984519086
 30
0.0
 11
50.02055901202519
 21
-98.27113919385986
 31
0.0
  0
LINE
  5
791E
330
A
100
AcDbEntity
  8
0
  6
Continuous
 62
     9
370
     0
100
AcDbLine
 10
50.02055901202519
 20
-98.27113919385986
 30
0.0
 11
50.73610076482052
 21
-98.41719854252698
 31
0.0
  0
ELLIPSE
  5
791F
330
A
100
AcDbEntity
  8
0
  6
Continuous
 62
     7
370
     0
100
AcDbEllipse
 10
49.66278813562041
 20
-97.83296114785485
 30
0.0
 11
0.1599999999999935
 21
0.7838367176906393
 31
0.0
210
0.0
220
0.0
230
1.0
 40
0.4082482904638633
 41
0.4636476090008129
 42
2.034443935795712
  0
LINE
  5
7920
330
A
100
AcDbEntity
  8
0
  6
Continuous
 62
     9
370
     0
100
AcDbLine
 10
49.66278813562041
 20
-97.10266440451496
 30
0.0
 11
50.37832988842501
 21
-97.24872375318394
 31
0.0
  0
LINE
  5
7921
330
A
100
AcDbEntity
  8
0
  6
Continuous
 62
     9
370
     0
100
AcDbLine
 10
50.37832988842501
 20
-97.24872375318394
 30
0.0
 11
51.09387164122032
 21
-97.39478310185106
 31
0.0
  0
LINE
  5
7922
330
A
100
AcDbEntity
  8
0
  6
Continuous
 62
     9
370
     0
100
AcDbLine
 10
49.30501725922062
 20
-153.6276323390279
 30
0.0
 11
50.02055901202519
 21
-153.7736916876969
 31
0.0
  0
LINE
  5
7923
330
A
100
AcDbEntity
  8
0
  6
Continuous
 62
     9
370
     0
100
AcDbLine
 10
50.02055901202519
 20
-153.7736916876969
 30
0.0
 11
50.73610076482052
 21
-153.919751036364
 31
0.0
  0
LINE
  5
7924
330
A
100
AcDbEntity
  8
0
  6
Continuous
 62
     7
370
     0
100
AcDbLine
 10
49.30501725922062
 20
-98.12507984519086
 30
0.0
 11
49.30501725922062
 21
-153.6276323390279
 31
0.0
  0
LINE
  5
7925
330
A
100
AcDbEntity
  8
0
  6
Continuous
 62
     7
370
     0
100
AcDbLine
 10
61.11145618041533
 20
-87.75486608976338
 30
0.0
 11
49.66278813562041
 21
-97.10266440451484
 31
0.0
  0
LINE
  5
7926
330
A
100
AcDbEntity
  8
0
  6
Continuous
 62
     9
370
     0
100
AcDbLine
 10
61.11145618041533
 20
-87.75486608976338
 30
0.0
 11
61.82699793321981
 21
-87.90092543843245
 31
0.0
  0
LINE
  5
7927
330
A
100
AcDbEntity
  8
0
  6
Continuous
 62
     9
370
     0
100
AcDbLine
 10
61.82699793321981
 20
-87.90092543843245
 30
0.0
 11
62.54253968601509
 21
-88.04698478709944
 31
0.0
  0
ELLIPSE
  5
7928
330
A
100
AcDbEntity
  8
0
  6
Continuous
 62
     7
370
     0
100
AcDbEllipse
 10
61.11145618041533
 20
-91.40634980646323
 30
0.0
 11
0.7999999999999954
 21
3.919183588453057
 31
-0.0000000000000003
210
0.0000000000000001
220
0.0000000000000001
230
1.0
 40
0.4082482904638631
 41
0.0000000000000008
 42
0.4636476090008058
  0
ELLIPSE
  5
7929
330
A
100
AcDbEntity
  8
0
  6
Continuous
 62
     7
370
     0
100
AcDbEllipse
 10
62.54253968601521
 20
-91.69846850379924
 30
0.0
 11
0.7999999999999954
 21
3.919183588453085
 31
-0.0000000000000003
210
0.0000000000000001
220
0.0000000000000001
230
1.0
 40
0.4082482904638631
 41
0.0000000000000017
 42
0.4636476090008034
  0
ELLIPSE
  5
792A
330
A
100
AcDbEntity
  8
0
  6
Continuous
 62
     7
370
     0
100
AcDbEllipse
 10
51.09387164122032
 20
-153.627632339028
 30
0.0
 11
0.1599999999999935
 21
0.7838367176906113
 31
0.0
210
0.0
220
0.0
230
1.0
 40
0.4082482904638633
 41
3.141592653589828
 42
3.605240262590605
  0
ELLIPSE
  5
792B
330
A
100
AcDbEntity
  8
0
  6
Continuous
 62
     7
370
     0
100
AcDbEllipse
 10
49.66278813562041
 20
-153.3355136416919
 30
0.0
 11
0.1599999999999935
 21
0.7838367176906113
 31
0.0
210
0.0
220
0.0
230
1.0
 40
0.4082482904638633
 41
2.034443935795712
 42
3.141592653589828
  0
LINE
  5
792C
330
A
100
AcDbEntity
  8
0
  6
Continuous
 62
     9
370
     0
100
AcDbLine
 10
56.10266391083849
 20
-98.41719854249713
 30
0.0
 11
55.3871221580155
 21
-98.27113919382433
 31
0.0
  0
LINE
  5
792D
330
A
100
AcDbEntity
  8
0
  6
Continuous
 62
     9
370
     0
100
AcDbLine
 10
56.1026639108185
 20
-99.51264365750375
 30
0.0
 11
55.74489303442007
 21
-99.43961398317005
 31
0.0
  0
LINE
  5
792E
330
A
100
AcDbEntity
  8
0
  6
Continuous
 62
     9
370
     0
100
AcDbLine
 10
55.74489303442007
 20
-99.43961398317005
 30
0.0
 11
55.02935128161539
 21
-99.29355463450104
 31
0.0
  0
ELLIPSE
  5
792F
330
A
100
AcDbEntity
  8
0
  6
Continuous
 62
     7
370
     0
100
AcDbEllipse
 10
55.3871221580155
 20
-99.00143593716483
 30
0.0
 11
-0.1599999999999935
 21
-0.7838367176906113
 31
0.0
210
0.0
220
0.0
230
1.0
 40
0.4082482904638633
 41
3.605240262590606
 42
5.176036589385493
  0
LINE
  5
7930
330
A
100
AcDbEntity
  8
0
  6
Continuous
 62
     9
370
     0
100
AcDbLine
 10
56.1026639108185
 20
-155.0151961513815
 30
0.0
 11
55.74489303442007
 21
-154.9421664770478
 31
0.0
  0
LINE
  5
7931
330
A
100
AcDbEntity
  8
0
  6
Continuous
 62
     9
370
     0
100
AcDbLine
 10
55.74489303442007
 20
-154.9421664770478
 30
0.0
 11
55.02935128161539
 21
-154.7961071283789
 31
0.0
  0
LINE
  5
7932
330
A
100
AcDbEntity
  8
0
  6
Continuous
 62
     7
370
     0
100
AcDbLine
 10
55.02935128161539
 20
-154.7961071283787
 30
0.0
 11
55.02935128161539
 21
-99.29355463450104
 31
0.0
  0
LINE
  5
7933
330
A
100
AcDbEntity
  8
0
  6
Continuous
 62
     9
370
     0
100
AcDbLine
 10
67.5513319556417
 20
-89.06940022773872
 30
0.0
 11
66.83579020281872
 21
-88.92334087906595
 31
0.0
  0
LINE
  5
7934
330
A
100
AcDbEntity
  8
0
  6
Continuous
 62
     7
370
     0
100
AcDbLine
 10
55.3871221580155
 20
-98.27113919382433
 30
0.0
 11
66.83579020281872
 21
-88.92334087906595
 31
0.0
  0
ELLIPSE
  5
7935
330
A
100
AcDbEntity
  8
0
  6
Continuous
 62
     7
370
     0
100
AcDbEllipse
 10
66.83579020281872
 20
-92.57482459576841
 30
0.0
 11
-0.7999999999999954
 21
-3.919183588453085
 31
0.0
210
0.0
220
0.0
230
1.0
 40
0.4082482904638633
 41
3.141592653589785
 42
3.605240262590596
  0
ELLIPSE
  5
7936
330
A
100
AcDbEntity
  8
0
  6
Continuous
 62
     7
370
     0
100
AcDbEllipse
 10
55.3871221580155
 20
-154.5039884310425
 30
0.0
 11
-0.1599999999999935
 21
-0.7838367176906113
 31
0.0
210
0.0
220
0.0
230
1.0
 40
0.408248290463863
 41
5.176036589385498
 42
6.2831853071796
  0
LINE
  5
7937
330
A
100
AcDbEntity
  8
0
  6
Continuous
 62
     7
370
     0
100
AcDbLine
 10
46.08507937162531
 20
-154.7961071283678
 30
0.0
 11
48.947246382825
 21
-155.38034452304
 31
0.0
  0
LINE
  5
7938
330
A
100
AcDbEntity
  8
0
  6
Continuous
 62
     7
370
     0
100
AcDbLine
 10
46.08507937162531
 20
-96.37236766116863
 30
0.0
 11
46.08507937162531
 21
-154.796107128368
 31
0.0
  0
LINE
  5
7939
330
A
100
AcDbEntity
  8
0
  6
Continuous
 62
     7
370
     0
100
AcDbLine
 10
46.08507937162531
 20
-96.37236766116863
 30
0.0
 11
48.947246382825
 21
-96.95660505584072
 31
0.0
  0
LINE
  5
793A
330
A
100
AcDbEntity
  8
0
  6
Continuous
 62
     7
370
     0
100
AcDbLine
 10
48.947246382825
 20
-96.95660505584072
 30
0.0
 11
48.947246382825
 21
-155.38034452304
 31
0.0
  0
LINE
  5
793B
330
A
100
AcDbEntity
  8
0
  6
Continuous
 62
     7
370
     0
100
AcDbLine
 10
48.947246382825
 20
-155.38034452304
 30
0.0
 11
50.29387164121982
 21
-154.2808296037698
 31
0.0
  0
LINE
  5
793C
330
A
100
AcDbEntity
  8
0
  6
Continuous
 62
     7
370
     0
100
AcDbLine
 10
61.46922705681991
 20
-86.73245064908085
 30
0.0
 11
48.947246382825
 21
-96.95660505584072
 31
0.0
  0
ELLIPSE
  5
793D
330
A
100
AcDbEntity
  8
0
  6
Continuous
 62
     7
370
     0
100
AcDbEllipse
 10
61.46922705681991
 20
-90.38393436578086
 30
0.0
 11
0.7999999999999954
 21
3.919183588453085
 31
0.0
210
0.0
220
0.0
230
1.0
 40
0.4082482904638633
 41
5.533160329217075
 42
6.283185307179588
  0
LINE
  5
793E
330
A
100
AcDbEntity
  8
0
  6
Continuous
 62
     7
370
     0
100
AcDbLine
 10
58.60706004562018
 20
-86.14821325440873
 30
0.0
 11
46.08507937162531
 21
-96.37236766116863
 31
0.0
  0
LINE
  5
793F
330
A
100
AcDbEntity
  8
0
  6
Continuous
 62
     9
370
     0
100
AcDbLine
 10
61.46922705681991
 20
-86.73245064908085
 30
0.0
 11
58.60706004562018
 21
-86.14821325440873
 31
0.0
  0
ELLIPSE
  5
7940
330
A
100
AcDbEntity
  8
0
  6
Continuous
 62
     7
370
     0
100
AcDbEllipse
 10
61.46922705681991
 20
-90.38393436578086
 30
0.0
 11
0.7999999999999954
 21
3.919183588453085
 31
-0.0000000000000003
210
0.0000000000000001
220
0.0000000000000001
230
1.0
 40
0.4082482904638631
 41
0.0000000000000017
 42
0.4636476090008039
  0
ELLIPSE
  5
7941
330
A
100
AcDbEntity
  8
0
  6
Continuous
 62
     7
370
     0
100
AcDbEllipse
 10
58.60706004562018
 20
-89.79969697110862
 30
0.0
 11
-0.7999999999999954
 21
-3.919183588453057
 31
0.0
210
0.0
220
0.0
230
1.0
 40
0.4082482904638633
 41
3.141592653589796
 42
3.605240262590597
  0
LINE
  5
7942
330
A
100
AcDbEntity
  8
0
  6
Continuous
 62
     7
370
     0
100
AcDbLine
 10
50.02055901202311
 20
-98.27113919384515
 30
0.0
 11
50.02055901202311
 21
-153.7736916876953
 31
0.0
  0
ELLIPSE
  5
7943
330
A
100
AcDbEntity
  8
0
  6
Continuous
 62
     7
370
     0
100
AcDbEllipse
 10
50.37832988842311
 20
-97.97902049650915
 30
0.0
 11
0.1599999999999935
 21
0.7838367176906113
 31
0.0
210
0.0
220
0.0
230
1.0
 40
0.4082482904638633
 41
0.4636476090008161
 42
2.034443935795732
  0
LINE
  5
7944
330
A
100
AcDbEntity
  8
0
  6
Continuous
 62
     7
370
     0
100
AcDbLine
 10
61.82699793322058
 20
-87.90092543841522
 30
0.0
 11
50.37832988842311
 21
-97.24872375316893
 31
0.0
  0
ELLIPSE
  5
7945
330
A
100
AcDbEntity
  8
0
  6
Continuous
 62
     7
370
     0
100
AcDbEllipse
 10
50.37832988842311
 20
-153.4815729903593
 30
0.0
 11
0.1599999999999935
 21
0.7838367176906113
 31
0.0
210
0.0
220
0.0
230
1.0
 40
0.4082482904638633
 41
2.03444393579568
 42
3.141592653589778
  0
LINE
  5
7946
330
A
100
AcDbEntity
  8
0
  6
Continuous
 62
     9
370
     0
100
AcDbLine
 10
49.3050172592232
 20
-98.12507984517715
 30
0.0
 11
50.02055901202311
 21
-98.27113919384515
 31
0.0
  0
ELLIPSE
  5
7947
330
A
100
AcDbEntity
  8
0
  6
Continuous
 62
     7
370
     0
100
AcDbEllipse
 10
49.6627881356232
 20
-97.83296114784103
 30
0.0
 11
0.1599999999999935
 21
0.7838367176906113
 31
0.0
210
0.0
220
0.0
230
1.0
 40
0.4082482904638633
 41
0.4636476090007995
 42
2.0344439357957
  0
LINE
  5
7948
330
A
100
AcDbEntity
  8
0
  6
Continuous
 62
     9
370
     0
100
AcDbLine
 10
49.6627881356232
 20
-97.10266440450098
 30
0.0
 11
50.37832988842311
 21
-97.24872375316893
 31
0.0
  0
LINE
  5
7949
330
A
100
AcDbEntity
  8
0
  6
Continuous
 62
     9
370
     0
100
AcDbLine
 10
49.3050172592232
 20
-153.6276323390273
 30
0.0
 11
50.02055901202311
 21
-153.7736916876953
 31
0.0
  0
LINE
  5
794A
330
A
100
AcDbEntity
  8
0
  6
Continuous
 62
     7
370
     0
100
AcDbLine
 10
49.3050172592232
 20
-98.12507984517715
 30
0.0
 11
49.3050172592232
 21
-153.6276323390273
 31
0.0
  0
LINE
  5
794B
330
A
100
AcDbEntity
  8
0
  6
Continuous
 62
     9
370
     0
100
AcDbLine
 10
61.11145618042067
 20
-87.75486608974713
 30
0.0
 11
61.82699793322058
 21
-87.90092543841522
 31
0.0
  0
LINE
  5
794C
330
A
100
AcDbEntity
  8
0
  6
Continuous
 62
     7
370
     0
100
AcDbLine
 10
61.11145618042067
 20
-87.75486608974713
 30
0.0
 11
49.6627881356232
 21
-97.10266440450098
 31
0.0
  0
ELLIPSE
  5
794D
330
A
100
AcDbEntity
  8
0
  6
Continuous
 62
     7
370
     0
100
AcDbEllipse
 10
61.11145618042067
 20
-91.40634980644795
 30
0.0
 11
0.7999999999999954
 21
3.919183588453085
 31
0.0
210
0.0
220
0.0
230
1.0
 40
0.4082482904638635
 41
0.0000000000000017
 42
0.4636476090008039
  0
ELLIPSE
  5
794E
330
A
100
AcDbEntity
  8
0
  6
Continuous
 62
     7
370
     0
100
AcDbEllipse
 10
61.82699793322058
 20
-91.55240915511596
 30
0.0
 11
0.7999999999999954
 21
3.919183588453085
 31
0.0
210
0.0
220
0.0
230
1.0
 40
0.4082482904638635
 41
6.28318530717958
 42
6.746832916180389
  0
ELLIPSE
  5
794F
330
A
100
AcDbEntity
  8
0
  6
Continuous
 62
     7
370
     0
100
AcDbEllipse
 10
49.6627881356232
 20
-153.3355136416912
 30
0.0
 11
0.1599999999999935
 21
0.7838367176906113
 31
0.0
210
0.0
220
0.0
230
1.0
 40
0.4082482904638633
 41
2.034443935795678
 42
3.141592653589805
  0
LINE
  5
7950
330
A
100
AcDbEntity
  8
0
  6
Continuous
 62
     9
370
     0
100
AcDbLine
 10
55.74489303442007
 20
-99.43961398320515
 30
0.0
 11
56.10266391081839
 21
-99.51264365753887
 31
0.0
  0
ELLIPSE
  5
7951
330
A
100
AcDbEntity
  8
0
  6
Continuous
 62
     7
370
     0
100
AcDbEllipse
 10
56.10266391082013
 20
-99.14749528586915
 30
0.0
 11
0.1599999999999935
 21
0.7838367176906113
 31
0.0
210
0.0
220
0.0
230
1.0
 40
0.40824829046373
 41
0.4636476090009296
 42
2.034443935795577
  0
LINE
  5
7952
330
A
100
AcDbEntity
  8
0
  6
Continuous
 62
     9
370
     0
100
AcDbLine
 10
55.74489303442007
 20
-154.9421664770349
 30
0.0
 11
56.1026639108185
 21
-155.0151961513686
 31
0.0
  0
LINE
  5
7953
330
A
100
AcDbEntity
  8
0
  6
Continuous
 62
     7
370
     0
100
AcDbLine
 10
55.74489303442007
 20
-99.43961398320515
 30
0.0
 11
55.74489303442007
 21
-154.9421664770349
 31
0.0
  0
ELLIPSE
  5
7954
330
A
100
AcDbEntity
  8
0
  6
Continuous
 62
     7
370
     0
100
AcDbEllipse
 10
56.10266391082013
 20
-154.6500477796988
 30
0.0
 11
0.1599999999999935
 21
0.7838367176906113
 31
0.0
210
0.0
220
0.0
230
1.0
 40
0.40824829046373
 41
2.034443935795539
 42
3.141592653589501
  0
LINE
  5
7955
330
A
100
AcDbEntity
  8
0
  6
Continuous
 62
     7
370
     0
100
AcDbLine
 10
70.77126984141742
 20
-97.83296114811363
 30
0.0
 11
97.60408557142183
 21
-103.3101867231666
 31
0.0
  0
ELLIPSE
  5
7956
330
A
100
AcDbEntity
  8
0
  6
Continuous
 62
     7
370
     0
100
AcDbEllipse
 10
97.60408557142183
 20
-106.5965220681985
 30
0.0
 11
-2.276839915321238
 21
2.788548009269336
 31
0.0000000000000001
210
0.0000000000000001
220
0.0
230
1.0
 40
0.8164965809277259
 41
3.926990816987246
 42
5.497787143782145
  0
LINE
  5
7957
330
A
100
AcDbEntity
  8
0
  6
Continuous
 62
     7
370
     0
100
AcDbLine
 10
100.8240234590222
 20
-107.2537891372048
 30
0.0
 11
100.8240234590223
 21
-156.4027599640143
 31
0.0
  0
ELLIPSE
  5
7958
330
A
100
AcDbEntity
  8
0
  6
Continuous
 62
     7
370
     0
100
AcDbEllipse
 10
97.60408557142183
 20
-155.7454928950079
 30
0.0
 11
-2.276839915321238
 21
2.788548009269336
 31
0.0000000000000001
210
0.0000000000000001
220
0.0
230
1.0
 40
0.8164965809277259
 41
3.141592653589796
 42
3.926990816987244
  0
LINE
  5
7959
330
A
100
AcDbEntity
  8
0
  6
Continuous
 62
     9
370
     0
100
AcDbLine
 10
97.96185644782168
 20
-103.0180680258305
 30
0.0
 11
97.60408557142168
 21
-103.3101867231666
 31
0.0
  0
ELLIPSE
  5
795A
330
A
100
AcDbEntity
  8
0
  6
Continuous
 62
     7
370
     0
100
AcDbEllipse
 10
97.96185644782179
 20
-106.3044033708624
 30
0.0
 11
-2.276839915321238
 21
2.788548009269336
 31
0.0000000000000001
210
0.0000000000000001
220
0.0
230
1.0
 40
0.8164965809277259
 41
3.926990816987241
 42
5.497787143782141
  0
LINE
  5
795B
330
A
100
AcDbEntity
  8
0
  6
Continuous
 62
     9
370
     0
100
AcDbLine
 10
101.1817943354223
 20
-106.9616704398688
 30
0.0
 11
100.8240234590222
 21
-107.2537891372048
 31
0.0
  0
LINE
  5
795C
330
A
100
AcDbEntity
  8
0
  6
Continuous
 62
     9
370
     0
100
AcDbLine
 10
101.1817943354223
 20
-156.1106412666782
 30
0.0
 11
100.8240234590223
 21
-156.4027599640143
 31
0.0
  0
LINE
  5
795D
330
A
100
AcDbEntity
  8
0
  6
Continuous
 62
     7
370
     0
100
AcDbLine
 10
101.1817943354223
 20
-106.9616704398688
 30
0.0
 11
101.1817943354223
 21
-156.1106412666782
 31
0.0
  0
LINE
  5
795E
330
A
100
AcDbEntity
  8
0
  6
Continuous
 62
     9
370
     0
100
AcDbLine
 10
71.12904071781741
 20
-97.54084245077756
 30
0.0
 11
70.77126984141742
 21
-97.83296114811363
 31
0.0
  0
LINE
  5
795F
330
A
100
AcDbEntity
  8
0
  6
Continuous
 62
     7
370
     0
100
AcDbLine
 10
71.12904071781741
 20
-97.54084245077756
 30
0.0
 11
97.96185644782168
 21
-103.0180680258305
 31
0.0
  0
ELLIPSE
  5
7960
330
A
100
AcDbEntity
  8
0
  6
Continuous
 62
     7
370
     0
100
AcDbEllipse
 10
71.12904071781741
 20
-100.8271777958094
 30
0.0
 11
-2.276839915321238
 21
2.788548009269336
 31
-0.0000000000000001
210
0.0
220
0.0000000000000001
230
1.0
 40
0.816496580927726
 41
5.497787143782135
 42
6.283185307179585
  0
ELLIPSE
  5
7961
330
A
100
AcDbEntity
  8
0
  6
Continuous
 62
     7
370
     0
100
AcDbEllipse
 10
70.77126984141742
 20
-101.1192964931454
 30
0.0
 11
-2.276839915321238
 21
2.788548009269336
 31
-0.0000000000000001
210
0.0
220
0.0000000000000001
230
1.0
 40
0.816496580927726
 41
5.497787143782135
 42
6.283185307179585
  0
ELLIPSE
  5
7962
330
A
100
AcDbEntity
  8
0
  6
Continuous
 62
     7
370
     0
100
AcDbEllipse
 10
97.96185644782179
 20
-155.4533741976719
 30
0.0
 11
-2.276839915321238
 21
2.788548009269336
 31
0.0000000000000001
210
0.0000000000000001
220
0.0
230
1.0
 40
0.8164965809277259
 41
3.141592653589794
 42
3.926990816987241
  0
LINE
  5
7963
330
A
100
AcDbEntity
  8
0
  6
Continuous
 62
     9
370
     0
100
AcDbLine
 10
100.4662525826219
 20
-107.5459078345411
 30
0.0
 11
100.8240234590224
 21
-107.2537891372045
 31
0.0
  0
LINE
  5
7964
330
A
100
AcDbEntity
  8
0
  6
Continuous
 62
     9
370
     0
100
AcDbLine
 10
100.8240234590224
 20
-107.2537891372045
 30
0.0
 11
101.1817943354221
 21
-106.9616704398687
 31
0.0
  0
ELLIPSE
  5
7965
330
A
100
AcDbEntity
  8
0
  6
Continuous
 62
     7
370
     0
100
AcDbEllipse
 10
97.24631469502211
 20
-106.8886407655349
 30
0.0
 11
2.276839915321238
 21
-2.788548009269336
 31
-0.0000000000000001
210
0.0
220
0.0
230
1.0
 40
0.8164965809280625
 41
0.7853981633972457
 42
2.356194490192551
  0
LINE
  5
7966
330
A
100
AcDbEntity
  8
0
  6
Continuous
 62
     9
370
     0
100
AcDbLine
 10
97.24631469502211
 20
-103.6023054205032
 30
0.0
 11
97.6040855714225
 21
-103.3101867231668
 31
0.0
  0
LINE
  5
7967
330
A
100
AcDbEntity
  8
0
  6
Continuous
 62
     9
370
     0
100
AcDbLine
 10
97.6040855714225
 20
-103.3101867231668
 30
0.0
 11
97.96185644782234
 21
-103.0180680258308
 31
0.0
  0
ELLIPSE
  5
7968
330
A
100
AcDbEntity
  8
0
  6
Continuous
 62
     7
370
     0
100
AcDbEllipse
 10
97.96185644782234
 20
-106.3044033708625
 30
0.0
 11
2.276839915321238
 21
-2.788548009269336
 31
-0.0000000000000001
210
0.0
220
0.0
230
1.0
 40
0.8164965809280625
 41
0.78539816339724
 42
2.356194490192553
  0
ELLIPSE
  5
7969
330
A
100
AcDbEntity
  8
0
  6
Continuous
 62
     7
370
     0
100
AcDbEllipse
 10
70.4134989650247
 20
-101.4114151904834
 30
0.0
 11
2.276839915321238
 21
-2.788548009269336
 31
-0.0000000000000001
210
0.0
220
0.0
230
1.0
 40
0.8164965809280626
 41
2.356194490192549
 42
3.141592653589992
  0
LINE
  5
796A
330
A
100
AcDbEntity
  8
0
  6
Continuous
 62
     7
370
     0
100
AcDbLine
 10
97.24631469502211
 20
-103.6023054205032
 30
0.0
 11
70.4134989650247
 21
-98.12507984545163
 31
0.0
  0
LINE
  5
796B
330
A
100
AcDbEntity
  8
0
  6
Continuous
 62
     7
370
     0
100
AcDbLine
 10
100.4662525826219
 20
-156.6948786613481
 30
0.0
 11
100.4662525826219
 21
-107.5459078345411
 31
0.0
  0
ELLIPSE
  5
796C
330
A
100
AcDbEntity
  8
0
  6
Continuous
 62
     7
370
     0
100
AcDbEllipse
 10
97.2463146950222
 20
-156.0376115923419
 30
0.0
 11
2.276839915321238
 21
-2.788548009269308
 31
-0.0000000000000001
210
0.0
220
0.0
230
1.0
 40
0.8164965809280623
 41
6.22751480001165
 42
6.283185307179607
  0
LINE
  5
796D
330
A
100
AcDbEntity
  8
0
  6
Continuous
 62
     9
370
     0
100
AcDbLine
 10
70.4134989650247
 20
-98.12507984545163
 30
0.0
 11
70.77126984142521
 21
-97.83296114811506
 31
0.0
  0
LINE
  5
796E
330
A
100
AcDbEntity
  8
0
  6
Continuous
 62
     9
370
     0
100
AcDbLine
 10
70.77126984142521
 20
-97.83296114811506
 30
0.0
 11
71.12904071782492
 21
-97.54084245077924
 31
0.0
  0
LINE
  5
796F
330
A
100
AcDbEntity
  8
0
  6
Continuous
 62
     7
370
     0
100
AcDbLine
 10
97.96185644782234
 20
-103.0180680258308
 30
0.0
 11
71.12904071782492
 21
-97.54084245077924
 31
0.0
  0
LINE
  5
7970
330
A
100
AcDbEntity
  8
0
  6
Continuous
 62
     9
370
     0
100
AcDbLine
 10
100.4662525826219
 20
-156.6948786613481
 30
0.0
 11
100.8240234590225
 21
-156.4027599640116
 31
0.0
  0
LINE
  5
7971
330
A
100
AcDbEntity
  8
0
  6
Continuous
 62
     9
370
     0
100
AcDbLine
 10
100.8240234590225
 20
-156.4027599640116
 30
0.0
 11
101.1817943354221
 21
-156.1106412666757
 31
0.0
  0
LINE
  5
7972
330
A
100
AcDbEntity
  8
0
  6
Continuous
 62
     7
370
     0
100
AcDbLine
 10
101.1817943354221
 20
-156.1106412666757
 30
0.0
 11
101.1817943354221
 21
-106.9616704398687
 31
0.0
  0
ELLIPSE
  5
7973
330
A
100
AcDbEntity
  8
0
  6
Continuous
 62
     7
370
     0
100
AcDbEllipse
 10
70.4134989650247
 20
-101.4114151904834
 30
0.0
 11
2.276839915321238
 21
-2.788548009269336
 31
-0.0000000000000001
210
0.0000000000000001
220
0.0
230
1.0
 40
0.8164965809280626
 41
3.14159265358979
 42
3.310987422385723
  0
ELLIPSE
  5
7974
330
A
100
AcDbEntity
  8
0
  6
Continuous
 62
     7
370
     0
100
AcDbEllipse
 10
71.12904071782492
 20
-100.8271777958108
 30
0.0
 11
2.276839915321238
 21
-2.788548009269336
 31
-0.0000000000000001
210
0.0
220
0.0
230
1.0
 40
0.8164965809280626
 41
2.356194490192549
 42
3.141592653589992
  0
ELLIPSE
  5
7975
330
A
100
AcDbEntity
  8
0
  6
Continuous
 62
     7
370
     0
100
AcDbEllipse
 10
97.2463146950222
 20
-156.0376115923419
 30
0.0
 11
2.276839915321238
 21
-2.788548009269308
 31
-0.0000000000000001
210
0.0
220
0.0
230
1.0
 40
0.8164965809280623
 41
6.283185307179584
 42
7.068583470577032
  0
ELLIPSE
  5
7976
330
A
100
AcDbEntity
  8
0
  6
Continuous
 62
     7
370
     0
100
AcDbEllipse
 10
97.9618564478225
 20
-155.4533741976696
 30
0.0
 11
2.276839915321238
 21
-2.788548009269364
 31
-0.0000000000000001
210
0.0
220
0.0
230
1.0
 40
0.8164965809280626
 41
0.0000000000000004
 42
0.7853981633974509
  0
LINE
  5
7977
330
A
100
AcDbEntity
  8
0
  6
Continuous
 62
     9
370
     0
100
AcDbLine
 10
104.0439613466232
 20
-105.2819879302169
 30
0.0
 11
102.6128778410233
 21
-106.4504627195613
 31
0.0
  0
ELLIPSE
  5
7978
330
A
100
AcDbEntity
  8
0
  6
Continuous
 62
     7
370
     0
100
AcDbEllipse
 10
99.0351690770251
 20
-105.7201659762215
 30
0.0
 11
2.529822128134683
 21
-3.098386676965935
 31
-0.0000000000000001
210
0.0000000000000001
220
0.0
230
1.0
 40
0.816496580927726
 41
0.7853981633974476
 42
2.356194490192345
  0
LINE
  5
7979
330
A
100
AcDbEntity
  8
0
  6
Continuous
 62
     9
370
     0
100
AcDbLine
 10
99.0351690770251
 20
-102.0686822595219
 30
0.0
 11
100.466252582625
 21
-100.9002074701775
 31
0.0
  0
ELLIPSE
  5
797A
330
A
100
AcDbEntity
  8
0
  6
Continuous
 62
     7
370
     0
100
AcDbEllipse
 10
100.4662525826251
 20
-104.551691186877
 30
0.0
 11
-2.529822128134683
 21
3.098386676965908
 31
0.0000000000000001
210
0.0000000000000001
220
0.0
230
1.0
 40
0.8164965809277259
 41
3.92699081698724
 42
5.497787143782137
  0
ELLIPSE
  5
797B
330
A
100
AcDbEntity
  8
0
  6
Continuous
 62
     7
370
     0
100
AcDbEllipse
 10
99.0351690770251
 20
-156.840938010015
 30
0.0
 11
2.529822128134683
 21
-3.098386676965935
 31
-0.0000000000000001
210
0.0000000000000001
220
0.0
230
1.0
 40
0.8164965809277257
 41
5.593368217049569
 42
6.283185307179588
  0
LINE
  5
797C
330
A
100
AcDbEntity
  8
0
  6
Continuous
 62
     7
370
     0
100
AcDbLine
 10
66.83579020104201
 20
-98.78234691447334
 30
0.0
 11
66.83579020104201
 21
-95.49601156946263
 31
0.0
  0
LINE
  5
797D
330
A
100
AcDbEntity
  8
0
  6
Continuous
 62
     7
370
     0
100
AcDbLine
 10
66.83579020104201
 20
-95.49601156946263
 30
0.0
 11
99.0351690770251
 21
-102.0686822595219
 31
0.0
  0
LINE
  5
797E
330
A
100
AcDbEntity
  8
0
  6
Continuous
 62
     7
370
     0
100
AcDbLine
 10
102.6128778410233
 20
-106.4504627195613
 30
0.0
 11
102.6128778410233
 21
-157.5712347533549
 31
0.0
  0
ELLIPSE
  5
797F
330
A
100
AcDbEntity
  8
0
  6
Continuous
 62
     7
370
     0
100
AcDbEllipse
 10
70.59238440324
 20
-100.096881052504
 30
0.0
 11
-2.023857702507763
 21
2.478709341572736
 31
0.0000000000000001
210
0.0000000000000001
220
0.0
230
1.0
 40
0.8164965809277259
 41
0.000000000000001
 42
0.5967817772154389
  0
ELLIPSE
  5
7980
330
A
100
AcDbEntity
  8
0
  6
Continuous
 62
     7
370
     0
100
AcDbEllipse
 10
98.85628363882535
 20
-156.621848987013
 30
0.0
 11
-2.023857702507736
 21
2.478709341572736
 31
0.0000000000000001
210
0.0000000000000001
220
0.0
230
1.0
 40
0.8164965809277259
 41
3.141592653589792
 42
3.92699081698724
  0
LINE
  5
7981
330
A
100
AcDbEntity
  8
0
  6
Continuous
 62
     7
370
     0
100
AcDbLine
 10
101.7184506500238
 20
-157.2060863816849
 30
0.0
 11
101.7184506500238
 21
-106.4504627195613
 31
0.0
  0
ELLIPSE
  5
7982
330
A
100
AcDbEntity
  8
0
  6
Continuous
 62
     7
370
     0
100
AcDbEllipse
 10
98.85628363882535
 20
-105.8662253248894
 30
0.0
 11
-2.023857702507791
 21
2.478709341572737
 31
0.0000000000000001
210
0.0000000000000001
220
0.0
230
1.0
 40
0.8164965809277259
 41
3.926990816987243
 42
5.497787143782137
  0
LINE
  5
7983
330
A
100
AcDbEntity
  8
0
  6
Continuous
 62
     7
370
     0
100
AcDbLine
 10
98.85628363882535
 20
-102.9450383515297
 30
0.0
 11
70.59238440324008
 21
-97.17569407914444
 31
0.0
  0
ELLIPSE
  5
7984
330
A
100
AcDbEntity
  8
0
  6
Continuous
 62
     7
370
     0
100
AcDbEllipse
 10
99.03516907702519
 20
-156.475789638345
 30
0.0
 11
2.023857702507791
 21
-2.478709341572737
 31
-0.0000000000000001
210
0.0000000000000001
220
0.0
230
1.0
 40
0.8164965809277255
 41
5.623114974951557
 42
6.238976734571681
  0
LINE
  5
7985
330
A
100
AcDbEntity
  8
0
  6
Continuous
 62
     7
370
     0
100
AcDbLine
 10
66.83579020104201
 20
-95.49601156946263
 30
0.0
 11
67.4973155329007
 21
-94.95587839780297
 31
0.0
  0
ELLIPSE
  5
7986
330
A
100
AcDbEntity
  8
0
  6
Continuous
 62
     7
370
     0
100
AcDbEllipse
 10
69.60851449314009
 20
-97.24872375347885
 30
0.0
 11
6.000000000000004
 21
0.0
 31
0.0000000000000001
210
0.0
220
0.0
230
1.0
 40
0.408248290463688
 41
1.366070259800491
 42
1.930360694919613
  0
LINE
  5
7987
330
A
100
AcDbEntity
  8
0
  6
Continuous
 62
     7
370
     0
100
AcDbLine
 10
70.82830822405501
 20
-94.85038741155285
 30
0.0
 11
100.4662525826251
 21
-100.9002074701774
 31
0.0
  0
LINE
  5
7988
330
A
100
AcDbEntity
  8
0
  6
Continuous
 62
     9
370
     0
100
AcDbLine
 10
102.6128778410233
 20
-157.5712347533549
 30
0.0
 11
104.0439613466232
 21
-156.4027599640105
 31
0.0
  0
LINE
  5
7989
330
A
100
AcDbEntity
  8
0
  6
Continuous
 62
     7
370
     0
100
AcDbLine
 10
104.0439613466232
 20
-156.4027599640105
 30
0.0
 11
104.0439613466232
 21
-105.2819879302169
 31
0.0
  0
ELLIPSE
  5
798A
330
A
100
AcDbEntity
  8
0
  6
Continuous
 62
     7
370
     0
100
AcDbEllipse
 10
70.59238440324
 20
-100.096881052504
 30
0.0
 11
-2.023857702507763
 21
2.478709341572736
 31
0.0000000000000001
210
0.0000000000000001
220
0.0
230
1.0
 40
0.8164965809277259
 41
5.497787143782135
 42
6.283185307179585
  0
ELLIPSE
  5
798B
330
A
100
AcDbEntity
  8
0
  6
Continuous
 62
     7
370
     0
100
AcDbEllipse
 10
70.77126984143998
 20
-99.95082170383607
 30
0.0
 11
2.023857702507763
 21
-2.478709341572736
 31
-0.0000000000000001
210
0.0000000000000001
220
0.0
230
1.0
 40
0.816496580927726
 41
3.185801226342643
 42
3.716990970274653
  0
ELLIPSE
  5
798C
330
A
100
AcDbEntity
  8
0
  6
Continuous
 62
     7
370
     0
100
AcDbEllipse
 10
99.0351690770251
 20
-156.840938010015
 30
0.0
 11
2.529822128134683
 21
-3.098386676965935
 31
0.0000000000000001
210
0.0
220
0.0000000000000001
230
1.0
 40
0.8164965809277264
 41
0.0000000000000018
 42
0.7853981633974497
  0
ELLIPSE
  5
798D
330
A
100
AcDbEntity
  8
0
  6
Continuous
 62
     7
370
     0
100
AcDbEllipse
 10
100.4662525826251
 20
-155.6724632206706
 30
0.0
 11
-2.529822128134683
 21
3.098386676965935
 31
0.0000000000000001
210
0.0000000000000001
220
0.0
230
1.0
 40
0.8164965809277259
 41
3.141592653589794
 42
3.926990816987243
  0
ELLIPSE
  5
798E
330
A
100
AcDbEntity
  8
0
  6
Continuous
 62
     7
370
     0
100
AcDbEllipse
 10
98.85628363882535
 20
-156.621848987013
 30
0.0
 11
-2.023857702507736
 21
2.478709341572736
 31
0.0000000000000001
210
0.0000000000000001
220
0.0
230
1.0
 40
0.8164965809277259
 41
2.544810876369147
 42
3.141592653589792
  0
LINE
  5
798F
330
A
100
AcDbEntity
  8
0
  6
Continuous
 62
     7
370
     0
100
AcDbLine
 10
64.74620332524691
 20
-158.2401447334619
 30
0.0
 11
64.74620332524691
 21
-141.8632402640574
 31
0.0
  0
LINE
  5
7990
330
A
100
AcDbEntity
  8
0
  6
Continuous
 62
     7
370
     0
100
AcDbLine
 10
75.7333226182447
 20
-144.1059765983019
 30
0.0
 11
64.74620332524691
 21
-141.8632402640574
 31
0.0
  0
ELLIPSE
  5
7991
330
A
100
AcDbEntity
  8
0
  6
Continuous
 62
     7
370
     0
100
AcDbEllipse
 10
75.7333226182447
 20
-142.6453831116215
 30
0.0
 11
-1.011928851253895
 21
1.239354670786367
 31
0.0
210
0.0000000000000001
220
0.0
230
1.0
 40
0.8164965809277193
 41
3.1415926535898
 42
3.957123955382348
  0
ELLIPSE
  5
7992
330
A
100
AcDbEntity
  8
0
  6
Continuous
 62
     7
370
     0
100
AcDbEllipse
 10
445.4654540511041
 20
-206.7422666276101
 30
0.0
 11
260.5469080228684
 21
-319.1034893579441
 31
0.0000000000000143
210
0.0
220
0.0000000000000001
230
1.0
 40
0.8164965809277193
 41
3.896857678592146
 42
3.957123955382343
  0
ELLIPSE
  5
7993
330
A
100
AcDbEntity
  8
0
  6
Continuous
 62
     7
370
     0
100
AcDbEllipse
 10
75.7333226182447
 20
-119.8966395565735
 30
0.0
 11
-1.011928851253868
 21
1.239354670786367
 31
0.0
210
0.0000000000000001
220
0.0
230
1.0
 40
0.8164965809277193
 41
3.896857678592138
 42
5.49778714378213
  0
LINE
  5
7994
330
A
100
AcDbEntity
  8
0
  6
Continuous
 62
     7
370
     0
100
AcDbLine
 10
64.74620332524691
 20
-116.1933097356487
 30
0.0
 11
75.7333226182447
 21
-118.4360460698931
 31
0.0
  0
LINE
  5
7995
330
A
100
AcDbEntity
  8
0
  6
Continuous
 62
     7
370
     0
100
AcDbLine
 10
64.74620332524691
 20
-116.1933097356487
 30
0.0
 11
64.74620332524691
 21
-99.81640526624424
 31
0.0
  0
LINE
  5
7996
330
A
100
AcDbEntity
  8
0
  6
Continuous
 62
     7
370
     0
100
AcDbLine
 10
94.38414768382941
 20
-105.8662253248714
 30
0.0
 11
64.74620332524691
 21
-99.81640526624424
 31
0.0
  0
ELLIPSE
  5
7997
330
A
100
AcDbEntity
  8
0
  6
Continuous
 62
     7
370
     0
100
AcDbEllipse
 10
94.38414768382941
 20
-109.5177090415725
 30
0.0
 11
2.529822128134683
 21
-3.098386676965935
 31
0.0
210
0.0000000000000001
220
0.0
230
1.0
 40
0.8164965809277195
 41
0.7853981633974502
 42
2.356194490192337
  0
LINE
  5
7998
330
A
100
AcDbEntity
  8
0
  6
Continuous
 62
     7
370
     0
100
AcDbLine
 10
97.96185644782902
 20
-110.2480057849127
 30
0.0
 11
97.96185644782902
 21
-161.3687778187282
 31
0.0
  0
ELLIPSE
  5
7999
330
A
100
AcDbEntity
  8
0
  6
Continuous
 62
     7
370
     0
100
AcDbEllipse
 10
94.38414768382941
 20
-160.638481075388
 30
0.0
 11
2.529822128134683
 21
-3.098386676965935
 31
0.0
210
0.0000000000000001
220
0.0
230
1.0
 40
0.8164965809277195
 41
5.497787143782132
 42
6.28318530717958
  0
LINE
  5
799A
330
A
100
AcDbEntity
  8
0
  6
Continuous
 62
     7
370
     0
100
AcDbLine
 10
64.74620332524691
 20
-158.2401447334619
 30
0.0
 11
94.38414768382941
 21
-164.2899647920891
 31
0.0
  0
LINE
  5
799B
330
A
100
AcDbEntity
  8
0
  6
Continuous
 62
     9
370
     0
100
AcDbLine
 10
99.39293995342891
 20
-109.0795309955683
 30
0.0
 11
97.96185644782909
 21
-110.2480057849127
 31
0.0
  0
LINE
  5
799C
330
A
100
AcDbEntity
  8
0
  6
Continuous
 62
     9
370
     0
100
AcDbLine
 10
94.38414768382941
 20
-105.8662253248714
 30
0.0
 11
95.8152311894293
 21
-104.697750535527
 31
0.0
  0
ELLIPSE
  5
799D
330
A
100
AcDbEntity
  8
0
  6
Continuous
 62
     7
370
     0
100
AcDbEllipse
 10
95.8152311894293
 20
-108.3492342522282
 30
0.0
 11
-2.529822128134683
 21
3.098386676965935
 31
0.0
210
0.0000000000000001
220
0.0
230
1.0
 40
0.8164965809277193
 41
3.926990816987238
 42
5.497787143782128
  0
ELLIPSE
  5
799E
330
A
100
AcDbEntity
  8
0
  6
Continuous
 62
     7
370
     0
100
AcDbEllipse
 10
68.71408730213198
 20
-97.97902049679713
 30
0.0
 11
6.000000000000004
 21
0.0000000000000278
 31
-0.0000000000000003
210
0.0
220
0.0
230
1.0
 40
0.4082482904638657
 41
3.425529394258006
 42
3.989819829377656
  0
LINE
  5
799F
330
A
100
AcDbEntity
  8
0
  6
Continuous
 62
     7
370
     0
100
AcDbLine
 10
62.95432698157381
 20
-98.66521301712486
 30
0.0
 11
63.61585231343261
 21
-98.12507984546513
 31
0.0
  0
LINE
  5
79A0
330
A
100
AcDbEntity
  8
0
  6
Continuous
 62
     7
370
     0
100
AcDbLine
 10
95.8152311894293
 20
-104.697750535527
 30
0.0
 11
63.6158523134325
 21
-98.12507984546513
 31
0.0
  0
LINE
  5
79A1
330
A
100
AcDbEntity
  8
0
  6
Continuous
 62
     7
370
     0
100
AcDbLine
 10
99.39293995342891
 20
-160.2003030293839
 30
0.0
 11
99.39293995342891
 21
-109.0795309955683
 31
0.0
  0
LINE
  5
79A2
330
A
100
AcDbEntity
  8
0
  6
Continuous
 62
     9
370
     0
100
AcDbLine
 10
97.96185644782902
 20
-161.3687778187282
 30
0.0
 11
99.39293995342891
 21
-160.2003030293839
 31
0.0
  0
ELLIPSE
  5
79A3
330
A
100
AcDbEntity
  8
0
  6
Continuous
 62
     7
370
     0
100
AcDbEllipse
 10
68.71408730213198
 20
-114.3559249662015
 30
0.0
 11
6.000000000000004
 21
0.0000000000000278
 31
-0.0000000000000003
210
0.0
220
0.0
230
1.0
 40
0.4082482904638657
 41
3.425529394258011
 42
3.989819829377658
  0
LINE
  5
79A4
330
A
100
AcDbEntity
  8
0
  6
Continuous
 62
     7
370
     0
100
AcDbLine
 10
62.95432698157381
 20
-98.66521301712486
 30
0.0
 11
62.95432698157381
 21
-115.0421174865293
 31
0.0
  0
ELLIPSE
  5
79A5
330
A
100
AcDbEntity
  8
0
  6
Continuous
 62
     7
370
     0
100
AcDbEllipse
 10
94.38414768382941
 20
-160.638481075388
 30
0.0
 11
2.529822128134683
 21
-3.098386676965935
 31
-0.0000000000000001
210
0.0000000000000001
220
0.0
230
1.0
 40
0.8164965809277195
 41
0.0
 42
0.7853981633974412
  0
ELLIPSE
  5
79A6
330
A
100
AcDbEntity
  8
0
  6
Continuous
 62
     7
370
     0
100
AcDbEllipse
 10
95.8152311894293
 20
-159.4700062860436
 30
0.0
 11
-2.52982212813471
 21
3.098386676965935
 31
0.0
210
0.0000000000000001
220
0.0
230
1.0
 40
0.8164965809277193
 41
3.14159265358979
 42
3.926990816987243
  0
ELLIPSE
  5
79A7
330
A
100
AcDbEntity
  8
0
  6
Continuous
 62
     7
370
     0
100
AcDbEllipse
 10
75.7333226182447
 20
-142.6453831116215
 30
0.0
 11
-1.011928851253895
 21
1.239354670786367
 31
0.0
210
0.0000000000000001
220
0.0
230
1.0
 40
0.8164965809277193
 41
2.35619449019235
 42
3.141592653589797
  0
LINE
  5
79A8
330
A
100
AcDbEntity
  8
0
  6
Continuous
 62
     7
370
     0
100
AcDbLine
 10
77.16425190704132
 20
-142.9589123654093
 30
0.0
 11
76.39831901449167
 21
-143.5842939533961
 31
0.0
  0
LINE
  5
79A9
330
A
100
AcDbEntity
  8
0
  6
Continuous
 62
     9
370
     0
100
AcDbLine
 10
75.7333226182447
 20
-144.1059765983019
 30
0.0
 11
77.16440612384459
 21
-142.9375018089575
 31
0.0
  0
ELLIPSE
  5
79AA
330
A
100
AcDbEntity
  8
0
  6
Continuous
 62
     7
370
     0
100
AcDbEllipse
 10
76.3773101957646
 20
-142.1195694564165
 30
0.0
 11
1.011928851253868
 21
-1.239354670786396
 31
-0.0000000000000001
210
0.0000000000000001
220
0.0
230
1.0
 40
0.8164965809277246
 41
5.512468029509641
 42
5.959357168603887
  0
ELLIPSE
  5
79AB
330
A
100
AcDbEntity
  8
0
  6
Continuous
 62
     7
370
     0
100
AcDbEllipse
 10
68.71408730213198
 20
-140.0258554946104
 30
0.0
 11
-6.000000000000004
 21
0.0
 31
0.0000000000000004
210
0.0000000000000001
220
0.0
230
1.0
 40
0.408248290463863
 41
0.3793892392071143
 42
0.8482271757878695
  0
LINE
  5
79AC
330
A
100
AcDbEntity
  8
0
  6
Continuous
 62
     7
370
     0
100
AcDbLine
 10
62.95432698157381
 20
-140.8949802231361
 30
0.0
 11
62.95432698157381
 21
-157.0889524843425
 31
0.0
  0
ELLIPSE
  5
79AD
330
A
100
AcDbEntity
  8
0
  6
Continuous
 62
     7
370
     0
100
AcDbEllipse
 10
68.71408730213198
 20
-156.4027599640148
 30
0.0
 11
-6.000000000000004
 21
0.0
 31
0.0
210
0.0
220
0.0
230
1.0
 40
0.4082482904638631
 41
0.2839367406682233
 42
0.8482271757878702
  0
ELLIPSE
  5
79AE
330
A
100
AcDbEntity
  8
0
  6
Continuous
 62
     7
370
     0
100
AcDbEllipse
 10
72.91789510210861
 20
-115.9078055451106
 30
0.0
 11
4.599999999999992
 21
0.0
 31
0.0
210
0.0
220
0.0
230
1.0
 40
0.4082482904638628
 41
3.873542556680055
 42
4.623940186087708
  0
ELLIPSE
  5
79AF
330
A
100
AcDbEntity
  8
0
  6
Continuous
 62
     7
370
     0
100
AcDbEllipse
 10
60.3959144276181
 20
-115.9078055455117
 30
0.0
 11
-0.505964425626948
 21
0.6196773353931984
 31
0.0
210
0.0000000000000001
220
0.0
230
1.0
 40
0.816496580927726
 41
0.7853981633974414
 42
2.356194490192337
  0
LINE
  5
79B0
330
A
100
AcDbEntity
  8
0
  6
Continuous
 62
     7
370
     0
100
AcDbLine
 10
60.3959144276181
 20
-116.6381022888519
 30
0.0
 11
67.43521551422031
 21
-118.0749936061848
 31
0.0
  0
LINE
  5
79B1
330
A
100
AcDbEntity
  8
0
  6
Continuous
 62
     9
370
     0
100
AcDbLine
 10
67.43521551422031
 20
-118.0749936061848
 30
0.0
 11
67.43521551422031
 21
-141.809637764742
 31
0.0
  0
LINE
  5
79B2
330
A
100
AcDbEntity
  8
0
  6
Continuous
 62
     7
370
     0
100
AcDbLine
 10
60.3959144276181
 20
-140.3727464474091
 30
0.0
 11
67.43521551422031
 21
-141.809637764742
 31
0.0
  0
ELLIPSE
  5
79B3
330
A
100
AcDbEntity
  8
0
  6
Continuous
 62
     7
370
     0
100
AcDbEllipse
 10
60.3959144276181
 20
-141.1030431907494
 30
0.0
 11
-0.505964425626948
 21
0.6196773353931984
 31
0.0
210
0.0000000000000001
220
0.0
230
1.0
 40
0.816496580927726
 41
0.0
 42
0.7853981633974414
  0
LINE
  5
79B4
330
A
100
AcDbEntity
  8
0
  6
Continuous
 62
     7
370
     0
100
AcDbLine
 10
59.6803726748181
 20
-157.5712347530713
 30
0.0
 11
59.6803726748181
 21
-140.9569838420814
 31
0.0
  0
LINE
  5
79B5
330
A
100
AcDbEntity
  8
0
  6
Continuous
 62
     7
370
     0
100
AcDbLine
 10
56.1026639108185
 20
-156.8409380097311
 30
0.0
 11
59.6803726748181
 21
-157.5712347530714
 31
0.0
  0
LINE
  5
79B6
330
A
100
AcDbEntity
  8
0
  6
Continuous
 62
     7
370
     0
100
AcDbLine
 10
56.1026639108185
 20
-98.41719854251337
 30
0.0
 11
56.1026639108185
 21
-156.8409380097311
 31
0.0
  0
LINE
  5
79B7
330
A
100
AcDbEntity
  8
0
  6
Continuous
 62
     7
370
     0
100
AcDbLine
 10
56.1026639108185
 20
-98.41719854251337
 30
0.0
 11
59.6803726748181
 21
-99.14749528585353
 31
0.0
  0
LINE
  5
79B8
330
A
100
AcDbEntity
  8
0
  6
Continuous
 62
     7
370
     0
100
AcDbLine
 10
59.6803726748181
 20
-99.14749528585366
 30
0.0
 11
59.6803726748181
 21
-115.7617461968437
 31
0.0
  0
LINE
  5
79B9
330
A
100
AcDbEntity
  8
0
  6
Continuous
 62
     7
370
     0
100
AcDbLine
 10
59.6803726748181
 20
-99.14749528585366
 30
0.0
 11
60.06059226652999
 21
-98.83704728921914
 31
0.0
  0
LINE
  5
79BA
330
A
100
AcDbEntity
  8
0
  6
Continuous
 62
     7
370
     0
100
AcDbLine
 10
60.06059226652999
 20
-98.83704728921914
 30
0.0
 11
60.06059226652999
 21
-115.4512982002092
 31
0.0
  0
LINE
  5
79BB
330
A
100
AcDbEntity
  8
0
  6
Continuous
 62
     9
370
     0
100
AcDbLine
 10
59.6803726748181
 20
-115.7617461968437
 30
0.0
 11
60.06059226652999
 21
-115.4512982002092
 31
0.0
  0
LINE
  5
79BC
330
A
100
AcDbEntity
  8
0
  6
Continuous
 62
     7
370
     0
100
AcDbLine
 10
65.74002885830558
 20
-94.19980673043854
 30
0.0
 11
66.1202484500175
 21
-93.88935873380415
 31
0.0
  0
ELLIPSE
  5
79BD
330
A
100
AcDbEntity
  8
0
  6
Continuous
 62
     7
370
     0
100
AcDbEllipse
 10
69.34018633761732
 20
-97.83296114784114
 30
0.0
 11
9.599999999999996
 21
0.0
 31
0.0
210
0.0
220
0.0
230
1.0
 40
0.408248290463863
 41
3.141592653589792
 42
3.400679292402401
  0
LINE
  5
79BE
330
A
100
AcDbEntity
  8
0
  6
Continuous
 62
     7
370
     0
100
AcDbLine
 10
68.6246445848173
 20
-88.19304413575036
 30
0.0
 11
56.1026639108185
 21
-98.41719854251348
 31
0.0
  0
LINE
  5
79BF
330
A
100
AcDbEntity
  8
0
  6
Continuous
 62
     9
370
     0
100
AcDbLine
 10
71.64943472165339
 20
-88.81047683693795
 30
0.0
 11
68.6246445848173
 21
-88.19304413575036
 31
0.0
  0
LINE
  5
79C0
330
A
100
AcDbEntity
  8
0
  6
Continuous
 62
     7
370
     0
100
AcDbLine
 10
66.1202484500175
 20
-93.88935873380406
 30
0.0
 11
71.64943472165339
 21
-88.81047683693795
 31
0.0
  0
ELLIPSE
  5
79C1
330
A
100
AcDbEntity
  8
0
  6
Continuous
 62
     7
370
     0
100
AcDbEllipse
 10
73.63343685441691
 20
-116.0538648941798
 30
0.0
 11
-7.199999999999982
 21
0.0
 31
0.0
210
0.0
220
0.0
230
1.0
 40
0.408248290463863
 41
1.351914556140632
 42
1.96961648486553
  0
ELLIPSE
  5
79C2
330
A
100
AcDbEntity
  8
0
  6
Continuous
 62
     7
370
     0
100
AcDbEllipse
 10
72.33060759621171
 20
-118.4449119425097
 30
0.0
 11
-1.200000000000005
 21
0.0
 31
0.0
210
0.0
220
0.0
230
1.0
 40
0.4082482904638633
 41
0.5693263248894872
 42
1.35191455614063
  0
ELLIPSE
  5
79C3
330
A
100
AcDbEntity
  8
0
  6
Continuous
 62
     7
370
     0
100
AcDbEllipse
 10
68.6246445848173
 20
-119.4132299135448
 30
0.0
 11
3.200000000000008
 21
0.0
 31
-0.0000000000000002
210
0.0000000000000001
220
0.0
230
1.0
 40
0.408248290463863
 41
0.5693263248894893
 42
1.719703456133431
  0
ELLIPSE
  5
79C4
330
A
100
AcDbEntity
  8
0
  6
Continuous
 62
     7
370
     0
100
AcDbEllipse
 10
67.97187182882018
 20
-117.6368155601806
 30
0.0
 11
-1.200000000000005
 21
0.0
 31
0.0
210
0.0
220
0.0
230
1.0
 40
0.4082482904638631
 41
1.107148717794089
 42
1.719703456133408
  0
LINE
  5
79C5
330
A
100
AcDbEntity
  8
0
  6
Continuous
 62
     9
370
     0
100
AcDbLine
 10
60.91474143263642
 20
-116.2144818131616
 30
0.0
 11
60.3959144276181
 21
-116.6381022888519
 31
0.0
  0
ELLIPSE
  5
79C6
330
A
100
AcDbEntity
  8
0
  6
Continuous
 62
     9
370
     0
100
AcDbEllipse
 10
69.34018633761732
 20
-115.1775088021715
 30
0.0
 11
-8.800000000000002
 21
0.0
 31
0.0000000000000006
210
0.0000000000000001
220
0.0
230
1.0
 40
0.408248290463863
 41
5.524390599706809
 42
6.57599408284717
  0
ELLIPSE
  5
79C7
330
A
100
AcDbEntity
  8
0
  6
Continuous
 62
     7
370
     0
100
AcDbEllipse
 10
73.63343685441691
 20
-139.7885090527369
 30
0.0
 11
-7.199999999999982
 21
0.0
 31
0.0
210
0.0
220
0.0
230
1.0
 40
0.408248290463863
 41
1.351914556140632
 42
2.080792867974311
  0
LINE
  5
79C8
330
A
100
AcDbEntity
  8
0
  6
Continuous
 62
     9
370
     0
100
AcDbLine
 10
72.07004174457068
 20
-118.9231213521757
 30
0.0
 11
72.07004174457068
 21
-142.6577655107329
 31
0.0
  0
ELLIPSE
  5
79C9
330
A
100
AcDbEntity
  8
0
  6
Continuous
 62
     7
370
     0
100
AcDbEllipse
 10
69.34018633761732
 20
-97.83296114784114
 30
0.0
 11
9.599999999999996
 21
0.0
 31
-0.0000000000000007
210
0.0000000000000001
220
0.0
230
1.0
 40
0.4082482904638628
 41
1.95521079677557
 42
3.141592653589792
  0
ELLIPSE
  5
79CA
330
A
100
AcDbEntity
  8
0
  6
Continuous
 62
     9
370
     0
100
AcDbEllipse
 10
69.34018633761732
 20
-114.4472120588312
 30
0.0
 11
9.599999999999996
 21
0.0
 31
-0.0000000000000007
210
0.0000000000000001
220
0.0
230
1.0
 40
0.408248290463863
 41
2.298549510149071
 42
2.88250601477718
  0
LINE
  5
79CB
330
A
100
AcDbEntity
  8
0
  6
Continuous
 62
     7
370
     0
100
AcDbLine
 10
65.74002885830558
 20
-94.19980673043854
 30
0.0
 11
65.74002885830558
 21
-98.55867556700905
 31
0.0
  0
ELLIPSE
  5
79CC
330
A
100
AcDbEntity
  8
0
  6
Continuous
 62
     7
370
     0
100
AcDbEllipse
 10
72.33060759621171
 20
-142.1795561010669
 30
0.0
 11
-1.200000000000005
 21
0.0
 31
0.0
210
0.0
220
0.0
230
1.0
 40
0.4082482904638633
 41
0.5693263248894879
 42
1.351914556140632
  0
LINE
  5
79CD
330
A
100
AcDbEntity
  8
0
  6
Continuous
 62
     9
370
     0
100
AcDbLine
 10
71.31989041128599
 20
-118.7089986618829
 30
0.0
 11
71.31989041128599
 21
-142.4436428204401
 31
0.0
  0
ELLIPSE
  5
79CE
330
A
100
AcDbEntity
  8
0
  6
Continuous
 62
     7
370
     0
100
AcDbEllipse
 10
68.6246445848173
 20
-143.1478740721019
 30
0.0
 11
3.200000000000008
 21
0.0
 31
-0.0000000000000002
210
0.0000000000000001
220
0.0
230
1.0
 40
0.408248290463863
 41
0.5693263248894893
 42
1.719703456133431
  0
LINE
  5
79CF
330
A
100
AcDbEntity
  8
0
  6
Continuous
 62
     9
370
     0
100
AcDbLine
 10
68.149900762274
 20
-118.1212922020072
 30
0.0
 11
68.149900762274
 21
-141.8559363605644
 31
0.0
  0
ELLIPSE
  5
79D0
330
A
100
AcDbEntity
  8
0
  6
Continuous
 62
     7
370
     0
100
AcDbEllipse
 10
67.97187182882018
 20
-141.3714597187379
 30
0.0
 11
-1.200000000000005
 21
0.0
 31
0.0
210
0.0
220
0.0
230
1.0
 40
0.4082482904638631
 41
1.107148717794085
 42
1.719703456133411
  0
LINE
  5
79D1
330
A
100
AcDbEntity
  8
0
  6
Continuous
 62
     7
370
     0
100
AcDbLine
 10
60.06059226652999
 20
-115.4512982002092
 30
0.0
 11
60.17631029993231
 21
-115.8237261354562
 31
0.0
  0
LINE
  5
79EF
330
A
100
AcDbEntity
  8
0
  6
Continuous
 62
     7
370
     0
100
AcDbLine
 10
66.1202484500175
 20
-93.88935873380406
 30
0.0
 11
66.1202484500175
 21
-98.63628756616773
 31
0.0
  0
ELLIPSE
  5
79F0
330
A
100
AcDbEntity
  8
0
  6
Continuous
 62
     7
370
     0
100
AcDbEllipse
 10
71.64943472165339
 20
-92.46196055363903
 30
0.0
 11
-0.7156375242910463
 21
-3.936273911043146
 31
0.0
210
0.0
220
0.0
230
1.0
 40
0.3709866613470836
 41
2.654669306484243
 42
3.133609300136865
  0
LINE
  5
79F1
330
A
100
AcDbEntity
  8
0
  6
Continuous
 62
     9
370
     0
100
AcDbLine
 10
72.96518839823699
 20
-95.28657625057071
 30
0.0
 11
72.96518839823699
 21
-89.10739974432415
 31
0.0
  0
LINE
  5
79F2
330
A
100
AcDbEntity
  8
0
  6
Continuous
 62
     7
370
     0
100
AcDbLine
 10
60.12417221822193
 20
-140.3722094722601
 30
0.0
 11
60.06059226652999
 21
-140.6465358454468
 31
0.0
  0
ELLIPSE
  5
79F3
330
A
100
AcDbEntity
  8
0
  6
Continuous
 62
     7
370
     0
100
AcDbEllipse
 10
60.3959144276181
 20
-141.1030431907494
 30
0.0
 11
-0.505964425626948
 21
0.6196773353931984
 31
0.0
210
0.0000000000000001
220
0.0
230
1.0
 40
0.816496580927726
 41
5.49778714378213
 42
6.283185307179585
  0
LINE
  5
79F4
330
A
100
AcDbEntity
  8
0
  6
Continuous
 62
     9
370
     0
100
AcDbLine
 10
60.06059226652999
 20
-140.6465358454468
 30
0.0
 11
59.68037267481818
 21
-140.9569838420814
 31
0.0
  0
LINE
  5
79F5
330
A
100
AcDbEntity
  8
0
  6
Continuous
 62
     7
370
     0
100
AcDbLine
 10
60.06059226652999
 20
-157.2607867564368
 30
0.0
 11
59.68037267481818
 21
-157.5712347530713
 31
0.0
  0
LINE
  5
79F6
330
A
100
AcDbEntity
  8
0
  6
Continuous
 62
     7
370
     0
100
AcDbLine
 10
60.06059226652999
 20
-157.2607867564368
 30
0.0
 11
60.06059226652999
 21
-140.6465358454468
 31
0.0
  0
ELLIPSE
  5
79F7
330
A
100
AcDbEntity
  8
0
  6
Continuous
 62
     7
370
     0
100
AcDbEllipse
 10
69.34018633761732
 20
-156.256700615059
 30
0.0
 11
-9.599999999999996
 21
0.0
 31
0.0
210
0.0
220
0.0
230
1.0
 40
0.4082482904638631
 41
5.440142163738864
 42
6.024098668366971
  0
ELLIPSE
  5
79F8
330
A
100
AcDbEntity
  8
0
  6
Continuous
 62
     7
370
     0
100
AcDbEllipse
 10
71.64943472165339
 20
-92.46196055363903
 30
0.0
 11
-0.7156375242910463
 21
-3.936273911043146
 31
0.0
210
0.0
220
0.0
230
1.0
 40
0.3709866613470836
 41
3.133609300136865
 42
3.597256909137669
  0
LINE
  5
79F9
330
A
100
AcDbEntity
  8
0
  6
Continuous
 62
     7
370
     0
100
AcDbLine
 10
72.96518839823699
 20
-89.10739974432415
 30
0.0
 11
73.03413913811161
 21
-89.45203854468154
 31
0.0
  0
ELLIPSE
  5
79FA
330
A
100
AcDbEntity
  8
0
  6
Continuous
 62
     7
370
     0
100
AcDbEllipse
 10
68.6246445848173
 20
-91.84452785245143
 30
0.0
 11
-0.7999999999999954
 21
-3.919183588453057
 31
0.0
210
0.0
220
0.0
230
1.0
 40
0.4082482904638633
 41
3.1415926535898
 42
3.605240262590601
  0
LINE
  5
79FB
330
A
100
AcDbEntity
  8
0
  6
Continuous
 62
     7
370
     0
100
AcDbLine
 10
63.34253968601482
 20
-87.77928491534764
 30
0.0
 11
62.62699793321712
 21
-87.63322556668002
 31
0.0
  0
LINE
  5
79FC
330
A
100
AcDbEntity
  8
0
  6
Continuous
 62
     7
370
     0
100
AcDbLine
 10
62.62699793321712
 20
-87.63322556667997
 30
0.0
 11
61.911456180415
 21
-87.48716621801156
 31
0.0
  0
LINE
  5
79FD
330
A
100
AcDbEntity
  8
0
  6
Continuous
 62
     7
370
     0
100
AcDbLine
 10
49.50278813562047
 20
-154.1193503593823
 30
0.0
 11
50.21832988842291
 21
-154.2654097080508
 31
0.0
  0
LINE
  5
79FE
330
A
100
AcDbEntity
  8
0
  6
Continuous
 62
     7
370
     0
100
AcDbLine
 10
50.2183298884228
 20
-154.265409708051
 30
0.0
 11
50.93387164122032
 21
-154.4114690567184
 31
0.0
  0
LINE
  5
79FF
330
A
100
AcDbEntity
  8
0
  6
Continuous
 62
     7
370
     0
100
AcDbLine
 10
67.97362319164219
 20
-88.72460087738854
 30
0.0
 11
67.63579020281901
 21
-88.65564100731383
 31
0.0
  0
LINE
  5
7A00
330
A
100
AcDbEntity
  8
0
  6
Continuous
 62
     7
370
     0
100
AcDbLine
 10
55.22712215801539
 20
-155.2878251487335
 30
0.0
 11
55.9426639108174
 21
-155.4338844974019
 31
0.0
  0
LINE
  5
7A01
330
A
100
AcDbEntity
  8
0
  6
Continuous
 62
     7
370
     0
100
AcDbLine
 10
55.9426639108174
 20
-155.4338844974019
 30
0.0
 11
56.1026639108185
 21
-155.4665443606393
 31
0.0
  0
LINE
  5
7A02
330
A
100
AcDbEntity
  8
0
  6
Continuous
 62
     7
370
     0
100
AcDbLine
 10
62.2692270568196
 20
-86.46475077732894
 30
0.0
 11
59.40706004561992
 21
-85.88051338265687
 31
0.0
  0
LINE
  5
7A03
330
A
100
AcDbEntity
  8
0
  6
Continuous
 62
     7
370
     0
100
AcDbLine
 10
62.62699793322051
 20
-87.63322556666325
 30
0.0
 11
61.9114561804206
 21
-87.48716621799523
 31
0.0
  0
LINE
  5
7A04
330
A
100
AcDbEntity
  8
0
  6
Continuous
 62
     7
370
     0
100
AcDbLine
 10
49.50278813562309
 20
-154.1193503593817
 30
0.0
 11
50.21832988842311
 21
-154.2654097080498
 31
0.0
  0
LINE
  5
7A05
330
A
100
AcDbEntity
  8
0
  6
Continuous
 62
     7
370
     0
100
AcDbLine
 10
55.9426639108201
 20
-155.433884497389
 30
0.0
 11
56.1026639108185
 21
-155.4665443606258
 31
0.0
  0
LINE
  5
7A06
330
A
100
AcDbEntity
  8
0
  6
Continuous
 62
     7
370
     0
100
AcDbLine
 10
68.85220080249562
 20
-98.03862978653924
 30
0.0
 11
68.49442992609567
 21
-98.33074848387536
 31
0.0
  0
LINE
  5
7A07
330
A
100
AcDbEntity
  8
0
  6
Continuous
 62
     7
370
     0
100
AcDbLine
 10
99.88092548674362
 20
-158.534040904278
 30
0.0
 11
100.2386963631435
 21
-158.2419222069419
 31
0.0
  0
LINE
  5
7A08
330
A
100
AcDbEntity
  8
0
  6
Continuous
 62
     7
370
     0
100
AcDbLine
 10
68.85220080250343
 20
-98.03862978654123
 30
0.0
 11
68.4944299261
 21
-98.33074848388015
 31
0.0
  0
LINE
  5
7A09
330
A
100
AcDbEntity
  8
0
  6
Continuous
 62
     7
370
     0
100
AcDbLine
 10
68.4944299261
 20
-98.33074848388015
 30
0.0
 11
68.13665904970321
 21
-98.62286718121364
 31
0.0
  0
LINE
  5
7A0A
330
A
100
AcDbEntity
  8
0
  6
Continuous
 62
     7
370
     0
100
AcDbLine
 10
99.52315461034372
 20
-158.8261596016116
 30
0.0
 11
99.88092548674282
 21
-158.5340409042762
 31
0.0
  0
LINE
  5
7A0B
330
A
100
AcDbEntity
  8
0
  6
Continuous
 62
     7
370
     0
100
AcDbLine
 10
99.88092548674282
 20
-158.5340409042762
 30
0.0
 11
100.2386963631438
 21
-158.2419222069392
 31
0.0
  0
LINE
  5
7A0C
330
A
100
AcDbEntity
  8
0
  6
Continuous
 62
     7
370
     0
100
AcDbLine
 10
101.5649912051588
 20
-159.9393246869796
 30
0.0
 11
102.9960747107587
 21
-158.7708498976352
 31
0.0
  0
LINE
  5
7A0D
330
A
100
AcDbEntity
  8
0
  6
Continuous
 62
     7
370
     0
100
AcDbLine
 10
96.91396981196412
 20
-163.7368677523539
 30
0.0
 11
98.34505331756393
 21
-162.5683929630096
 31
0.0
  0
LINE
  5
7A0E
330
A
100
AcDbEntity
  8
0
  6
Continuous
 62
     7
370
     0
100
AcDbLine
 10
72.37670744892611
 20
-88.52793157280546
 30
0.0
 11
69.42464458481731
 21
-87.92534426399837
 31
0.0
  0
LINE
  5
7A0F
330
A
100
AcDbEntity
  8
0
  6
Continuous
 62
     7
370
     0
100
AcDbLine
 10
73.03413915934081
 20
-95.30065076574423
 30
0.0
 11
73.03413915934081
 21
-89.45220470364183
 31
0.0
  0
LINE
  5
7A10
330
A
100
AcDbEntity
  8
0
  6
Continuous
 62
     7
370
     0
100
AcDbLine
 10
93.99999999983668
 20
15.00000000000604
 30
0.0
 11
93.99999999983661
 21
-64.99999999996863
 31
0.0
  0
LINE
  5
7A11
330
A
100
AcDbEntity
  8
0
  6
Continuous
 62
     7
370
     0
100
AcDbLine
 10
93.99999999983661
 20
-64.99999999996863
 30
0.0
 11
58.9999999998476
 21
-64.99999999996863
 31
0.0
  0
ARC
  5
7A12
330
A
100
AcDbEntity
  8
0
  6
Continuous
 62
     7
370
     0
100
AcDbCircle
 10
58.99999999984771
 20
-59.99999999997022
 30
0.0
 40
5.000000000000004
100
AcDbArc
 50
179.9999999999992
 51
270.0
  0
ARC
  5
7A13
330
A
100
AcDbEntity
  8
0
  6
Continuous
 62
     7
370
     0
100
AcDbCircle
 10
58.99999999984771
 20
10.00000000000764
 30
0.0
 40
5.000000000000004
100
AcDbArc
 50
90.0
 51
180.0
  0
LINE
  5
7A14
330
A
100
AcDbEntity
  8
0
  6
Continuous
 62
     7
370
     0
100
AcDbLine
 10
58.99999999984771
 20
15.00000000000604
 30
0.0
 11
93.99999999983668
 21
15.00000000000604
 31
0.0
  0
LINE
  5
7A15
330
A
100
AcDbEntity
  8
0
  6
Continuous
 62
     7
370
     0
100
AcDbLine
 10
53.99999999984931
 20
-59.99999999997022
 30
0.0
 11
53.99999999984931
 21
10.00000000000764
 31
0.0
  0
CIRCLE
  5
7A16
330
A
100
AcDbEntity
  8
0
  6
Continuous
 62
     9
370
     0
100
AcDbCircle
 10
-98.50000000015553
 20
0.0000000000190141
 30
0.0
 40
4.979829407782826
  0
ARC
  5
7A17
330
A
100
AcDbEntity
  8
0
  6
Continuous
 62
     9
370
     0
100
AcDbCircle
 10
-98.50000000015553
 20
0.0000000000347313
 30
0.0
 40
5.412842109675047
100
AcDbArc
 50
202.522505857519
 51
0.0
  0
ARC
  5
7A18
330
A
100
AcDbEntity
  8
0
  6
Continuous
 62
     9
370
     0
100
AcDbCircle
 10
-98.50000000015553
 20
0.0000000000347313
 30
0.0
 40
5.41284210967505
100
AcDbArc
 50
0.0
 51
157.477494142481
  0
ARC
  5
7A19
330
A
100
AcDbEntity
  8
0
  6
Continuous
 62
     9
370
     0
100
AcDbCircle
 10
-98.50000000015885
 20
-49.99999999998094
 30
0.0
 40
4.979829407782826
100
AcDbArc
 50
0.0
 51
180.0
  0
ARC
  5
7A1A
330
A
100
AcDbEntity
  8
0
  6
Continuous
 62
     9
370
     0
100
AcDbCircle
 10
-98.50000000015885
 20
-49.99999999998094
 30
0.0
 40
4.979829407782826
100
AcDbArc
 50
180.0
 51
0.0
  0
ARC
  5
7A1B
330
A
100
AcDbEntity
  8
0
  6
Continuous
 62
     9
370
     0
100
AcDbCircle
 10
-98.50000000015885
 20
-49.99999999996474
 30
0.0
 40
5.412842109675047
100
AcDbArc
 50
202.5224677921904
 51
0.0
  0
ARC
  5
7A1C
330
A
100
AcDbEntity
  8
0
  6
Continuous
 62
     9
370
     0
100
AcDbCircle
 10
-98.50000000015885
 20
-49.99999999996474
 30
0.0
 40
5.412842109675033
100
AcDbArc
 50
0.0
 51
157.4775318124018
  0
LINE
  5
7A1D
330
A
100
AcDbEntity
  8
0
  6
Continuous
 62
     7
370
     0
100
AcDbLine
 10
-105.2000000019438
 20
-43.74999999998085
 30
0.0
 11
-105.2000000019438
 21
-56.24999999998085
 31
0.0
  0
LINE
  5
7A1E
330
A
100
AcDbEntity
  8
0
  6
Continuous
 62
     9
370
     0
100
AcDbLine
 10
-103.7500000019438
 20
-55.41284210965596
 30
0.0
 11
-103.7500000019438
 21
-44.58715789030576
 31
0.0
  0
LINE
  5
7A1F
330
A
100
AcDbEntity
  8
0
  6
Continuous
 62
     7
370
     0
100
AcDbLine
 10
-103.5000000019438
 20
-45.02017059219805
 30
0.0
 11
-103.5000000019438
 21
-54.97982940776363
 31
0.0
  0
LINE
  5
7A20
330
A
100
AcDbEntity
  8
0
  6
Continuous
 62
     7
370
     0
100
AcDbLine
 10
-105.2000000019438
 20
6.250000000000127
 30
0.0
 11
-105.2000000019438
 21
-6.249999999999872
 31
0.0
  0
LINE
  5
7A21
330
A
100
AcDbEntity
  8
0
  6
Continuous
 62
     9
370
     0
100
AcDbLine
 10
-103.7500000019438
 20
-5.412842109674912
 30
0.0
 11
-103.7500000019438
 21
5.412842109675196
 31
0.0
  0
LINE
  5
7A22
330
A
100
AcDbEntity
  8
0
  6
Continuous
 62
     7
370
     0
100
AcDbLine
 10
-103.5000000019438
 20
4.979829407782972
 30
0.0
 11
-103.5000000019438
 21
-4.979829407782702
 31
0.0
  0
LINE
  5
7A23
330
A
100
AcDbEntity
  8
0
  6
Continuous
 62
     9
370
     0
100
AcDbLine
 10
-109.5000000019417
 20
-58.64999999998214
 30
0.0
 11
-110.0000000019417
 21
-58.64999999998214
 31
0.0
  0
LINE
  5
7A24
330
A
100
AcDbEntity
  8
0
  6
Continuous
 62
     7
370
     0
100
AcDbLine
 10
-109.5000000019417
 20
-63.14999999998322
 30
0.0
 11
-110.0000000019417
 21
-63.14999999998322
 31
0.0
  0
LINE
  5
7A25
330
A
100
AcDbEntity
  8
0
  6
Continuous
 62
     7
370
     0
100
AcDbLine
 10
-110.0000000019417
 20
-58.64999999998214
 30
0.0
 11
-110.0000000019417
 21
-63.14999999998214
 31
0.0
  0
LINE
  5
7A26
330
A
100
AcDbEntity
  8
0
  6
Continuous
 62
     9
370
     0
100
AcDbLine
 10
-109.5000000019417
 20
8.650000000035021
 30
0.0
 11
-110.0000000019417
 21
8.650000000035021
 31
0.0
  0
LINE
  5
7A27
330
A
100
AcDbEntity
  8
0
  6
Continuous
 62
     7
370
     0
100
AcDbLine
 10
-110.0000000019417
 20
8.650000000035021
 30
0.0
 11
-110.0000000019417
 21
-58.64999999998214
 31
0.0
  0
LINE
  5
7A28
330
A
100
AcDbEntity
  8
0
  6
Continuous
 62
     7
370
     0
100
AcDbLine
 10
-109.5000000019417
 20
13.15000000003616
 30
0.0
 11
-110.0000000019417
 21
13.15000000003616
 31
0.0
  0
LINE
  5
7A29
330
A
100
AcDbEntity
  8
0
  6
Continuous
 62
     7
370
     0
100
AcDbLine
 10
-110.0000000019417
 20
13.15000000003502
 30
0.0
 11
-110.0000000019417
 21
8.650000000035021
 31
0.0
  0
LINE
  5
7A2A
330
A
100
AcDbEntity
  8
0
  6
Continuous
 62
     9
370
     0
100
AcDbLine
 10
-111.0000000019425
 20
-58.64999999997888
 30
0.0
 11
-110.0000000019409
 21
-58.64999999997888
 31
0.0
  0
LINE
  5
7A2B
330
A
100
AcDbEntity
  8
0
  6
Continuous
 62
     9
370
     0
100
AcDbLine
 10
-110.0000000019409
 20
-58.64999999997888
 30
0.0
 11
-109.5000000019417
 21
-58.64999999997888
 31
0.0
  0
LINE
  5
7A2C
330
A
100
AcDbEntity
  8
0
  6
Continuous
 62
     9
370
     0
100
AcDbLine
 10
-111.0000000019425
 20
8.650000000035049
 30
0.0
 11
-110.0000000019409
 21
8.650000000035049
 31
0.0
  0
LINE
  5
7A2D
330
A
100
AcDbEntity
  8
0
  6
Continuous
 62
     9
370
     0
100
AcDbLine
 10
-110.0000000019409
 20
8.650000000035049
 30
0.0
 11
-109.5000000019417
 21
8.650000000035049
 31
0.0
  0
LINE
  5
7A2E
330
A
100
AcDbEntity
  8
0
  6
Continuous
 62
     7
370
     0
100
AcDbLine
 10
-111.0000000019425
 20
-58.64999999997888
 30
0.0
 11
-111.0000000019425
 21
8.650000000035049
 31
0.0
  0
LINE
  5
7A2F
330
A
100
AcDbEntity
  8
0
  6
Continuous
 62
     7
370
     0
100
AcDbLine
 10
-111.0000000019425
 20
-63.14999999997972
 30
0.0
 11
-110.0000000019409
 21
-63.14999999997972
 31
0.0
  0
LINE
  5
7A30
330
A
100
AcDbEntity
  8
0
  6
Continuous
 62
     7
370
     0
100
AcDbLine
 10
-110.0000000019409
 20
-63.14999999997972
 30
0.0
 11
-109.5000000019404
 21
-63.14999999997972
 31
0.0
  0
LINE
  5
7A31
330
A
100
AcDbEntity
  8
0
  6
Continuous
 62
     7
370
     0
100
AcDbLine
 10
-111.0000000019425
 20
-63.14999999998246
 30
0.0
 11
-111.0000000019425
 21
-58.64999999997888
 31
0.0
  0
LINE
  5
7A32
330
A
100
AcDbEntity
  8
0
  6
Continuous
 62
     7
370
     0
100
AcDbLine
 10
-111.0000000019425
 20
13.15000000003596
 30
0.0
 11
-110.0000000019409
 21
13.15000000003596
 31
0.0
  0
LINE
  5
7A33
330
A
100
AcDbEntity
  8
0
  6
Continuous
 62
     7
370
     0
100
AcDbLine
 10
-110.0000000019409
 20
13.15000000003596
 30
0.0
 11
-109.5000000019404
 21
13.15000000003596
 31
0.0
  0
LINE
  5
7A34
330
A
100
AcDbEntity
  8
0
  6
Continuous
 62
     7
370
     0
100
AcDbLine
 10
-111.0000000019425
 20
8.650000000035049
 30
0.0
 11
-111.0000000019425
 21
13.15000000004065
 31
0.0
  0
LINE
  5
7A35
330
A
100
AcDbEntity
  8
0
  6
Continuous
 62
     9
370
     0
100
AcDbLine
 10
-118.5000000019416
 20
-58.64999999996495
 30
0.0
 11
-118.0000000019416
 21
-58.64999999996495
 31
0.0
  0
LINE
  5
7A36
330
A
100
AcDbEntity
  8
0
  6
Continuous
 62
     7
370
     0
100
AcDbLine
 10
-118.0000000019416
 20
-58.64999999996495
 30
0.0
 11
-118.0000000019416
 21
8.650000000035021
 31
0.0
  0
LINE
  5
7A37
330
A
100
AcDbEntity
  8
0
  6
Continuous
 62
     7
370
     0
100
AcDbLine
 10
-118.5000000019416
 20
-63.14999999996494
 30
0.0
 11
-118.0000000019416
 21
-63.14999999996494
 31
0.0
  0
LINE
  5
7A38
330
A
100
AcDbEntity
  8
0
  6
Continuous
 62
     7
370
     0
100
AcDbLine
 10
-118.0000000019416
 20
-63.14999999996494
 30
0.0
 11
-118.0000000019416
 21
-58.64999999996495
 31
0.0
  0
LINE
  5
7A39
330
A
100
AcDbEntity
  8
0
  6
Continuous
 62
     9
370
     0
100
AcDbLine
 10
-118.5000000019416
 20
8.650000000035021
 30
0.0
 11
-118.0000000019416
 21
8.650000000035021
 31
0.0
  0
LINE
  5
7A3A
330
A
100
AcDbEntity
  8
0
  6
Continuous
 62
     7
370
     0
100
AcDbLine
 10
-118.5000000019416
 20
13.15000000003502
 30
0.0
 11
-118.0000000019416
 21
13.15000000003502
 31
0.0
  0
LINE
  5
7A3B
330
A
100
AcDbEntity
  8
0
  6
Continuous
 62
     7
370
     0
100
AcDbLine
 10
-118.0000000019416
 20
8.650000000035021
 30
0.0
 11
-118.0000000019416
 21
13.15000000003502
 31
0.0
  0
LINE
  5
7A3C
330
A
100
AcDbEntity
  8
0
  6
Continuous
 62
     9
370
     0
100
AcDbLine
 10
-118.5000000019416
 20
-58.64999999996495
 30
0.0
 11
-118.0000000019416
 21
-58.64999999996495
 31
0.0
  0
LINE
  5
7A3D
330
A
100
AcDbEntity
  8
0
  6
Continuous
 62
     9
370
     0
100
AcDbLine
 10
-118.0000000019416
 20
-58.64999999996495
 30
0.0
 11
-117.0000000019416
 21
-58.64999999996495
 31
0.0
  0
LINE
  5
7A3E
330
A
100
AcDbEntity
  8
0
  6
Continuous
 62
     9
370
     0
100
AcDbLine
 10
-118.5000000019416
 20
8.65000000006124
 30
0.0
 11
-118.0000000019416
 21
8.65000000006124
 31
0.0
  0
LINE
  5
7A3F
330
A
100
AcDbEntity
  8
0
  6
Continuous
 62
     9
370
     0
100
AcDbLine
 10
-118.0000000019416
 20
8.65000000006124
 30
0.0
 11
-117.0000000019416
 21
8.65000000006124
 31
0.0
  0
LINE
  5
7A40
330
A
100
AcDbEntity
  8
0
  6
Continuous
 62
     7
370
     0
100
AcDbLine
 10
-117.0000000019416
 20
-58.64999999996495
 30
0.0
 11
-117.0000000019416
 21
8.65000000006124
 31
0.0
  0
LINE
  5
7A41
330
A
100
AcDbEntity
  8
0
  6
Continuous
 62
     7
370
     0
100
AcDbLine
 10
-118.5000000019416
 20
-63.14999999996674
 30
0.0
 11
-118.0000000019416
 21
-63.14999999996674
 31
0.0
  0
LINE
  5
7A42
330
A
100
AcDbEntity
  8
0
  6
Continuous
 62
     7
370
     0
100
AcDbLine
 10
-118.0000000019416
 20
-63.14999999996674
 30
0.0
 11
-117.0000000019416
 21
-63.14999999996674
 31
0.0
  0
LINE
  5
7A43
330
A
100
AcDbEntity
  8
0
  6
Continuous
 62
     7
370
     0
100
AcDbLine
 10
-117.0000000019416
 20
-63.14999999996494
 30
0.0
 11
-117.0000000019416
 21
-58.64999999996495
 31
0.0
  0
LINE
  5
7A44
330
A
100
AcDbEntity
  8
0
  6
Continuous
 62
     7
370
     0
100
AcDbLine
 10
-118.5000000019416
 20
13.150000000063
 30
0.0
 11
-118.0000000019416
 21
13.150000000063
 31
0.0
  0
LINE
  5
7A45
330
A
100
AcDbEntity
  8
0
  6
Continuous
 62
     7
370
     0
100
AcDbLine
 10
-118.0000000019416
 20
13.150000000063
 30
0.0
 11
-117.0000000019416
 21
13.150000000063
 31
0.0
  0
LINE
  5
7A46
330
A
100
AcDbEntity
  8
0
  6
Continuous
 62
     7
370
     0
100
AcDbLine
 10
-117.0000000019416
 20
8.65000000006124
 30
0.0
 11
-117.0000000019416
 21
13.15000000006125
 31
0.0
  0
LINE
  5
7A47
330
A
100
AcDbEntity
  8
0
  6
Continuous
 62
     9
370
     0
100
AcDbLine
 10
-109.5000000019417
 20
-59.99999999997662
 30
0.0
 11
-105.5000000019417
 21
-59.99999999997662
 31
0.0
  0
LINE
  5
7A48
330
A
100
AcDbEntity
  8
0
  6
Continuous
 62
     7
370
     0
100
AcDbLine
 10
-105.5000000019417
 20
-59.99999999997662
 30
0.0
 11
-105.5000000019417
 21
-64.99999999997662
 31
0.0
  0
LINE
  5
7A49
330
A
100
AcDbEntity
  8
0
  6
Continuous
 62
     7
370
     0
100
AcDbLine
 10
-105.5000000019417
 20
-64.99999999997446
 30
0.0
 11
-109.5000000019417
 21
-64.99999999997446
 31
0.0
  0
LINE
  5
7A4A
330
A
100
AcDbEntity
  8
0
  6
Continuous
 62
     7
370
     0
100
AcDbLine
 10
-109.5000000019417
 20
-64.99999999997662
 30
0.0
 11
-109.5000000019417
 21
-59.99999999997662
 31
0.0
  0
LINE
  5
7A4B
330
A
100
AcDbEntity
  8
0
  6
Continuous
 62
     7
370
     0
100
AcDbLine
 10
-109.5000000019417
 20
9.999999999993363
 30
0.0
 11
-109.5000000019417
 21
-59.99999999997662
 31
0.0
  0
LINE
  5
7A4C
330
A
100
AcDbEntity
  8
0
  6
Continuous
 62
     9
370
     0
100
AcDbLine
 10
-105.5000000019417
 20
9.999999999993363
 30
0.0
 11
-109.5000000019417
 21
9.999999999993363
 31
0.0
  0
LINE
  5
7A4D
330
A
100
AcDbEntity
  8
0
  6
Continuous
 62
     7
370
     0
100
AcDbLine
 10
-105.5000000019417
 20
-59.99999999997662
 30
0.0
 11
-105.5000000019417
 21
9.999999999993363
 31
0.0
  0
LINE
  5
7A4E
330
A
100
AcDbEntity
  8
0
  6
Continuous
 62
     7
370
     0
100
AcDbLine
 10
-109.5000000019417
 20
14.99999999999122
 30
0.0
 11
-105.5000000019417
 21
14.99999999999122
 31
0.0
  0
LINE
  5
7A4F
330
A
100
AcDbEntity
  8
0
  6
Continuous
 62
     7
370
     0
100
AcDbLine
 10
-109.5000000019417
 20
9.999999999993363
 30
0.0
 11
-109.5000000019417
 21
14.99999999999335
 31
0.0
  0
LINE
  5
7A50
330
A
100
AcDbEntity
  8
0
  6
Continuous
 62
     7
370
     0
100
AcDbLine
 10
-105.5000000019417
 20
14.99999999999335
 30
0.0
 11
-105.5000000019417
 21
9.999999999993363
 31
0.0
  0
LINE
  5
7A51
330
A
100
AcDbEntity
  8
0
  6
Continuous
 62
     9
370
     0
100
AcDbLine
 10
-118.5000000019416
 20
10.00000000001904
 30
0.0
 11
-122.5000000019416
 21
10.00000000001904
 31
0.0
  0
LINE
  5
7A52
330
A
100
AcDbEntity
  8
0
  6
Continuous
 62
     7
370
     0
100
AcDbLine
 10
-118.5000000019416
 20
-59.99999999998094
 30
0.0
 11
-118.5000000019416
 21
10.00000000001904
 31
0.0
  0
LINE
  5
7A53
330
A
100
AcDbEntity
  8
0
  6
Continuous
 62
     9
370
     0
100
AcDbLine
 10
-122.5000000019416
 20
-59.99999999998094
 30
0.0
 11
-118.5000000019416
 21
-59.99999999998094
 31
0.0
  0
LINE
  5
7A54
330
A
100
AcDbEntity
  8
0
  6
Continuous
 62
     7
370
     0
100
AcDbLine
 10
-122.5000000019416
 20
10.00000000001904
 30
0.0
 11
-122.5000000019416
 21
-59.99999999998094
 31
0.0
  0
LINE
  5
7A55
330
A
100
AcDbEntity
  8
0
  6
Continuous
 62
     7
370
     0
100
AcDbLine
 10
-118.5000000019416
 20
-59.99999999998094
 30
0.0
 11
-118.5000000019416
 21
-64.99999999998085
 31
0.0
  0
LINE
  5
7A56
330
A
100
AcDbEntity
  8
0
  6
Continuous
 62
     7
370
     0
100
AcDbLine
 10
-118.5000000019416
 20
-64.99999999998094
 30
0.0
 11
-122.5000000019416
 21
-64.99999999998094
 31
0.0
  0
LINE
  5
7A57
330
A
100
AcDbEntity
  8
0
  6
Continuous
 62
     7
370
     0
100
AcDbLine
 10
-122.5000000019416
 20
-64.99999999998085
 30
0.0
 11
-122.5000000019416
 21
-59.99999999998094
 31
0.0
  0
LINE
  5
7A58
330
A
100
AcDbEntity
  8
0
  6
Continuous
 62
     7
370
     0
100
AcDbLine
 10
-122.5000000019416
 20
15.00000000001901
 30
0.0
 11
-118.5000000019416
 21
15.00000000001901
 31
0.0
  0
LINE
  5
7A59
330
A
100
AcDbEntity
  8
0
  6
Continuous
 62
     7
370
     0
100
AcDbLine
 10
-118.5000000019416
 20
15.00000000001897
 30
0.0
 11
-118.5000000019416
 21
10.00000000001904
 31
0.0
  0
LINE
  5
7A5A
330
A
100
AcDbEntity
  8
0
  6
Continuous
 62
     7
370
     0
100
AcDbLine
 10
-122.5000000019416
 20
10.00000000001904
 30
0.0
 11
-122.5000000019416
 21
15.00000000001891
 31
0.0
  0
LINE
  5
7A5B
330
A
100
AcDbEntity
  8
0
  6
Continuous
 62
     9
370
     0
100
AcDbLine
 10
-111.0000000019425
 20
0.0000000000190141
 30
0.0
 11
-117.0000000019416
 21
0.0000000000189999
 31
0.0
  0
LINE
  5
7A5C
330
A
100
AcDbEntity
  8
0
  6
Continuous
 62
     9
370
     0
100
AcDbLine
 10
-111.0000000019425
 20
-49.99999999998094
 30
0.0
 11
-117.0000000019416
 21
-49.99999999998094
 31
0.0
  0
LINE
  5
7A5D
330
A
100
AcDbEntity
  8
0
  6
Continuous
 62
     9
370
     0
100
AcDbLine
 10
-123.2317468620409
 20
-8.749999999980943
 30
0.0
 11
-123.2317468620409
 21
-41.24999999998094
 31
0.0
  0
LINE
  5
7A5E
330
A
100
AcDbEntity
  8
0
  6
Continuous
 62
     7
370
     0
100
AcDbLine
 10
-123.2317468620409
 20
-41.24999999998094
 30
0.0
 11
-122.5000000019416
 21
-41.24999999998094
 31
0.0
  0
LINE
  5
7A5F
330
A
100
AcDbEntity
  8
0
  6
Continuous
 62
     7
370
     0
100
AcDbLine
 10
-123.2317468620409
 20
-8.749999999980943
 30
0.0
 11
-122.5000000019416
 21
-8.749999999980943
 31
0.0
  0
LINE
  5
7A60
330
A
100
AcDbEntity
  8
0
  6
Continuous
 62
     7
370
     0
100
AcDbLine
 10
-123.2764557183933
 20
-41.24999999998094
 30
0.0
 11
-123.2317468620409
 21
-41.24999999998094
 31
0.0
  0
LINE
  5
7A61
330
A
100
AcDbEntity
  8
0
  6
Continuous
 62
     7
370
     0
100
AcDbLine
 10
-123.2764557183933
 20
-8.749999999980943
 30
0.0
 11
-123.2317468620409
 21
-8.749999999980943
 31
0.0
  0
LINE
  5
7A62
330
A
100
AcDbEntity
  8
0
  6
Continuous
 62
     7
370
     0
100
AcDbLine
 10
-123.5000000001554
 20
-8.749999999980943
 30
0.0
 11
-123.5000000001554
 21
-41.24999999998094
 31
0.0
  0
LINE
  5
7A63
330
A
100
AcDbEntity
  8
0
  6
Continuous
 62
     7
370
     0
100
AcDbLine
 10
-123.5000000001554
 20
-41.24999999998094
 30
0.0
 11
-123.2764557183933
 21
-41.24999999998094
 31
0.0
  0
LINE
  5
7A64
330
A
100
AcDbEntity
  8
0
  6
Continuous
 62
     7
370
     0
100
AcDbLine
 10
-123.5000000001554
 20
-8.749999999980943
 30
0.0
 11
-123.2764557183933
 21
-8.749999999980943
 31
0.0
  0
LINE
  5
7A65
330
A
100
AcDbEntity
  8
0
  6
Continuous
 62
     9
370
     0
100
AcDbLine
 10
-122.5000000019416
 20
-42.24999999998094
 30
0.0
 11
-123.5000000001554
 21
-42.24999999998094
 31
0.0
  0
LINE
  5
7A66
330
A
100
AcDbEntity
  8
0
  6
Continuous
 62
     7
370
     0
100
AcDbLine
 10
-123.5000000001554
 20
-41.24999999998094
 30
0.0
 11
-123.5000000001554
 21
-42.24999999998094
 31
0.0
  0
LINE
  5
7A67
330
A
100
AcDbEntity
  8
0
  6
Continuous
 62
     9
370
     0
100
AcDbLine
 10
-123.5000000001554
 20
-7.749999999980943
 30
0.0
 11
-122.5000000019416
 21
-7.749999999980943
 31
0.0
  0
LINE
  5
7A68
330
A
100
AcDbEntity
  8
0
  6
Continuous
 62
     7
370
     0
100
AcDbLine
 10
-123.5000000001554
 20
-7.749999999980943
 30
0.0
 11
-123.5000000001554
 21
-8.749999999980943
 31
0.0
  0
LINE
  5
7A69
330
A
100
AcDbEntity
  8
0
  6
Continuous
 62
     7
370
     0
100
AcDbLine
 10
-118.5000000019416
 20
-64.99999999998094
 30
0.0
 11
-109.5000000019417
 21
-64.99999999998094
 31
0.0
  0
LINE
  5
7A6A
330
A
100
AcDbEntity
  8
0
  6
Continuous
 62
     7
370
     0
100
AcDbLine
 10
-105.5000000001557
 20
15.00000000001901
 30
0.0
 11
-88.50000000015542
 21
15.00000000001901
 31
0.0
  0
ARC
  5
7A6B
330
A
100
AcDbEntity
  8
0
  6
Continuous
 62
     7
370
     0
100
AcDbCircle
 10
-88.50000000015542
 20
10.000000000019
 30
0.0
 40
4.999999999999995
100
AcDbArc
 50
35.99370854660366
 51
90.0
  0
LINE
  5
7A6C
330
A
100
AcDbEntity
  8
0
  6
Continuous
 62
     9
370
     0
100
AcDbLine
 10
-84.45459233923681
 20
-62.93848206679387
 30
0.0
 11
-84.45459233923681
 21
12.93848206683186
 31
0.0
  0
ARC
  5
7A6D
330
A
100
AcDbEntity
  8
0
  6
Continuous
 62
     7
370
     0
100
AcDbCircle
 10
-88.50000000015546
 20
-59.99999999998094
 30
0.0
 40
5.000000000000004
100
AcDbArc
 50
270.0
 51
324.0062914533957
  0
ARC
  5
7A6E
330
A
100
AcDbEntity
  8
0
  6
Continuous
 62
     7
370
     0
100
AcDbCircle
 10
-98.50000000015544
 20
-49.99999999998094
 30
0.0
 40
6.250000000000007
100
AcDbArc
 50
216.8698684973094
 51
143.1301328291757
  0
ARC
  5
7A6F
330
A
100
AcDbEntity
  8
0
  6
Continuous
 62
     7
370
     0
100
AcDbCircle
 10
-98.50000000015544
 20
0.0000000000190141
 30
0.0
 40
6.250000000000004
100
AcDbArc
 50
216.8698976235598
 51
143.1301023764402
  0
LINE
  5
7A70
330
A
100
AcDbEntity
  8
0
  6
Continuous
 62
     7
370
     0
100
AcDbLine
 10
-105.5000000001554
 20
-64.99999999998094
 30
0.0
 11
-88.50000000015546
 21
-64.99999999998094
 31
0.0
  0
LINE
  5
7A71
330
A
100
AcDbEntity
  8
0
  6
Continuous
 62
     7
370
     0
100
AcDbLine
 10
-122.5000000019416
 20
-64.99999999998094
 30
0.0
 11
-123.5000000001554
 21
-64.99999999998094
 31
0.0
  0
LINE
  5
7A72
330
A
100
AcDbEntity
  8
0
  6
Continuous
 62
     7
370
     0
100
AcDbLine
 10
-123.5000000001554
 20
-64.99999999998094
 30
0.0
 11
-123.5000000001554
 21
-42.24999999998094
 31
0.0
  0
LINE
  5
7A73
330
A
100
AcDbEntity
  8
0
  6
Continuous
 62
     7
370
     0
100
AcDbLine
 10
-123.5000000001554
 20
15.00000000001901
 30
0.0
 11
-122.5000000019416
 21
15.00000000001901
 31
0.0
  0
LINE
  5
7A74
330
A
100
AcDbEntity
  8
0
  6
Continuous
 62
     7
370
     0
100
AcDbLine
 10
-123.5000000001554
 20
15.00000000001901
 30
0.0
 11
-123.5000000001554
 21
-7.749999999980943
 31
0.0
  0
LINE
  5
7A75
330
A
100
AcDbEntity
  8
0
  6
Continuous
 62
     7
370
     0
100
AcDbLine
 10
-109.5000000019417
 20
15.00000000001901
 30
0.0
 11
-118.5000000019416
 21
15.00000000001901
 31
0.0
  0
LINE
  5
7A76
330
A
100
AcDbEntity
  8
0
  6
Continuous
 62
     7
370
     0
100
AcDbLine
 10
-83.50000000015546
 20
10.000000000019
 30
0.0
 11
-83.50000000015546
 21
-59.99999999998094
 31
0.0
  0
ARC
  5
7A77
330
A
100
AcDbEntity
  8
0
  6
Continuous
 62
     7
370
     0
100
AcDbCircle
 10
-88.50001017125029
 20
9.999996695847357
 30
0.0
 40
5.000010171095938
100
AcDbArc
 50
0.0000378629416015
 51
35.99367068366309
  0
ARC
  5
7A78
330
A
100
AcDbEntity
  8
0
  6
Continuous
 62
     7
370
     0
100
AcDbCircle
 10
-88.50001033724216
 20
-59.99999664188535
 30
0.0
 40
5.000010337087846
100
AcDbArc
 50
324.0063299342578
 51
359.999961519138
  0
LINE
  5
7A79
330
A
100
AcDbEntity
  8
0
  6
Continuous
 62
     7
370
     0
100
AcDbLine
 10
-105.2000000019438
 20
-56.24999999998085
 30
0.0
 11
-103.7500000019438
 21
-55.41284210965596
 31
0.0
  0
LINE
  5
7A7A
330
A
100
AcDbEntity
  8
0
  6
Continuous
 62
     7
370
     0
100
AcDbLine
 10
-103.7500000019438
 20
-44.58715789030576
 30
0.0
 11
-105.2000000019438
 21
-43.74999999998085
 31
0.0
  0
LINE
  5
7A7B
330
A
100
AcDbEntity
  8
0
  6
Continuous
 62
     7
370
     0
100
AcDbLine
 10
-105.2000000019438
 20
-43.74999999998085
 30
0.0
 11
-105.5000000019438
 21
-43.74999999998085
 31
0.0
  0
LINE
  5
7A7C
330
A
100
AcDbEntity
  8
0
  6
Continuous
 62
     7
370
     0
100
AcDbLine
 10
-105.5000000019438
 20
-56.24999999998085
 30
0.0
 11
-105.2000000019438
 21
-56.24999999998085
 31
0.0
  0
ARC
  5
7A7D
330
A
100
AcDbEntity
  8
0
  6
Continuous
 62
     7
370
     0
100
AcDbCircle
 10
-104.0000000019438
 20
-45.02017059219805
 30
0.0
 40
0.5000000000000006
100
AcDbArc
 50
0.0
 51
59.99999999999986
  0
ARC
  5
7A7E
330
A
100
AcDbEntity
  8
0
  6
Continuous
 62
     7
370
     0
100
AcDbCircle
 10
-104.0000000019438
 20
-54.97982940776363
 30
0.0
 40
0.500000000000002
100
AcDbArc
 50
300.0000000000001
 51
0.0
  0
LINE
  5
7A7F
330
A
100
AcDbEntity
  8
0
  6
Continuous
 62
     7
370
     0
100
AcDbLine
 10
-105.2000000019438
 20
-6.249999999999872
 30
0.0
 11
-103.7500000019438
 21
-5.412842109674912
 31
0.0
  0
LINE
  5
7A80
330
A
100
AcDbEntity
  8
0
  6
Continuous
 62
     7
370
     0
100
AcDbLine
 10
-103.7500000019438
 20
5.412842109675196
 30
0.0
 11
-105.2000000019438
 21
6.250000000000127
 31
0.0
  0
LINE
  5
7A81
330
A
100
AcDbEntity
  8
0
  6
Continuous
 62
     7
370
     0
100
AcDbLine
 10
-105.2000000019438
 20
6.250000000000127
 30
0.0
 11
-105.5000000019438
 21
6.250000000000127
 31
0.0
  0
LINE
  5
7A82
330
A
100
AcDbEntity
  8
0
  6
Continuous
 62
     7
370
     0
100
AcDbLine
 10
-105.5000000019438
 20
-6.249999999999872
 30
0.0
 11
-105.2000000019438
 21
-6.249999999999872
 31
0.0
  0
ARC
  5
7A83
330
A
100
AcDbEntity
  8
0
  6
Continuous
 62
     7
370
     0
100
AcDbCircle
 10
-104.0000000019438
 20
4.979829407782972
 30
0.0
 40
0.5000000000000006
100
AcDbArc
 50
0.0
 51
59.99999999999986
  0
ARC
  5
7A84
330
A
100
AcDbEntity
  8
0
  6
Continuous
 62
     7
370
     0
100
AcDbCircle
 10
-104.0000000019438
 20
-4.979829407782702
 30
0.0
 40
0.500000000000002
100
AcDbArc
 50
300.0000000000001
 51
0.0
  0
LINE
  5
7A85
330
A
100
AcDbEntity
  8
0
  6
Continuous
 62
     7
370
     0
100
AcDbLine
 10
-117.0000000019416
 20
-55.49999999998094
 30
0.0
 11
-111.0000000019425
 21
-55.49999999998094
 31
0.0
  0
LINE
  5
7A86
330
A
100
AcDbEntity
  8
0
  6
Continuous
 62
     7
370
     0
100
AcDbLine
 10
-111.0000000019425
 20
5.500000000018971
 30
0.0
 11
-117.0000000019416
 21
5.500000000018971
 31
0.0
  0
LINE
  5
7A87
330
A
100
AcDbEntity
  8
0
  6
Continuous
 62
     7
370
     0
100
AcDbLine
 10
-123.2764557183933
 20
-8.749999999980943
 30
0.0
 11
-123.2764557183933
 21
-41.24999999998094
 31
0.0
  0
LINE
  5
7A88
330
A
100
AcDbEntity
  8
0
  6
Continuous
 62
     9
370
     0
100
AcDbLine
 10
-35.018181817531
 20
-122.9128421096557
 30
0.0
 11
-35.018181817531
 21
-112.0871578903056
 31
0.0
  0
LINE
  5
7A89
330
A
100
AcDbEntity
  8
0
  6
Continuous
 62
     7
370
     0
100
AcDbLine
 10
-34.768181817531
 20
-112.5201705921979
 30
0.0
 11
-34.768181817531
 21
-122.4798294077635
 31
0.0
  0
LINE
  5
7A8A
330
A
100
AcDbEntity
  8
0
  6
Continuous
 62
     9
370
     0
100
AcDbLine
 10
-50.4999999993587
 20
-140.4999999999723
 30
0.0
 11
-49.49999999935219
 21
-140.4999999999723
 31
0.0
  0
LINE
  5
7A8B
330
A
100
AcDbEntity
  8
0
  6
Continuous
 62
     9
370
     0
100
AcDbLine
 10
-49.49999999935219
 20
-140.4999999999723
 30
0.0
 11
-48.49999999935871
 21
-140.4999999999723
 31
0.0
  0
LINE
  5
7A8C
330
A
100
AcDbEntity
  8
0
  6
Continuous
 62
     9
370
     0
100
AcDbLine
 10
-50.4999999993587
 20
-108.4999999999837
 30
0.0
 11
-49.49999999935219
 21
-108.4999999999837
 31
0.0
  0
LINE
  5
7A8D
330
A
100
AcDbEntity
  8
0
  6
Continuous
 62
     9
370
     0
100
AcDbLine
 10
-49.49999999935219
 20
-108.4999999999837
 30
0.0
 11
-48.49999999935871
 21
-108.4999999999837
 31
0.0
  0
LINE
  5
7A8E
330
A
100
AcDbEntity
  8
0
  6
Continuous
 62
     7
370
     0
100
AcDbLine
 10
-48.49999999935871
 20
-108.4999999999837
 30
0.0
 11
-48.49999999935871
 21
-140.4999999999723
 31
0.0
  0
LINE
  5
7A8F
330
A
100
AcDbEntity
  8
0
  6
Continuous
 62
     7
370
     0
100
AcDbLine
 10
-50.4999999993587
 20
-141.499999999972
 30
0.0
 11
-49.49999999935219
 21
-141.499999999972
 31
0.0
  0
LINE
  5
7A90
330
A
100
AcDbEntity
  8
0
  6
Continuous
 62
     7
370
     0
100
AcDbLine
 10
-49.49999999935219
 20
-141.499999999972
 30
0.0
 11
-48.49999999935871
 21
-141.499999999972
 31
0.0
  0
LINE
  5
7A91
330
A
100
AcDbEntity
  8
0
  6
Continuous
 62
     7
370
     0
100
AcDbLine
 10
-48.49999999935871
 20
-140.4999999999723
 30
0.0
 11
-48.49999999935871
 21
-141.4999999999723
 31
0.0
  0
LINE
  5
7A92
330
A
100
AcDbEntity
  8
0
  6
Continuous
 62
     7
370
     0
100
AcDbLine
 10
-50.4999999993587
 20
-103.4999999999854
 30
0.0
 11
-49.49999999935219
 21
-103.4999999999854
 31
0.0
  0
LINE
  5
7A93
330
A
100
AcDbEntity
  8
0
  6
Continuous
 62
     7
370
     0
100
AcDbLine
 10
-49.49999999935219
 20
-103.4999999999854
 30
0.0
 11
-48.49999999935871
 21
-103.4999999999854
 31
0.0
  0
LINE
  5
7A94
330
A
100
AcDbEntity
  8
0
  6
Continuous
 62
     7
370
     0
100
AcDbLine
 10
-48.49999999935871
 20
-103.4999999999837
 30
0.0
 11
-48.49999999935871
 21
-108.4999999999837
 31
0.0
  0
LINE
  5
7A95
330
A
100
AcDbEntity
  8
0
  6
Continuous
 62
     9
370
     0
100
AcDbLine
 10
-40.49999999935649
 20
-108.4999999999771
 30
0.0
 11
-41.49999999935609
 21
-108.4999999999771
 31
0.0
  0
LINE
  5
7A96
330
A
100
AcDbEntity
  8
0
  6
Continuous
 62
     9
370
     0
100
AcDbLine
 10
-41.49999999935609
 20
-108.4999999999771
 30
0.0
 11
-42.49999999935648
 21
-108.4999999999771
 31
0.0
  0
LINE
  5
7A97
330
A
100
AcDbEntity
  8
0
  6
Continuous
 62
     9
370
     0
100
AcDbLine
 10
-40.49999999935649
 20
-140.4999999999892
 30
0.0
 11
-41.4999999993562
 21
-140.4999999999892
 31
0.0
  0
LINE
  5
7A98
330
A
100
AcDbEntity
  8
0
  6
Continuous
 62
     9
370
     0
100
AcDbLine
 10
-41.4999999993562
 20
-140.4999999999892
 30
0.0
 11
-42.49999999935648
 21
-140.4999999999892
 31
0.0
  0
LINE
  5
7A99
330
A
100
AcDbEntity
  8
0
  6
Continuous
 62
     7
370
     0
100
AcDbLine
 10
-42.49999999935648
 20
-140.4999999999892
 30
0.0
 11
-42.49999999935648
 21
-108.4999999999771
 31
0.0
  0
LINE
  5
7A9A
330
A
100
AcDbEntity
  8
0
  6
Continuous
 62
     7
370
     0
100
AcDbLine
 10
-40.49999999935649
 20
-103.4999999999752
 30
0.0
 11
-41.49999999935609
 21
-103.4999999999752
 31
0.0
  0
LINE
  5
7A9B
330
A
100
AcDbEntity
  8
0
  6
Continuous
 62
     7
370
     0
100
AcDbLine
 10
-41.49999999935609
 20
-103.4999999999752
 30
0.0
 11
-42.49999999935648
 21
-103.4999999999752
 31
0.0
  0
LINE
  5
7A9C
330
A
100
AcDbEntity
  8
0
  6
Continuous
 62
     7
370
     0
100
AcDbLine
 10
-42.49999999935648
 20
-108.4999999999771
 30
0.0
 11
-42.49999999935648
 21
-103.4999999999771
 31
0.0
  0
LINE
  5
7A9D
330
A
100
AcDbEntity
  8
0
  6
Continuous
 62
     7
370
     0
100
AcDbLine
 10
-40.49999999935649
 20
-141.4999999999896
 30
0.0
 11
-41.4999999993562
 21
-141.4999999999896
 31
0.0
  0
LINE
  5
7A9E
330
A
100
AcDbEntity
  8
0
  6
Continuous
 62
     7
370
     0
100
AcDbLine
 10
-41.4999999993562
 20
-141.4999999999896
 30
0.0
 11
-42.49999999935648
 21
-141.4999999999896
 31
0.0
  0
LINE
  5
7A9F
330
A
100
AcDbEntity
  8
0
  6
Continuous
 62
     7
370
     0
100
AcDbLine
 10
-42.49999999935648
 20
-141.4999999999892
 30
0.0
 11
-42.49999999935648
 21
-140.4999999999892
 31
0.0
  0
LINE
  5
7AA0
330
A
100
AcDbEntity
  8
0
  6
Continuous
 62
     7
370
     0
100
AcDbLine
 10
-54.49999999935219
 20
-102.4999999999853
 30
0.0
 11
-50.4999999993522
 21
-102.4999999999853
 31
0.0
  0
LINE
  5
7AA1
330
A
100
AcDbEntity
  8
0
  6
Continuous
 62
     7
370
     0
100
AcDbLine
 10
-50.4999999993522
 20
-102.4999999999837
 30
0.0
 11
-50.4999999993522
 21
-107.4999999999837
 31
0.0
  0
LINE
  5
7AA2
330
A
100
AcDbEntity
  8
0
  6
Continuous
 62
     9
370
     0
100
AcDbLine
 10
-50.4999999993522
 20
-107.4999999999837
 30
0.0
 11
-54.49999999935219
 21
-107.4999999999837
 31
0.0
  0
LINE
  5
7AA3
330
A
100
AcDbEntity
  8
0
  6
Continuous
 62
     7
370
     0
100
AcDbLine
 10
-54.49999999935219
 20
-107.4999999999837
 30
0.0
 11
-54.49999999935219
 21
-102.4999999999837
 31
0.0
  0
LINE
  5
7AA4
330
A
100
AcDbEntity
  8
0
  6
Continuous
 62
     7
370
     0
100
AcDbLine
 10
-54.49999999935221
 20
-142.4999999999727
 30
0.0
 11
-50.4999999993522
 21
-142.4999999999727
 31
0.0
  0
LINE
  5
7AA5
330
A
100
AcDbEntity
  8
0
  6
Continuous
 62
     7
370
     0
100
AcDbLine
 10
-54.49999999935219
 20
-107.4999999999837
 30
0.0
 11
-54.49999999935221
 21
-142.4999999999727
 31
0.0
  0
LINE
  5
7AA6
330
A
100
AcDbEntity
  8
0
  6
Continuous
 62
     7
370
     0
100
AcDbLine
 10
-50.4999999993522
 20
-107.4999999999837
 30
0.0
 11
-50.4999999993522
 21
-142.4999999999727
 31
0.0
  0
LINE
  5
7AA7
330
A
100
AcDbEntity
  8
0
  6
Continuous
 62
     9
370
     0
100
AcDbLine
 10
-50.4999999993522
 20
-140.4999999999779
 30
0.0
 11
-49.49999999935219
 21
-140.4999999999779
 31
0.0
  0
LINE
  5
7AA8
330
A
100
AcDbEntity
  8
0
  6
Continuous
 62
     9
370
     0
100
AcDbLine
 10
-50.4999999993522
 20
-108.4999999999816
 30
0.0
 11
-49.49999999935219
 21
-108.4999999999816
 31
0.0
  0
LINE
  5
7AA9
330
A
100
AcDbEntity
  8
0
  6
Continuous
 62
     7
370
     0
100
AcDbLine
 10
-49.49999999935219
 20
-108.4999999999816
 30
0.0
 11
-49.49999999935219
 21
-140.4999999999779
 31
0.0
  0
LINE
  5
7AAA
330
A
100
AcDbEntity
  8
0
  6
Continuous
 62
     7
370
     0
100
AcDbLine
 10
-50.4999999993522
 20
-103.4999999999821
 30
0.0
 11
-49.49999999935219
 21
-103.4999999999821
 31
0.0
  0
LINE
  5
7AAB
330
A
100
AcDbEntity
  8
0
  6
Continuous
 62
     7
370
     0
100
AcDbLine
 10
-49.49999999935219
 20
-103.4999999999815
 30
0.0
 11
-49.49999999935219
 21
-108.4999999999816
 31
0.0
  0
LINE
  5
7AAC
330
A
100
AcDbEntity
  8
0
  6
Continuous
 62
     7
370
     0
100
AcDbLine
 10
-50.4999999993522
 20
-141.4999999999776
 30
0.0
 11
-49.49999999935219
 21
-141.4999999999776
 31
0.0
  0
LINE
  5
7AAD
330
A
100
AcDbEntity
  8
0
  6
Continuous
 62
     7
370
     0
100
AcDbLine
 10
-49.49999999935219
 20
-140.4999999999779
 30
0.0
 11
-49.49999999935219
 21
-141.4999999999779
 31
0.0
  0
LINE
  5
7AAE
330
A
100
AcDbEntity
  8
0
  6
Continuous
 62
     9
370
     0
100
AcDbLine
 10
-41.4999999993562
 20
-140.4999999999768
 30
0.0
 11
-40.49999999935649
 21
-140.4999999999768
 31
0.0
  0
LINE
  5
7AAF
330
A
100
AcDbEntity
  8
0
  6
Continuous
 62
     9
370
     0
100
AcDbLine
 10
-41.49999999935609
 20
-108.4999999999819
 30
0.0
 11
-40.49999999935649
 21
-108.4999999999819
 31
0.0
  0
LINE
  5
7AB0
330
A
100
AcDbEntity
  8
0
  6
Continuous
 62
     7
370
     0
100
AcDbLine
 10
-41.49999999935609
 20
-108.4999999999819
 30
0.0
 11
-41.4999999993562
 21
-140.4999999999768
 31
0.0
  0
LINE
  5
7AB1
330
A
100
AcDbEntity
  8
0
  6
Continuous
 62
     7
370
     0
100
AcDbLine
 10
-41.4999999993562
 20
-141.4999999999766
 30
0.0
 11
-40.49999999935649
 21
-141.4999999999766
 31
0.0
  0
LINE
  5
7AB2
330
A
100
AcDbEntity
  8
0
  6
Continuous
 62
     7
370
     0
100
AcDbLine
 10
-41.4999999993562
 20
-140.4999999999768
 30
0.0
 11
-41.4999999993562
 21
-141.4999999999758
 31
0.0
  0
LINE
  5
7AB3
330
A
100
AcDbEntity
  8
0
  6
Continuous
 62
     7
370
     0
100
AcDbLine
 10
-41.49999999935609
 20
-103.4999999999827
 30
0.0
 11
-40.49999999935649
 21
-103.4999999999827
 31
0.0
  0
LINE
  5
7AB4
330
A
100
AcDbEntity
  8
0
  6
Continuous
 62
     7
370
     0
100
AcDbLine
 10
-41.49999999935609
 20
-103.4999999999852
 30
0.0
 11
-41.49999999935609
 21
-108.4999999999819
 31
0.0
  0
LINE
  5
7AB5
330
A
100
AcDbEntity
  8
0
  6
Continuous
 62
     7
370
     0
100
AcDbLine
 10
-6.250000000015688
 20
-124.2000000017109
 30
0.0
 11
6.249999999984311
 21
-124.2000000018268
 31
0.0
  0
LINE
  5
7AB6
330
A
100
AcDbEntity
  8
0
  6
Continuous
 62
     9
370
     0
100
AcDbLine
 10
5.412842109672823
 20
-122.750000001819
 30
0.0
 11
-0.0000000029316709
 21
-122.7500000017689
 31
0.0
  0
LINE
  5
7AB7
330
A
100
AcDbEntity
  8
0
  6
Continuous
 62
     9
370
     0
100
AcDbLine
 10
-0.0000000029316709
 20
-122.7500000017689
 30
0.0
 11
-5.412842109677313
 21
-122.7500000017187
 31
0.0
  0
LINE
  5
7AB8
330
A
100
AcDbEntity
  8
0
  6
Continuous
 62
     7
370
     0
100
AcDbLine
 10
-4.979829407782801
 20
-122.5000000017227
 30
0.0
 11
-0.0000000026950886
 21
-122.5000000017689
 31
0.0
  0
LINE
  5
7AB9
330
A
100
AcDbEntity
  8
0
  6
Continuous
 62
     7
370
     0
100
AcDbLine
 10
-0.0000000026950886
 20
-122.5000000017689
 30
0.0
 11
4.979829407782801
 21
-122.500000001815
 31
0.0
  0
LINE
  5
7ABA
330
A
100
AcDbEntity
  8
0
  6
Continuous
 62
     9
370
     0
100
AcDbLine
 10
-26.7500000009785
 20
-128.5000000017668
 30
0.0
 11
-26.7500000009785
 21
-129.0000000017668
 31
0.0
  0
LINE
  5
7ABB
330
A
100
AcDbEntity
  8
0
  6
Continuous
 62
     9
370
     0
100
AcDbLine
 10
10.7499999990311
 20
-128.5000000017668
 30
0.0
 11
10.7499999990311
 21
-129.0000000017668
 31
0.0
  0
LINE
  5
7ABC
330
A
100
AcDbEntity
  8
0
  6
Continuous
 62
     7
370
     0
100
AcDbLine
 10
-26.7500000009785
 20
-129.0000000017668
 30
0.0
 11
10.7499999990311
 21
-129.0000000017668
 31
0.0
  0
LINE
  5
7ABD
330
A
100
AcDbEntity
  8
0
  6
Continuous
 62
     7
370
     0
100
AcDbLine
 10
15.24999999903218
 20
-128.5000000017668
 30
0.0
 11
15.24999999903218
 21
-129.0000000017668
 31
0.0
  0
LINE
  5
7ABE
330
A
100
AcDbEntity
  8
0
  6
Continuous
 62
     7
370
     0
100
AcDbLine
 10
10.7499999990311
 20
-129.0000000017668
 30
0.0
 11
15.2499999990311
 21
-129.0000000017668
 31
0.0
  0
LINE
  5
7ABF
330
A
100
AcDbEntity
  8
0
  6
Continuous
 62
     7
370
     0
100
AcDbLine
 10
-31.25000000097958
 20
-128.5000000017668
 30
0.0
 11
-31.25000000097958
 21
-129.0000000017668
 31
0.0
  0
LINE
  5
7AC0
330
A
100
AcDbEntity
  8
0
  6
Continuous
 62
     7
370
     0
100
AcDbLine
 10
-31.25000000097851
 20
-129.0000000017668
 30
0.0
 11
-26.7500000009785
 21
-129.0000000017668
 31
0.0
  0
LINE
  5
7AC1
330
A
100
AcDbEntity
  8
0
  6
Continuous
 62
     7
370
     0
100
AcDbLine
 10
15.24999999903201
 20
-130.0000000017676
 30
0.0
 11
15.24999999903201
 21
-129.0000000017659
 31
0.0
  0
LINE
  5
7AC2
330
A
100
AcDbEntity
  8
0
  6
Continuous
 62
     7
370
     0
100
AcDbLine
 10
15.24999999903201
 20
-129.0000000017659
 30
0.0
 11
15.24999999903201
 21
-128.5000000017655
 31
0.0
  0
LINE
  5
7AC3
330
A
100
AcDbEntity
  8
0
  6
Continuous
 62
     9
370
     0
100
AcDbLine
 10
10.74999999903201
 20
-130.0000000017676
 30
0.0
 11
10.74999999903201
 21
-129.0000000017659
 31
0.0
  0
LINE
  5
7AC4
330
A
100
AcDbEntity
  8
0
  6
Continuous
 62
     9
370
     0
100
AcDbLine
 10
10.74999999903201
 20
-129.0000000017659
 30
0.0
 11
10.74999999903201
 21
-128.5000000017668
 31
0.0
  0
LINE
  5
7AC5
330
A
100
AcDbEntity
  8
0
  6
Continuous
 62
     7
370
     0
100
AcDbLine
 10
15.24999999903568
 20
-130.0000000017676
 30
0.0
 11
10.74999999903201
 21
-130.0000000017676
 31
0.0
  0
LINE
  5
7AC6
330
A
100
AcDbEntity
  8
0
  6
Continuous
 62
     9
370
     0
100
AcDbLine
 10
-26.75000000096799
 20
-130.0000000017676
 30
0.0
 11
-26.75000000096799
 21
-129.0000000017659
 31
0.0
  0
LINE
  5
7AC7
330
A
100
AcDbEntity
  8
0
  6
Continuous
 62
     9
370
     0
100
AcDbLine
 10
-26.75000000096799
 20
-129.0000000017659
 30
0.0
 11
-26.75000000096799
 21
-128.5000000017668
 31
0.0
  0
LINE
  5
7AC8
330
A
100
AcDbEntity
  8
0
  6
Continuous
 62
     7
370
     0
100
AcDbLine
 10
10.74999999903201
 20
-130.0000000017676
 30
0.0
 11
-26.75000000096799
 21
-130.0000000017676
 31
0.0
  0
LINE
  5
7AC9
330
A
100
AcDbEntity
  8
0
  6
Continuous
 62
     7
370
     0
100
AcDbLine
 10
-31.25000000096799
 20
-130.0000000017676
 30
0.0
 11
-31.25000000096799
 21
-129.0000000017659
 31
0.0
  0
LINE
  5
7ACA
330
A
100
AcDbEntity
  8
0
  6
Continuous
 62
     7
370
     0
100
AcDbLine
 10
-31.25000000096799
 20
-129.0000000017659
 30
0.0
 11
-31.25000000096799
 21
-128.5000000017668
 31
0.0
  0
LINE
  5
7ACB
330
A
100
AcDbEntity
  8
0
  6
Continuous
 62
     7
370
     0
100
AcDbLine
 10
-26.75000000096799
 20
-130.0000000017676
 30
0.0
 11
-31.2500000009735
 21
-130.0000000017676
 31
0.0
  0
LINE
  5
7ACC
330
A
100
AcDbEntity
  8
0
  6
Continuous
 62
     7
370
     0
100
AcDbLine
 10
15.2499999990311
 20
-137.5000000017667
 30
0.0
 11
15.2499999990311
 21
-137.0000000017667
 31
0.0
  0
LINE
  5
7ACD
330
A
100
AcDbEntity
  8
0
  6
Continuous
 62
     9
370
     0
100
AcDbLine
 10
10.7499999990311
 20
-137.5000000017667
 30
0.0
 11
10.7499999990311
 21
-137.0000000017667
 31
0.0
  0
LINE
  5
7ACE
330
A
100
AcDbEntity
  8
0
  6
Continuous
 62
     7
370
     0
100
AcDbLine
 10
15.2499999990311
 20
-137.0000000017667
 30
0.0
 11
10.7499999990311
 21
-137.0000000017667
 31
0.0
  0
LINE
  5
7ACF
330
A
100
AcDbEntity
  8
0
  6
Continuous
 62
     9
370
     0
100
AcDbLine
 10
-26.7500000009689
 20
-137.5000000017667
 30
0.0
 11
-26.7500000009689
 21
-137.0000000017667
 31
0.0
  0
LINE
  5
7AD0
330
A
100
AcDbEntity
  8
0
  6
Continuous
 62
     7
370
     0
100
AcDbLine
 10
10.7499999990311
 20
-137.0000000017667
 30
0.0
 11
-26.7500000009689
 21
-137.0000000017667
 31
0.0
  0
LINE
  5
7AD1
330
A
100
AcDbEntity
  8
0
  6
Continuous
 62
     7
370
     0
100
AcDbLine
 10
-31.2500000009689
 20
-137.5000000017667
 30
0.0
 11
-31.2500000009689
 21
-137.0000000017667
 31
0.0
  0
LINE
  5
7AD2
330
A
100
AcDbEntity
  8
0
  6
Continuous
 62
     7
370
     0
100
AcDbLine
 10
-26.7500000009689
 20
-137.0000000017667
 30
0.0
 11
-31.2500000009689
 21
-137.0000000017667
 31
0.0
  0
LINE
  5
7AD3
330
A
100
AcDbEntity
  8
0
  6
Continuous
 62
     9
370
     0
100
AcDbLine
 10
-26.75000000098349
 20
-137.5000000017667
 30
0.0
 11
-26.75000000098349
 21
-137.0000000017667
 31
0.0
  0
LINE
  5
7AD4
330
A
100
AcDbEntity
  8
0
  6
Continuous
 62
     9
370
     0
100
AcDbLine
 10
-26.75000000098349
 20
-137.0000000017667
 30
0.0
 11
-26.75000000098349
 21
-136.0000000017667
 31
0.0
  0
LINE
  5
7AD5
330
A
100
AcDbEntity
  8
0
  6
Continuous
 62
     7
370
     0
100
AcDbLine
 10
10.7499999990311
 20
-136.0000000017667
 30
0.0
 11
-26.75000000098349
 21
-136.0000000017667
 31
0.0
  0
LINE
  5
7AD6
330
A
100
AcDbEntity
  8
0
  6
Continuous
 62
     7
370
     0
100
AcDbLine
 10
15.24999999903292
 20
-137.5000000017667
 30
0.0
 11
15.24999999903292
 21
-137.0000000017667
 31
0.0
  0
LINE
  5
7AD7
330
A
100
AcDbEntity
  8
0
  6
Continuous
 62
     7
370
     0
100
AcDbLine
 10
15.24999999903292
 20
-137.0000000017667
 30
0.0
 11
15.24999999903292
 21
-136.0000000017667
 31
0.0
  0
LINE
  5
7AD8
330
A
100
AcDbEntity
  8
0
  6
Continuous
 62
     9
370
     0
100
AcDbLine
 10
10.7499999990311
 20
-137.5000000017667
 30
0.0
 11
10.7499999990311
 21
-137.0000000017667
 31
0.0
  0
LINE
  5
7AD9
330
A
100
AcDbEntity
  8
0
  6
Continuous
 62
     9
370
     0
100
AcDbLine
 10
10.7499999990311
 20
-137.0000000017667
 30
0.0
 11
10.7499999990311
 21
-136.0000000017667
 31
0.0
  0
LINE
  5
7ADA
330
A
100
AcDbEntity
  8
0
  6
Continuous
 62
     7
370
     0
100
AcDbLine
 10
15.2499999990311
 20
-136.0000000017667
 30
0.0
 11
10.7499999990311
 21
-136.0000000017667
 31
0.0
  0
LINE
  5
7ADB
330
A
100
AcDbEntity
  8
0
  6
Continuous
 62
     7
370
     0
100
AcDbLine
 10
-31.25000000098528
 20
-137.5000000017667
 30
0.0
 11
-31.25000000098528
 21
-137.0000000017667
 31
0.0
  0
LINE
  5
7ADC
330
A
100
AcDbEntity
  8
0
  6
Continuous
 62
     7
370
     0
100
AcDbLine
 10
-31.25000000098528
 20
-137.0000000017667
 30
0.0
 11
-31.25000000098528
 21
-136.0000000017667
 31
0.0
  0
LINE
  5
7ADD
330
A
100
AcDbEntity
  8
0
  6
Continuous
 62
     7
370
     0
100
AcDbLine
 10
-26.75000000098349
 20
-136.0000000017667
 30
0.0
 11
-31.25000000098349
 21
-136.0000000017667
 31
0.0
  0
LINE
  5
7ADE
330
A
100
AcDbEntity
  8
0
  6
Continuous
 62
     7
370
     0
100
AcDbLine
 10
-32.5000000009447
 20
-128.5000000017668
 30
0.0
 11
-32.5000000009447
 21
-126.650980488174
 31
0.0
  0
ARC
  5
7ADF
330
A
100
AcDbEntity
  8
0
  6
Continuous
 62
     7
370
     0
100
AcDbCircle
 10
-27.00000000094708
 20
-131.7500000017668
 30
0.0
 40
7.499999999999995
100
AcDbArc
 50
104.835111581969
 51
137.1665719339201
  0
LINE
  5
7AE0
330
A
100
AcDbEntity
  8
0
  6
Continuous
 62
     7
370
     0
100
AcDbLine
 10
-28.9202864379134
 20
-124.5000000017668
 30
0.0
 11
12.49999999903599
 21
-124.5000000017668
 31
0.0
  0
LINE
  5
7AE1
330
A
100
AcDbEntity
  8
0
  6
Continuous
 62
     9
370
     0
100
AcDbLine
 10
12.49999999903599
 20
-128.5000000017668
 30
0.0
 11
12.49999999903599
 21
-124.5000000017668
 31
0.0
  0
LINE
  5
7AE2
330
A
100
AcDbEntity
  8
0
  6
Continuous
 62
     7
370
     0
100
AcDbLine
 10
-32.5000000009447
 20
-128.5000000017668
 30
0.0
 11
12.49999999903599
 21
-128.5000000017668
 31
0.0
  0
LINE
  5
7AE3
330
A
100
AcDbEntity
  8
0
  6
Continuous
 62
     7
370
     0
100
AcDbLine
 10
17.49999999903392
 20
-124.5000000017668
 30
0.0
 11
17.49999999903392
 21
-128.5000000017668
 31
0.0
  0
LINE
  5
7AE4
330
A
100
AcDbEntity
  8
0
  6
Continuous
 62
     7
370
     0
100
AcDbLine
 10
12.49999999903599
 20
-124.5000000017668
 30
0.0
 11
17.49999999903599
 21
-124.5000000017668
 31
0.0
  0
LINE
  5
7AE5
330
A
100
AcDbEntity
  8
0
  6
Continuous
 62
     7
370
     0
100
AcDbLine
 10
17.49999999903599
 20
-128.5000000017668
 30
0.0
 11
12.49999999903599
 21
-128.5000000017668
 31
0.0
  0
CIRCLE
  5
7AE6
330
A
100
AcDbEntity
  8
0
  6
Continuous
 62
     7
370
     0
100
AcDbCircle
 10
-21.50000000095929
 20
-133.5000000017672
 30
0.0
 40
1.772059531467611
  0
ARC
  5
7AE7
330
A
100
AcDbEntity
  8
0
  6
Continuous
 62
     7
370
     0
100
AcDbCircle
 10
-27.00000000095839
 20
-134.2500000017667
 30
0.0
 40
7.500000000000035
100
AcDbArc
 50
222.8334280660678
 51
255.1648884180242
  0
LINE
  5
7AE8
330
A
100
AcDbEntity
  8
0
  6
Continuous
 62
     9
370
     0
100
AcDbLine
 10
12.49999999904131
 20
-141.5000000017666
 30
0.0
 11
12.49999999904131
 21
-137.5000000017667
 31
0.0
  0
LINE
  5
7AE9
330
A
100
AcDbEntity
  8
0
  6
Continuous
 62
     7
370
     0
100
AcDbLine
 10
12.49999999904131
 20
-137.5000000017667
 30
0.0
 11
-32.5000000009583
 21
-137.5000000017667
 31
0.0
  0
LINE
  5
7AEA
330
A
100
AcDbEntity
  8
0
  6
Continuous
 62
     7
370
     0
100
AcDbLine
 10
12.49999999904131
 20
-141.5000000017666
 30
0.0
 11
-28.9202864379255
 21
-141.5000000017666
 31
0.0
  0
LINE
  5
7AEB
330
A
100
AcDbEntity
  8
0
  6
Continuous
 62
     7
370
     0
100
AcDbLine
 10
-32.5000000009583
 20
-139.3490195153595
 30
0.0
 11
-32.5000000009583
 21
-137.5000000017667
 31
0.0
  0
LINE
  5
7AEC
330
A
100
AcDbEntity
  8
0
  6
Continuous
 62
     7
370
     0
100
AcDbLine
 10
17.49999999904131
 20
-137.5000000017667
 30
0.0
 11
17.49999999904131
 21
-141.5000000017666
 31
0.0
  0
LINE
  5
7AED
330
A
100
AcDbEntity
  8
0
  6
Continuous
 62
     7
370
     0
100
AcDbLine
 10
12.49999999904131
 20
-137.5000000017667
 30
0.0
 11
17.49999999904119
 21
-137.5000000017667
 31
0.0
  0
LINE
  5
7AEE
330
A
100
AcDbEntity
  8
0
  6
Continuous
 62
     7
370
     0
100
AcDbLine
 10
17.49999999904119
 20
-141.5000000017666
 30
0.0
 11
12.49999999904131
 21
-141.5000000017666
 31
0.0
  0
LINE
  5
7AEF
330
A
100
AcDbEntity
  8
0
  6
Continuous
 62
     7
370
     0
100
AcDbLine
 10
5.499999999041421
 20
-130.0000000017676
 30
0.0
 11
5.499999999041421
 21
-136.0000000017667
 31
0.0
  0
LINE
  5
7AF0
330
A
100
AcDbEntity
  8
0
  6
Continuous
 62
     9
370
     0
100
AcDbLine
 10
-5.306140279328474
 20
-130.0000000017676
 30
0.0
 11
-5.306140279328474
 21
-136.0000000017667
 31
0.0
  0
LINE
  5
7AF1
330
A
100
AcDbEntity
  8
0
  6
Continuous
 62
     9
370
     0
100
AcDbLine
 10
-9.165151390870306
 20
-130.0000000017676
 30
0.0
 11
-9.165151390870164
 21
-136.0000000017667
 31
0.0
  0
ARC
  5
7AF2
330
A
100
AcDbEntity
  8
0
  6
Continuous
 62
     7
370
     0
100
AcDbCircle
 10
-21.50000000095838
 20
-133.5000000017667
 30
0.0
 40
2.500000000000029
100
AcDbArc
 50
270.0
 51
0.0
  0
ARC
  5
7AF3
330
A
100
AcDbEntity
  8
0
  6
Continuous
 62
     7
370
     0
100
AcDbCircle
 10
-21.50000000095838
 20
-133.5000000017667
 30
0.0
 40
2.500000000000002
100
AcDbArc
 50
0.0
 51
270.0
  0
LINE
  5
7AF4
330
A
100
AcDbEntity
  8
0
  6
Continuous
 62
     7
370
     0
100
AcDbLine
 10
-31.25000000096799
 20
-129.5000000017668
 30
0.0
 11
-32.5000000009583
 21
-129.5000000017668
 31
0.0
  0
LINE
  5
7AF5
330
A
100
AcDbEntity
  8
0
  6
Continuous
 62
     7
370
     0
100
AcDbLine
 10
-32.5000000009583
 20
-129.5000000017668
 30
0.0
 11
-32.5000000009583
 21
-137.5000000017667
 31
0.0
  0
LINE
  5
7AF6
330
A
100
AcDbEntity
  8
0
  6
Continuous
 62
     9
370
     0
100
AcDbLine
 10
-36.27272727208369
 20
-107.4999999999805
 30
0.0
 11
-40.49999999935649
 21
-107.4999999999805
 31
0.0
  0
LINE
  5
7AF7
330
A
100
AcDbEntity
  8
0
  6
Continuous
 62
     7
370
     0
100
AcDbLine
 10
-40.49999999935649
 20
-107.4999999999805
 30
0.0
 11
-40.49999999935649
 21
-102.4999999999805
 31
0.0
  0
LINE
  5
7AF8
330
A
100
AcDbEntity
  8
0
  6
Continuous
 62
     7
370
     0
100
AcDbLine
 10
-40.49999999935649
 20
-102.4999999999805
 30
0.0
 11
-37.45557797869941
 21
-102.4999999999805
 31
0.0
  0
LINE
  5
7B11
330
A
100
AcDbEntity
  8
0
  6
Continuous
 62
     7
370
     0
100
AcDbLine
 10
-36.45660943848908
 20
-103.4545923390618
 30
0.0
 11
-36.27272727208369
 21
-107.4999999999805
 31
0.0
  0
LINE
  5
7B12
330
A
100
AcDbEntity
  8
0
  6
Continuous
 62
     7
370
     0
100
AcDbLine
 10
-40.49999999935649
 20
-107.4999999999805
 30
0.0
 11
-40.49999999935649
 21
-142.4999999999805
 31
0.0
  0
LINE
  5
7B13
330
A
100
AcDbEntity
  8
0
  6
Continuous
 62
     7
370
     0
100
AcDbLine
 10
-35.49999999935649
 20
-124.4999999999807
 30
0.0
 11
-36.27272727208369
 21
-107.4999999999805
 31
0.0
  0
ARC
  5
7B14
330
A
100
AcDbEntity
  8
0
  6
Continuous
 62
     7
370
     0
100
AcDbCircle
 10
-26.49999999935649
 20
-133.4999999999805
 30
0.0
 40
11.99999999999998
100
AcDbArc
 50
138.590377890729
 51
221.4096221092709
  0
LINE
  5
7B15
330
A
100
AcDbEntity
  8
0
  6
Continuous
 62
     7
370
     0
100
AcDbLine
 10
-40.49999999935649
 20
-142.4999999999805
 30
0.0
 11
-35.49999999935649
 21
-142.4999999999805
 31
0.0
  0
LINE
  5
7B16
330
A
100
AcDbEntity
  8
0
  6
Continuous
 62
     7
370
     0
100
AcDbLine
 10
-35.49999999935649
 20
-142.4999999999805
 30
0.0
 11
-35.49999999935649
 21
-141.4372539331743
 31
0.0
  0
LINE
  5
7B17
330
A
100
AcDbEntity
  8
0
  6
Continuous
 62
     7
370
     0
100
AcDbLine
 10
-35.49999999935649
 20
-125.5627460667867
 30
0.0
 11
-35.49999999935649
 21
-124.4999999999807
 31
0.0
  0
LINE
  5
7B18
330
A
100
AcDbEntity
  8
0
  6
Continuous
 62
     9
370
     0
100
AcDbLine
 10
-34.49999999935649
 20
-124.4999999999805
 30
0.0
 11
-34.49999999935649
 21
-125.9501655647096
 31
0.0
  0
LINE
  5
7B19
330
A
100
AcDbEntity
  8
0
  6
Continuous
 62
     7
370
     0
100
AcDbLine
 10
-34.49999999935649
 20
-125.9501655647096
 30
0.0
 11
-35.49999999935649
 21
-125.5627460667867
 31
0.0
  0
LINE
  5
7B1A
330
A
100
AcDbEntity
  8
0
  6
Continuous
 62
     7
370
     0
100
AcDbLine
 10
-34.49999999935649
 20
-124.4999999999805
 30
0.0
 11
-35.49999999935649
 21
-124.4999999999805
 31
0.0
  0
ARC
  5
7B1B
330
A
100
AcDbEntity
  8
0
  6
Continuous
 62
     9
370
     0
100
AcDbCircle
 10
-26.49999999935649
 20
-133.4999999999805
 30
0.0
 40
10.99999999999999
100
AcDbArc
 50
136.6582417727771
 51
223.3417582272235
  0
LINE
  5
7B1C
330
A
100
AcDbEntity
  8
0
  6
Continuous
 62
     7
370
     0
100
AcDbLine
 10
-35.49999999935649
 20
-141.4372539331743
 30
0.0
 11
-34.49999999935649
 21
-141.0498344352513
 31
0.0
  0
LINE
  5
7B1D
330
A
100
AcDbEntity
  8
0
  6
Continuous
 62
     9
370
     0
100
AcDbLine
 10
-34.49999999935629
 20
-141.0498344352515
 30
0.0
 11
-34.49999999935649
 21
-142.4999999999805
 31
0.0
  0
LINE
  5
7B1E
330
A
100
AcDbEntity
  8
0
  6
Continuous
 62
     7
370
     0
100
AcDbLine
 10
-35.49999999935649
 20
-142.4999999999805
 30
0.0
 11
-34.49999999935649
 21
-142.4999999999805
 31
0.0
  0
ARC
  5
7B1F
330
A
100
AcDbEntity
  8
0
  6
Continuous
 62
     7
370
     0
100
AcDbCircle
 10
-20.49999999935639
 20
-133.4999999999805
 30
0.0
 40
9.000000000000021
100
AcDbArc
 50
284.0240495062388
 51
297.2660444259119
  0
ARC
  5
7B20
330
A
100
AcDbEntity
  8
0
  6
Continuous
 62
     7
370
     0
100
AcDbCircle
 10
-21.49999999935648
 20
-145.4999999999805
 30
0.0
 40
3.999999999999986
100
AcDbArc
 50
90.0
 51
125.0968012275848
  0
ARC
  5
7B21
330
A
100
AcDbEntity
  8
0
  6
Continuous
 62
     7
370
     0
100
AcDbCircle
 10
-21.49999999935648
 20
-145.4999999999805
 30
0.0
 40
4.000000000000002
100
AcDbArc
 50
59.1850467589397
 51
90.0
  0
ARC
  5
7B22
330
A
100
AcDbEntity
  8
0
  6
Continuous
 62
     7
370
     0
100
AcDbCircle
 10
-24.66227765952479
 20
-140.9999999999805
 30
0.0
 40
1.5
100
AcDbArc
 50
270.0
 51
305.0968012275844
  0
ARC
  5
7B23
330
A
100
AcDbEntity
  8
0
  6
Continuous
 62
     7
370
     0
100
AcDbCircle
 10
-18.68253138050139
 20
-140.7764557182185
 30
0.0
 40
1.500000000000003
100
AcDbArc
 50
239.1850467589397
 51
284.0240495062373
  0
LINE
  5
7B24
330
A
100
AcDbEntity
  8
0
  6
Continuous
 62
     7
370
     0
100
AcDbLine
 10
-28.9202864379134
 20
-124.4999999999805
 30
0.0
 11
-34.49999999935649
 21
-124.4999999999805
 31
0.0
  0
LINE
  5
7B25
330
A
100
AcDbEntity
  8
0
  6
Continuous
 62
     7
370
     0
100
AcDbLine
 10
-34.49999999935649
 20
-142.4999999999805
 30
0.0
 11
-24.66227765952479
 21
-142.4999999999805
 31
0.0
  0
LINE
  5
7B26
330
A
100
AcDbEntity
  8
0
  6
Continuous
 62
     7
370
     0
100
AcDbLine
 10
-42.49999999935648
 20
-110.5999999999808
 30
0.0
 11
-48.49999999935649
 21
-110.5999999999808
 31
0.0
  0
LINE
  5
7B27
330
A
100
AcDbEntity
  8
0
  6
Continuous
 62
     7
370
     0
100
AcDbLine
 10
-48.49999999935649
 20
-124.3999999999808
 30
0.0
 11
-42.49999999935648
 21
-124.3999999999808
 31
0.0
  0
LINE
  5
7B28
330
A
100
AcDbEntity
  8
0
  6
Continuous
 62
     7
370
     0
100
AcDbLine
 10
-35.5579775750126
 20
-123.2244933355451
 30
0.0
 11
-35.018181817531
 21
-122.9128421096557
 31
0.0
  0
LINE
  5
7B29
330
A
100
AcDbEntity
  8
0
  6
Continuous
 62
     7
370
     0
100
AcDbLine
 10
-35.018181817531
 20
-112.0871578903056
 30
0.0
 11
-36.09241130823389
 21
-111.4669512046768
 31
0.0
  0
ARC
  5
7B2A
330
A
100
AcDbEntity
  8
0
  6
Continuous
 62
     7
370
     0
100
AcDbCircle
 10
-35.268181817531
 20
-112.5201705921979
 30
0.0
 40
0.5000000000000006
100
AcDbArc
 50
0.0
 51
59.99999999999986
  0
ARC
  5
7B2B
330
A
100
AcDbEntity
  8
0
  6
Continuous
 62
     7
370
     0
100
AcDbCircle
 10
-35.268181817531
 20
-122.4798294077635
 30
0.0
 40
0.500000000000002
100
AcDbArc
 50
300.0000000000001
 51
0.0
  0
LINE
  5
7B2C
330
A
100
AcDbEntity
  8
0
  6
Continuous
 62
     7
370
     0
100
AcDbLine
 10
-6.250000000015688
 20
-124.2000000017109
 30
0.0
 11
-6.250000000018502
 21
-124.5000000017109
 31
0.0
  0
LINE
  5
7B2D
330
A
100
AcDbEntity
  8
0
  6
Continuous
 62
     7
370
     0
100
AcDbLine
 10
6.249999999981497
 20
-124.5000000018268
 30
0.0
 11
6.249999999984311
 21
-124.2000000018268
 31
0.0
  0
LINE
  5
7B2E
330
A
100
AcDbEntity
  8
0
  6
Continuous
 62
     7
370
     0
100
AcDbLine
 10
6.249999999984311
 20
-124.2000000018268
 30
0.0
 11
5.412842109672823
 21
-122.750000001819
 31
0.0
  0
LINE
  5
7B2F
330
A
100
AcDbEntity
  8
0
  6
Continuous
 62
     7
370
     0
100
AcDbLine
 10
-5.412842109677313
 20
-122.7500000017187
 30
0.0
 11
-6.250000000015688
 21
-124.2000000017109
 31
0.0
  0
ARC
  5
7B30
330
A
100
AcDbEntity
  8
0
  6
Continuous
 62
     7
370
     0
100
AcDbCircle
 10
-4.979829407787406
 20
-123.0000000017227
 30
0.0
 40
0.5000000000000006
100
AcDbArc
 50
89.99999999946913
 51
149.9999999994698
  0
ARC
  5
7B31
330
A
100
AcDbEntity
  8
0
  6
Continuous
 62
     7
370
     0
100
AcDbCircle
 10
4.979829407778197
 20
-123.000000001815
 30
0.0
 40
0.4999999999999849
100
AcDbArc
 50
29.99999999946861
 51
89.99999999946913
  0
LINE
  5
7B32
330
A
100
AcDbEntity
  8
0
  6
Continuous
 62
     9
370
     0
100
AcDbLine
 10
-35.01818181754209
 20
59.58715789034783
 30
0.0
 11
-35.01818181754209
 21
70.41284210969793
 31
0.0
  0
LINE
  5
7B33
330
A
100
AcDbEntity
  8
0
  6
Continuous
 62
     7
370
     0
100
AcDbLine
 10
-34.76818181754209
 20
69.97982940780571
 30
0.0
 11
-34.76818181754209
 21
60.02017059224005
 31
0.0
  0
LINE
  5
7B34
330
A
100
AcDbEntity
  8
0
  6
Continuous
 62
     9
370
     0
100
AcDbLine
 10
-50.4999999993587
 20
56.00000000002267
 30
0.0
 11
-49.49999999935219
 21
56.00000000002267
 31
0.0
  0
LINE
  5
7B35
330
A
100
AcDbEntity
  8
0
  6
Continuous
 62
     9
370
     0
100
AcDbLine
 10
-49.49999999935219
 20
56.00000000002267
 30
0.0
 11
-48.49999999935871
 21
56.00000000002267
 31
0.0
  0
LINE
  5
7B36
330
A
100
AcDbEntity
  8
0
  6
Continuous
 62
     9
370
     0
100
AcDbLine
 10
-50.4999999993587
 20
88.00000000001128
 30
0.0
 11
-49.49999999935219
 21
88.00000000001128
 31
0.0
  0
LINE
  5
7B37
330
A
100
AcDbEntity
  8
0
  6
Continuous
 62
     9
370
     0
100
AcDbLine
 10
-49.49999999935219
 20
88.00000000001128
 30
0.0
 11
-48.49999999935871
 21
88.00000000001128
 31
0.0
  0
LINE
  5
7B38
330
A
100
AcDbEntity
  8
0
  6
Continuous
 62
     7
370
     0
100
AcDbLine
 10
-48.49999999935871
 20
88.00000000001128
 30
0.0
 11
-48.49999999935871
 21
56.00000000002267
 31
0.0
  0
LINE
  5
7B39
330
A
100
AcDbEntity
  8
0
  6
Continuous
 62
     7
370
     0
100
AcDbLine
 10
-50.4999999993587
 20
89.00000000001092
 30
0.0
 11
-49.49999999935219
 21
89.00000000001092
 31
0.0
  0
LINE
  5
7B3A
330
A
100
AcDbEntity
  8
0
  6
Continuous
 62
     7
370
     0
100
AcDbLine
 10
-49.49999999935219
 20
89.00000000001092
 30
0.0
 11
-48.49999999935871
 21
89.00000000001092
 31
0.0
  0
LINE
  5
7B3B
330
A
100
AcDbEntity
  8
0
  6
Continuous
 62
     7
370
     0
100
AcDbLine
 10
-48.49999999935871
 20
89.0000000000113
 30
0.0
 11
-48.49999999935871
 21
88.00000000001128
 31
0.0
  0
LINE
  5
7B3C
330
A
100
AcDbEntity
  8
0
  6
Continuous
 62
     7
370
     0
100
AcDbLine
 10
-50.4999999993587
 20
51.00000000002445
 30
0.0
 11
-49.49999999935219
 21
51.00000000002445
 31
0.0
  0
LINE
  5
7B3D
330
A
100
AcDbEntity
  8
0
  6
Continuous
 62
     7
370
     0
100
AcDbLine
 10
-49.49999999935219
 20
51.00000000002445
 30
0.0
 11
-48.49999999935871
 21
51.00000000002445
 31
0.0
  0
LINE
  5
7B3E
330
A
100
AcDbEntity
  8
0
  6
Continuous
 62
     7
370
     0
100
AcDbLine
 10
-48.49999999935871
 20
56.00000000002267
 30
0.0
 11
-48.49999999935871
 21
51.00000000002268
 31
0.0
  0
LINE
  5
7B3F
330
A
100
AcDbEntity
  8
0
  6
Continuous
 62
     9
370
     0
100
AcDbLine
 10
-40.49999999935649
 20
88.00000000002814
 30
0.0
 11
-41.49999999935609
 21
88.00000000002814
 31
0.0
  0
LINE
  5
7B40
330
A
100
AcDbEntity
  8
0
  6
Continuous
 62
     9
370
     0
100
AcDbLine
 10
-41.49999999935609
 20
88.00000000002814
 30
0.0
 11
-42.49999999935648
 21
88.00000000002814
 31
0.0
  0
LINE
  5
7B41
330
A
100
AcDbEntity
  8
0
  6
Continuous
 62
     9
370
     0
100
AcDbLine
 10
-40.49999999935638
 20
56.00000000001609
 30
0.0
 11
-41.49999999935609
 21
56.00000000001609
 31
0.0
  0
LINE
  5
7B42
330
A
100
AcDbEntity
  8
0
  6
Continuous
 62
     9
370
     0
100
AcDbLine
 10
-41.49999999935609
 20
56.00000000001609
 30
0.0
 11
-42.49999999935639
 21
56.00000000001609
 31
0.0
  0
LINE
  5
7B43
330
A
100
AcDbEntity
  8
0
  6
Continuous
 62
     7
370
     0
100
AcDbLine
 10
-42.49999999935639
 20
56.00000000001609
 30
0.0
 11
-42.49999999935648
 21
88.00000000002814
 31
0.0
  0
LINE
  5
7B44
330
A
100
AcDbEntity
  8
0
  6
Continuous
 62
     7
370
     0
100
AcDbLine
 10
-40.49999999935638
 20
51.00000000001421
 30
0.0
 11
-41.49999999935609
 21
51.00000000001421
 31
0.0
  0
LINE
  5
7B45
330
A
100
AcDbEntity
  8
0
  6
Continuous
 62
     7
370
     0
100
AcDbLine
 10
-41.49999999935609
 20
51.00000000001421
 30
0.0
 11
-42.49999999935639
 21
51.00000000001421
 31
0.0
  0
LINE
  5
7B46
330
A
100
AcDbEntity
  8
0
  6
Continuous
 62
     7
370
     0
100
AcDbLine
 10
-42.49999999935639
 20
51.00000000001609
 30
0.0
 11
-42.49999999935639
 21
56.00000000001609
 31
0.0
  0
LINE
  5
7B47
330
A
100
AcDbEntity
  8
0
  6
Continuous
 62
     7
370
     0
100
AcDbLine
 10
-40.49999999935649
 20
89.00000000002853
 30
0.0
 11
-41.49999999935609
 21
89.00000000002853
 31
0.0
  0
LINE
  5
7B48
330
A
100
AcDbEntity
  8
0
  6
Continuous
 62
     7
370
     0
100
AcDbLine
 10
-41.49999999935609
 20
89.00000000002853
 30
0.0
 11
-42.49999999935648
 21
89.00000000002853
 31
0.0
  0
LINE
  5
7B49
330
A
100
AcDbEntity
  8
0
  6
Continuous
 62
     7
370
     0
100
AcDbLine
 10
-42.49999999935648
 20
88.00000000002814
 30
0.0
 11
-42.49999999935648
 21
89.00000000002814
 31
0.0
  0
LINE
  5
7B4A
330
A
100
AcDbEntity
  8
0
  6
Continuous
 62
     9
370
     0
100
AcDbLine
 10
-54.49999999935219
 20
55.00000000002261
 30
0.0
 11
-50.4999999993522
 21
55.00000000002261
 31
0.0
  0
LINE
  5
7B4B
330
A
100
AcDbEntity
  8
0
  6
Continuous
 62
     7
370
     0
100
AcDbLine
 10
-54.49999999935219
 20
90.00000000001156
 30
0.0
 11
-54.49999999935219
 21
55.00000000002261
 31
0.0
  0
LINE
  5
7B4C
330
A
100
AcDbEntity
  8
0
  6
Continuous
 62
     7
370
     0
100
AcDbLine
 10
-50.4999999993522
 20
90.00000000001156
 30
0.0
 11
-50.4999999993522
 21
55.00000000002261
 31
0.0
  0
LINE
  5
7B4D
330
A
100
AcDbEntity
  8
0
  6
Continuous
 62
     7
370
     0
100
AcDbLine
 10
-54.49999999935219
 20
90.00000000001156
 30
0.0
 11
-50.4999999993522
 21
90.00000000001156
 31
0.0
  0
LINE
  5
7B4E
330
A
100
AcDbEntity
  8
0
  6
Continuous
 62
     7
370
     0
100
AcDbLine
 10
-50.4999999993522
 20
50.00000000002422
 30
0.0
 11
-54.49999999935219
 21
50.00000000002422
 31
0.0
  0
LINE
  5
7B4F
330
A
100
AcDbEntity
  8
0
  6
Continuous
 62
     7
370
     0
100
AcDbLine
 10
-54.49999999935219
 20
50.00000000002263
 30
0.0
 11
-54.49999999935219
 21
55.00000000002261
 31
0.0
  0
LINE
  5
7B50
330
A
100
AcDbEntity
  8
0
  6
Continuous
 62
     7
370
     0
100
AcDbLine
 10
-50.4999999993522
 20
55.00000000002261
 30
0.0
 11
-50.4999999993522
 21
50.00000000002263
 31
0.0
  0
LINE
  5
7B51
330
A
100
AcDbEntity
  8
0
  6
Continuous
 62
     9
370
     0
100
AcDbLine
 10
-50.4999999993522
 20
56.00000000002054
 30
0.0
 11
-49.49999999935219
 21
56.00000000002054
 31
0.0
  0
LINE
  5
7B52
330
A
100
AcDbEntity
  8
0
  6
Continuous
 62
     9
370
     0
100
AcDbLine
 10
-50.4999999993522
 20
88.0000000000167
 30
0.0
 11
-49.49999999935219
 21
88.0000000000167
 31
0.0
  0
LINE
  5
7B53
330
A
100
AcDbEntity
  8
0
  6
Continuous
 62
     7
370
     0
100
AcDbLine
 10
-49.49999999935219
 20
88.0000000000167
 30
0.0
 11
-49.49999999935219
 21
56.00000000002054
 31
0.0
  0
LINE
  5
7B54
330
A
100
AcDbEntity
  8
0
  6
Continuous
 62
     7
370
     0
100
AcDbLine
 10
-50.4999999993522
 20
89.00000000001659
 30
0.0
 11
-49.49999999935219
 21
89.00000000001659
 31
0.0
  0
LINE
  5
7B55
330
A
100
AcDbEntity
  8
0
  6
Continuous
 62
     7
370
     0
100
AcDbLine
 10
-49.49999999935219
 20
89.0000000000167
 30
0.0
 11
-49.49999999935219
 21
88.0000000000167
 31
0.0
  0
LINE
  5
7B56
330
A
100
AcDbEntity
  8
0
  6
Continuous
 62
     7
370
     0
100
AcDbLine
 10
-50.4999999993522
 20
51.00000000002115
 30
0.0
 11
-49.49999999935219
 21
51.00000000002115
 31
0.0
  0
LINE
  5
7B57
330
A
100
AcDbEntity
  8
0
  6
Continuous
 62
     7
370
     0
100
AcDbLine
 10
-49.49999999935219
 20
56.00000000002054
 30
0.0
 11
-49.49999999935219
 21
51.00000000002054
 31
0.0
  0
LINE
  5
7B58
330
A
100
AcDbEntity
  8
0
  6
Continuous
 62
     7
370
     0
100
AcDbLine
 10
-41.49999999935609
 20
89.00000000001556
 30
0.0
 11
-40.49999999935649
 21
89.00000000001556
 31
0.0
  0
LINE
  5
7B59
330
A
100
AcDbEntity
  8
0
  6
Continuous
 62
     7
370
     0
100
AcDbLine
 10
-41.49999999935609
 20
89.0000000000151
 30
0.0
 11
-41.49999999935609
 21
88.00000000001572
 31
0.0
  0
LINE
  5
7B5A
330
A
100
AcDbEntity
  8
0
  6
Continuous
 62
     7
370
     0
100
AcDbLine
 10
-41.49999999935609
 20
51.00000000002178
 30
0.0
 11
-40.49999999935638
 21
51.00000000002178
 31
0.0
  0
LINE
  5
7B5B
330
A
100
AcDbEntity
  8
0
  6
Continuous
 62
     7
370
     0
100
AcDbLine
 10
-41.49999999935609
 20
56.00000000002094
 30
0.0
 11
-41.49999999935609
 21
51.00000000002584
 31
0.0
  0
LINE
  5
7B5C
330
A
100
AcDbEntity
  8
0
  6
Continuous
 62
     9
370
     0
100
AcDbLine
 10
-41.49999999935609
 20
56.00000000002094
 30
0.0
 11
-40.49999999935638
 21
56.00000000002094
 31
0.0
  0
LINE
  5
7B5D
330
A
100
AcDbEntity
  8
0
  6
Continuous
 62
     7
370
     0
100
AcDbLine
 10
-41.49999999935609
 20
88.00000000001572
 30
0.0
 11
-41.49999999935609
 21
56.00000000002094
 31
0.0
  0
LINE
  5
7B5E
330
A
100
AcDbEntity
  8
0
  6
Continuous
 62
     9
370
     0
100
AcDbLine
 10
-41.49999999935609
 20
88.00000000001572
 30
0.0
 11
-40.49999999935649
 21
88.00000000001572
 31
0.0
  0
LINE
  5
7B5F
330
A
100
AcDbEntity
  8
0
  6
Continuous
 62
     7
370
     0
100
AcDbLine
 10
6.249999999013908
 20
71.70000000188022
 30
0.0
 11
-6.250000000986176
 21
71.70000000173539
 31
0.0
  0
LINE
  5
7B60
330
A
100
AcDbEntity
  8
0
  6
Continuous
 62
     9
370
     0
100
AcDbLine
 10
-5.412842110644419
 20
70.25000000174512
 30
0.0
 11
5.412842108705689
 21
70.25000000187053
 31
0.0
  0
LINE
  5
7B61
330
A
100
AcDbEntity
  8
0
  6
Continuous
 62
     7
370
     0
100
AcDbLine
 10
4.979829406816321
 20
70.00000000186552
 30
0.0
 11
-4.97982940874931
 21
70.00000000175013
 31
0.0
  0
LINE
  5
7B62
330
A
100
AcDbEntity
  8
0
  6
Continuous
 62
     9
370
     0
100
AcDbLine
 10
-26.75000000097841
 20
76.00000000180573
 30
0.0
 11
-26.75000000097841
 21
76.50000000180573
 31
0.0
  0
LINE
  5
7B63
330
A
100
AcDbEntity
  8
0
  6
Continuous
 62
     7
370
     0
100
AcDbLine
 10
-31.25000000097958
 20
76.00000000180573
 30
0.0
 11
-31.25000000097958
 21
76.50000000180573
 31
0.0
  0
LINE
  5
7B64
330
A
100
AcDbEntity
  8
0
  6
Continuous
 62
     7
370
     0
100
AcDbLine
 10
-26.75000000097841
 20
76.50000000180573
 30
0.0
 11
-31.2500000009784
 21
76.50000000180573
 31
0.0
  0
LINE
  5
7B65
330
A
100
AcDbEntity
  8
0
  6
Continuous
 62
     9
370
     0
100
AcDbLine
 10
10.74999999903119
 20
76.00000000180573
 30
0.0
 11
10.74999999903119
 21
76.50000000180573
 31
0.0
  0
LINE
  5
7B66
330
A
100
AcDbEntity
  8
0
  6
Continuous
 62
     7
370
     0
100
AcDbLine
 10
10.74999999903119
 20
76.50000000180573
 30
0.0
 11
-26.75000000097841
 21
76.50000000180573
 31
0.0
  0
LINE
  5
7B67
330
A
100
AcDbEntity
  8
0
  6
Continuous
 62
     7
370
     0
100
AcDbLine
 10
15.24999999903232
 20
76.00000000180573
 30
0.0
 11
15.24999999903232
 21
76.50000000180573
 31
0.0
  0
LINE
  5
7B68
330
A
100
AcDbEntity
  8
0
  6
Continuous
 62
     7
370
     0
100
AcDbLine
 10
15.24999999903119
 20
76.50000000180573
 30
0.0
 11
10.74999999903119
 21
76.50000000180573
 31
0.0
  0
LINE
  5
7B69
330
A
100
AcDbEntity
  8
0
  6
Continuous
 62
     9
370
     0
100
AcDbLine
 10
-26.75000000096789
 20
77.50000000180655
 30
0.0
 11
-26.75000000096789
 21
76.50000000180492
 31
0.0
  0
LINE
  5
7B6A
330
A
100
AcDbEntity
  8
0
  6
Continuous
 62
     9
370
     0
100
AcDbLine
 10
-26.75000000096789
 20
76.50000000180492
 30
0.0
 11
-26.75000000096789
 21
76.00000000180573
 31
0.0
  0
LINE
  5
7B6B
330
A
100
AcDbEntity
  8
0
  6
Continuous
 62
     9
370
     0
100
AcDbLine
 10
10.7499999990321
 20
77.50000000180655
 30
0.0
 11
10.7499999990321
 21
76.50000000180492
 31
0.0
  0
LINE
  5
7B6C
330
A
100
AcDbEntity
  8
0
  6
Continuous
 62
     9
370
     0
100
AcDbLine
 10
10.7499999990321
 20
76.50000000180492
 30
0.0
 11
10.7499999990321
 21
76.00000000180573
 31
0.0
  0
LINE
  5
7B6D
330
A
100
AcDbEntity
  8
0
  6
Continuous
 62
     7
370
     0
100
AcDbLine
 10
-26.75000000096789
 20
77.50000000180655
 30
0.0
 11
10.7499999990321
 21
77.50000000180655
 31
0.0
  0
LINE
  5
7B6E
330
A
100
AcDbEntity
  8
0
  6
Continuous
 62
     7
370
     0
100
AcDbLine
 10
-31.25000000096789
 20
77.50000000180655
 30
0.0
 11
-31.25000000096789
 21
76.50000000180492
 31
0.0
  0
LINE
  5
7B6F
330
A
100
AcDbEntity
  8
0
  6
Continuous
 62
     7
370
     0
100
AcDbLine
 10
-31.25000000096789
 20
76.50000000180492
 30
0.0
 11
-31.25000000096789
 21
76.00000000180573
 31
0.0
  0
LINE
  5
7B70
330
A
100
AcDbEntity
  8
0
  6
Continuous
 62
     7
370
     0
100
AcDbLine
 10
-31.2500000009716
 20
77.50000000180655
 30
0.0
 11
-26.75000000096789
 21
77.50000000180655
 31
0.0
  0
LINE
  5
7B71
330
A
100
AcDbEntity
  8
0
  6
Continuous
 62
     7
370
     0
100
AcDbLine
 10
15.2499999990321
 20
77.50000000180655
 30
0.0
 11
15.2499999990321
 21
76.50000000180492
 31
0.0
  0
LINE
  5
7B72
330
A
100
AcDbEntity
  8
0
  6
Continuous
 62
     7
370
     0
100
AcDbLine
 10
15.2499999990321
 20
76.50000000180492
 30
0.0
 11
15.2499999990321
 21
76.00000000180449
 31
0.0
  0
LINE
  5
7B73
330
A
100
AcDbEntity
  8
0
  6
Continuous
 62
     7
370
     0
100
AcDbLine
 10
10.7499999990321
 20
77.50000000180655
 30
0.0
 11
15.24999999903769
 21
77.50000000180655
 31
0.0
  0
LINE
  5
7B74
330
A
100
AcDbEntity
  8
0
  6
Continuous
 62
     9
370
     0
100
AcDbLine
 10
-26.75000000096878
 20
85.00000000180566
 30
0.0
 11
-26.75000000096878
 21
84.50000000180565
 31
0.0
  0
LINE
  5
7B75
330
A
100
AcDbEntity
  8
0
  6
Continuous
 62
     9
370
     0
100
AcDbLine
 10
10.74999999903119
 20
85.00000000180566
 30
0.0
 11
10.74999999903119
 21
84.50000000180565
 31
0.0
  0
LINE
  5
7B76
330
A
100
AcDbEntity
  8
0
  6
Continuous
 62
     7
370
     0
100
AcDbLine
 10
-26.75000000096878
 20
84.50000000180565
 30
0.0
 11
10.74999999903119
 21
84.50000000180565
 31
0.0
  0
LINE
  5
7B77
330
A
100
AcDbEntity
  8
0
  6
Continuous
 62
     7
370
     0
100
AcDbLine
 10
-31.25000000096878
 20
85.00000000180566
 30
0.0
 11
-31.25000000096878
 21
84.50000000180565
 31
0.0
  0
LINE
  5
7B78
330
A
100
AcDbEntity
  8
0
  6
Continuous
 62
     7
370
     0
100
AcDbLine
 10
-31.25000000096878
 20
84.50000000180565
 30
0.0
 11
-26.75000000096878
 21
84.50000000180565
 31
0.0
  0
LINE
  5
7B79
330
A
100
AcDbEntity
  8
0
  6
Continuous
 62
     7
370
     0
100
AcDbLine
 10
15.24999999903119
 20
85.00000000180566
 30
0.0
 11
15.24999999903119
 21
84.50000000180565
 31
0.0
  0
LINE
  5
7B7A
330
A
100
AcDbEntity
  8
0
  6
Continuous
 62
     7
370
     0
100
AcDbLine
 10
10.74999999903119
 20
84.50000000180565
 30
0.0
 11
15.24999999903119
 21
84.50000000180565
 31
0.0
  0
LINE
  5
7B7B
330
A
100
AcDbEntity
  8
0
  6
Continuous
 62
     9
370
     0
100
AcDbLine
 10
-26.75000000098349
 20
85.00000000180566
 30
0.0
 11
-26.75000000098349
 21
84.50000000180565
 31
0.0
  0
LINE
  5
7B7C
330
A
100
AcDbEntity
  8
0
  6
Continuous
 62
     9
370
     0
100
AcDbLine
 10
-26.75000000098349
 20
84.50000000180565
 30
0.0
 11
-26.75000000098349
 21
83.50000000180566
 31
0.0
  0
LINE
  5
7B7D
330
A
100
AcDbEntity
  8
0
  6
Continuous
 62
     9
370
     0
100
AcDbLine
 10
10.74999999903119
 20
85.00000000180566
 30
0.0
 11
10.74999999903119
 21
84.50000000180565
 31
0.0
  0
LINE
  5
7B7E
330
A
100
AcDbEntity
  8
0
  6
Continuous
 62
     9
370
     0
100
AcDbLine
 10
10.74999999903119
 20
84.50000000180565
 30
0.0
 11
10.74999999903119
 21
83.50000000180566
 31
0.0
  0
LINE
  5
7B7F
330
A
100
AcDbEntity
  8
0
  6
Continuous
 62
     7
370
     0
100
AcDbLine
 10
-26.75000000098349
 20
83.50000000180566
 30
0.0
 11
10.74999999903119
 21
83.50000000180566
 31
0.0
  0
LINE
  5
7B80
330
A
100
AcDbEntity
  8
0
  6
Continuous
 62
     7
370
     0
100
AcDbLine
 10
-31.2500000009852
 20
85.00000000180566
 30
0.0
 11
-31.2500000009852
 21
84.50000000180565
 31
0.0
  0
LINE
  5
7B81
330
A
100
AcDbEntity
  8
0
  6
Continuous
 62
     7
370
     0
100
AcDbLine
 10
-31.2500000009852
 20
84.50000000180565
 30
0.0
 11
-31.2500000009852
 21
83.50000000180566
 31
0.0
  0
LINE
  5
7B82
330
A
100
AcDbEntity
  8
0
  6
Continuous
 62
     7
370
     0
100
AcDbLine
 10
-31.25000000098341
 20
83.50000000180566
 30
0.0
 11
-26.75000000098349
 21
83.50000000180566
 31
0.0
  0
LINE
  5
7B83
330
A
100
AcDbEntity
  8
0
  6
Continuous
 62
     7
370
     0
100
AcDbLine
 10
15.24999999903292
 20
85.00000000180566
 30
0.0
 11
15.24999999903292
 21
84.50000000180565
 31
0.0
  0
LINE
  5
7B84
330
A
100
AcDbEntity
  8
0
  6
Continuous
 62
     7
370
     0
100
AcDbLine
 10
15.24999999903292
 20
84.50000000180565
 30
0.0
 11
15.24999999903292
 21
83.50000000180566
 31
0.0
  0
LINE
  5
7B85
330
A
100
AcDbEntity
  8
0
  6
Continuous
 62
     7
370
     0
100
AcDbLine
 10
10.74999999903119
 20
83.50000000180566
 30
0.0
 11
15.24999999903119
 21
83.50000000180566
 31
0.0
  0
LINE
  5
7B86
330
A
100
AcDbEntity
  8
0
  6
Continuous
 62
     7
370
     0
100
AcDbLine
 10
17.49999999903392
 20
76.00000000180573
 30
0.0
 11
17.49999999903392
 21
72.00000000180574
 31
0.0
  0
LINE
  5
7B87
330
A
100
AcDbEntity
  8
0
  6
Continuous
 62
     9
370
     0
100
AcDbLine
 10
12.49999999903599
 20
72.00000000180574
 30
0.0
 11
12.49999999903599
 21
76.00000000180573
 31
0.0
  0
LINE
  5
7B88
330
A
100
AcDbEntity
  8
0
  6
Continuous
 62
     7
370
     0
100
AcDbLine
 10
12.49999999903599
 20
76.00000000180573
 30
0.0
 11
17.49999999903599
 21
76.00000000180573
 31
0.0
  0
LINE
  5
7B89
330
A
100
AcDbEntity
  8
0
  6
Continuous
 62
     7
370
     0
100
AcDbLine
 10
17.49999999903599
 20
72.00000000180574
 30
0.0
 11
12.49999999903599
 21
72.00000000180574
 31
0.0
  0
ARC
  5
7B8A
330
A
100
AcDbEntity
  8
0
  6
Continuous
 62
     7
370
     0
100
AcDbCircle
 10
-27.00000000094699
 20
79.25000000180573
 30
0.0
 40
7.500000000000004
100
AcDbArc
 50
222.8334280660799
 51
255.1648884180309
  0
LINE
  5
7B8B
330
A
100
AcDbEntity
  8
0
  6
Continuous
 62
     7
370
     0
100
AcDbLine
 10
-32.5000000009447
 20
74.15098048821294
 30
0.0
 11
-32.5000000009447
 21
76.00000000180573
 31
0.0
  0
LINE
  5
7B8C
330
A
100
AcDbEntity
  8
0
  6
Continuous
 62
     7
370
     0
100
AcDbLine
 10
12.49999999903599
 20
76.00000000180573
 30
0.0
 11
-32.5000000009447
 21
76.00000000180573
 31
0.0
  0
LINE
  5
7B8D
330
A
100
AcDbEntity
  8
0
  6
Continuous
 62
     7
370
     0
100
AcDbLine
 10
12.49999999903599
 20
72.00000000180574
 30
0.0
 11
-28.9202864379134
 21
72.00000000180574
 31
0.0
  0
CIRCLE
  5
7B8E
330
A
100
AcDbEntity
  8
0
  6
Continuous
 62
     7
370
     0
100
AcDbCircle
 10
-21.50000000095929
 20
81.00000000180619
 30
0.0
 40
1.75
  0
LINE
  5
7B8F
330
A
100
AcDbEntity
  8
0
  6
Continuous
 62
     7
370
     0
100
AcDbLine
 10
-32.5000000009583
 20
85.00000000180566
 30
0.0
 11
-32.5000000009583
 21
86.84901951539844
 31
0.0
  0
ARC
  5
7B90
330
A
100
AcDbEntity
  8
0
  6
Continuous
 62
     7
370
     0
100
AcDbCircle
 10
-27.00000000095839
 20
81.75000000180569
 30
0.0
 40
7.499999999999993
100
AcDbArc
 50
104.8351115819757
 51
137.1665719339322
  0
LINE
  5
7B91
330
A
100
AcDbEntity
  8
0
  6
Continuous
 62
     7
370
     0
100
AcDbLine
 10
-28.9202864379255
 20
89.00000000180559
 30
0.0
 11
12.49999999904131
 21
89.00000000180563
 31
0.0
  0
LINE
  5
7B92
330
A
100
AcDbEntity
  8
0
  6
Continuous
 62
     9
370
     0
100
AcDbLine
 10
12.49999999904131
 20
85.00000000180566
 30
0.0
 11
12.49999999904131
 21
89.00000000180563
 31
0.0
  0
LINE
  5
7B93
330
A
100
AcDbEntity
  8
0
  6
Continuous
 62
     7
370
     0
100
AcDbLine
 10
-32.5000000009583
 20
85.00000000180566
 30
0.0
 11
12.49999999904131
 21
85.00000000180566
 31
0.0
  0
LINE
  5
7B94
330
A
100
AcDbEntity
  8
0
  6
Continuous
 62
     7
370
     0
100
AcDbLine
 10
17.49999999904131
 20
89.00000000180563
 30
0.0
 11
17.49999999904131
 21
85.00000000180566
 31
0.0
  0
LINE
  5
7B95
330
A
100
AcDbEntity
  8
0
  6
Continuous
 62
     7
370
     0
100
AcDbLine
 10
17.49999999904119
 20
85.00000000180566
 30
0.0
 11
12.49999999904131
 21
85.00000000180566
 31
0.0
  0
LINE
  5
7B96
330
A
100
AcDbEntity
  8
0
  6
Continuous
 62
     7
370
     0
100
AcDbLine
 10
12.49999999904131
 20
89.00000000180563
 30
0.0
 11
17.49999999904119
 21
89.00000000180563
 31
0.0
  0
LINE
  5
7B97
330
A
100
AcDbEntity
  8
0
  6
Continuous
 62
     9
370
     0
100
AcDbLine
 10
-5.266062277168401
 20
77.50000000180657
 30
0.0
 11
-5.266062277168401
 21
83.50000000180566
 31
0.0
  0
LINE
  5
7B98
330
A
100
AcDbEntity
  8
0
  6
Continuous
 62
     7
370
     0
100
AcDbLine
 10
5.499999999041421
 20
77.50000000180654
 30
0.0
 11
5.499999999041421
 21
83.50000000180566
 31
0.0
  0
LINE
  5
7B99
330
A
100
AcDbEntity
  8
0
  6
Continuous
 62
     9
370
     0
100
AcDbLine
 10
-8.530240325826184
 20
77.50000000180657
 30
0.0
 11
-8.530240325826184
 21
83.50000000180566
 31
0.0
  0
LINE
  5
7B9A
330
A
100
AcDbEntity
  8
0
  6
Continuous
 62
     7
370
     0
100
AcDbLine
 10
-10.50000000095849
 20
77.50000000180657
 30
0.0
 11
-10.50000000095849
 21
83.50000000180566
 31
0.0
  0
ARC
  5
7B9B
330
A
100
AcDbEntity
  8
0
  6
Continuous
 62
     7
370
     0
100
AcDbCircle
 10
-21.50000000095838
 20
81.00000000180569
 30
0.0
 40
2.500000000000002
100
AcDbArc
 50
270.0
 51
90.0
  0
ARC
  5
7B9C
330
A
100
AcDbEntity
  8
0
  6
Continuous
 62
     7
370
     0
100
AcDbCircle
 10
-21.50000000095838
 20
81.00000000180569
 30
0.0
 40
2.499999999999988
100
AcDbArc
 50
90.0
 51
270.0
  0
LINE
  5
7B9D
330
A
100
AcDbEntity
  8
0
  6
Continuous
 62
     7
370
     0
100
AcDbLine
 10
-32.5000000009583
 20
77.00000000180573
 30
0.0
 11
-31.25000000096789
 21
77.00000000180573
 31
0.0
  0
LINE
  5
7B9E
330
A
100
AcDbEntity
  8
0
  6
Continuous
 62
     7
370
     0
100
AcDbLine
 10
-32.5000000009583
 20
85.00000000180566
 30
0.0
 11
-32.5000000009583
 21
77.00000000180573
 31
0.0
  0
LINE
  5
7B9F
330
A
100
AcDbEntity
  8
0
  6
Continuous
 62
     7
370
     0
100
AcDbLine
 10
-40.49999999935649
 20
90.00000000001948
 30
0.0
 11
-35.49999999935649
 21
90.00000000001948
 31
0.0
  0
LINE
  5
7BA0
330
A
100
AcDbEntity
  8
0
  6
Continuous
 62
     9
370
     0
100
AcDbLine
 10
-40.49999999935638
 20
55.00000000001949
 30
0.0
 11
-36.27272727208369
 21
55.00000000001949
 31
0.0
  0
LINE
  5
7BA1
330
A
100
AcDbEntity
  8
0
  6
Continuous
 62
     7
370
     0
100
AcDbLine
 10
-40.49999999935638
 20
55.00000000001949
 30
0.0
 11
-40.49999999935649
 21
90.00000000001948
 31
0.0
  0
LINE
  5
7BA2
330
A
100
AcDbEntity
  8
0
  6
Continuous
 62
     7
370
     0
100
AcDbLine
 10
-35.49999999935649
 20
72.00000000001949
 30
0.0
 11
-35.49999999935649
 21
73.0627460668257
 31
0.0
  0
ARC
  5
7BA3
330
A
100
AcDbEntity
  8
0
  6
Continuous
 62
     7
370
     0
100
AcDbCircle
 10
-26.49999999935649
 20
81.00000000001948
 30
0.0
 40
12.00000000000001
100
AcDbArc
 50
138.590377890729
 51
221.4096221092709
  0
LINE
  5
7BA4
330
A
100
AcDbEntity
  8
0
  6
Continuous
 62
     7
370
     0
100
AcDbLine
 10
-35.49999999935649
 20
88.93725393321325
 30
0.0
 11
-35.49999999935649
 21
90.00000000001948
 31
0.0
  0
LINE
  5
7BA5
330
A
100
AcDbEntity
  8
0
  6
Continuous
 62
     7
370
     0
100
AcDbLine
 10
-35.49999999935649
 20
72.00000000001949
 30
0.0
 11
-36.27272727208369
 21
55.00000000001949
 31
0.0
  0
LINE
  5
7BBD
330
A
100
AcDbEntity
  8
0
  6
Continuous
 62
     7
370
     0
100
AcDbLine
 10
-37.45557797869941
 20
50.00000000001948
 30
0.0
 11
-40.49999999935638
 21
50.00000000001948
 31
0.0
  0
LINE
  5
7BBE
330
A
100
AcDbEntity
  8
0
  6
Continuous
 62
     7
370
     0
100
AcDbLine
 10
-40.49999999935638
 20
50.00000000001948
 30
0.0
 11
-40.49999999935638
 21
55.00000000001949
 31
0.0
  0
LINE
  5
7BBF
330
A
100
AcDbEntity
  8
0
  6
Continuous
 62
     7
370
     0
100
AcDbLine
 10
-36.27272727208369
 20
55.00000000001949
 30
0.0
 11
-36.45660943848908
 21
50.95459233910085
 31
0.0
  0
ARC
  5
7BC0
330
A
100
AcDbEntity
  8
0
  6
Continuous
 62
     9
370
     0
100
AcDbCircle
 10
-26.49999999935649
 20
81.00000000001948
 30
0.0
 40
10.99999999999999
100
AcDbArc
 50
136.6582417727765
 51
223.3417582272229
  0
LINE
  5
7BC1
330
A
100
AcDbEntity
  8
0
  6
Continuous
 62
     7
370
     0
100
AcDbLine
 10
-35.49999999935649
 20
73.0627460668257
 30
0.0
 11
-34.49999999935649
 21
73.45016556474874
 31
0.0
  0
LINE
  5
7BC2
330
A
100
AcDbEntity
  8
0
  6
Continuous
 62
     7
370
     0
100
AcDbLine
 10
-34.49999999935629
 20
88.54983443529041
 30
0.0
 11
-35.49999999935649
 21
88.93725393321325
 31
0.0
  0
LINE
  5
7BC3
330
A
100
AcDbEntity
  8
0
  6
Continuous
 62
     9
370
     0
100
AcDbLine
 10
-34.49999999935649
 20
90.00000000001948
 30
0.0
 11
-34.49999999935629
 21
88.54983443529041
 31
0.0
  0
LINE
  5
7BC4
330
A
100
AcDbEntity
  8
0
  6
Continuous
 62
     7
370
     0
100
AcDbLine
 10
-34.49999999935649
 20
90.00000000001948
 30
0.0
 11
-35.49999999935649
 21
90.00000000001948
 31
0.0
  0
LINE
  5
7BC5
330
A
100
AcDbEntity
  8
0
  6
Continuous
 62
     9
370
     0
100
AcDbLine
 10
-34.49999999935649
 20
73.45016556474856
 30
0.0
 11
-34.49999999935649
 21
72.00000000001949
 31
0.0
  0
LINE
  5
7BC6
330
A
100
AcDbEntity
  8
0
  6
Continuous
 62
     7
370
     0
100
AcDbLine
 10
-35.49999999935649
 20
72.00000000001949
 30
0.0
 11
-34.49999999935649
 21
72.00000000001949
 31
0.0
  0
ARC
  5
7BC7
330
A
100
AcDbEntity
  8
0
  6
Continuous
 62
     7
370
     0
100
AcDbCircle
 10
-24.66227765952479
 20
88.50000000001948
 30
0.0
 40
1.5
100
AcDbArc
 50
54.90319877241564
 51
90.0
  0
ARC
  5
7BC8
330
A
100
AcDbEntity
  8
0
  6
Continuous
 62
     7
370
     0
100
AcDbCircle
 10
-20.49999999935639
 20
81.00000000001948
 30
0.0
 40
9.000000000000008
100
AcDbArc
 50
62.73395557408809
 51
75.97595049376113
  0
ARC
  5
7BC9
330
A
100
AcDbEntity
  8
0
  6
Continuous
 62
     7
370
     0
100
AcDbCircle
 10
-21.49999999935648
 20
93.00000000001949
 30
0.0
 40
4.000000000000006
100
AcDbArc
 50
234.9031987724152
 51
270.0
  0
ARC
  5
7BCA
330
A
100
AcDbEntity
  8
0
  6
Continuous
 62
     7
370
     0
100
AcDbCircle
 10
-21.49999999935648
 20
93.00000000001949
 30
0.0
 40
4.000000000000002
100
AcDbArc
 50
270.0
 51
300.8149532410603
  0
ARC
  5
7BCB
330
A
100
AcDbEntity
  8
0
  6
Continuous
 62
     7
370
     0
100
AcDbCircle
 10
-18.68253138050139
 20
88.27645571825739
 30
0.0
 40
1.500000000000006
100
AcDbArc
 50
75.97595049376113
 51
120.8149532410603
  0
LINE
  5
7BCC
330
A
100
AcDbEntity
  8
0
  6
Continuous
 62
     7
370
     0
100
AcDbLine
 10
-28.9202864379134
 20
72.00000000001949
 30
0.0
 11
-34.49999999935649
 21
72.00000000001949
 31
0.0
  0
LINE
  5
7BCD
330
A
100
AcDbEntity
  8
0
  6
Continuous
 62
     7
370
     0
100
AcDbLine
 10
-34.49999999935649
 20
90.00000000001948
 30
0.0
 11
-24.66227765952479
 21
90.00000000001948
 31
0.0
  0
LINE
  5
7BCE
330
A
100
AcDbEntity
  8
0
  6
Continuous
 62
     7
370
     0
100
AcDbLine
 10
-42.49999999935648
 20
71.90000000001958
 30
0.0
 11
-48.49999999935649
 21
71.90000000001958
 31
0.0
  0
LINE
  5
7BCF
330
A
100
AcDbEntity
  8
0
  6
Continuous
 62
     7
370
     0
100
AcDbLine
 10
-48.49999999935649
 20
58.10000000001959
 30
0.0
 11
-42.49999999935639
 21
58.10000000001959
 31
0.0
  0
LINE
  5
7BD0
330
A
100
AcDbEntity
  8
0
  6
Continuous
 62
     7
370
     0
100
AcDbLine
 10
-36.09241130823349
 20
58.96695120472574
 30
0.0
 11
-35.01818181754209
 21
59.58715789034783
 31
0.0
  0
LINE
  5
7BD1
330
A
100
AcDbEntity
  8
0
  6
Continuous
 62
     7
370
     0
100
AcDbLine
 10
-35.01818181754209
 20
70.41284210969793
 30
0.0
 11
-35.55797757501269
 21
70.72449333558103
 31
0.0
  0
ARC
  5
7BD2
330
A
100
AcDbEntity
  8
0
  6
Continuous
 62
     7
370
     0
100
AcDbCircle
 10
-35.26818181754209
 20
69.97982940780571
 30
0.0
 40
0.5000000000000006
100
AcDbArc
 50
0.0
 51
59.99999999999986
  0
ARC
  5
7BD3
330
A
100
AcDbEntity
  8
0
  6
Continuous
 62
     7
370
     0
100
AcDbCircle
 10
-35.26818181754209
 20
60.02017059224005
 30
0.0
 40
0.500000000000002
100
AcDbArc
 50
300.0000000000001
 51
0.0
  0
LINE
  5
7BD4
330
A
100
AcDbEntity
  8
0
  6
Continuous
 62
     7
370
     0
100
AcDbLine
 10
-6.250000000986176
 20
71.70000000173541
 30
0.0
 11
-5.412842110644419
 21
70.25000000174512
 31
0.0
  0
LINE
  5
7BD5
330
A
100
AcDbEntity
  8
0
  6
Continuous
 62
     7
370
     0
100
AcDbLine
 10
5.412842108705689
 20
70.25000000187053
 30
0.0
 11
6.249999999013908
 21
71.70000000188022
 31
0.0
  0
LINE
  5
7BD6
330
A
100
AcDbEntity
  8
0
  6
Continuous
 62
     7
370
     0
100
AcDbLine
 10
6.249999999013908
 20
71.70000000188022
 30
0.0
 11
6.249999999010412
 21
72.00000000188023
 31
0.0
  0
LINE
  5
7BD7
330
A
100
AcDbEntity
  8
0
  6
Continuous
 62
     7
370
     0
100
AcDbLine
 10
-6.250000000989587
 20
72.00000000173542
 30
0.0
 11
-6.250000000986176
 21
71.70000000173541
 31
0.0
  0
ARC
  5
7BD8
330
A
100
AcDbEntity
  8
0
  6
Continuous
 62
     7
370
     0
100
AcDbCircle
 10
4.979829406810608
 20
70.50000000186551
 30
0.0
 40
0.5000000000000006
100
AcDbArc
 50
270.0000000006644
 51
330.0000000006656
  0
ARC
  5
7BD9
330
A
100
AcDbEntity
  8
0
  6
Continuous
 62
     7
370
     0
100
AcDbCircle
 10
-4.97982940875508
 20
70.50000000175014
 30
0.0
 40
0.5000000000000174
100
AcDbArc
 50
210.0000000006644
 51
270.0000000006644
  0
LINE
  5
7BDA
330
A
100
AcDbEntity
  8
0
  6
Continuous
 62
     9
370
     0
100
AcDbLine
 10
-35.01818181787169
 20
-5.412842109640308
 30
0.0
 11
-35.0181818171902
 21
5.412842109709799
 31
0.0
  0
LINE
  5
7BDB
330
A
100
AcDbEntity
  8
0
  6
Continuous
 62
     7
370
     0
100
AcDbLine
 10
-34.7681818172175
 20
4.979829407801844
 30
0.0
 11
-34.7681818178444
 21
-4.97982940776383
 31
0.0
  0
LINE
  5
7BDC
330
A
100
AcDbEntity
  8
0
  6
Continuous
 62
     9
370
     0
100
AcDbLine
 10
-35.01818181789309
 20
-55.41284210963986
 30
0.0
 11
-35.01818181719109
 21
-44.58715789028976
 31
0.0
  0
LINE
  5
7BDD
330
A
100
AcDbEntity
  8
0
  6
Continuous
 62
     7
370
     0
100
AcDbLine
 10
-34.76818181721919
 20
-45.02017059219814
 30
0.0
 11
-34.768181817865
 21
-54.97982940776386
 31
0.0
  0
LINE
  5
7BDE
330
A
100
AcDbEntity
  8
0
  6
Continuous
 62
     9
370
     0
100
AcDbLine
 10
-50.4999999993587
 20
-62.99999999997634
 30
0.0
 11
-49.49999999935219
 21
-62.99999999997634
 31
0.0
  0
LINE
  5
7BDF
330
A
100
AcDbEntity
  8
0
  6
Continuous
 62
     9
370
     0
100
AcDbLine
 10
-49.49999999935219
 20
-62.99999999997634
 30
0.0
 11
-48.49999999935871
 21
-62.99999999997634
 31
0.0
  0
LINE
  5
7BE0
330
A
100
AcDbEntity
  8
0
  6
Continuous
 62
     9
370
     0
100
AcDbLine
 10
-50.4999999993587
 20
12.99999999999659
 30
0.0
 11
-49.49999999935219
 21
12.99999999999659
 31
0.0
  0
LINE
  5
7BE1
330
A
100
AcDbEntity
  8
0
  6
Continuous
 62
     9
370
     0
100
AcDbLine
 10
-49.49999999935219
 20
12.99999999999659
 30
0.0
 11
-48.49999999935871
 21
12.99999999999659
 31
0.0
  0
LINE
  5
7BE2
330
A
100
AcDbEntity
  8
0
  6
Continuous
 62
     7
370
     0
100
AcDbLine
 10
-48.49999999935871
 20
12.99999999999659
 30
0.0
 11
-48.49999999935871
 21
-62.99999999997634
 31
0.0
  0
LINE
  5
7BE3
330
A
100
AcDbEntity
  8
0
  6
Continuous
 62
     7
370
     0
100
AcDbLine
 10
-50.4999999993587
 20
13.99999999999627
 30
0.0
 11
-49.49999999935219
 21
13.99999999999627
 31
0.0
  0
LINE
  5
7BE4
330
A
100
AcDbEntity
  8
0
  6
Continuous
 62
     7
370
     0
100
AcDbLine
 10
-49.49999999935219
 20
13.99999999999627
 30
0.0
 11
-48.49999999935871
 21
13.99999999999627
 31
0.0
  0
LINE
  5
7BE5
330
A
100
AcDbEntity
  8
0
  6
Continuous
 62
     7
370
     0
100
AcDbLine
 10
-48.49999999935871
 20
13.99999999999662
 30
0.0
 11
-48.49999999935871
 21
12.99999999999659
 31
0.0
  0
LINE
  5
7BE6
330
A
100
AcDbEntity
  8
0
  6
Continuous
 62
     7
370
     0
100
AcDbLine
 10
-50.4999999993587
 20
-63.99999999997594
 30
0.0
 11
-49.49999999935219
 21
-63.99999999997594
 31
0.0
  0
LINE
  5
7BE7
330
A
100
AcDbEntity
  8
0
  6
Continuous
 62
     7
370
     0
100
AcDbLine
 10
-49.49999999935219
 20
-63.99999999997594
 30
0.0
 11
-48.49999999935871
 21
-63.99999999997594
 31
0.0
  0
LINE
  5
7BE8
330
A
100
AcDbEntity
  8
0
  6
Continuous
 62
     7
370
     0
100
AcDbLine
 10
-48.49999999935871
 20
-62.99999999997634
 30
0.0
 11
-48.49999999935871
 21
-63.99999999997634
 31
0.0
  0
LINE
  5
7BE9
330
A
100
AcDbEntity
  8
0
  6
Continuous
 62
     7
370
     0
100
AcDbLine
 10
-40.49999999935649
 20
-63.99999999997804
 30
0.0
 11
-41.49999999935609
 21
-63.99999999997804
 31
0.0
  0
LINE
  5
7BEA
330
A
100
AcDbEntity
  8
0
  6
Continuous
 62
     7
370
     0
100
AcDbLine
 10
-41.49999999935609
 20
-63.99999999997804
 30
0.0
 11
-42.49999999935648
 21
-63.99999999997804
 31
0.0
  0
LINE
  5
7BEB
330
A
100
AcDbEntity
  8
0
  6
Continuous
 62
     7
370
     0
100
AcDbLine
 10
-42.49999999935648
 20
-63.99999999997764
 30
0.0
 11
-42.49999999935648
 21
-62.99999999997765
 31
0.0
  0
LINE
  5
7BEC
330
A
100
AcDbEntity
  8
0
  6
Continuous
 62
     7
370
     0
100
AcDbLine
 10
-40.49999999935649
 20
14.00000000005127
 30
0.0
 11
-41.4999999993562
 21
14.00000000005127
 31
0.0
  0
LINE
  5
7BED
330
A
100
AcDbEntity
  8
0
  6
Continuous
 62
     7
370
     0
100
AcDbLine
 10
-41.4999999993562
 20
14.00000000005127
 30
0.0
 11
-42.49999999935648
 21
14.00000000005127
 31
0.0
  0
LINE
  5
7BEE
330
A
100
AcDbEntity
  8
0
  6
Continuous
 62
     7
370
     0
100
AcDbLine
 10
-42.49999999935648
 20
13.00000000005089
 30
0.0
 11
-42.49999999935648
 21
14.0000000000509
 31
0.0
  0
LINE
  5
7BEF
330
A
100
AcDbEntity
  8
0
  6
Continuous
 62
     9
370
     0
100
AcDbLine
 10
-40.49999999935649
 20
13.00000000005089
 30
0.0
 11
-41.4999999993562
 21
13.00000000005089
 31
0.0
  0
LINE
  5
7BF0
330
A
100
AcDbEntity
  8
0
  6
Continuous
 62
     9
370
     0
100
AcDbLine
 10
-41.4999999993562
 20
13.00000000005089
 30
0.0
 11
-42.49999999935648
 21
13.00000000005089
 31
0.0
  0
LINE
  5
7BF1
330
A
100
AcDbEntity
  8
0
  6
Continuous
 62
     9
370
     0
100
AcDbLine
 10
-40.49999999935649
 20
-62.99999999997765
 30
0.0
 11
-41.49999999935609
 21
-62.99999999997765
 31
0.0
  0
LINE
  5
7BF2
330
A
100
AcDbEntity
  8
0
  6
Continuous
 62
     9
370
     0
100
AcDbLine
 10
-41.49999999935609
 20
-62.99999999997765
 30
0.0
 11
-42.49999999935648
 21
-62.99999999997765
 31
0.0
  0
LINE
  5
7BF3
330
A
100
AcDbEntity
  8
0
  6
Continuous
 62
     7
370
     0
100
AcDbLine
 10
-42.49999999935648
 20
-62.99999999997765
 30
0.0
 11
-42.49999999935648
 21
13.00000000005089
 31
0.0
  0
LINE
  5
7BF4
330
A
100
AcDbEntity
  8
0
  6
Continuous
 62
     7
370
     0
100
AcDbLine
 10
-54.49999999935219
 20
-64.99999999996863
 30
0.0
 11
-50.4999999993522
 21
-64.99999999996863
 31
0.0
  0
LINE
  5
7BF5
330
A
100
AcDbEntity
  8
0
  6
Continuous
 62
     7
370
     0
100
AcDbLine
 10
-54.49999999935221
 20
15.00000000000604
 30
0.0
 11
-50.4999999993522
 21
15.00000000000604
 31
0.0
  0
LINE
  5
7BF6
330
A
100
AcDbEntity
  8
0
  6
Continuous
 62
     7
370
     0
100
AcDbLine
 10
-50.4999999993522
 20
15.00000000000604
 30
0.0
 11
-50.4999999993522
 21
-64.99999999996863
 31
0.0
  0
LINE
  5
7BF7
330
A
100
AcDbEntity
  8
0
  6
Continuous
 62
     7
370
     0
100
AcDbLine
 10
-54.49999999935221
 20
15.00000000000604
 30
0.0
 11
-54.49999999935219
 21
-64.99999999996863
 31
0.0
  0
LINE
  5
7BF8
330
A
100
AcDbEntity
  8
0
  6
Continuous
 62
     9
370
     0
100
AcDbLine
 10
-50.4999999993522
 20
13.000000000019
 30
0.0
 11
-49.49999999935219
 21
13.000000000019
 31
0.0
  0
LINE
  5
7BF9
330
A
100
AcDbEntity
  8
0
  6
Continuous
 62
     7
370
     0
100
AcDbLine
 10
-50.4999999993522
 20
14.00000000001888
 30
0.0
 11
-49.49999999935219
 21
14.00000000001888
 31
0.0
  0
LINE
  5
7BFA
330
A
100
AcDbEntity
  8
0
  6
Continuous
 62
     7
370
     0
100
AcDbLine
 10
-49.49999999935219
 20
14.000000000019
 30
0.0
 11
-49.49999999935219
 21
13.000000000019
 31
0.0
  0
LINE
  5
7BFB
330
A
100
AcDbEntity
  8
0
  6
Continuous
 62
     7
370
     0
100
AcDbLine
 10
-50.4999999993522
 20
-63.99999999997174
 30
0.0
 11
-49.49999999935219
 21
-63.99999999997174
 31
0.0
  0
LINE
  5
7BFC
330
A
100
AcDbEntity
  8
0
  6
Continuous
 62
     9
370
     0
100
AcDbLine
 10
-50.4999999993522
 20
-62.99999999997187
 30
0.0
 11
-49.49999999935219
 21
-62.99999999997187
 31
0.0
  0
LINE
  5
7BFD
330
A
100
AcDbEntity
  8
0
  6
Continuous
 62
     7
370
     0
100
AcDbLine
 10
-49.49999999935219
 20
-62.99999999997187
 30
0.0
 11
-49.49999999935219
 21
-63.99999999997188
 31
0.0
  0
LINE
  5
7BFE
330
A
100
AcDbEntity
  8
0
  6
Continuous
 62
     7
370
     0
100
AcDbLine
 10
-49.49999999935219
 20
13.000000000019
 30
0.0
 11
-49.49999999935219
 21
-62.99999999997187
 31
0.0
  0
LINE
  5
7BFF
330
A
100
AcDbEntity
  8
0
  6
Continuous
 62
     7
370
     0
100
AcDbLine
 10
-41.49999999935609
 20
-63.99999999996596
 30
0.0
 11
-40.49999999935649
 21
-63.99999999996596
 31
0.0
  0
LINE
  5
7C00
330
A
100
AcDbEntity
  8
0
  6
Continuous
 62
     9
370
     0
100
AcDbLine
 10
-41.49999999935609
 20
-62.99999999996645
 30
0.0
 11
-40.49999999935649
 21
-62.99999999996645
 31
0.0
  0
LINE
  5
7C01
330
A
100
AcDbEntity
  8
0
  6
Continuous
 62
     7
370
     0
100
AcDbLine
 10
-41.49999999935609
 20
-62.99999999996645
 30
0.0
 11
-41.49999999935609
 21
-63.99999999996545
 31
0.0
  0
LINE
  5
7C02
330
A
100
AcDbEntity
  8
0
  6
Continuous
 62
     7
370
     0
100
AcDbLine
 10
-41.4999999993562
 20
12.99999999999639
 30
0.0
 11
-41.49999999935609
 21
-62.99999999996645
 31
0.0
  0
LINE
  5
7C03
330
A
100
AcDbEntity
  8
0
  6
Continuous
 62
     9
370
     0
100
AcDbLine
 10
-41.4999999993562
 20
12.99999999999639
 30
0.0
 11
-40.49999999935649
 21
12.99999999999639
 31
0.0
  0
LINE
  5
7C04
330
A
100
AcDbEntity
  8
0
  6
Continuous
 62
     7
370
     0
100
AcDbLine
 10
-41.4999999993562
 20
13.99999999999571
 30
0.0
 11
-41.4999999993562
 21
12.99999999999639
 31
0.0
  0
LINE
  5
7C05
330
A
100
AcDbEntity
  8
0
  6
Continuous
 62
     7
370
     0
100
AcDbLine
 10
-41.4999999993562
 20
13.99999999999589
 30
0.0
 11
-40.49999999935649
 21
13.99999999999589
 31
0.0
  0
LINE
  5
7C06
330
A
100
AcDbEntity
  8
0
  6
Continuous
 62
     7
370
     0
100
AcDbLine
 10
-11.77572527653018
 20
-29.99999999998996
 30
0.0
 11
-12.31818181754031
 21
-29.99999999998996
 31
0.0
  0
LINE
  5
7C07
330
A
100
AcDbEntity
  8
0
  6
Continuous
 62
     7
370
     0
100
AcDbLine
 10
-12.31818181753999
 20
-29.69999999998983
 30
0.0
 11
-11.77855091330267
 21
-29.69999999998983
 31
0.0
  0
LINE
  5
7C08
330
A
100
AcDbEntity
  8
0
  6
Continuous
 62
     7
370
     0
100
AcDbLine
 10
-11.778550913303
 20
-20.29999999998695
 30
0.0
 11
-12.31818181754016
 21
-20.29999999998695
 31
0.0
  0
LINE
  5
7C09
330
A
100
AcDbEntity
  8
0
  6
Continuous
 62
     7
370
     0
100
AcDbLine
 10
-12.31818181754008
 20
-19.99999999998684
 30
0.0
 11
-11.77572527653018
 21
-19.99999999998684
 31
0.0
  0
LINE
  5
7C0A
330
A
100
AcDbEntity
  8
0
  6
Continuous
 62
     7
370
     0
100
AcDbLine
 10
-11.79000000095868
 20
-9.249999999993136
 30
0.0
 11
-11.57299138880819
 21
-9.249999999993136
 31
0.0
  0
LINE
  5
7C0B
330
A
100
AcDbEntity
  8
0
  6
Continuous
 62
     9
370
     0
100
AcDbLine
 10
-11.57414016784599
 20
-9.749999999992937
 30
0.0
 11
-11.79000000095868
 21
-9.749999999992937
 31
0.0
  0
LINE
  5
7C0C
330
A
100
AcDbEntity
  8
0
  6
Continuous
 62
     7
370
     0
100
AcDbLine
 10
-11.79000000095868
 20
-9.749999999992937
 30
0.0
 11
-11.79000000095868
 21
-9.249999999992937
 31
0.0
  0
LINE
  5
7C0D
330
A
100
AcDbEntity
  8
0
  6
Continuous
 62
     9
370
     0
100
AcDbLine
 10
-11.79000000095868
 20
-40.24999999997963
 30
0.0
 11
-11.57414016784557
 21
-40.24999999997963
 31
0.0
  0
LINE
  5
7C0E
330
A
100
AcDbEntity
  8
0
  6
Continuous
 62
     7
370
     0
100
AcDbLine
 10
-11.79000000095868
 20
-40.24999999997963
 30
0.0
 11
-11.79000000095868
 21
-28.20919317478834
 31
0.0
  0
LINE
  5
7C0F
330
A
100
AcDbEntity
  8
0
  6
Continuous
 62
     7
370
     0
100
AcDbLine
 10
-11.79000000095868
 20
-21.79080682520085
 30
0.0
 11
-11.79000000095868
 21
-9.749999999992937
 31
0.0
  0
LINE
  5
7C10
330
A
100
AcDbEntity
  8
0
  6
Continuous
 62
     7
370
     0
100
AcDbLine
 10
-11.79000000095868
 20
-40.74999999997963
 30
0.0
 11
-11.79000000095868
 21
-40.24999999997963
 31
0.0
  0
LINE
  5
7C11
330
A
100
AcDbEntity
  8
0
  6
Continuous
 62
     7
370
     0
100
AcDbLine
 10
-11.5729913888091
 20
-40.74999999997946
 30
0.0
 11
-11.79000000095868
 21
-40.74999999997946
 31
0.0
  0
LINE
  5
7C12
330
A
100
AcDbEntity
  8
0
  6
Continuous
 62
     7
370
     0
100
AcDbLine
 10
-11.79000000095868
 20
-41.49599803564105
 30
0.0
 11
-11.79000000095868
 21
-40.74999999997946
 31
0.0
  0
LINE
  5
7C13
330
A
100
AcDbEntity
  8
0
  6
Continuous
 62
     7
370
     0
100
AcDbLine
 10
-11.79000000095868
 20
-9.249999999993136
 30
0.0
 11
-11.79000000095868
 21
-8.504001964322142
 31
0.0
  0
LINE
  5
7C14
330
A
100
AcDbEntity
  8
0
  6
Continuous
 62
     7
370
     0
100
AcDbLine
 10
-28.9202864379255
 20
-64.99999999998094
 30
0.0
 11
-28.9202864379255
 21
-42.57499999998093
 31
0.0
  0
LINE
  5
7C15
330
A
100
AcDbEntity
  8
0
  6
Continuous
 62
     7
370
     0
100
AcDbLine
 10
-13.56532042789888
 20
-42.57499999998093
 30
0.0
 11
-28.9202864379255
 21
-42.57499999998093
 31
0.0
  0
ARC
  5
7C16
330
A
100
AcDbEntity
  8
0
  6
Continuous
 62
     7
370
     0
100
AcDbCircle
 10
-13.56532042789888
 20
-40.57499999998093
 30
0.0
 40
1.999999999999995
100
AcDbArc
 50
270.0
 51
1.726501653522935
  0
ARC
  5
7C17
330
A
100
AcDbEntity
  8
0
  6
Continuous
 62
     7
370
     0
100
AcDbCircle
 10
503.1510416657011
 20
-24.99999999998094
 30
0.0
 40
514.951041666664
100
AcDbArc
 50
178.273498346477
 51
181.7265016535229
  0
ARC
  5
7C18
330
A
100
AcDbEntity
  8
0
  6
Continuous
 62
     7
370
     0
100
AcDbCircle
 10
-13.56532042789888
 20
-9.42499999998094
 30
0.0
 40
2.0
100
AcDbArc
 50
358.273498346477
 51
90.0
  0
LINE
  5
7C19
330
A
100
AcDbEntity
  8
0
  6
Continuous
 62
     7
370
     0
100
AcDbLine
 10
-28.9202864379255
 20
-7.42499999998094
 30
0.0
 11
-13.56532042789888
 21
-7.42499999998094
 31
0.0
  0
LINE
  5
7C1A
330
A
100
AcDbEntity
  8
0
  6
Continuous
 62
     7
370
     0
100
AcDbLine
 10
-28.9202864379255
 20
-7.42499999998094
 30
0.0
 11
-28.9202864379255
 21
15.000000000019
 31
0.0
  0
LINE
  5
7C1B
330
A
100
AcDbEntity
  8
0
  6
Continuous
 62
     7
370
     0
100
AcDbLine
 10
12.49999999904131
 20
15.00000000001901
 30
0.0
 11
-28.9202864379255
 21
15.000000000019
 31
0.0
  0
ARC
  5
7C1C
330
A
100
AcDbEntity
  8
0
  6
Continuous
 62
     7
370
     0
100
AcDbCircle
 10
12.49999999904131
 20
10.00000000001904
 30
0.0
 40
5.000000000000004
100
AcDbArc
 50
0.0
 51
90.0
  0
LINE
  5
7C1D
330
A
100
AcDbEntity
  8
0
  6
Continuous
 62
     7
370
     0
100
AcDbLine
 10
17.49999999904131
 20
10.00000000001904
 30
0.0
 11
17.49999999904131
 21
-59.99999999998094
 31
0.0
  0
ARC
  5
7C1E
330
A
100
AcDbEntity
  8
0
  6
Continuous
 62
     7
370
     0
100
AcDbCircle
 10
12.49999999904131
 20
-59.99999999998094
 30
0.0
 40
5.000000000000004
100
AcDbArc
 50
270.0
 51
0.0
  0
LINE
  5
7C1F
330
A
100
AcDbEntity
  8
0
  6
Continuous
 62
     7
370
     0
100
AcDbLine
 10
-28.9202864379255
 20
-64.99999999998094
 30
0.0
 11
12.49999999904131
 21
-64.99999999998094
 31
0.0
  0
LINE
  5
7C20
330
A
100
AcDbEntity
  8
0
  6
Continuous
 62
     7
370
     0
100
AcDbLine
 10
-32.5000000009583
 20
-64.99999999998094
 30
0.0
 11
-28.9202864379255
 21
-64.99999999998094
 31
0.0
  0
LINE
  5
7C21
330
A
100
AcDbEntity
  8
0
  6
Continuous
 62
     7
370
     0
100
AcDbLine
 10
-32.5000000009583
 20
-42.57499999998093
 30
0.0
 11
-32.5000000009583
 21
-64.99999999998094
 31
0.0
  0
LINE
  5
7C22
330
A
100
AcDbEntity
  8
0
  6
Continuous
 62
     7
370
     0
100
AcDbLine
 10
-32.5000000009583
 20
-42.57499999998093
 30
0.0
 11
-28.9202864379255
 21
-42.57499999998093
 31
0.0
  0
LINE
  5
7C23
330
A
100
AcDbEntity
  8
0
  6
Continuous
 62
     7
370
     0
100
AcDbLine
 10
-32.5000000009583
 20
15.00000000001901
 30
0.0
 11
-32.5000000009583
 21
-7.42499999998094
 31
0.0
  0
LINE
  5
7C24
330
A
100
AcDbEntity
  8
0
  6
Continuous
 62
     7
370
     0
100
AcDbLine
 10
-28.9202864379255
 20
15.00000000001901
 30
0.0
 11
-32.5000000009584
 21
15.00000000001901
 31
0.0
  0
LINE
  5
7C25
330
A
100
AcDbEntity
  8
0
  6
Continuous
 62
     7
370
     0
100
AcDbLine
 10
-28.9202864379255
 20
-7.42499999998094
 30
0.0
 11
-32.5000000009584
 21
-7.42499999998094
 31
0.0
  0
LINE
  5
7C26
330
A
100
AcDbEntity
  8
0
  6
Continuous
 62
     9
370
     0
100
AcDbLine
 10
-15.75000044668391
 20
-8.529851921162546
 30
0.0
 11
-27.24999999935589
 21
-8.529851921162546
 31
0.0
  0
LINE
  5
7C27
330
A
100
AcDbEntity
  8
0
  6
Continuous
 62
     9
370
     0
100
AcDbLine
 10
-26.58891854148949
 20
-7.74200571875275
 30
0.0
 11
-16.4110818531208
 21
-7.74200571875275
 31
0.0
  0
LINE
  5
7C28
330
A
100
AcDbEntity
  8
0
  6
Continuous
 62
     7
370
     0
100
AcDbLine
 10
-17.49999999935591
 20
-7.54999999998094
 30
0.0
 11
-25.49999999935591
 21
-7.54999999998094
 31
0.0
  0
LINE
  5
7C29
330
A
100
AcDbEntity
  8
0
  6
Continuous
 62
     9
370
     0
100
AcDbLine
 10
-27.25000000095839
 20
-41.47014807879934
 30
0.0
 11
-17.21944707735679
 21
-41.47014807879934
 31
0.0
  0
LINE
  5
7C2A
330
A
100
AcDbEntity
  8
0
  6
Continuous
 62
     9
370
     0
100
AcDbLine
 10
-16.41108145882489
 20
-42.25799428120903
 30
0.0
 11
-17.7115851933932
 21
-42.25799428120903
 31
0.0
  0
LINE
  5
7C2B
330
A
100
AcDbEntity
  8
0
  6
Continuous
 62
     9
370
     0
100
AcDbLine
 10
-17.21944707735679
 20
-41.47014807879934
 30
0.0
 11
-15.75000000095838
 21
-41.47014807879934
 31
0.0
  0
LINE
  5
7C2C
330
A
100
AcDbEntity
  8
0
  6
Continuous
 62
     9
370
     0
100
AcDbLine
 10
-17.7115851933932
 20
-42.25799428120903
 30
0.0
 11
-26.58891854309189
 21
-42.25799428120903
 31
0.0
  0
LINE
  5
7C2D
330
A
100
AcDbEntity
  8
0
  6
Continuous
 62
     7
370
     0
100
AcDbLine
 10
-25.5000000009584
 20
-42.44999999998093
 30
0.0
 11
-17.50000000095838
 21
-42.44999999998093
 31
0.0
  0
LINE
  5
7C2E
330
A
100
AcDbEntity
  8
0
  6
Continuous
 62
     9
370
     0
100
AcDbLine
 10
-23.79983829766079
 20
-8.749999999980943
 30
0.0
 11
-23.79983829766079
 21
-41.24999999998094
 31
0.0
  0
LINE
  5
7C2F
330
A
100
AcDbEntity
  8
0
  6
Continuous
 62
     7
370
     0
100
AcDbLine
 10
-24.66227765952479
 20
-41.24999999998094
 30
0.0
 11
-23.79983829766079
 21
-41.24999999998094
 31
0.0
  0
LINE
  5
7C30
330
A
100
AcDbEntity
  8
0
  6
Continuous
 62
     9
370
     0
100
AcDbLine
 10
-24.66227765952479
 20
-8.749999999980943
 30
0.0
 11
-24.66227765952479
 21
-41.24999999998094
 31
0.0
  0
LINE
  5
7C31
330
A
100
AcDbEntity
  8
0
  6
Continuous
 62
     7
370
     0
100
AcDbLine
 10
-24.66227765952479
 20
-8.749999999980943
 30
0.0
 11
-23.79983829766079
 21
-8.749999999980943
 31
0.0
  0
ARC
  5
7C32
330
A
100
AcDbEntity
  8
0
  6
Continuous
 62
     7
370
     0
100
AcDbCircle
 10
-34.49999999935649
 20
-7.749999999980943
 30
0.0
 40
1.0
100
AcDbArc
 50
180.0
 51
270.0
  0
ARC
  5
7C33
330
A
100
AcDbEntity
  8
0
  6
Continuous
 62
     7
370
     0
100
AcDbCircle
 10
-34.49999999935649
 20
-42.24999999998094
 30
0.0
 40
1.0
100
AcDbArc
 50
90.0
 51
180.0
  0
LINE
  5
7C34
330
A
100
AcDbEntity
  8
0
  6
Continuous
 62
     7
370
     0
100
AcDbLine
 10
-40.49999999935649
 20
-64.99999999998094
 30
0.0
 11
-35.49999999935649
 21
-64.99999999998094
 31
0.0
  0
LINE
  5
7C35
330
A
100
AcDbEntity
  8
0
  6
Continuous
 62
     7
370
     0
100
AcDbLine
 10
-40.49999999935649
 20
15.00000000001901
 30
0.0
 11
-40.49999999935649
 21
-64.99999999998094
 31
0.0
  0
LINE
  5
7C36
330
A
100
AcDbEntity
  8
0
  6
Continuous
 62
     7
370
     0
100
AcDbLine
 10
-34.49999999935649
 20
-8.749999999980943
 30
0.0
 11
-24.66227765952479
 21
-8.749999999980943
 31
0.0
  0
LINE
  5
7C37
330
A
100
AcDbEntity
  8
0
  6
Continuous
 62
     7
370
     0
100
AcDbLine
 10
-35.49999999935649
 20
15.00000000001901
 30
0.0
 11
-35.49999999935649
 21
-7.749999999980943
 31
0.0
  0
LINE
  5
7C38
330
A
100
AcDbEntity
  8
0
  6
Continuous
 62
     7
370
     0
100
AcDbLine
 10
-34.49999999935649
 20
-41.24999999998094
 30
0.0
 11
-24.66227765952479
 21
-41.24999999998094
 31
0.0
  0
LINE
  5
7C39
330
A
100
AcDbEntity
  8
0
  6
Continuous
 62
     7
370
     0
100
AcDbLine
 10
-40.49999999935649
 20
15.00000000001901
 30
0.0
 11
-35.49999999935649
 21
15.00000000001901
 31
0.0
  0
LINE
  5
7C3A
330
A
100
AcDbEntity
  8
0
  6
Continuous
 62
     7
370
     0
100
AcDbLine
 10
-35.49999999935649
 20
-64.99999999998094
 30
0.0
 11
-35.49999999935649
 21
-42.24999999998094
 31
0.0
  0
LINE
  5
7C3B
330
A
100
AcDbEntity
  8
0
  6
Continuous
 62
     9
370
     0
100
AcDbLine
 10
-18.31903765673039
 20
-8.749999999980943
 30
0.0
 11
-18.31903765673039
 21
-41.24999999998094
 31
0.0
  0
LINE
  5
7C3C
330
A
100
AcDbEntity
  8
0
  6
Continuous
 62
     9
370
     0
100
AcDbLine
 10
-19.45093191291639
 20
-8.749999999980943
 30
0.0
 11
-19.45093191291639
 21
-41.24999999998094
 31
0.0
  0
LINE
  5
7C3D
330
A
100
AcDbEntity
  8
0
  6
Continuous
 62
     7
370
     0
100
AcDbLine
 10
-19.45093191291639
 20
-8.749999999980943
 30
0.0
 11
-18.31903765673039
 21
-8.749999999980943
 31
0.0
  0
LINE
  5
7C3E
330
A
100
AcDbEntity
  8
0
  6
Continuous
 62
     7
370
     0
100
AcDbLine
 10
-19.45093191291639
 20
-41.24999999998094
 30
0.0
 11
-18.31903765673039
 21
-41.24999999998094
 31
0.0
  0
LINE
  5
7C3F
330
A
100
AcDbEntity
  8
0
  6
Continuous
 62
     9
370
     0
100
AcDbLine
 10
-12.48181818117467
 20
-8.749999999980943
 30
0.0
 11
-12.48181818117467
 21
-41.24999999998094
 31
0.0
  0
LINE
  5
7C40
330
A
100
AcDbEntity
  8
0
  6
Continuous
 62
     7
370
     0
100
AcDbLine
 10
-18.31903765673039
 20
-8.749999999980943
 30
0.0
 11
-12.48181818117467
 21
-8.749999999980943
 31
0.0
  0
LINE
  5
7C41
330
A
100
AcDbEntity
  8
0
  6
Continuous
 62
     7
370
     0
100
AcDbLine
 10
-18.31903765673039
 20
-41.24999999998094
 30
0.0
 11
-12.48181818117467
 21
-41.24999999998094
 31
0.0
  0
LINE
  5
7C42
330
A
100
AcDbEntity
  8
0
  6
Continuous
 62
     7
370
     0
100
AcDbLine
 10
-19.45093191291639
 20
-8.749999999980943
 30
0.0
 11
-23.79983829766079
 21
-8.749999999980943
 31
0.0
  0
LINE
  5
7C43
330
A
100
AcDbEntity
  8
0
  6
Continuous
 62
     7
370
     0
100
AcDbLine
 10
-19.45093191291639
 20
-41.24999999998094
 30
0.0
 11
-23.79983829766079
 21
-41.24999999998094
 31
0.0
  0
LINE
  5
7C44
330
A
100
AcDbEntity
  8
0
  6
Continuous
 62
     7
370
     0
100
AcDbLine
 10
-12.48181818117467
 20
-8.749999999980943
 30
0.0
 11
-12.31818181753832
 21
-8.749999999980943
 31
0.0
  0
LINE
  5
7C45
330
A
100
AcDbEntity
  8
0
  6
Continuous
 62
     7
370
     0
100
AcDbLine
 10
-12.48181818117467
 20
-41.24999999998094
 30
0.0
 11
-12.31818181753832
 21
-41.24999999998094
 31
0.0
  0
LINE
  5
7C46
330
A
100
AcDbEntity
  8
0
  6
Continuous
 62
     7
370
     0
100
AcDbLine
 10
-42.49999999978749
 20
6.899999999992175
 30
0.0
 11
-48.49999999978749
 21
6.899999999617364
 31
0.0
  0
LINE
  5
7C47
330
A
100
AcDbEntity
  8
0
  6
Continuous
 62
     7
370
     0
100
AcDbLine
 10
-48.4999999989254
 20
-6.900000000382675
 30
0.0
 11
-42.4999999989254
 21
-6.900000000007821
 31
0.0
  0
LINE
  5
7C48
330
A
100
AcDbEntity
  8
0
  6
Continuous
 62
     7
370
     0
100
AcDbLine
 10
-42.4999999997878
 20
-43.09999999999213
 30
0.0
 11
-48.49999999978781
 21
-43.10000000036724
 31
0.0
  0
LINE
  5
7C49
330
A
100
AcDbEntity
  8
0
  6
Continuous
 62
     7
370
     0
100
AcDbLine
 10
-48.49999999892507
 20
-56.90000000036715
 30
0.0
 11
-42.49999999892508
 21
-56.89999999999215
 31
0.0
  0
LINE
  5
7C4A
330
A
100
AcDbEntity
  8
0
  6
Continuous
 62
     7
370
     0
100
AcDbLine
 10
-35.49999999935649
 20
-5.691019966380594
 30
0.0
 11
-35.01818181787169
 21
-5.412842109640308
 31
0.0
  0
LINE
  5
7C4B
330
A
100
AcDbEntity
  8
0
  6
Continuous
 62
     7
370
     0
100
AcDbLine
 10
-35.0181818171902
 20
5.412842109709799
 30
0.0
 11
-35.49999999935649
 21
5.691019966924358
 31
0.0
  0
ARC
  5
7C4C
330
A
100
AcDbEntity
  8
0
  6
Continuous
 62
     7
370
     0
100
AcDbCircle
 10
-35.2681818172175
 20
4.979829407833292
 30
0.0
 40
0.5000000000000006
100
AcDbArc
 50
359.999999996393
 51
59.99999999639361
  0
ARC
  5
7C4D
330
A
100
AcDbEntity
  8
0
  6
Continuous
 62
     7
370
     0
100
AcDbCircle
 10
-35.26818181784439
 20
-4.979829407732339
 30
0.0
 40
0.5000000000000029
100
AcDbArc
 50
299.9999999963934
 51
359.999999996393
  0
LINE
  5
7C4E
330
A
100
AcDbEntity
  8
0
  6
Continuous
 62
     7
370
     0
100
AcDbLine
 10
-35.49999999935649
 20
-55.69101996636645
 30
0.0
 11
-35.01818181789309
 21
-55.41284210963986
 31
0.0
  0
LINE
  5
7C4F
330
A
100
AcDbEntity
  8
0
  6
Continuous
 62
     7
370
     0
100
AcDbLine
 10
-35.01818181719109
 20
-44.58715789028976
 30
0.0
 11
-35.49999999935649
 21
-44.30898003307446
 31
0.0
  0
ARC
  5
7C50
330
A
100
AcDbEntity
  8
0
  6
Continuous
 62
     7
370
     0
100
AcDbCircle
 10
-35.26818181721919
 20
-45.02017059216576
 30
0.0
 40
0.5000000000000006
100
AcDbArc
 50
359.9999999962847
 51
59.99999999628455
  0
ARC
  5
7C51
330
A
100
AcDbEntity
  8
0
  6
Continuous
 62
     7
370
     0
100
AcDbCircle
 10
-35.268181817865
 20
-54.97982940773137
 30
0.0
 40
0.5000000000000023
100
AcDbArc
 50
299.9999999962844
 51
359.9999999962847
  0
LINE
  5
7C52
330
A
100
AcDbEntity
  8
0
  6
Continuous
 62
     7
370
     0
100
AcDbLine
 10
-24.00000000095929
 20
-7.42499999998094
 30
0.0
 11
-24.00000000095929
 21
-7.54999999998094
 31
0.0
  0
LINE
  5
7C53
330
A
100
AcDbEntity
  8
0
  6
Continuous
 62
     7
370
     0
100
AcDbLine
 10
-24.00000000095929
 20
-42.44999999998093
 30
0.0
 11
-24.00000000095929
 21
-42.57499999998093
 31
0.0
  0
LINE
  5
7C54
330
A
100
AcDbEntity
  8
0
  6
Continuous
 62
     7
370
     0
100
AcDbLine
 10
-19.00000000095929
 20
-42.57499999998093
 30
0.0
 11
-19.00000000095929
 21
-42.44999999998093
 31
0.0
  0
LINE
  5
7C55
330
A
100
AcDbEntity
  8
0
  6
Continuous
 62
     7
370
     0
100
AcDbLine
 10
-19.00000000095929
 20
-7.54999999998094
 30
0.0
 11
-19.00000000095929
 21
-7.42499999998094
 31
0.0
  0
LINE
  5
7C56
330
A
100
AcDbEntity
  8
0
  6
Continuous
 62
     7
370
     0
100
AcDbLine
 10
-15.74999999935591
 20
-8.749999999980843
 30
0.0
 11
-15.74999999935591
 21
-8.529851921162546
 31
0.0
  0
LINE
  5
7C57
330
A
100
AcDbEntity
  8
0
  6
Continuous
 62
     7
370
     0
100
AcDbLine
 10
-27.24999999935589
 20
-8.529851921162546
 30
0.0
 11
-27.24999999935589
 21
-8.749999999980843
 31
0.0
  0
ARC
  5
7C58
330
A
100
AcDbEntity
  8
0
  6
Continuous
 62
     7
370
     0
100
AcDbCircle
 10
-26.4499999993559
 20
-8.529851921162546
 30
0.0
 40
0.7999999999999985
100
AcDbArc
 50
100.0000000000002
 51
180.0
  0
ARC
  5
7C59
330
A
100
AcDbEntity
  8
0
  6
Continuous
 62
     7
370
     0
100
AcDbCircle
 10
-16.54999999935589
 20
-8.529851921162546
 30
0.0
 40
0.7999999999999952
100
AcDbArc
 50
0.0
 51
79.9999999999998
  0
LINE
  5
7C5A
330
A
100
AcDbEntity
  8
0
  6
Continuous
 62
     7
370
     0
100
AcDbLine
 10
-16.41108145722239
 20
-7.74200571875275
 30
0.0
 11
-17.49999999935591
 21
-7.54999999998094
 31
0.0
  0
LINE
  5
7C5B
330
A
100
AcDbEntity
  8
0
  6
Continuous
 62
     7
370
     0
100
AcDbLine
 10
-25.49999999935591
 20
-7.54999999998094
 30
0.0
 11
-26.58891854148949
 21
-7.74200571875275
 31
0.0
  0
ARC
  5
7C5C
330
A
100
AcDbEntity
  8
0
  6
Continuous
 62
     7
370
     0
100
AcDbCircle
 10
-16.55000000095839
 20
-41.47014807879934
 30
0.0
 40
0.7999999999999985
100
AcDbArc
 50
280.0000000000002
 51
0.0
  0
ARC
  5
7C5D
330
A
100
AcDbEntity
  8
0
  6
Continuous
 62
     7
370
     0
100
AcDbCircle
 10
-26.4500000009584
 20
-41.47014807879934
 30
0.0
 40
0.8000000000000229
100
AcDbArc
 50
180.0
 51
259.9999999999998
  0
LINE
  5
7C5E
330
A
100
AcDbEntity
  8
0
  6
Continuous
 62
     7
370
     0
100
AcDbLine
 10
-27.25000000095839
 20
-41.24999999998094
 30
0.0
 11
-27.25000000095839
 21
-41.47014807879934
 31
0.0
  0
LINE
  5
7C5F
330
A
100
AcDbEntity
  8
0
  6
Continuous
 62
     7
370
     0
100
AcDbLine
 10
-15.75000000095838
 20
-41.47014807879934
 30
0.0
 11
-15.75000000095838
 21
-41.24999999998094
 31
0.0
  0
LINE
  5
7C60
330
A
100
AcDbEntity
  8
0
  6
Continuous
 62
     7
370
     0
100
AcDbLine
 10
-26.58891854309189
 20
-42.25799428120903
 30
0.0
 11
-25.5000000009584
 21
-42.44999999998093
 31
0.0
  0
LINE
  5
7C61
330
A
100
AcDbEntity
  8
0
  6
Continuous
 62
     7
370
     0
100
AcDbLine
 10
-17.50000000095838
 20
-42.44999999998093
 30
0.0
 11
-16.41108145882489
 21
-42.25799428120903
 31
0.0
  0
LINE
  5
7C62
330
A
100
AcDbEntity
  8
0
  6
Continuous
 62
     7
370
     0
100
AcDbLine
 10
-12.31818181753832
 20
-41.24999999998094
 30
0.0
 11
-12.31818181753832
 21
-8.749999999980943
 31
0.0
  0
TEXT
  5
ADBF
330
A
100
AcDbEntity
  8
0
  6
Continuous
 62
     7
370
     0
100
AcDbText
 10
34.7551686964481
 20
75.00732064423613
 30
0.0
 40
10.0
  1
8506
100
AcDbText
  0
LINE
  5
AE04
330
A
100
AcDbEntity
  8
0
  6
Continuous
 62
     7
370
     0
100
AcDbLine
 10
60.17631029993231
 20
-115.8237261354562
 30
0.0
 11
60.18482286630592
 21
-115.8363252273606
 31
0.0
  0
LINE
  5
AE05
330
A
100
AcDbEntity
  8
0
  6
Continuous
 62
     7
370
     0
100
AcDbLine
 10
60.18482286630592
 20
-115.8363252273606
 30
0.0
 11
60.20288023711922
 21
-115.8613901448707
 31
0.0
  0
LINE
  5
AE06
330
A
100
AcDbEntity
  8
0
  6
Continuous
 62
     7
370
     0
100
AcDbLine
 10
60.20288023711922
 20
-115.8613901448707
 30
0.0
 11
60.22715651714159
 21
-115.8920662034327
 31
0.0
  0
LINE
  5
AE07
330
A
100
AcDbEntity
  8
0
  6
Continuous
 62
     7
370
     0
100
AcDbLine
 10
60.22715651714159
 20
-115.8920662034327
 30
0.0
 11
60.2459645176271
 21
-115.9138421387565
 31
0.0
  0
LINE
  5
AE08
330
A
100
AcDbEntity
  8
0
  6
Continuous
 62
     7
370
     0
100
AcDbLine
 10
60.2459645176271
 20
-115.9138421387565
 30
0.0
 11
60.2656087845001
 21
-115.9350079136447
 31
0.0
  0
LINE
  5
AE09
330
A
100
AcDbEntity
  8
0
  6
Continuous
 62
     7
370
     0
100
AcDbLine
 10
60.2656087845001
 20
-115.9350079136447
 30
0.0
 11
60.28604399658741
 21
-115.9555251173012
 31
0.0
  0
LINE
  5
AE0A
330
A
100
AcDbEntity
  8
0
  6
Continuous
 62
     7
370
     0
100
AcDbLine
 10
60.28604399658741
 20
-115.9555251173012
 30
0.0
 11
60.31248244159943
 21
-115.9800747107341
 31
0.0
  0
LINE
  5
AE0B
330
A
100
AcDbEntity
  8
0
  6
Continuous
 62
     7
370
     0
100
AcDbLine
 10
60.31248244159943
 20
-115.9800747107341
 30
0.0
 11
60.34003702856262
 21
-116.0035596595992
 31
0.0
  0
LINE
  5
AE0C
330
A
100
AcDbEntity
  8
0
  6
Continuous
 62
     7
370
     0
100
AcDbLine
 10
60.34003702856262
 20
-116.0035596595992
 30
0.0
 11
60.3657221917789
 21
-116.0237419360347
 31
0.0
  0
LINE
  5
AE0D
330
A
100
AcDbEntity
  8
0
  6
Continuous
 62
     7
370
     0
100
AcDbLine
 10
60.3657221917789
 20
-116.0237419360347
 30
0.0
 11
60.39221183005389
 21
-116.0430079421769
 31
0.0
  0
LINE
  5
AE0E
330
A
100
AcDbEntity
  8
0
  6
Continuous
 62
     7
370
     0
100
AcDbLine
 10
60.39221183005389
 20
-116.0430079421769
 30
0.0
 11
60.41960042278652
 21
-116.0614255177722
 31
0.0
  0
LINE
  5
AE0F
330
A
100
AcDbEntity
  8
0
  6
Continuous
 62
     7
370
     0
100
AcDbLine
 10
60.41960042278652
 20
-116.0614255177722
 30
0.0
 11
60.4485172233906
 21
-116.0793553311607
 31
0.0
  0
LINE
  5
AE10
330
A
100
AcDbEntity
  8
0
  6
Continuous
 62
     7
370
     0
100
AcDbLine
 10
60.4485172233906
 20
-116.0793553311607
 30
0.0
 11
60.4782970504479
 21
-116.0963226128929
 31
0.0
  0
LINE
  5
AE11
330
A
100
AcDbEntity
  8
0
  6
Continuous
 62
     7
370
     0
100
AcDbLine
 10
60.4782970504479
 20
-116.0963226128929
 30
0.0
 11
60.50873906166549
 21
-116.1122130320669
 31
0.0
  0
LINE
  5
AE12
330
A
100
AcDbEntity
  8
0
  6
Continuous
 62
     7
370
     0
100
AcDbLine
 10
60.50873906166549
 20
-116.1122130320669
 30
0.0
 11
60.54012903637332
 21
-116.1271617858027
 31
0.0
  0
LINE
  5
AE13
330
A
100
AcDbEntity
  8
0
  6
Continuous
 62
     7
370
     0
100
AcDbLine
 10
60.54012903637332
 20
-116.1271617858027
 30
0.0
 11
60.57208873377558
 21
-116.1409766957969
 31
0.0
  0
LINE
  5
AE14
330
A
100
AcDbEntity
  8
0
  6
Continuous
 62
     7
370
     0
100
AcDbLine
 10
60.57208873377558
 20
-116.1409766957969
 30
0.0
 11
60.60491579555691
 21
-116.1537721276931
 31
0.0
  0
LINE
  5
AE15
330
A
100
AcDbEntity
  8
0
  6
Continuous
 62
     7
370
     0
100
AcDbLine
 10
60.60491579555691
 20
-116.1537721276931
 30
0.0
 11
60.63821614091842
 21
-116.165381856745
 31
0.0
  0
LINE
  5
AE16
330
A
100
AcDbEntity
  8
0
  6
Continuous
 62
     7
370
     0
100
AcDbLine
 10
60.63821614091842
 20
-116.165381856745
 30
0.0
 11
60.67210904054542
 21
-116.1758439968141
 31
0.0
  0
LINE
  5
AE17
330
A
100
AcDbEntity
  8
0
  6
Continuous
 62
     7
370
     0
100
AcDbLine
 10
60.67210904054542
 20
-116.1758439968141
 30
0.0
 11
60.71059060928593
 21
-116.1861329769216
 31
0.0
  0
LINE
  5
AE18
330
A
100
AcDbEntity
  8
0
  6
Continuous
 62
     7
370
     0
100
AcDbLine
 10
60.71059060928593
 20
-116.1861329769216
 30
0.0
 11
60.74947969880032
 21
-116.1948786350247
 31
0.0
  0
LINE
  5
AE19
330
A
100
AcDbEntity
  8
0
  6
Continuous
 62
     7
370
     0
100
AcDbLine
 10
60.74947969880032
 20
-116.1948786350247
 30
0.0
 11
60.78866379513019
 21
-116.202062970668
 31
0.0
  0
LINE
  5
AE1A
330
A
100
AcDbEntity
  8
0
  6
Continuous
 62
     7
370
     0
100
AcDbLine
 10
60.78866379513019
 20
-116.202062970668
 30
0.0
 11
60.82851357149618
 21
-116.2077309922109
 31
0.0
  0
LINE
  5
AE1B
330
A
100
AcDbEntity
  8
0
  6
Continuous
 62
     7
370
     0
100
AcDbLine
 10
60.82851357149618
 20
-116.2077309922109
 30
0.0
 11
60.86854927126018
 21
-116.2117961656618
 31
0.0
  0
LINE
  5
AE1C
330
A
100
AcDbEntity
  8
0
  6
Continuous
 62
     7
370
     0
100
AcDbLine
 10
60.86854927126018
 20
-116.2117961656618
 30
0.0
 11
60.9086564563631
 21
-116.2142505580718
 31
0.0
  0
LINE
  5
AE1D
330
A
100
AcDbEntity
  8
0
  6
Continuous
 62
     7
370
     0
100
AcDbLine
 10
60.9086564563631
 20
-116.2142505580718
 30
0.0
 11
60.91474143263633
 21
-116.2144818131616
 31
0.0
  0
LINE
  5
AE1E
330
A
100
AcDbEntity
  8
0
  6
Continuous
 62
     7
370
     0
100
AcDbLine
 10
-36.45660943848908
 20
-103.4545923390618
 30
0.0
 11
-36.4622106885128
 21
-103.3850155367375
 31
0.0
  0
LINE
  5
AE1F
330
A
100
AcDbEntity
  8
0
  6
Continuous
 62
     7
370
     0
100
AcDbLine
 10
-36.4622106885128
 20
-103.3850155367375
 30
0.0
 11
-36.47230683257679
 21
-103.3178521117046
 31
0.0
  0
LINE
  5
AE20
330
A
100
AcDbEntity
  8
0
  6
Continuous
 62
     7
370
     0
100
AcDbLine
 10
-36.47230683257679
 20
-103.3178521117046
 30
0.0
 11
-36.48667924053149
 21
-103.2525395475666
 31
0.0
  0
LINE
  5
AE21
330
A
100
AcDbEntity
  8
0
  6
Continuous
 62
     7
370
     0
100
AcDbLine
 10
-36.48667924053149
 20
-103.2525395475666
 30
0.0
 11
-36.50484564539799
 21
-103.1899870479671
 31
0.0
  0
LINE
  5
AE22
330
A
100
AcDbEntity
  8
0
  6
Continuous
 62
     7
370
     0
100
AcDbLine
 10
-36.50484564539799
 20
-103.1899870479671
 30
0.0
 11
-36.526586809447
 21
-103.1298965551961
 31
0.0
  0
LINE
  5
AE23
330
A
100
AcDbEntity
  8
0
  6
Continuous
 62
     7
370
     0
100
AcDbLine
 10
-36.526586809447
 20
-103.1298965551961
 30
0.0
 11
-36.55149211287358
 21
-103.0726491520642
 31
0.0
  0
LINE
  5
AE24
330
A
100
AcDbEntity
  8
0
  6
Continuous
 62
     7
370
     0
100
AcDbLine
 10
-36.55149211287358
 20
-103.0726491520642
 30
0.0
 11
-36.5795719318497
 21
-103.017699879845
 31
0.0
  0
LINE
  5
AE25
330
A
100
AcDbEntity
  8
0
  6
Continuous
 62
     7
370
     0
100
AcDbLine
 10
-36.5795719318497
 20
-103.017699879845
 30
0.0
 11
-36.6103477772825
 21
-102.9655976173017
 31
0.0
  0
LINE
  5
AE26
330
A
100
AcDbEntity
  8
0
  6
Continuous
 62
     7
370
     0
100
AcDbLine
 10
-36.6103477772825
 20
-102.9655976173017
 30
0.0
 11
-36.6637326033675
 21
-102.8892783763535
 31
0.0
  0
LINE
  5
AE27
330
A
100
AcDbEntity
  8
0
  6
Continuous
 62
     7
370
     0
100
AcDbLine
 10
-36.6637326033675
 20
-102.8892783763535
 30
0.0
 11
-36.7225414973815
 21
-102.8198106755589
 31
0.0
  0
LINE
  5
AE28
330
A
100
AcDbEntity
  8
0
  6
Continuous
 62
     7
370
     0
100
AcDbLine
 10
-36.7225414973815
 20
-102.8198106755589
 30
0.0
 11
-36.78593984274909
 21
-102.757312470207
 31
0.0
  0
LINE
  5
AE29
330
A
100
AcDbEntity
  8
0
  6
Continuous
 62
     7
370
     0
100
AcDbLine
 10
-36.78593984274909
 20
-102.757312470207
 30
0.0
 11
-36.85399653217641
 21
-102.7011885308595
 31
0.0
  0
LINE
  5
AE2A
330
A
100
AcDbEntity
  8
0
  6
Continuous
 62
     7
370
     0
100
AcDbLine
 10
-36.85399653217641
 20
-102.7011885308595
 30
0.0
 11
-36.925474674272
 21
-102.6520669326721
 31
0.0
  0
LINE
  5
AE2B
330
A
100
AcDbEntity
  8
0
  6
Continuous
 62
     7
370
     0
100
AcDbLine
 10
-36.925474674272
 20
-102.6520669326721
 30
0.0
 11
-37.0005779344867
 21
-102.6095085852176
 31
0.0
  0
LINE
  5
AE2C
330
A
100
AcDbEntity
  8
0
  6
Continuous
 62
     7
370
     0
100
AcDbLine
 10
-37.0005779344867
 20
-102.6095085852176
 30
0.0
 11
-37.07811463362309
 21
-102.5739754737806
 31
0.0
  0
LINE
  5
AE2D
330
A
100
AcDbEntity
  8
0
  6
Continuous
 62
     7
370
     0
100
AcDbLine
 10
-37.07811463362309
 20
-102.5739754737806
 30
0.0
 11
-37.15773151357739
 21
-102.5453862125176
 31
0.0
  0
LINE
  5
AE2E
330
A
100
AcDbEntity
  8
0
  6
Continuous
 62
     7
370
     0
100
AcDbLine
 10
-37.15773151357739
 20
-102.5453862125176
 30
0.0
 11
-37.22959456580421
 21
-102.5258688501366
 31
0.0
  0
LINE
  5
AE2F
330
A
100
AcDbEntity
  8
0
  6
Continuous
 62
     7
370
     0
100
AcDbLine
 10
-37.22959456580421
 20
-102.5258688501366
 30
0.0
 11
-37.302434678075
 21
-102.5117960081479
 31
0.0
  0
LINE
  5
AE30
330
A
100
AcDbEntity
  8
0
  6
Continuous
 62
     7
370
     0
100
AcDbLine
 10
-37.302434678075
 20
-102.5117960081479
 30
0.0
 11
-37.37590583717729
 21
-102.5031788776796
 31
0.0
  0
LINE
  5
AE31
330
A
100
AcDbEntity
  8
0
  6
Continuous
 62
     7
370
     0
100
AcDbLine
 10
-37.37590583717729
 20
-102.5031788776796
 30
0.0
 11
-37.44980449199491
 21
-102.5000166666934
 31
0.0
  0
LINE
  5
AE32
330
A
100
AcDbEntity
  8
0
  6
Continuous
 62
     7
370
     0
100
AcDbLine
 10
-37.44980449199491
 20
-102.5000166666934
 30
0.0
 11
-37.45557797869941
 21
-102.4999999999805
 31
0.0
  0
LINE
  5
AE33
330
A
100
AcDbEntity
  8
0
  6
Continuous
 62
     7
370
     0
100
AcDbLine
 10
-37.45557797869941
 20
50.00000000001948
 30
0.0
 11
-37.4498044919943
 21
50.00001666673238
 31
0.0
  0
LINE
  5
AE34
330
A
100
AcDbEntity
  8
0
  6
Continuous
 62
     7
370
     0
100
AcDbLine
 10
-37.4498044919943
 20
50.00001666673238
 30
0.0
 11
-37.37619552414991
 21
50.00315576649567
 31
0.0
  0
LINE
  5
AE35
330
A
100
AcDbEntity
  8
0
  6
Continuous
 62
     7
370
     0
100
AcDbLine
 10
-37.37619552414991
 20
50.00315576649567
 30
0.0
 11
-37.3028084830075
 21
50.01173815152688
 31
0.0
  0
LINE
  5
AE36
330
A
100
AcDbEntity
  8
0
  6
Continuous
 62
     7
370
     0
100
AcDbLine
 10
-37.3028084830075
 20
50.01173815152688
 30
0.0
 11
-37.22988213286779
 21
50.02580218377559
 31
0.0
  0
LINE
  5
AE37
330
A
100
AcDbEntity
  8
0
  6
Continuous
 62
     7
370
     0
100
AcDbLine
 10
-37.22988213286779
 20
50.02580218377559
 30
0.0
 11
-37.15773151357739
 21
50.04538621255657
 31
0.0
  0
LINE
  5
AE38
330
A
100
AcDbEntity
  8
0
  6
Continuous
 62
     7
370
     0
100
AcDbLine
 10
-37.15773151357739
 20
50.04538621255657
 30
0.0
 11
-37.08054228692198
 21
50.07298962796688
 31
0.0
  0
LINE
  5
AE39
330
A
100
AcDbEntity
  8
0
  6
Continuous
 62
     7
370
     0
100
AcDbLine
 10
-37.08054228692198
 20
50.07298962796688
 30
0.0
 11
-37.0048231500019
 21
50.10735220586661
 31
0.0
  0
LINE
  5
AE3A
330
A
100
AcDbEntity
  8
0
  6
Continuous
 62
     7
370
     0
100
AcDbLine
 10
-37.0048231500019
 20
50.10735220586661
 30
0.0
 11
-36.93120396980198
 21
50.14851195031297
 31
0.0
  0
LINE
  5
AE3B
330
A
100
AcDbEntity
  8
0
  6
Continuous
 62
     7
370
     0
100
AcDbLine
 10
-36.93120396980198
 20
50.14851195031297
 30
0.0
 11
-36.8596737594223
 21
50.19694448422502
 31
0.0
  0
LINE
  5
AE3C
330
A
100
AcDbEntity
  8
0
  6
Continuous
 62
     7
370
     0
100
AcDbLine
 10
-36.8596737594223
 20
50.19694448422502
 30
0.0
 11
-36.7912969082899
 21
50.25251711760964
 31
0.0
  0
LINE
  5
AE3D
330
A
100
AcDbEntity
  8
0
  6
Continuous
 62
     7
370
     0
100
AcDbLine
 10
-36.7912969082899
 20
50.25251711760964
 30
0.0
 11
-36.72622750298379
 21
50.31585974862823
 31
0.0
  0
LINE
  5
AE3E
330
A
100
AcDbEntity
  8
0
  6
Continuous
 62
     7
370
     0
100
AcDbLine
 10
-36.72622750298379
 20
50.31585974862823
 30
0.0
 11
-36.66568550030739
 21
50.38675463918913
 31
0.0
  0
LINE
  5
AE3F
330
A
100
AcDbEntity
  8
0
  6
Continuous
 62
     7
370
     0
100
AcDbLine
 10
-36.66568550030739
 20
50.38675463918913
 30
0.0
 11
-36.6103477772825
 21
50.46559761734073
 31
0.0
  0
LINE
  5
AE40
330
A
100
AcDbEntity
  8
0
  6
Continuous
 62
     7
370
     0
100
AcDbLine
 10
-36.6103477772825
 20
50.46559761734073
 30
0.0
 11
-36.56972300112858
 21
50.53603776156348
 31
0.0
  0
LINE
  5
AE41
330
A
100
AcDbEntity
  8
0
  6
Continuous
 62
     7
370
     0
100
AcDbLine
 10
-36.56972300112858
 20
50.53603776156348
 30
0.0
 11
-36.53398388528541
 21
50.61184497044455
 31
0.0
  0
LINE
  5
AE42
330
A
100
AcDbEntity
  8
0
  6
Continuous
 62
     7
370
     0
100
AcDbLine
 10
-36.53398388528541
 20
50.61184497044455
 30
0.0
 11
-36.5087509465572
 21
50.67825697957484
 31
0.0
  0
LINE
  5
AE43
330
A
100
AcDbEntity
  8
0
  6
Continuous
 62
     7
370
     0
100
AcDbLine
 10
-36.5087509465572
 20
50.67825697957484
 30
0.0
 11
-36.48776399737649
 21
50.74833336028376
 31
0.0
  0
LINE
  5
AE44
330
A
100
AcDbEntity
  8
0
  6
Continuous
 62
     7
370
     0
100
AcDbLine
 10
-36.48776399737649
 20
50.74833336028376
 30
0.0
 11
-36.47299890369131
 21
50.81415500719977
 31
0.0
  0
LINE
  5
AE45
330
A
100
AcDbEntity
  8
0
  6
Continuous
 62
     7
370
     0
100
AcDbLine
 10
-36.47299890369131
 20
50.81415500719977
 30
0.0
 11
-36.4624618345815
 21
50.88286621201508
 31
0.0
  0
LINE
  5
AE46
330
A
100
AcDbEntity
  8
0
  6
Continuous
 62
     7
370
     0
100
AcDbLine
 10
-36.4624618345815
 20
50.88286621201508
 30
0.0
 11
-36.45660943848908
 21
50.95459233910084
 31
0.0
  0
LINE
  5
B938
330
A
100
AcDbEntity
  8
0
  6
CENTER
 62
     1
100
AcDbLine
 10
8.5
 20
0.0000000000095639
 30
0.0
 11
8.5
 21
-49.99999999999038
 31
0.0
  0
ARC
  5
B939
330
A
100
AcDbEntity
  8
0
  6
CENTER
 62
     1
100
AcDbCircle
 10
0.5
 20
-49.99999999999038
 30
0.0
 40
8.0
100
AcDbArc
 50
202.6198650000019
 51
0.0
  0
ARC
  5
B93A
330
A
100
AcDbEntity
  8
0
  6
CENTER
 62
     1
100
AcDbCircle
 10
-11.5
 20
-54.99999999999038
 30
0.0
 40
5.0
100
AcDbArc
 50
22.61986500000186
 51
90.0
  0
LINE
  5
B93B
330
A
100
AcDbEntity
  8
0
  6
CENTER
 62
     1
100
AcDbLine
 10
-11.5
 20
-49.99999999999038
 30
0.0
 11
-32.5
 21
-49.99999999999038
 31
0.0
  0
LINE
  5
B93C
330
A
100
AcDbEntity
  8
0
  6
CENTER
 62
     1
100
AcDbLine
 10
-32.5
 20
0.0000000000095639
 30
0.0
 11
-11.5
 21
0.0000000000095639
 31
0.0
  0
ARC
  5
B93D
330
A
100
AcDbEntity
  8
0
  6
CENTER
 62
     1
100
AcDbCircle
 10
-11.5
 20
5.000000000009563
 30
0.0
 40
5.0
100
AcDbArc
 50
270.0
 51
337.3801349999981
  0
ARC
  5
B93E
330
A
100
AcDbEntity
  8
0
  6
CENTER
 62
     1
100
AcDbCircle
 10
0.5
 20
0.0000000000095639
 30
0.0
 40
8.0
100
AcDbArc
 50
0.0
 51
157.3801349999981
  0
ENDSEC
  0
SECTION
  2
OBJECTS
  0
DICTIONARY
  5
19
330
0
100
AcDbDictionary
281
     1
  3
ACAD_COLOR
350
5829
  3
ACAD_GROUP
350
1A
  3
ACAD_LAYOUT
350
1E
  3
ACAD_MATERIAL
350
57FF
  3
ACAD_MLEADERSTYLE
350
584E
  3
ACAD_MLINESTYLE
350
1B
  3
ACAD_PLOTSETTINGS
350
22
  3
ACAD_PLOTSTYLENAME
350
1F
  3
ACAD_SCALELIST
350
582C
  3
ACAD_TABLESTYLE
350
582A
  3
ACAD_VISUALSTYLE
350
5818
  3
ACAD_WIPEOUT_VARS
350
23
  3
ACDB_RECOMPOSE_DATA
350
AB90
  3
AcDbVariableDictionary
350
AB91
  3
ASE_INDEX_DICTIONARY
350
B60C
  3
DWGPROPS
350
B94E
  0
DICTIONARY
  5
5858
330
14
100
AcDbDictionary
280
     1
281
     1
  3
ADSK_XREC_LAYER_RECONCILED
360
5859
  0
DICTIONARY
  5
5864
330
A
100
AcDbDictionary
280
     1
281
     1
  3
ACAD_SORTENTS
360
5865
  0
DICTIONARY
  5
5829
102
{ACAD_REACTORS
330
19
102
}
330
19
100
AcDbDictionary
281
     1
  0
DICTIONARY
  5
1A
102
{ACAD_REACTORS
330
19
102
}
330
19
100
AcDbDictionary
281
     1
  0
DICTIONARY
  5
1E
102
{ACAD_REACTORS
330
19
102
}
330
19
100
AcDbDictionary
281
     1
  3
Layout1
350
21
  3
Model
350
20
  0
DICTIONARY
  5
57FF
102
{ACAD_REACTORS
330
19
102
}
330
19
100
AcDbDictionary
281
     1
  3
ByBlock
350
5808
  3
ByLayer
350
5800
  3
Global
350
5810
  0
DICTIONARY
  5
584E
102
{ACAD_REACTORS
330
19
102
}
330
19
100
AcDbDictionary
281
     1
  3
Standard
350
584F
  0
DICTIONARY
  5
1B
102
{ACAD_REACTORS
330
19
102
}
330
19
100
AcDbDictionary
281
     1
  3
Standard
350
1C
  0
DICTIONARY
  5
22
102
{ACAD_REACTORS
330
19
102
}
330
19
100
AcDbDictionary
281
     1
  0
ACDBDICTIONARYWDFLT
  5
1F
102
{ACAD_REACTORS
330
19
102
}
330
19
100
AcDbDictionary
281
     1
  3
Normal
350
1D
100
AcDbDictionaryWithDefault
340
1D
  0
DICTIONARY
  5
582C
102
{ACAD_REACTORS
330
19
102
}
330
19
100
AcDbDictionary
281
     1
  3
A0
350
582D
  3
A1
350
582E
  3
A2
350
582F
  3
A3
350
5830
  3
A4
350
5831
  3
A5
350
5832
  3
A6
350
5833
  3
A7
350
5834
  3
A8
350
5835
  3
A9
350
5836
  3
B0
350
5837
  3
B1
350
5838
  3
B2
350
5839
  3
B3
350
583A
  3
B4
350
583B
  3
B5
350
583C
  3
B6
350
583D
  3
B7
350
583E
  3
B8
350
583F
  3
B9
350
5840
  3
C0
350
5841
  3
C1
350
5842
  3
C2
350
5843
  3
C3
350
5844
  3
C4
350
5845
  3
C5
350
5846
  3
C6
350
5847
  3
C7
350
5848
  3
C8
350
5849
  3
C9
350
584A
  3
D0
350
584B
  3
D1
350
584C
  3
D2
350
584D
  0
DICTIONARY
  5
582A
102
{ACAD_REACTORS
330
19
102
}
330
19
100
AcDbDictionary
281
     1
  3
Standard
350
582B
  0
DICTIONARY
  5
5818
102
{ACAD_REACTORS
330
19
102
}
330
19
100
AcDbDictionary
281
     1
  3
2dWireframe
350
581E
  3
3D Hidden
350
5820
  3
3dWireframe
350
581F
  3
Basic
350
581D
  3
Brighten
350
5824
  3
ColorChange
350
5828
  3
Conceptual
350
5821
  3
Dim
350
5823
  3
Facepattern
350
5827
  3
Flat
350
5819
  3
FlatWithEdges
350
581A
  3
Gouraud
350
581B
  3
GouraudWithEdges
350
581C
  3
Linepattern
350
5826
  3
Realistic
350
5822
  3
Thicken
350
5825
  0
WIPEOUTVARIABLES
  5
23
330
19
100
AcDbWipeoutVariables
 70
     1
  0
XRECORD
  5
AB90
102
{ACAD_REACTORS
330
19
102
}
330
19
100
AcDbXrecord
280
     1
 90
        1
330
582B
  0
DICTIONARY
  5
AB91
102
{ACAD_REACTORS
330
19
102
}
330
19
100
AcDbDictionary
281
     1
  3
CANNOSCALE
350
AB95
  3
CMLEADERSTYLE
350
AB93
  3
CTABLESTYLE
350
AB92
  3
DIMASSOC
350
B616
  3
INDEXCTL
350
B615
  3
LIGHTINGUNITS
350
AB96
  3
MSLTSCALE
350
AB94
  3
SORTENTS
350
B614
  0
DICTIONARY
  5
B60C
102
{ACAD_REACTORS
330
19
102
}
330
19
100
AcDbDictionary
281
     1
  3
ASEBlockHierarchyIndexRecord
350
B60D
1001
DCO15
1040
1684840282.966
  0
XRECORD
  5
B94E
102
{ACAD_REACTORS
330
19
102
}
330
19
100
AcDbXrecord
280
     1
  1
DWGPROPS COOKIE
  2

  3

  4

  6

  7

  8
renzo.ceresoli
  9

300
=
301
=
302
=
303
=
304
=
305
=
306
=
307
=
308
=
309
=
 40
0.1643267013888889
 41
2455301.802361111
 42
2455303.703690834
  1

 90
        0
  0
XRECORD
  5
5859
102
{ACAD_REACTORS
330
5858
102
}
330
5858
100
AcDbXrecord
280
     1
290
     1
  0
SORTENTSTABLE
  5
5865
102
{ACAD_REACTORS
330
5864
102
}
330
5864
100
AcDbSortentsTable
330
A
331
7B43
  5
8100
331
7B16
  5
81F8
331
79F8
  5
83B8
331
796C
  5
8348
331
793F
  5
831B
331
7BF2
  5
807E
331
7BC5
  5
816C
331
7ABC
  5
81B5
331
7A8F
  5
8188
331
7B66
  5
8123
331
7B39
  5
80F6
331
7A40
  5
823E
331
7A13
  5
8289
331
7987
  5
8363
331
7C0D
  5
8099
331
7ADF
  5
81D8
331
7AB2
  5
81AB
331
7B81
  5
813E
331
7B5C
  5
8119
331
7A63
  5
8261
331
7A36
  5
8234
331
7AF5
  5
81EE
331
79AA
  5
8386
331
792E
  5
830A
331
7C30
  5
80BC
331
7AD5
  5
81CE
331
7BA4
  5
8161
331
7A7E
  5
827C
331
7A59
  5
8257
331
3572
  5
83D2
331
7B28
  5
820A
331
79CD
  5
83A9
331
7A02
  5
83C2
331
7951
  5
832D
331
7C53
  5
80DF
331
7BD7
  5
817E
331
7AA1
  5
819A
331
7B1E
  5
8200
331
7B4B
  5
8108
331
7A25
  5
8223
331
7999
  5
8375
331
7974
  5
8350
331
7BFA
  5
8086
331
7AC4
  5
81BD
331
7A97
  5
8190
331
7B6E
  5
812B
331
7A1B
  5
8219
331
7A48
  5
8246
331
79BC
  5
8398
331
798F
  5
836B
331
7940
  5
831C
331
7C42
  5
80CE
331
7C15
  5
80A1
331
7AE7
  5
81E0
331
7B89
  5
8146
331
7A6B
  5
8269
331
7A3E
  5
823C
331
79EF
  5
83AF
331
79B2
  5
838E
331
7963
  5
833F
331
7936
  5
8312
331
7C38
  5
80C4
331
7BE9
  5
8075
331
7A86
  5
8284
331
357A
  5
8424
331
7B30
  5
8212
331
7A0A
  5
83CA
331
797E
  5
835A
331
7959
  5
8335
331
7C5B
  5
80E7
331
7C04
  5
8090
331
7BDF
  5
806B
331
7AA9
  5
81A2
331
7B53
  5
8110
331
7B78
  5
8135
331
7A2D
  5
822B
331
79A1
  5
837D
331
7925
  5
829B
331
7C27
  5
80B3
331
7ACC
  5
81C5
331
7B9B
  5
8158
331
7B76
  5
8133
331
7A50
  5
824E
331
79C4
  5
83A0
331
7997
  5
8373
331
7948
  5
8324
331
791B
  5
8291
331
7C1D
  5
80A9
331
7C4A
  5
80D6
331
7AEF
  5
81E8
331
7B91
  5
814E
331
7BCE
  5
8175
331
7A98
  5
8191
331
7A73
  5
8271
331
7B42
  5
80FF
331
7B15
  5
81F7
331
79F7
  5
83B7
331
793E
  5
831A
331
796B
  5
8347
331
7BF1
  5
807D
331
7BC4
  5
816B
331
7ABB
  5
81B4
331
7A8E
  5
8187
331
7B65
  5
8122
331
7B38
  5
80F5
331
7A12
  5
8288
331
7986
  5
8362
331
7C0C
  5
8098
331
7BE7
  5
8073
331
7ADE
  5
81D7
331
7AB1
  5
81AA
331
7B80
  5
813D
331
7B5B
  5
8118
331
7A62
  5
8260
331
7A35
  5
8233
331
7AF4
  5
81ED
331
79A9
  5
8385
331
792D
  5
8309
331
7C2F
  5
80BB
331
7AD4
  5
81CD
331
7BA3
  5
8160
331
7A7D
  5
827B
331
7A58
  5
8256
331
3571
  5
83D1
331
7B27
  5
8209
331
7A01
  5
83C1
331
79CC
  5
83A8
331
7950
  5
832C
331
7C52
  5
80DE
331
7BD6
  5
817D
331
7AA0
  5
8199
331
7B4A
  5
8107
331
7B1D
  5
81FF
331
79FF
  5
83BF
331
7A24
  5
8222
331
7973
  5
834F
331
7998
  5
8374
331
7BF9
  5
8085
331
7AC3
  5
81BC
331
7A96
  5
818F
331
7B6D
  5
812A
331
7A47
  5
8245
331
7A1A
  5
8218
331
79BB
  5
8397
331
798E
  5
836A
331
7C41
  5
80CD
331
7C14
  5
80A0
331
7AE6
  5
81DF
331
7B88
  5
8145
331
7A3D
  5
823B
331
7A6A
  5
8268
331
79B1
  5
838D
331
7962
  5
833E
331
7935
  5
8311
331
7C37
  5
80C3
331
7BE8
  5
8074
331
7A85
  5
8283
331
3579
  5
8423
331
7B2F
  5
8211
331
7A09
  5
83C9
331
797D
  5
8359
331
7958
  5
8334
331
7C5A
  5
80E6
331
7C03
  5
808F
331
7BDE
  5
806A
331
7AA8
  5
81A1
331
7B52
  5
810F
331
7A2C
  5
822A
331
79A0
  5
837C
331
7924
  5
829A
331
7C26
  5
80B2
331
7ACB
  5
81C4
331
7B75
  5
8132
331
7B9A
  5
8157
331
7A4F
  5
824D
331
79C3
  5
839F
331
7996
  5
8372
331
791A
  5
8290
331
7947
  5
8323
331
7C49
  5
80D5
331
7C1C
  5
80A8
331
7AEE
  5
81E7
331
7BCD
  5
8174
331
7B90
  5
814D
331
7A72
  5
8270
331
7B41
  5
80FE
331
7B14
  5
81F6
331
79F6
  5
83B6
331
796A
  5
8346
331
793D
  5
8319
331
7C3F
  5
80CB
331
7BC3
  5
816A
331
7BF0
  5
807C
331
7ABA
  5
81B3
331
7A8D
  5
8186
331
7B64
  5
8121
331
7B37
  5
80F4
331
7A11
  5
8287
331
7985
  5
8361
331
7C0B
  5
8097
331
7BE6
  5
8072
331
7ADD
  5
81D6
331
7AB0
  5
81A9
331
7B7F
  5
813C
331
7B5A
  5
8117
331
7A61
  5
825F
331
7A34
  5
8232
331
7AF3
  5
81EC
331
79A8
  5
8384
331
792C
  5
82EE
331
7C2E
  5
80BA
331
7AD3
  5
81CC
331
7BA2
  5
815F
331
7A7C
  5
827A
331
7A57
  5
8255
331
3570
  5
83D0
331
7B26
  5
8208
331
7A00
  5
83C0
331
79CB
  5
83A7
331
794F
  5
832B
331
7C51
  5
80DD
331
7BD5
  5
817C
331
7A9F
  5
8198
331
7B49
  5
8106
331
7B1C
  5
81FE
331
7A23
  5
8221
331
79FE
  5
83BE
331
7972
  5
834E
331
7BF8
  5
8084
331
7AC2
  5
81BB
331
7A95
  5
818E
331
7B6C
  5
8129
331
7B3F
  5
80FC
331
7A19
  5
8217
331
7A46
  5
8244
331
798D
  5
8369
331
79BA
  5
8396
331
7C40
  5
80CC
331
7C13
  5
809F
331
7AE5
  5
81DE
331
7B87
  5
8144
331
7A69
  5
8267
331
7A3C
  5
823A
331
79B0
  5
838C
331
7961
  5
833D
331
7934
  5
8310
331
7C36
  5
80C2
331
7A5F
  5
825D
331
7A84
  5
8282
331
3578
  5
8422
331
7B2E
  5
8210
331
7A08
  5
83C8
331
797C
  5
8358
331
7957
  5
8333
331
7C59
  5
80E5
331
7C02
  5
808E
331
7BDD
  5
8069
331
7AA7
  5
81A0
331
7B51
  5
810E
331
7A2B
  5
8229
331
799F
  5
837B
331
7923
  5
8299
331
7C25
  5
80B1
331
7ACA
  5
81C3
331
7B99
  5
8156
331
7B74
  5
8131
331
7A4E
  5
824C
331
79C2
  5
839E
331
7995
  5
8371
331
7946
  5
8322
331
7919
  5
828F
331
7C48
  5
80D4
331
7C1B
  5
80A7
331
7AED
  5
81E6
331
7B8F
  5
814C
331
7BCC
  5
8173
331
7A71
  5
826F
331
7B40
  5
80FD
331
7B13
  5
81F5
331
79F5
  5
83B5
331
793C
  5
8318
331
7969
  5
8345
331
7C3E
  5
80CA
331
7BEF
  5
807B
331
7BC2
  5
8169
331
7A8C
  5
8185
331
7AB9
  5
81B2
331
7B63
  5
8120
331
7B36
  5
80F3
331
7A10
  5
8286
331
7984
  5
8360
331
795F
  5
833B
331
7BE5
  5
8071
331
7C0A
  5
8096
331
7ADC
  5
81D5
331
7AAF
  5
81A8
331
7B7E
  5
813B
331
7B59
  5
8116
331
7A60
  5
825E
331
7A33
  5
8231
331
7AF2
  5
81EB
331
79A7
  5
8383
331
792B
  5
82D4
331
7C2D
  5
80B9
331
7AD2
  5
81CB
331
7BA1
  5
815E
331
7A7B
  5
8279
331
7A56
  5
8254
331
7B25
  5
8207
331
79CA
  5
83A6
331
794E
  5
832A
331
7C50
  5
80DC
331
7BD4
  5
817B
331
7B97
  5
8154
331
7A9E
  5
8197
331
7B48
  5
8105
331
7B1B
  5
81FD
331
7A22
  5
8220
331
79FD
  5
83BD
331
7971
  5
834D
331
7BF7
  5
8083
331
7AC1
  5
81BA
331
7A94
  5
818D
331
7B6B
  5
8128
331
7B3E
  5
80FB
331
7A45
  5
8243
331
7A18
  5
8216
331
79B9
  5
8395
331
798C
  5
8368
331
7C12
  5
809E
331
7AE4
  5
81DD
331
7AB7
  5
81B0
331
7B86
  5
8143
331
7A3B
  5
8239
331
7A68
  5
8266
331
3581
  5
8475
331
79AF
  5
838B
331
7960
  5
833C
331
7933
  5
830F
331
7C62
  5
80EE
331
7C35
  5
80C1
331
7A83
  5
8281
331
7A5E
  5
825C
331
3577
  5
8421
331
7B2D
  5
820F
331
7A07
  5
83C7
331
797B
  5
8357
331
7956
  5
8332
331
7C58
  5
80E4
331
7C01
  5
808D
331
7BDC
  5
8068
331
7AA6
  5
819F
331
7B50
  5
810D
331
7A2A
  5
8228
331
799E
  5
837A
331
7922
  5
8298
331
7C24
  5
80B0
331
7BFF
  5
808B
331
7AC9
  5
81C2
331
7B73
  5
8130
331
7B98
  5
8155
331
7A4D
  5
824B
331
79C1
  5
839D
331
7994
  5
8370
331
7945
  5
8321
331
7918
  5
828E
331
7C47
  5
80D3
331
7C1A
  5
80A6
331
7AEC
  5
81E5
331
7BCB
  5
8172
331
7B8E
  5
814B
331
7A70
  5
826E
331
7B12
  5
81F4
331
79F4
  5
83B4
331
79B7
  5
8393
331
7968
  5
8344
331
793B
  5
8317
331
7C3D
  5
80C9
331
7BC1
  5
8168
331
7BEE
  5
807A
331
7AB8
  5
81B1
331
7A8B
  5
8184
331
357F
  5
8473
331
7B62
  5
811F
331
7B35
  5
80F2
331
7A0F
  5
83CF
331
795E
  5
833A
331
7983
  5
835F
331
7C09
  5
8095
331
7BE4
  5
8070
331
7AAE
  5
81A7
331
7ADB
  5
81D4
331
7B7D
  5
813A
331
7B58
  5
8115
331
7A32
  5
8230
331
7AF1
  5
81EA
331
79A6
  5
8382
331
792A
  5
82D3
331
7C2C
  5
80B8
331
7AD1
  5
81CA
331
7BA0
  5
815D
331
7A7A
  5
8278
331
7A55
  5
8253
331
7B24
  5
8206
331
79C9
  5
83A5
331
794D
  5
8329
331
7C4F
  5
80DB
331
7BD3
  5
817A
331
7B96
  5
8153
331
7A9D
  5
8196
331
7B47
  5
8104
331
7B1A
  5
81FC
331
7A21
  5
821F
331
79FC
  5
83BC
331
7970
  5
834C
331
7BF6
  5
8082
331
7AC0
  5
81B9
331
7A93
  5
818C
331
7B6A
  5
8127
331
7B3D
  5
80FA
331
7A44
  5
8242
331
7A17
  5
8215
331
798B
  5
8367
331
79B8
  5
8394
331
7C11
  5
809D
331
7AE3
  5
81DC
331
7AB6
  5
81AF
331
7B85
  5
8142
331
7A67
  5
8265
331
7A3A
  5
8238
331
3580
  5
8474
331
79AE
  5
838A
331
7932
  5
830E
331
7C61
  5
80ED
331
7C34
  5
80C0
331
7A5D
  5
825B
331
7A82
  5
8280
331
3576
  5
83EF
331
7B2C
  5
820E
331
79D1
  5
83AD
331
7A06
  5
83C6
331
797A
  5
8356
331
7955
  5
8331
331
7C57
  5
80E3
331
7C00
  5
808C
331
7BDB
  5
8067
331
7AA5
  5
819E
331
7B4F
  5
810C
331
7A29
  5
8227
331
799D
  5
8379
331
7921
  5
8297
331
7C23
  5
80AF
331
7BFE
  5
808A
331
7AC8
  5
81C1
331
7B72
  5
812F
331
7A4C
  5
824A
331
7A1F
  5
821D
331
79C0
  5
839C
331
7993
  5
836F
331
7944
  5
8320
331
7917
  5
828D
331
7C46
  5
80D2
331
7C19
  5
80A5
331
7AEB
  5
81E4
331
7B8D
  5
814A
331
7BCA
  5
8171
331
7A6F
  5
826D
331
7B11
  5
81F3
331
79F3
  5
83B3
331
79B6
  5
8392
331
7967
  5
8343
331
793A
  5
8316
331
7C3C
  5
80C8
331
7BED
  5
8079
331
7BC0
  5
8167
331
7A8A
  5
8183
331
357E
  5
8472
331
7B61
  5
811E
331
7B34
  5
80F1
331
7A0E
  5
83CE
331
7982
  5
835E
331
795D
  5
8339
331
7C5F
  5
80EB
331
7BE3
  5
806F
331
7C08
  5
8094
331
7ADA
  5
81D3
331
7AAD
  5
81A6
331
7B7C
  5
8139
331
7B57
  5
8114
331
7A31
  5
822F
331
7AF0
  5
81E9
331
79A5
  5
8381
331
7929
  5
82D2
331
7C2B
  5
80B7
331
7AD0
  5
81C9
331
7B9F
  5
815C
331
7A79
  5
8277
331
7A54
  5
8252
331
7B23
  5
8205
331
79C8
  5
83A4
331
794C
  5
8328
331
791F
  5
8295
331
7C4E
  5
80DA
331
7BD2
  5
8179
331
7B95
  5
8152
331
7A9C
  5
8195
331
7A77
  5
8275
331
7B46
  5
8103
331
7B19
  5
81FB
331
7A20
  5
821E
331
79FB
  5
83BB
331
796F
  5
834B
331
7BF5
  5
8081
331
7ABF
  5
81B8
331
7A92
  5
818B
331
7B69
  5
8126
331
7B3C
  5
80F9
331
7A43
  5
8241
331
7A16
  5
8214
331
798A
  5
8366
331
7C10
  5
809C
331
7AE2
  5
81DB
331
7AB5
  5
81AE
331
7B84
  5
8141
331
7B5F
  5
811C
331
7A66
  5
8264
331
7A39
  5
8237
331
7AF8
  5
81F1
331
79AD
  5
8389
331
7931
  5
830D
331
7C60
  5
80EC
331
7C33
  5
80BF
331
7A81
  5
827F
331
7A5C
  5
825A
331
3575
  5
83D5
331
7B2B
  5
820D
331
7A05
  5
83C5
331
79D0
  5
83AC
331
7979
  5
8355
331
7954
  5
8330
331
7C56
  5
80E2
331
7BDA
  5
8066
331
7AA4
  5
819D
331
7B4E
  5
810B
331
7A28
  5
8226
331
799C
  5
8378
331
7977
  5
8353
331
7920
  5
8296
331
7C22
  5
80AE
331
7BFD
  5
8089
331
7AC7
  5
81C0
331
7B71
  5
812E
331
7A4B
  5
8249
331
7A1E
  5
821C
331
79BF
  5
839B
331
7992
  5
836E
331
7943
  5
831F
331
7916
  5
828C
331
7C45
  5
80D1
331
7C18
  5
80A4
331
7AEA
  5
81E3
331
7BC9
  5
8170
331
7B8C
  5
8149
331
7A6E
  5
826C
331
79F2
  5
83B2
331
79B5
  5
8391
331
7966
  5
8342
331
7939
  5
8315
331
7C3B
  5
80C7
331
7BBF
  5
8166
331
7BEC
  5
8078
331
7A89
  5
8182
331
357D
  5
8471
331
7B33
  5
80F0
331
7B60
  5
811D
331
7A0D
  5
83CD
331
7981
  5
835D
331
795C
  5
8338
331
7C5E
  5
80EA
331
7C07
  5
8093
331
7BE2
  5
806E
331
7AAC
  5
81A5
331
7AD9
  5
81D2
331
7B7B
  5
8138
331
7B56
  5
8113
331
7A30
  5
822E
331
79A4
  5
8380
331
7928
  5
82D1
331
7C2A
  5
80B6
331
7ACF
  5
81C8
331
7B9E
  5
815B
331
7A78
  5
8276
331
7A53
  5
8251
331
7B22
  5
8204
331
79C7
  5
83A3
331
791E
  5
8294
331
794B
  5
8327
331
7C4D
  5
80D9
331
7BD1
  5
8178
331
7B94
  5
8151
331
7A9B
  5
8194
331
7A76
  5
8274
331
7B45
  5
8102
331
7B18
  5
81FA
331
79FA
  5
83BA
331
796E
  5
834A
331
7BF4
  5
8080
331
7BC7
  5
816E
331
7ABE
  5
81B7
331
7A91
  5
818A
331
7B68
  5
8125
331
7B3B
  5
80F8
331
7A42
  5
8240
331
7A15
  5
828B
331
7989
  5
8365
331
7C0F
  5
809B
331
7AE1
  5
81DA
331
7AB4
  5
81AD
331
7B83
  5
8140
331
7B5E
  5
811B
331
7A65
  5
8263
331
7A38
  5
8236
331
7AF7
  5
81F0
331
79AC
  5
8388
331
7930
  5
830C
331
7C32
  5
80BE
331
7AD7
  5
81D0
331
7A80
  5
827E
331
7A5B
  5
8259
331
3574
  5
83D4
331
7B2A
  5
820C
331
79CF
  5
83AB
331
7A04
  5
83C4
331
7978
  5
8354
331
7953
  5
832F
331
7C55
  5
80E1
331
7BD9
  5
8180
331
7AA3
  5
819C
331
7B4D
  5
810A
331
7A27
  5
8225
331
799B
  5
8377
331
7976
  5
8352
331
7C21
  5
80AD
331
7BFC
  5
8088
331
7AC6
  5
81BF
331
7B70
  5
812D
331
7A1D
  5
821B
331
7A4A
  5
8248
331
79BE
  5
839A
331
7991
  5
836D
331
7942
  5
831E
331
7C44
  5
80D0
331
7C17
  5
80A3
331
7AE9
  5
81E2
331
7BC8
  5
816F
331
7B8B
  5
8148
331
7A6D
  5
826B
331
79F1
  5
83B1
331
79B4
  5
8390
331
7965
  5
8341
331
7938
  5
8314
331
7C3A
  5
80C6
331
7BEB
  5
8077
331
7BBE
  5
8165
331
7A88
  5
8181
331
357C
  5
843F
331
7B32
  5
80EF
331
7A0C
  5
83CC
331
7980
  5
835C
331
795B
  5
8337
331
7C5D
  5
80E9
331
7BE1
  5
806D
331
7C06
  5
8092
331
7AD8
  5
81D1
331
7AAB
  5
81A4
331
7B55
  5
8112
331
7B7A
  5
8137
331
7A2F
  5
822D
331
79A3
  5
837F
331
7927
  5
82D0
331
7C29
  5
80B5
331
7ACE
  5
81C7
331
7B9D
  5
815A
331
7A52
  5
8250
331
7B21
  5
8203
331
79C6
  5
83A2
331
794A
  5
8326
331
791D
  5
8293
331
7C1F
  5
80AB
331
7C4C
  5
80D8
331
7BD0
  5
8177
331
7B93
  5
8150
331
7A9A
  5
8193
331
7A75
  5
8273
331
7B44
  5
8101
331
7B17
  5
81F9
331
79F9
  5
83B9
331
796D
  5
8349
331
7BF3
  5
807F
331
7BC6
  5
816D
331
7ABD
  5
81B6
331
7A90
  5
8189
331
7B67
  5
8124
331
7B3A
  5
80F7
331
7A41
  5
823F
331
7A14
  5
828A
331
7988
  5
8364
331
7C0E
  5
809A
331
7AE0
  5
81D9
331
7AB3
  5
81AC
331
7B82
  5
813F
331
7B5D
  5
811A
331
7A64
  5
8262
331
7A37
  5
8235
331
7AF6
  5
81EF
331
79AB
  5
8387
331
792F
  5
830B
331
7C31
  5
80BD
331
7AD6
  5
81CF
331
7BA5
  5
8162
331
7A7F
  5
827D
331
7A5A
  5
8258
331
3573
  5
83D3
331
7B29
  5
820B
331
7A03
  5
83C3
331
79CE
  5
83AA
331
7952
  5
832E
331
7C54
  5
80E0
331
7BD8
  5
817F
331
7AA2
  5
819B
331
7B4C
  5
8109
331
7B1F
  5
8201
331
7A26
  5
8224
331
799A
  5
8376
331
7975
  5
8351
331
7C20
  5
80AC
331
7BFB
  5
8087
331
7AC5
  5
81BE
331
7B6F
  5
812C
331
7A49
  5
8247
331
7A1C
  5
821A
331
79BD
  5
8399
331
7990
  5
836C
331
7941
  5
831D
331
7C43
  5
80CF
331
7C16
  5
80A2
331
7AE8
  5
81E1
331
7B8A
  5
8147
331
7A3F
  5
823D
331
7A6C
  5
826A
331
79F0
  5
83B0
331
79B3
  5
838F
331
7964
  5
8340
331
7937
  5
8313
331
7C39
  5
80C5
331
7BEA
  5
8076
331
7BBD
  5
8164
331
7A87
  5
8285
331
357B
  5
8425
331
7B31
  5
8213
331
7A0B
  5
83CB
331
797F
  5
835B
331
795A
  5
8336
331
7C5C
  5
80E8
331
7C05
  5
8091
331
7BE0
  5
806C
331
7AAA
  5
81A3
331
7B79
  5
8136
331
7B54
  5
8111
331
7A2E
  5
822C
331
79A2
  5
837E
331
7926
  5
82B5
331
7C28
  5
80B4
331
7ACD
  5
81C6
331
7B77
  5
8134
331
7B9C
  5
8159
331
7A51
  5
824F
331
7B20
  5
8202
331
79C5
  5
83A1
331
791C
  5
8292
331
7949
  5
8325
331
7C4B
  5
80D7
331
7C1E
  5
80AA
331
7BCF
  5
8176
331
7B92
  5
814F
331
7A99
  5
8192
331
7A74
  5
8272
  0
LAYOUT
  5
21
102
{ACAD_XDICTIONARY
360
B951
102
}
102
{ACAD_REACTORS
330
1E
102
}
330
1E
100
AcDbPlotSettings
  1

  2

  4

  6

 40
0.0
 41
0.0
 42
0.0
 43
0.0
 44
0.0
 45
0.0
 46
0.0
 47
0.0
 48
0.0
 49
0.0
140
0.0
141
0.0
142
1.0
143
1.0
 70
     0
 72
     0
 73
     0
 74
     0
  7

 75
     0
147
1.0
148
0.0
149
0.0
100
AcDbLayout
  1
Layout1
 70
     0
 71
     1
 10
0.0
 20
0.0
 11
12.0
 21
9.0
 12
0.0
 22
0.0
 32
0.0
 14
1.000000000000000E+20
 24
1.000000000000000E+20
 34
1.000000000000000E+20
 15
-1.000000000000000E+20
 25
-1.000000000000000E+20
 35
-1.000000000000000E+20
146
0.0
 13
0.0
 23
0.0
 33
0.0
 16
1.0
 26
0.0
 36
0.0
 17
0.0
 27
1.0
 37
0.0
 76
     0
330
B
  0
LAYOUT
  5
20
102
{ACAD_XDICTIONARY
360
B94F
102
}
102
{ACAD_REACTORS
330
1E
102
}
330
1E
100
AcDbPlotSettings
  1

  2

  4

  6

 40
0.0
 41
0.0
 42
0.0
 43
0.0
 44
0.0
 45
0.0
 46
0.0
 47
0.0
 48
0.0
 49
0.0
140
0.0
141
0.0
142
1.0
143
1.0
 70
  1024
 72
     0
 73
     0
 74
     0
  7

 75
     0
147
1.0
148
0.0
149
0.0
100
AcDbLayout
  1
Model
 70
     0
 71
     0
 10
0.0
 20
0.0
 11
0.0
 21
0.0
 12
0.0
 22
0.0
 32
0.0
 14
0.0
 24
0.0
 34
0.0
 15
0.0
 25
0.0
 35
0.0
146
0.0
 13
0.0
 23
0.0
 33
0.0
 16
0.0
 26
0.0
 36
0.0
 17
0.0
 27
0.0
 37
0.0
 76
     0
330
A
331
15
  0
MATERIAL
  5
5808
102
{ACAD_XDICTIONARY
360
5809
102
}
102
{ACAD_REACTORS
330
57FF
102
}
330
57FF
100
AcDbMaterial
  1
ByBlock
 72
     0
 43
0.0208333333333333
 43
0.0
 43
0.0
 43
0.0
 43
0.0
 43
0.0208333333333333
 43
0.0
 43
0.0
 43
0.0
 43
0.0
 43
1.0
 43
0.0
 43
0.0
 43
0.0
 43
0.0
 43
1.0
 77
     0
 47
0.0208333333333333
 47
0.0
 47
0.0
 47
0.0
 47
0.0
 47
0.0208333333333333
 47
0.0
 47
0.0
 47
0.0
 47
0.0
 47
1.0
 47
0.0
 47
0.0
 47
0.0
 47
0.0
 47
1.0
171
     0
 49
0.0208333333333333
 49
0.0
 49
0.0
 49
0.0
 49
0.0
 49
0.0208333333333333
 49
0.0
 49
0.0
 49
0.0
 49
0.0
 49
1.0
 49
0.0
 49
0.0
 49
0.0
 49
0.0
 49
1.0
175
     0
142
0.0208333333333333
142
0.0
142
0.0
142
0.0
142
0.0
142
0.0208333333333333
142
0.0
142
0.0
142
0.0
142
0.0
142
1.0
142
0.0
142
0.0
142
0.0
142
0.0
142
1.0
179
     0
144
0.0208333333333333
144
0.0
144
0.0
144
0.0
144
0.0
144
0.0208333333333333
144
0.0
144
0.0
144
0.0
144
0.0
144
1.0
144
0.0
144
0.0
144
0.0
144
0.0
144
1.0
147
0.0208333333333333
147
0.0
147
0.0
147
0.0
147
0.0
147
0.0208333333333333
147
0.0
147
0.0
147
0.0
147
0.0
147
1.0
147
0.0
147
0.0
147
0.0
147
0.0
147
1.0
  0
MATERIAL
  5
5800
102
{ACAD_XDICTIONARY
360
5801
102
}
102
{ACAD_REACTORS
330
57FF
102
}
330
57FF
100
AcDbMaterial
  1
ByLayer
 72
     0
 43
0.0208333333333333
 43
0.0
 43
0.0
 43
0.0
 43
0.0
 43
0.0208333333333333
 43
0.0
 43
0.0
 43
0.0
 43
0.0
 43
1.0
 43
0.0
 43
0.0
 43
0.0
 43
0.0
 43
1.0
 77
     0
 47
0.0208333333333333
 47
0.0
 47
0.0
 47
0.0
 47
0.0
 47
0.0208333333333333
 47
0.0
 47
0.0
 47
0.0
 47
0.0
 47
1.0
 47
0.0
 47
0.0
 47
0.0
 47
0.0
 47
1.0
171
     0
 49
0.0208333333333333
 49
0.0
 49
0.0
 49
0.0
 49
0.0
 49
0.0208333333333333
 49
0.0
 49
0.0
 49
0.0
 49
0.0
 49
1.0
 49
0.0
 49
0.0
 49
0.0
 49
0.0
 49
1.0
175
     0
142
0.0208333333333333
142
0.0
142
0.0
142
0.0
142
0.0
142
0.0208333333333333
142
0.0
142
0.0
142
0.0
142
0.0
142
1.0
142
0.0
142
0.0
142
0.0
142
0.0
142
1.0
179
     0
144
0.0208333333333333
144
0.0
144
0.0
144
0.0
144
0.0
144
0.0208333333333333
144
0.0
144
0.0
144
0.0
144
0.0
144
1.0
144
0.0
144
0.0
144
0.0
144
0.0
144
1.0
147
0.0208333333333333
147
0.0
147
0.0
147
0.0
147
0.0
147
0.0208333333333333
147
0.0
147
0.0
147
0.0
147
0.0
147
1.0
147
0.0
147
0.0
147
0.0
147
0.0
147
1.0
  0
MATERIAL
  5
5810
102
{ACAD_XDICTIONARY
360
5811
102
}
102
{ACAD_REACTORS
330
57FF
102
}
330
57FF
100
AcDbMaterial
  1
Global
 72
     0
 43
0.0208333333333333
 43
0.0
 43
0.0
 43
0.0
 43
0.0
 43
0.0208333333333333
 43
0.0
 43
0.0
 43
0.0
 43
0.0
 43
1.0
 43
0.0
 43
0.0
 43
0.0
 43
0.0
 43
1.0
 77
     0
 47
0.0208333333333333
 47
0.0
 47
0.0
 47
0.0
 47
0.0
 47
0.0208333333333333
 47
0.0
 47
0.0
 47
0.0
 47
0.0
 47
1.0
 47
0.0
 47
0.0
 47
0.0
 47
0.0
 47
1.0
171
     0
 49
0.0208333333333333
 49
0.0
 49
0.0
 49
0.0
 49
0.0
 49
0.0208333333333333
 49
0.0
 49
0.0
 49
0.0
 49
0.0
 49
1.0
 49
0.0
 49
0.0
 49
0.0
 49
0.0
 49
1.0
175
     0
142
0.0208333333333333
142
0.0
142
0.0
142
0.0
142
0.0
142
0.0208333333333333
142
0.0
142
0.0
142
0.0
142
0.0
142
1.0
142
0.0
142
0.0
142
0.0
142
0.0
142
1.0
179
     0
144
0.0208333333333333
144
0.0
144
0.0
144
0.0
144
0.0
144
0.0208333333333333
144
0.0
144
0.0
144
0.0
144
0.0
144
1.0
144
0.0
144
0.0
144
0.0
144
0.0
144
1.0
147
0.0208333333333333
147
0.0
147
0.0
147
0.0
147
0.0
147
0.0208333333333333
147
0.0
147
0.0
147
0.0
147
0.0
147
1.0
147
0.0
147
0.0
147
0.0
147
0.0
147
1.0
  0
MLEADERSTYLE
  5
584F
102
{ACAD_REACTORS
330
584E
102
}
330
584E
100
AcDbMLeaderStyle
170
     2
171
     1
172
     0
 90
        2
 40
0.0
 41
0.0
173
     1
 91
-1056964608
340
11
 92
       -2
290
     1
 42
2.0
291
     1
 43
0.36
  3
Standard
 44
4.0
300

342
17
174
     1
178
     6
175
     1
176
     0
 93
-1056964608
 45
4.0
292
     0
297
     0
 46
4.0
 94
-1056964608
 47
1.0
 49
1.0
140
1.0
293
     1
141
0.0
294
     1
177
     0
142
1.0
295
     0
296
     0
143
0.125
1001
ACAD_MLEADERVER
1070
     2
  0
MLINESTYLE
  5
1C
102
{ACAD_REACTORS
330
1B
102
}
330
1B
100
AcDbMlineStyle
  2
STANDARD
 70
     0
  3

 62
     0
 51
90.0
 52
90.0
 71
     2
 49
0.5
 62
   256
  6
BYLAYER
 49
-0.5
 62
   256
  6
BYLAYER
  0
ACDBPLACEHOLDER
  5
1D
102
{ACAD_REACTORS
330
1F
102
}
330
1F
  0
SCALE
  5
582D
102
{ACAD_REACTORS
330
582C
102
}
330
582C
100
AcDbScale
 70
     0
300
1:1
140
1.0
141
1.0
290
     1
  0
SCALE
  5
582E
102
{ACAD_REACTORS
330
582C
102
}
330
582C
100
AcDbScale
 70
     0
300
1:2
140
1.0
141
2.0
290
     0
  0
SCALE
  5
582F
102
{ACAD_REACTORS
330
582C
102
}
330
582C
100
AcDbScale
 70
     0
300
1:4
140
1.0
141
4.0
290
     0
  0
SCALE
  5
5830
102
{ACAD_REACTORS
330
582C
102
}
330
582C
100
AcDbScale
 70
     0
300
1:5
140
1.0
141
5.0
290
     0
  0
SCALE
  5
5831
102
{ACAD_REACTORS
330
582C
102
}
330
582C
100
AcDbScale
 70
     0
300
1:8
140
1.0
141
8.0
290
     0
  0
SCALE
  5
5832
102
{ACAD_REACTORS
330
582C
102
}
330
582C
100
AcDbScale
 70
     0
300
1:10
140
1.0
141
10.0
290
     0
  0
SCALE
  5
5833
102
{ACAD_REACTORS
330
582C
102
}
330
582C
100
AcDbScale
 70
     0
300
1:16
140
1.0
141
16.0
290
     0
  0
SCALE
  5
5834
102
{ACAD_REACTORS
330
582C
102
}
330
582C
100
AcDbScale
 70
     0
300
1:20
140
1.0
141
20.0
290
     0
  0
SCALE
  5
5835
102
{ACAD_REACTORS
330
582C
102
}
330
582C
100
AcDbScale
 70
     0
300
1:30
140
1.0
141
30.0
290
     0
  0
SCALE
  5
5836
102
{ACAD_REACTORS
330
582C
102
}
330
582C
100
AcDbScale
 70
     0
300
1:40
140
1.0
141
40.0
290
     0
  0
SCALE
  5
5837
102
{ACAD_REACTORS
330
582C
102
}
330
582C
100
AcDbScale
 70
     0
300
1:50
140
1.0
141
50.0
290
     0
  0
SCALE
  5
5838
102
{ACAD_REACTORS
330
582C
102
}
330
582C
100
AcDbScale
 70
     0
300
1:100
140
1.0
141
100.0
290
     0
  0
SCALE
  5
5839
102
{ACAD_REACTORS
330
582C
102
}
330
582C
100
AcDbScale
 70
     0
300
2:1
140
2.0
141
1.0
290
     0
  0
SCALE
  5
583A
102
{ACAD_REACTORS
330
582C
102
}
330
582C
100
AcDbScale
 70
     0
300
4:1
140
4.0
141
1.0
290
     0
  0
SCALE
  5
583B
102
{ACAD_REACTORS
330
582C
102
}
330
582C
100
AcDbScale
 70
     0
300
8:1
140
8.0
141
1.0
290
     0
  0
SCALE
  5
583C
102
{ACAD_REACTORS
330
582C
102
}
330
582C
100
AcDbScale
 70
     0
300
10:1
140
10.0
141
1.0
290
     0
  0
SCALE
  5
583D
102
{ACAD_REACTORS
330
582C
102
}
330
582C
100
AcDbScale
 70
     0
300
100:1
140
100.0
141
1.0
290
     0
  0
SCALE
  5
583E
102
{ACAD_REACTORS
330
582C
102
}
330
582C
100
AcDbScale
 70
     0
300
1/128" = 1'-0"
140
0.0078125
141
12.0
290
     0
  0
SCALE
  5
583F
102
{ACAD_REACTORS
330
582C
102
}
330
582C
100
AcDbScale
 70
     0
300
1/64" = 1'-0"
140
0.015625
141
12.0
290
     0
  0
SCALE
  5
5840
102
{ACAD_REACTORS
330
582C
102
}
330
582C
100
AcDbScale
 70
     0
300
1/32" = 1'-0"
140
0.03125
141
12.0
290
     0
  0
SCALE
  5
5841
102
{ACAD_REACTORS
330
582C
102
}
330
582C
100
AcDbScale
 70
     0
300
1/16" = 1'-0"
140
0.0625
141
12.0
290
     0
  0
SCALE
  5
5842
102
{ACAD_REACTORS
330
582C
102
}
330
582C
100
AcDbScale
 70
     0
300
3/32" = 1'-0"
140
0.09375
141
12.0
290
     0
  0
SCALE
  5
5843
102
{ACAD_REACTORS
330
582C
102
}
330
582C
100
AcDbScale
 70
     0
300
1/8" = 1'-0"
140
0.125
141
12.0
290
     0
  0
SCALE
  5
5844
102
{ACAD_REACTORS
330
582C
102
}
330
582C
100
AcDbScale
 70
     0
300
3/16" = 1'-0"
140
0.1875
141
12.0
290
     0
  0
SCALE
  5
5845
102
{ACAD_REACTORS
330
582C
102
}
330
582C
100
AcDbScale
 70
     0
300
1/4" = 1'-0"
140
0.25
141
12.0
290
     0
  0
SCALE
  5
5846
102
{ACAD_REACTORS
330
582C
102
}
330
582C
100
AcDbScale
 70
     0
300
3/8" = 1'-0"
140
0.375
141
12.0
290
     0
  0
SCALE
  5
5847
102
{ACAD_REACTORS
330
582C
102
}
330
582C
100
AcDbScale
 70
     0
300
1/2" = 1'-0"
140
0.5
141
12.0
290
     0
  0
SCALE
  5
5848
102
{ACAD_REACTORS
330
582C
102
}
330
582C
100
AcDbScale
 70
     0
300
3/4" = 1'-0"
140
0.75
141
12.0
290
     0
  0
SCALE
  5
5849
102
{ACAD_REACTORS
330
582C
102
}
330
582C
100
AcDbScale
 70
     0
300
1" = 1'-0"
140
1.0
141
12.0
290
     0
  0
SCALE
  5
584A
102
{ACAD_REACTORS
330
582C
102
}
330
582C
100
AcDbScale
 70
     0
300
1-1/2" = 1'-0"
140
1.5
141
12.0
290
     0
  0
SCALE
  5
584B
102
{ACAD_REACTORS
330
582C
102
}
330
582C
100
AcDbScale
 70
     0
300
3" = 1'-0"
140
3.0
141
12.0
290
     0
  0
SCALE
  5
584C
102
{ACAD_REACTORS
330
582C
102
}
330
582C
100
AcDbScale
 70
     0
300
6" = 1'-0"
140
6.0
141
12.0
290
     0
  0
SCALE
  5
584D
102
{ACAD_REACTORS
330
582C
102
}
330
582C
100
AcDbScale
 70
     0
300
1'-0" = 1'-0"
140
12.0
141
12.0
290
     0
  0
TABLESTYLE
  5
582B
102
{ACAD_XDICTIONARY
360
AB8E
102
}
102
{ACAD_REACTORS
330
582A
102
}
330
582A
100
AcDbTableStyle
  3
Standard
 70
     0
 71
     0
 40
1.5
 41
1.5
280
     0
281
     0
  7
Standard
140
4.5
170
     2
 62
     0
 63
     7
283
     0
274
    -2
284
     1
 64
     0
275
    -2
285
     1
 65
     0
276
    -2
286
     1
 66
     0
277
    -2
287
     1
 67
     0
278
    -2
288
     1
 68
     0
279
    -2
289
     1
 69
     0
  7
Standard
140
6.0
170
     5
 62
     0
 63
     7
283
     0
274
    -2
284
     1
 64
     0
275
    -2
285
     1
 65
     0
276
    -2
286
     1
 66
     0
277
    -2
287
     1
 67
     0
278
    -2
288
     1
 68
     0
279
    -2
289
     1
 69
     0
  7
Standard
140
4.5
170
     5
 62
     0
 63
     7
283
     0
274
    -2
284
     1
 64
     0
275
    -2
285
     1
 65
     0
276
    -2
286
     1
 66
     0
277
    -2
287
     1
 67
     0
278
    -2
288
     1
 68
     0
279
    -2
289
     1
 69
     0
  0
VISUALSTYLE
  5
581E
102
{ACAD_REACTORS
330
5818
102
}
330
5818
100
AcDbVisualStyle
  2
2dWireframe
 70
     4
 71
     0
 72
     2
 73
     0
 90
        0
 40
-0.6
 41
-30.0
 62
     5
 63
     7
 74
     1
 91
        4
 64
     7
 65
   257
 75
     1
175
     1
 42
1.0
 92
        0
 66
   257
 43
1.0
 76
     1
 77
     6
 78
     2
 67
     7
 79
     5
170
     0
171
     0
290
     0
174
     0
 93
        1
 44
0.0
173
     0
291
     0
 45
0.0
1001
ACAD
1000
AcDbSavedByObjectVersion
1070
     0
1000
AcDbSavedByObjectVersion
1070
     0
  0
VISUALSTYLE
  5
5820
102
{ACAD_REACTORS
330
5818
102
}
330
5818
100
AcDbVisualStyle
  2
3D Hidden
 70
     6
 71
     1
 72
     2
 73
     2
 90
        0
 40
-0.6
 41
-30.0
 62
     5
 63
     7
 74
     2
 91
        2
 64
     7
 65
   257
 75
     2
175
     1
 42
40.0
 92
        0
 66
   257
 43
1.0
 76
     1
 77
     6
 78
     2
 67
     7
 79
     3
170
     0
171
     0
290
     0
174
     0
 93
        1
 44
0.0
173
     0
291
     0
 45
0.0
1001
ACAD
1000
AcDbSavedByObjectVersion
1070
     0
1000
AcDbSavedByObjectVersion
1070
     0
  0
VISUALSTYLE
  5
581F
102
{ACAD_REACTORS
330
5818
102
}
330
5818
100
AcDbVisualStyle
  2
3dWireframe
 70
     5
 71
     0
 72
     2
 73
     0
 90
        0
 40
-0.6
 41
-30.0
 62
     5
 63
     7
 74
     1
 91
        4
 64
     7
 65
   257
 75
     1
175
     1
 42
1.0
 92
        0
 66
   257
 43
1.0
 76
     1
 77
     6
 78
     2
 67
     7
 79
     5
170
     0
171
     0
290
     0
174
     0
 93
        1
 44
0.0
173
     0
291
     0
 45
0.0
1001
ACAD
1000
AcDbSavedByObjectVersion
1070
     0
1000
AcDbSavedByObjectVersion
1070
     0
  0
VISUALSTYLE
  5
581D
102
{ACAD_REACTORS
330
5818
102
}
330
5818
100
AcDbVisualStyle
  2
Basic
 70
     7
 71
     1
 72
     0
 73
     1
 90
        0
 40
-0.6
 41
-30.0
 62
     5
 63
     7
 74
     0
 91
        4
 64
     7
 65
   257
 75
     1
175
     1
 42
1.0
 92
        8
 66
     7
 43
1.0
 76
     1
 77
     6
 78
     2
 67
     7
 79
     5
170
     0
171
     0
290
     0
174
     0
 93
        1
 44
0.0
173
     0
291
     1
 45
0.0
1001
ACAD
1000
AcDbSavedByObjectVersion
1070
     0
1000
AcDbSavedByObjectVersion
1070
     0
  0
VISUALSTYLE
  5
5824
102
{ACAD_REACTORS
330
5818
102
}
330
5818
100
AcDbVisualStyle
  2
Brighten
 70
    12
 71
     2
 72
     2
 73
     0
 90
        0
 40
-0.6
 41
-30.0
 62
     5
 63
     7
 74
     1
 91
        4
 64
     7
 65
   257
 75
     1
175
     1
 42
1.0
 92
        8
 66
     7
 43
1.0
 76
     1
 77
     6
 78
     2
 67
     7
 79
     5
170
     0
171
     0
290
     0
174
     0
 93
        1
 44
50.0
173
     0
291
     1
 45
0.0
1001
ACAD
1000
AcDbSavedByObjectVersion
1070
     0
1000
AcDbSavedByObjectVersion
1070
     0
  0
VISUALSTYLE
  5
5828
102
{ACAD_REACTORS
330
5818
102
}
330
5818
100
AcDbVisualStyle
  2
ColorChange
 70
    16
 71
     2
 72
     2
 73
     3
 90
        0
 40
-0.6
 41
-30.0
 62
     5
 63
     8
 74
     1
 91
        4
 64
     7
 65
   257
 75
     1
175
     1
 42
1.0
 92
        8
 66
     8
 43
1.0
 76
     1
 77
     6
 78
     2
 67
     7
 79
     5
170
     0
171
     0
290
     0
174
     0
 93
        1
 44
0.0
173
     0
291
     1
 45
0.0
1001
ACAD
1000
AcDbSavedByObjectVersion
1070
     0
1000
AcDbSavedByObjectVersion
1070
     0
  0
VISUALSTYLE
  5
5821
102
{ACAD_REACTORS
330
5818
102
}
330
5818
100
AcDbVisualStyle
  2
Conceptual
 70
     9
 71
     3
 72
     2
 73
     0
 90
        0
 40
-0.6
 41
-30.0
 62
     5
 63
     7
 74
     2
 91
        2
 64
     7
 65
   257
 75
     1
175
     1
 42
40.0
 92
        8
 66
     7
 43
1.0
 76
     1
 77
     6
 78
     2
 67
     7
 79
     3
170
     0
171
     0
290
     0
174
     0
 93
        1
 44
0.0
173
     0
291
     0
 45
0.0
1001
ACAD
1000
AcDbSavedByObjectVersion
1070
     0
1000
AcDbSavedByObjectVersion
1070
     0
  0
VISUALSTYLE
  5
5823
102
{ACAD_REACTORS
330
5818
102
}
330
5818
100
AcDbVisualStyle
  2
Dim
 70
    11
 71
     2
 72
     2
 73
     0
 90
        0
 40
-0.6
 41
-30.0
 62
     5
 63
     7
 74
     1
 91
        4
 64
     7
 65
   257
 75
     1
175
     1
 42
1.0
 92
        8
 66
     7
 43
1.0
 76
     1
 77
     6
 78
     2
 67
     7
 79
     5
170
     0
171
     0
290
     0
174
     0
 93
        1
 44
-50.0
173
     0
291
     1
 45
0.0
1001
ACAD
1000
AcDbSavedByObjectVersion
1070
     0
1000
AcDbSavedByObjectVersion
1070
     0
  0
VISUALSTYLE
  5
5827
102
{ACAD_REACTORS
330
5818
102
}
330
5818
100
AcDbVisualStyle
  2
Facepattern
 70
    15
 71
     2
 72
     2
 73
     0
 90
        0
 40
-0.6
 41
-30.0
 62
     5
 63
     7
 74
     1
 91
        4
 64
     7
 65
   257
 75
     1
175
     1
 42
1.0
 92
        8
 66
     7
 43
1.0
 76
     1
 77
     6
 78
     2
 67
     7
 79
     5
170
     0
171
     0
290
     0
174
     0
 93
        1
 44
0.0
173
     0
291
     1
 45
0.0
1001
ACAD
1000
AcDbSavedByObjectVersion
1070
     0
1000
AcDbSavedByObjectVersion
1070
     0
  0
VISUALSTYLE
  5
5819
102
{ACAD_REACTORS
330
5818
102
}
330
5818
100
AcDbVisualStyle
  2
Flat
 70
     0
 71
     2
 72
     1
 73
     1
 90
        2
 40
-0.6
 41
30.0
 62
     5
 63
     7
 74
     0
 91
        4
 64
     7
 65
   257
 75
     1
175
     1
 42
1.0
 92
        8
 66
     7
 43
1.0
 76
     1
 77
     6
 78
     2
 67
     7
 79
     5
170
     0
171
     0
290
     0
174
     0
 93
       13
 44
0.0
173
     0
291
     1
 45
0.0
1001
ACAD
1000
AcDbSavedByObjectVersion
1070
     0
1000
AcDbSavedByObjectVersion
1070
     0
  0
VISUALSTYLE
  5
581A
102
{ACAD_REACTORS
330
5818
102
}
330
5818
100
AcDbVisualStyle
  2
FlatWithEdges
 70
     1
 71
     2
 72
     1
 73
     1
 90
        2
 40
-0.6
 41
30.0
 62
     5
 63
     7
 74
     1
 91
        4
 64
     7
 65
   257
 75
     1
175
     1
 42
1.0
 92
        0
 66
   257
 43
1.0
 76
     1
 77
     6
 78
     2
 67
     7
 79
     5
170
     0
171
     0
290
     0
174
     0
 93
       13
 44
0.0
173
     0
291
     1
 45
0.0
1001
ACAD
1000
AcDbSavedByObjectVersion
1070
     0
1000
AcDbSavedByObjectVersion
1070
     0
  0
VISUALSTYLE
  5
581B
102
{ACAD_REACTORS
330
5818
102
}
330
5818
100
AcDbVisualStyle
  2
Gouraud
 70
     2
 71
     2
 72
     2
 73
     1
 90
        2
 40
-0.6
 41
30.0
 62
     5
 63
     7
 74
     0
 91
        4
 64
     7
 65
   257
 75
     1
175
     1
 42
1.0
 92
        0
 66
     7
 43
1.0
 76
     1
 77
     6
 78
     2
 67
     7
 79
     5
170
     0
171
     0
290
     0
174
     0
 93
       13
 44
0.0
173
     0
291
     1
 45
0.0
1001
ACAD
1000
AcDbSavedByObjectVersion
1070
     0
1000
AcDbSavedByObjectVersion
1070
     0
  0
VISUALSTYLE
  5
581C
102
{ACAD_REACTORS
330
5818
102
}
330
5818
100
AcDbVisualStyle
  2
GouraudWithEdges
 70
     3
 71
     2
 72
     2
 73
     1
 90
        2
 40
-0.6
 41
30.0
 62
     5
 63
     7
 74
     1
 91
        4
 64
     7
 65
   257
 75
     1
175
     1
 42
1.0
 92
        0
 66
   257
 43
1.0
 76
     1
 77
     6
 78
     2
 67
     7
 79
     5
170
     0
171
     0
290
     0
174
     0
 93
       13
 44
0.0
173
     0
291
     1
 45
0.0
1001
ACAD
1000
AcDbSavedByObjectVersion
1070
     0
1000
AcDbSavedByObjectVersion
1070
     0
  0
VISUALSTYLE
  5
5826
102
{ACAD_REACTORS
330
5818
102
}
330
5818
100
AcDbVisualStyle
  2
Linepattern
 70
    14
 71
     2
 72
     2
 73
     0
 90
        0
 40
-0.6
 41
-30.0
 62
     5
 63
     7
 74
     1
 91
        4
 64
     7
 65
   257
 75
     7
175
     7
 42
1.0
 92
        8
 66
     7
 43
1.0
 76
     1
 77
     6
 78
     2
 67
     7
 79
     5
170
     0
171
     0
290
     0
174
     0
 93
        1
 44
0.0
173
     0
291
     1
 45
0.0
1001
ACAD
1000
AcDbSavedByObjectVersion
1070
     0
1000
AcDbSavedByObjectVersion
1070
     0
  0
VISUALSTYLE
  5
5822
102
{ACAD_REACTORS
330
5818
102
}
330
5818
100
AcDbVisualStyle
  2
Realistic
 70
     8
 71
     2
 72
     2
 73
     0
 90
        0
 40
-0.6
 41
-30.0
 62
     5
 63
     7
 74
     1
 91
        0
 64
     7
 65
   257
 75
     1
175
     1
 42
1.0
 92
        8
 66
     8
 43
1.0
 76
     1
 77
     6
 78
     2
 67
     7
 79
     5
170
     0
171
     0
290
     0
174
     0
 93
       13
 44
0.0
173
     0
291
     0
 45
0.0
1001
ACAD
1000
AcDbSavedByObjectVersion
1070
     0
1000
AcDbSavedByObjectVersion
1070
     0
  0
VISUALSTYLE
  5
5825
102
{ACAD_REACTORS
330
5818
102
}
330
5818
100
AcDbVisualStyle
  2
Thicken
 70
    13
 71
     2
 72
     2
 73
     0
 90
        0
 40
-0.6
 41
-30.0
 62
     5
 63
     7
 74
     1
 91
        4
 64
     7
 65
   257
 75
     1
175
     1
 42
1.0
 92
       12
 66
     7
 43
1.0
 76
     1
 77
     6
 78
     2
 67
     7
 79
     5
170
     0
171
     0
290
     0
174
     0
 93
        1
 44
0.0
173
     0
291
     1
 45
0.0
1001
ACAD
1000
AcDbSavedByObjectVersion
1070
     0
1000
AcDbSavedByObjectVersion
1070
     0
  0
DICTIONARYVAR
  5
AB95
102
{ACAD_REACTORS
330
AB91
102
}
330
AB91
100
DictionaryVariables
280
     0
  1
1:1
  0
DICTIONARYVAR
  5
AB93
102
{ACAD_REACTORS
330
AB91
102
}
330
AB91
100
DictionaryVariables
280
     0
  1
STANDARD
  0
DICTIONARYVAR
  5
AB92
102
{ACAD_REACTORS
330
AB91
102
}
330
AB91
100
DictionaryVariables
280
     0
  1
STANDARD
  0
DICTIONARYVAR
  5
B616
102
{ACAD_REACTORS
330
AB91
102
}
330
AB91
100
DictionaryVariables
280
     0
  1
1
  0
DICTIONARYVAR
  5
B615
102
{ACAD_REACTORS
330
AB91
102
}
330
AB91
100
DictionaryVariables
280
     0
  1
0
  0
DICTIONARYVAR
  5
AB96
102
{ACAD_REACTORS
330
AB91
102
}
330
AB91
100
DictionaryVariables
280
     0
  1
0
  0
DICTIONARYVAR
  5
AB94
102
{ACAD_REACTORS
330
AB91
102
}
330
AB91
100
DictionaryVariables
280
     0
  1
0
  0
DICTIONARYVAR
  5
B614
102
{ACAD_REACTORS
330
AB91
102
}
330
AB91
100
DictionaryVariables
280
     0
  1
127
  0
XRECORD
  5
B60D
102
{ACAD_REACTORS
330
B60C
102
}
330
B60C
100
AcDbXrecord
280
     1
  0
DICTIONARY
  5
B951
330
21
100
AcDbDictionary
280
     1
281
     1
  3
ACAD_XREC_ROUNDTRIP
360
B952
  0
DICTIONARY
  5
B94F
330
20
100
AcDbDictionary
280
     1
281
     1
  3
ACAD_XREC_ROUNDTRIP
360
B950
  0
DICTIONARY
  5
5809
330
5808
100
AcDbDictionary
280
     1
281
     1
  3
ACAD_XREC_ROUNDTRIP
360
B61E
  3
BUMPTILE
360
580B
  3
DIFFUSETILE
360
580A
  3
OPACITYTILE
360
580E
  3
REFLECTIONTILE
360
580D
  3
REFRACTIONTILE
360
580F
  3
SPECULARTILE
360
580C
  0
DICTIONARY
  5
5801
330
5800
100
AcDbDictionary
280
     1
281
     1
  3
ACAD_XREC_ROUNDTRIP
360
B61D
  3
BUMPTILE
360
5803
  3
DIFFUSETILE
360
5802
  3
OPACITYTILE
360
5806
  3
REFLECTIONTILE
360
5805
  3
REFRACTIONTILE
360
5807
  3
SPECULARTILE
360
5804
  0
DICTIONARY
  5
5811
330
5810
100
AcDbDictionary
280
     1
281
     1
  3
ACAD_XREC_ROUNDTRIP
360
B61F
  3
BUMPTILE
360
5813
  3
DIFFUSETILE
360
5812
  3
OPACITYTILE
360
5816
  3
REFLECTIONTILE
360
5815
  3
REFRACTIONTILE
360
5817
  3
SPECULARTILE
360
5814
  0
DICTIONARY
  5
AB8E
330
582B
100
AcDbDictionary
280
     1
281
     1
  3
ACAD_ROUNDTRIP_2008_TABLESTYLE_CELLSTYLEMAP
360
B94D
  3
ACAD_XREC_ROUNDTRIP
360
B953
  0
XRECORD
  5
B952
102
{ACAD_REACTORS
330
B951
102
}
330
B951
100
AcDbXrecord
280
     1
102
SHADEPLOT
 70
     0
102
SHADEPLOTRESLEVEL
 70
     2
102
SHADEPLOTCUSTOMDPI
 70
   300
  0
XRECORD
  5
B950
102
{ACAD_REACTORS
330
B94F
102
}
330
B94F
100
AcDbXrecord
280
     1
102
SHADEPLOT
 70
     0
102
SHADEPLOTRESLEVEL
 70
     2
102
SHADEPLOTCUSTOMDPI
 70
   300
  0
XRECORD
  5
B61E
102
{ACAD_REACTORS
330
5809
102
}
330
5809
100
AcDbXrecord
280
     1
102
MATERIAL
148
0.0
149
0.0
149
0.0
 93
        0
 94
      127
282
     0
 72
     0
 77
     0
171
     0
175
     0
179
     0
273
     0
  0
XRECORD
  5
580B
102
{ACAD_REACTORS
330
5809
102
}
330
5809
100
AcDbXrecord
280
     1
270
     1
271
     1
  0
XRECORD
  5
580A
102
{ACAD_REACTORS
330
5809
102
}
330
5809
100
AcDbXrecord
280
     1
270
     1
271
     1
  0
XRECORD
  5
580E
102
{ACAD_REACTORS
330
5809
102
}
330
5809
100
AcDbXrecord
280
     1
270
     1
271
     1
  0
XRECORD
  5
580D
102
{ACAD_REACTORS
330
5809
102
}
330
5809
100
AcDbXrecord
280
     1
270
     1
271
     1
  0
XRECORD
  5
580F
102
{ACAD_REACTORS
330
5809
102
}
330
5809
100
AcDbXrecord
280
     1
270
     1
271
     1
  0
XRECORD
  5
580C
102
{ACAD_REACTORS
330
5809
102
}
330
5809
100
AcDbXrecord
280
     1
270
     1
271
     1
  0
XRECORD
  5
B61D
102
{ACAD_REACTORS
330
5801
102
}
330
5801
100
AcDbXrecord
280
     1
102
MATERIAL
148
0.0
149
0.0
149
0.0
 93
        0
 94
      127
282
     0
 72
     0
 77
     0
171
     0
175
     0
179
     0
273
     0
  0
XRECORD
  5
5803
102
{ACAD_REACTORS
330
5801
102
}
330
5801
100
AcDbXrecord
280
     1
270
     1
271
     1
  0
XRECORD
  5
5802
102
{ACAD_REACTORS
330
5801
102
}
330
5801
100
AcDbXrecord
280
     1
270
     1
271
     1
  0
XRECORD
  5
5806
102
{ACAD_REACTORS
330
5801
102
}
330
5801
100
AcDbXrecord
280
     1
270
     1
271
     1
  0
XRECORD
  5
5805
102
{ACAD_REACTORS
330
5801
102
}
330
5801
100
AcDbXrecord
280
     1
270
     1
271
     1
  0
XRECORD
  5
5807
102
{ACAD_REACTORS
330
5801
102
}
330
5801
100
AcDbXrecord
280
     1
270
     1
271
     1
  0
XRECORD
  5
5804
102
{ACAD_REACTORS
330
5801
102
}
330
5801
100
AcDbXrecord
280
     1
270
     1
271
     1
  0
XRECORD
  5
B61F
102
{ACAD_REACTORS
330
5811
102
}
330
5811
100
AcDbXrecord
280
     1
102
MATERIAL
148
0.0
149
0.0
149
0.0
 93
        0
 94
      127
282
     0
 72
     0
 77
     0
171
     0
175
     0
179
     0
273
     0
  0
XRECORD
  5
5813
102
{ACAD_REACTORS
330
5811
102
}
330
5811
100
AcDbXrecord
280
     1
270
     1
271
     1
  0
XRECORD
  5
5812
102
{ACAD_REACTORS
330
5811
102
}
330
5811
100
AcDbXrecord
280
     1
270
     1
271
     1
  0
XRECORD
  5
5816
102
{ACAD_REACTORS
330
5811
102
}
330
5811
100
AcDbXrecord
280
     1
270
     1
271
     1
  0
XRECORD
  5
5815
102
{ACAD_REACTORS
330
5811
102
}
330
5811
100
AcDbXrecord
280
     1
270
     1
271
     1
  0
XRECORD
  5
5817
102
{ACAD_REACTORS
330
5811
102
}
330
5811
100
AcDbXrecord
280
     1
270
     1
271
     1
  0
XRECORD
  5
5814
102
{ACAD_REACTORS
330
5811
102
}
330
5811
100
AcDbXrecord
280
     1
270
     1
271
     1
  0
CELLSTYLEMAP
  5
B94D
102
{ACAD_REACTORS
330
AB8E
102
}
330
AB8E
100
AcDbCellStyleMap
 90
        3
300
CELLSTYLE
  1
TABLEFORMAT_BEGIN
 90
        5
170
     1
 91
        0
 92
    32768
 62
   257
 93
        1
300
CONTENTFORMAT
  1
CONTENTFORMAT_BEGIN
 90
        0
 91
        0
 92
      512
 93
        0
300

 40
0.0
140
1.0
 94
        5
 62
     0
340
17
144
6.0
309
CONTENTFORMAT_END
171
     1
301
MARGIN
  1
CELLMARGIN_BEGIN
 40
1.5
 40
1.5
 40
1.5
 40
1.5
 40
0.18
 40
0.18
309
CELLMARGIN_END
 94
        6
 95
        1
302
GRIDFORMAT
  1
GRIDFORMAT_BEGIN
 90
        0
 91
        1
 62
     0
 92
       -2
340
0
 93
        0
 40
1.125
309
GRIDFORMAT_END
 95
        2
302
GRIDFORMAT
  1
GRIDFORMAT_BEGIN
 90
        0
 91
        1
 62
     0
 92
       -2
340
0
 93
        0
 40
1.125
309
GRIDFORMAT_END
 95
        4
302
GRIDFORMAT
  1
GRIDFORMAT_BEGIN
 90
        0
 91
        1
 62
     0
 92
       -2
340
0
 93
        0
 40
1.125
309
GRIDFORMAT_END
 95
        8
302
GRIDFORMAT
  1
GRIDFORMAT_BEGIN
 90
        0
 91
        1
 62
     0
 92
       -2
340
0
 93
        0
 40
1.125
309
GRIDFORMAT_END
 95
       16
302
GRIDFORMAT
  1
GRIDFORMAT_BEGIN
 90
        0
 91
        1
 62
     0
 92
       -2
340
0
 93
        0
 40
1.125
309
GRIDFORMAT_END
 95
       32
302
GRIDFORMAT
  1
GRIDFORMAT_BEGIN
 90
        0
 91
        1
 62
     0
 92
       -2
340
0
 93
        0
 40
1.125
309
GRIDFORMAT_END
309
TABLEFORMAT_END
  1
CELLSTYLE_BEGIN
 90
        1
 91
        1
300
_TITLE
309
CELLSTYLE_END
300
CELLSTYLE
  1
TABLEFORMAT_BEGIN
 90
        5
170
     1
 91
        0
 92
        0
 62
   257
 93
        1
300
CONTENTFORMAT
  1
CONTENTFORMAT_BEGIN
 90
        0
 91
        0
 92
      512
 93
        0
300

 40
0.0
140
1.0
 94
        5
 62
     0
340
17
144
4.5
309
CONTENTFORMAT_END
171
     1
301
MARGIN
  1
CELLMARGIN_BEGIN
 40
1.5
 40
1.5
 40
1.5
 40
1.5
 40
0.18
 40
0.18
309
CELLMARGIN_END
 94
        6
 95
        1
302
GRIDFORMAT
  1
GRIDFORMAT_BEGIN
 90
        0
 91
        1
 62
     0
 92
       -2
340
0
 93
        0
 40
1.125
309
GRIDFORMAT_END
 95
        2
302
GRIDFORMAT
  1
GRIDFORMAT_BEGIN
 90
        0
 91
        1
 62
     0
 92
       -2
340
0
 93
        0
 40
1.125
309
GRIDFORMAT_END
 95
        4
302
GRIDFORMAT
  1
GRIDFORMAT_BEGIN
 90
        0
 91
        1
 62
     0
 92
       -2
340
0
 93
        0
 40
1.125
309
GRIDFORMAT_END
 95
        8
302
GRIDFORMAT
  1
GRIDFORMAT_BEGIN
 90
        0
 91
        1
 62
     0
 92
       -2
340
0
 93
        0
 40
1.125
309
GRIDFORMAT_END
 95
       16
302
GRIDFORMAT
  1
GRIDFORMAT_BEGIN
 90
        0
 91
        1
 62
     0
 92
       -2
340
0
 93
        0
 40
1.125
309
GRIDFORMAT_END
 95
       32
302
GRIDFORMAT
  1
GRIDFORMAT_BEGIN
 90
        0
 91
        1
 62
     0
 92
       -2
340
0
 93
        0
 40
1.125
309
GRIDFORMAT_END
309
TABLEFORMAT_END
  1
CELLSTYLE_BEGIN
 90
        2
 91
        1
300
_HEADER
309
CELLSTYLE_END
300
CELLSTYLE
  1
TABLEFORMAT_BEGIN
 90
        5
170
     1
 91
        0
 92
        0
 62
   257
 93
        1
300
CONTENTFORMAT
  1
CONTENTFORMAT_BEGIN
 90
        0
 91
        0
 92
      512
 93
        0
300

 40
0.0
140
1.0
 94
        2
 62
     0
340
17
144
4.5
309
CONTENTFORMAT_END
171
     1
301
MARGIN
  1
CELLMARGIN_BEGIN
 40
1.5
 40
1.5
 40
1.5
 40
1.5
 40
0.18
 40
0.18
309
CELLMARGIN_END
 94
        6
 95
        1
302
GRIDFORMAT
  1
GRIDFORMAT_BEGIN
 90
        0
 91
        1
 62
     0
 92
       -2
340
0
 93
        0
 40
1.125
309
GRIDFORMAT_END
 95
        2
302
GRIDFORMAT
  1
GRIDFORMAT_BEGIN
 90
        0
 91
        1
 62
     0
 92
       -2
340
0
 93
        0
 40
1.125
309
GRIDFORMAT_END
 95
        4
302
GRIDFORMAT
  1
GRIDFORMAT_BEGIN
 90
        0
 91
        1
 62
     0
 92
       -2
340
0
 93
        0
 40
1.125
309
GRIDFORMAT_END
 95
        8
302
GRIDFORMAT
  1
GRIDFORMAT_BEGIN
 90
        0
 91
        1
 62
     0
 92
       -2
340
0
 93
        0
 40
1.125
309
GRIDFORMAT_END
 95
       16
302
GRIDFORMAT
  1
GRIDFORMAT_BEGIN
 90
        0
 91
        1
 62
     0
 92
       -2
340
0
 93
        0
 40
1.125
309
GRIDFORMAT_END
 95
       32
302
GRIDFORMAT
  1
GRIDFORMAT_BEGIN
 90
        0
 91
        1
 62
     0
 92
       -2
340
0
 93
        0
 40
1.125
309
GRIDFORMAT_END
309
TABLEFORMAT_END
  1
CELLSTYLE_BEGIN
 90
        3
 91
        2
300
_DATA
309
CELLSTYLE_END
  0
XRECORD
  5
B953
102
{ACAD_REACTORS
330
AB8E
102
}
330
AB8E
100
AcDbXrecord
280
     1
102
ACAD_ROUNDTRIP_PRE2007_TABLESTYLE
 90
      512
 91
        0
  1

 92
      512
 93
        0
  2

 94
      512
 95
        0
  3

  0
ENDSEC
  0
EOF
