  0
SECTION
  2
HEADER
  9
$ACADVER
  1
AC1015
  9
$ACADMAINTVER
 70
    20
  9
$DWGCODEPAGE
  3
ANSI_1252
  9
$INSBASE
 10
0.0
 20
0.0
 30
0.0
  9
$EXTMIN
 10
-117.5730809321544
 20
-157.6811415367187
 30
-0.0000000000000115
  9
$EXTMAX
 10
124.9822570617457
 20
87.52772733741176
 30
0.0000000000000343
  9
$LIMMIN
 10
-20.0
 20
-575.8499999999997
  9
$LIMMAX
 10
1785.35
 20
579.8499999999997
  9
$ORTHOMODE
 70
     1
  9
$REGENMODE
 70
     1
  9
$FILLMODE
 70
     1
  9
$QTEXTMODE
 70
     0
  9
$MIRRTEXT
 70
     1
  9
$LTSCALE
 40
10.0
  9
$ATTMODE
 70
     1
  9
$TEXTSIZE
 40
0.0
  9
$TRACEWID
 40
0.05
  9
$TEXTSTYLE
  7
Standard
  9
$CLAYER
  8
0
  9
$CELTYPE
  6
Continuous
  9
$CECOLOR
 62
   256
  9
$CELTSCALE
 40
1.0
  9
$DISPSILH
 70
     0
  9
$DIMSCALE
 40
1.0
  9
$DIMASZ
 40
1.25
  9
$DIMEXO
 40
0.0
  9
$DIMDLI
 40
0.38
  9
$DIMRND
 40
0.0
  9
$DIMDLE
 40
0.0
  9
$DIMEXE
 40
0.75
  9
$DIMTP
 40
0.0
  9
$DIMTM
 40
0.0
  9
$DIMTXT
 40
2.5
  9
$DIMCEN
 40
0.09
  9
$DIMTSZ
 40
0.0
  9
$DIMTOL
 70
     0
  9
$DIMLIM
 70
     0
  9
$DIMTIH
 70
     0
  9
$DIMTOH
 70
     0
  9
$DIMSE1
 70
     0
  9
$DIMSE2
 70
     0
  9
$DIMTAD
 70
     1
  9
$DIMZIN
 70
     0
  9
$DIMBLK
  1

  9
$DIMASO
 70
     1
  9
$DIMSHO
 70
     1
  9
$DIMPOST
  1

  9
$DIMAPOST
  1

  9
$DIMALT
 70
     0
  9
$DIMALTD
 70
     2
  9
$DIMALTF
 40
25.4
  9
$DIMLFAC
 40
1.0
  9
$DIMTOFL
 70
     0
  9
$DIMTVP
 40
0.0
  9
$DIMTIX
 70
     0
  9
$DIMSOXD
 70
     0
  9
$DIMSAH
 70
     0
  9
$DIMBLK1
  1

  9
$DIMBLK2
  1

  9
$DIMSTYLE
  2
Standard
  9
$DIMCLRD
 70
     7
  9
$DIMCLRE
 70
     7
  9
$DIMCLRT
 70
     7
  9
$DIMTFAC
 40
0.8
  9
$DIMGAP
 40
1.25
  9
$DIMJUST
 70
     0
  9
$DIMSD1
 70
     0
  9
$DIMSD2
 70
     0
  9
$DIMTOLJ
 70
     1
  9
$DIMTZIN
 70
     0
  9
$DIMALTZ
 70
     0
  9
$DIMALTTZ
 70
     0
  9
$DIMUPT
 70
     0
  9
$DIMDEC
 70
     2
  9
$DIMTDEC
 70
     4
  9
$DIMALTU
 70
     2
  9
$DIMALTTD
 70
     2
  9
$DIMTXSTY
  7
Standard
  9
$DIMAUNIT
 70
     0
  9
$DIMADEC
 70
     0
  9
$DIMALTRND
 40
0.0
  9
$DIMAZIN
 70
     0
  9
$DIMDSEP
 70
     0
  9
$DIMATFIT
 70
     3
  9
$DIMFRAC
 70
     0
  9
$DIMLDRBLK
  1

  9
$DIMLUNIT
 70
     2
  9
$DIMLWD
 70
     0
  9
$DIMLWE
 70
     0
  9
$DIMTMOVE
 70
     0
  9
$LUNITS
 70
     2
  9
$LUPREC
 70
     4
  9
$SKETCHINC
 40
0.1
  9
$FILLETRAD
 40
0.0
  9
$AUNITS
 70
     0
  9
$AUPREC
 70
     0
  9
$MENU
  1
acad
  9
$ELEVATION
 40
0.0
  9
$PELEVATION
 40
0.0
  9
$THICKNESS
 40
0.0
  9
$LIMCHECK
 70
     0
  9
$CHAMFERA
 40
0.0
  9
$CHAMFERB
 40
0.0
  9
$CHAMFERC
 40
0.0
  9
$CHAMFERD
 40
0.0
  9
$SKPOLY
 70
     0
  9
$TDCREATE
 40
2455301.802361111
  9
$TDUCREATE
 40
2455301.719027778
  9
$TDUPDATE
 40
2455303.693261863
  9
$TDUUPDATE
 40
2455303.609928530
  9
$TDINDWG
 40
0.1754613194
  9
$TDUSRTIMER
 40
0.1754606019
  9
$USRTIMER
 70
     1
  9
$ANGBASE
 50
0.0
  9
$ANGDIR
 70
     0
  9
$PDMODE
 70
     0
  9
$PDSIZE
 40
0.0
  9
$PLINEWID
 40
0.0
  9
$SPLFRAME
 70
     0
  9
$SPLINETYPE
 70
     6
  9
$SPLINESEGS
 70
     8
  9
$HANDSEED
  5
BD13
  9
$SURFTAB1
 70
     6
  9
$SURFTAB2
 70
     6
  9
$SURFTYPE
 70
     6
  9
$SURFU
 70
     6
  9
$SURFV
 70
     6
  9
$UCSBASE
  2

  9
$UCSNAME
  2

  9
$UCSORG
 10
0.0
 20
0.0
 30
0.0
  9
$UCSXDIR
 10
1.0
 20
0.0
 30
0.0
  9
$UCSYDIR
 10
0.0
 20
1.0
 30
0.0
  9
$UCSORTHOREF
  2

  9
$UCSORTHOVIEW
 70
     0
  9
$UCSORGTOP
 10
0.0
 20
0.0
 30
0.0
  9
$UCSORGBOTTOM
 10
0.0
 20
0.0
 30
0.0
  9
$UCSORGLEFT
 10
0.0
 20
0.0
 30
0.0
  9
$UCSORGRIGHT
 10
0.0
 20
0.0
 30
0.0
  9
$UCSORGFRONT
 10
0.0
 20
0.0
 30
0.0
  9
$UCSORGBACK
 10
0.0
 20
0.0
 30
0.0
  9
$PUCSBASE
  2

  9
$PUCSNAME
  2

  9
$PUCSORG
 10
0.0
 20
0.0
 30
0.0
  9
$PUCSXDIR
 10
1.0
 20
0.0
 30
0.0
  9
$PUCSYDIR
 10
0.0
 20
1.0
 30
0.0
  9
$PUCSORTHOREF
  2

  9
$PUCSORTHOVIEW
 70
     0
  9
$PUCSORGTOP
 10
0.0
 20
0.0
 30
0.0
  9
$PUCSORGBOTTOM
 10
0.0
 20
0.0
 30
0.0
  9
$PUCSORGLEFT
 10
0.0
 20
0.0
 30
0.0
  9
$PUCSORGRIGHT
 10
0.0
 20
0.0
 30
0.0
  9
$PUCSORGFRONT
 10
0.0
 20
0.0
 30
0.0
  9
$PUCSORGBACK
 10
0.0
 20
0.0
 30
0.0
  9
$USERI1
 70
     0
  9
$USERI2
 70
     0
  9
$USERI3
 70
     0
  9
$USERI4
 70
     0
  9
$USERI5
 70
     0
  9
$USERR1
 40
0.0
  9
$USERR2
 40
0.0
  9
$USERR3
 40
0.0
  9
$USERR4
 40
0.0
  9
$USERR5
 40
0.0
  9
$WORLDVIEW
 70
     1
  9
$SHADEDGE
 70
     3
  9
$SHADEDIF
 70
    70
  9
$TILEMODE
 70
     1
  9
$MAXACTVP
 70
    16
  9
$PINSBASE
 10
0.0
 20
0.0
 30
0.0
  9
$PLIMCHECK
 70
     0
  9
$PEXTMIN
 10
1.000000000000000E+20
 20
1.000000000000000E+20
 30
1.000000000000000E+20
  9
$PEXTMAX
 10
-1.000000000000000E+20
 20
-1.000000000000000E+20
 30
-1.000000000000000E+20
  9
$PLIMMIN
 10
0.0
 20
0.0
  9
$PLIMMAX
 10
12.0
 20
9.0
  9
$UNITMODE
 70
     0
  9
$VISRETAIN
 70
     0
  9
$PLINEGEN
 70
     1
  9
$PSLTSCALE
 70
     0
  9
$TREEDEPTH
 70
  3020
  9
$CMLSTYLE
  2
Standard
  9
$CMLJUST
 70
     0
  9
$CMLSCALE
 40
1.0
  9
$PROXYGRAPHICS
 70
     0
  9
$MEASUREMENT
 70
     1
  9
$CELWEIGHT
370
     0
  9
$ENDCAPS
280
     0
  9
$JOINSTYLE
280
     0
  9
$LWDISPLAY
290
     0
  9
$INSUNITS
 70
     0
  9
$HYPERLINKBASE
  1

  9
$STYLESHEET
  1

  9
$XEDIT
290
     1
  9
$CEPSNTYPE
380
     0
  9
$PSTYLEMODE
290
     1
  9
$FINGERPRINTGUID
  2

  9
$VERSIONGUID
  2
{1F94FF31-F676-456F-8864-32B3D6F53222}
  9
$EXTNAMES
290
     1
  9
$PSVPSCALE
 40
0.0
  9
$OLESTARTUP
290
     0
  0
ENDSEC
  0
SECTION
  2
CLASSES
  0
CLASS
  1
IMAGE
  2
AcDbRasterImage
  3
ISM
 90
    34943
280
     0
281
     1
  0
CLASS
  1
DICTIONARYVAR
  2
AcDbDictionaryVar
  3
ObjectDBX Classes
 90
        0
280
     0
281
     0
  0
CLASS
  1
RASTERVARIABLES
  2
AcDbRasterVariables
  3
ISM
 90
    32768
280
     0
281
     0
  0
CLASS
  1
IMAGEDEF
  2
AcDbRasterImageDef
  3
ISM
 90
    32768
280
     0
281
     0
  0
CLASS
  1
IMAGEDEF_REACTOR
  2
AcDbRasterImageDefReactor
  3
ISM
 90
    32769
280
     0
281
     0
  0
CLASS
  1
IDBUFFER
  2
AcDbIdBuffer
  3
ObjectDBX Classes
 90
    32768
280
     0
281
     0
  0
CLASS
  1
SPATIAL_FILTER
  2
AcDbSpatialFilter
  3
ObjectDBX Classes
 90
    32768
280
     0
281
     0
  0
CLASS
  1
SORTENTSTABLE
  2
AcDbSortentsTable
  3
ObjectDBX Classes
 90
        0
280
     0
281
     0
  0
CLASS
  1
LAYER_INDEX
  2
AcDbLayerIndex
  3
ObjectDBX Classes
 90
    32768
280
     0
281
     0
  0
CLASS
  1
SPATIAL_INDEX
  2
AcDbSpatialIndex
  3
ObjectDBX Classes
 90
    32768
280
     0
281
     0
  0
CLASS
  1
OBJECT_PTR
  2
CAseDLPNTableRecord
  3
ASE-LPNTableRecord
 90
    32769
280
     0
281
     0
  0
CLASS
  1
LAYOUT
  2
AcDbLayout
  3
ObjectDBX Classes
 90
        0
280
     0
281
     0
  0
CLASS
  1
PLOTSETTINGS
  2
AcDbPlotSettings
  3
ObjectDBX Classes
 90
    32768
280
     0
281
     0
  0
CLASS
  1
ACDBDICTIONARYWDFLT
  2
AcDbDictionaryWithDefault
  3
ObjectDBX Classes
 90
        0
280
     0
281
     0
  0
CLASS
  1
ACDBPLACEHOLDER
  2
AcDbPlaceHolder
  3
ObjectDBX Classes
 90
        0
280
     0
281
     0
  0
CLASS
  1
VBA_PROJECT
  2
AcDbVbaProject
  3
acad
 90
    32768
280
     0
281
     0
  0
CLASS
  1
WIPEOUT
  2
AcDbWipeout
  3
"WipeOut|Product Desc: Object Enabler for WipeOut entity                        |Company: Autodesk, Inc.                        |WEB Address: www.autodesk.com"
 90
    34943
280
     0
281
     1
  0
CLASS
  1
WIPEOUTVARIABLES
  2
AcDbWipeoutVariables
  3
"WipeOut|Product Desc:     WipeOut Dbx Application|Company:          Autodesk, Inc.|WEB Address:      www.autodesk.com"
 90
        0
280
     0
281
     0
  0
CLASS
  1
RTEXT
  2
RText
  3
RText|AutoCAD Express Tool|expresstools@autodesk.com
 90
    35839
280
     0
281
     1
  0
CLASS
  1
ARCALIGNEDTEXT
  2
AcDbArcAlignedText
  3
ATEXT|AutoCAD Express Tool|expresstools@autodesk.com
 90
    32768
280
     0
281
     1
  0
CLASS
  1
MATERIAL
  2
AcDbMaterial
  3
ObjectDBX Classes
 90
     1153
280
     0
281
     0
  0
CLASS
  1
VISUALSTYLE
  2
AcDbVisualStyle
  3
ObjectDBX Classes
 90
     4095
280
     0
281
     0
  0
CLASS
  1
TABLESTYLE
  2
AcDbTableStyle
  3
ObjectDBX Classes
 90
     4095
280
     0
281
     0
  0
CLASS
  1
SCALE
  2
AcDbScale
  3
ObjectDBX Classes
 90
     1153
280
     0
281
     0
  0
CLASS
  1
MLEADERSTYLE
  2
AcDbMLeaderStyle
  3
ACDB_MLEADERSTYLE_CLASS
 90
     4095
280
     0
281
     0
  0
CLASS
  1
CELLSTYLEMAP
  2
AcDbCellStyleMap
  3
ObjectDBX Classes
 90
     1152
280
     0
281
     0
  0
ENDSEC
  0
SECTION
  2
TABLES
  0
TABLE
  2
VPORT
  5
7
330
0
100
AcDbSymbolTable
 70
     1
  0
VPORT
  5
15
330
7
100
AcDbSymbolTableRecord
100
AcDbViewportTableRecord
  2
*ACTIVE
 70
     0
 10
0.0
 20
0.0
 11
1.0
 21
1.0
 12
-0.7843548402897511
 22
-39.14733802695605
 13
0.0
 23
0.0
 14
1.0
 24
1.0
 15
0.0
 25
0.0
 16
0.0
 26
0.0
 36
1.0
 17
0.0
 27
0.0
 37
0.0
 40
277.4323430936288
 41
1.611330698287219
 42
50.0
 43
0.0
 44
0.0
 50
0.0
 51
0.0
 71
     0
 72
   100
 73
     1
 74
     1
 75
     1
 76
     0
 77
     0
 78
     0
281
     0
 65
     0
110
0.0
120
0.0
130
0.0
111
1.0
121
0.0
131
0.0
112
0.0
122
1.0
132
0.0
 79
     0
146
0.0
  0
ENDTAB
  0
TABLE
  2
LTYPE
  5
4
330
0
100
AcDbSymbolTable
 70
     3
  0
LTYPE
  5
11
330
4
100
AcDbSymbolTableRecord
100
AcDbLinetypeTableRecord
  2
ByBlock
 70
     0
  3

 72
    65
 73
     0
 40
0.0
  0
LTYPE
  5
12
330
4
100
AcDbSymbolTableRecord
100
AcDbLinetypeTableRecord
  2
ByLayer
 70
     0
  3

 72
    65
 73
     0
 40
0.0
  0
LTYPE
  5
13
330
4
100
AcDbSymbolTableRecord
100
AcDbLinetypeTableRecord
  2
Continuous
 70
     0
  3
Solid line
 72
    65
 73
     0
 40
0.0
  0
LTYPE
  5
108
330
4
100
AcDbSymbolTableRecord
100
AcDbLinetypeTableRecord
  2
CENTER
 70
     0
  3
____ _ ____ _ ____ _ ____ _ ____ _ ____ _ ____
 72
    65
 73
     4
 40
2.0
 49
1.25
 74
     0
 49
-0.25
 74
     0
 49
0.25
 74
     0
 49
-0.25
 74
     0
  0
ENDTAB
  0
TABLE
  2
LAYER
  5
2
330
0
100
AcDbSymbolTable
 70
     2
  0
LAYER
  5
14
102
{ACAD_XDICTIONARY
360
5858
102
}
330
2
100
AcDbSymbolTableRecord
100
AcDbLayerTableRecord
  2
0
 70
     0
 62
     7
  6
Continuous
370
    -3
390
1D
  0
LAYER
  5
B7CE
330
2
100
AcDbSymbolTableRecord
100
AcDbLayerTableRecord
  2
Defpoints
 70
     0
 62
     7
  6
Continuous
290
     0
370
    -3
390
1D
  0
ENDTAB
  0
TABLE
  2
STYLE
  5
3
330
0
100
AcDbSymbolTable
 70
     5
  0
STYLE
  5
17
330
3
100
AcDbSymbolTableRecord
100
AcDbTextStyleTableRecord
  2
Standard
 70
     0
 40
0.0
 41
1.0
 50
0.0
 71
     0
 42
0.0
  3
I011000D.TTF
  4

1001
ACAD
1000
IsonormD
1071
        0
  0
ENDTAB
  0
TABLE
  2
VIEW
  5
5
330
0
100
AcDbSymbolTable
 70
     0
  0
ENDTAB
  0
TABLE
  2
UCS
  5
6
330
0
100
AcDbSymbolTable
 70
     0
  0
ENDTAB
  0
TABLE
  2
APPID
  5
8
330
0
100
AcDbSymbolTable
 70
     5
  0
APPID
  5
16
330
8
100
AcDbSymbolTableRecord
100
AcDbRegAppTableRecord
  2
ACAD
 70
     0
  0
APPID
  5
26
330
8
100
AcDbSymbolTableRecord
100
AcDbRegAppTableRecord
  2
TopSolid'Draft
 70
     0
  0
APPID
  5
5850
330
8
100
AcDbSymbolTableRecord
100
AcDbRegAppTableRecord
  2
ACAD_MLEADERVER
 70
     0
  0
APPID
  5
5856
330
8
100
AcDbSymbolTableRecord
100
AcDbRegAppTableRecord
  2
DCO15
 70
     0
  0
APPID
  5
B631
330
8
100
AcDbSymbolTableRecord
100
AcDbRegAppTableRecord
  2
ACAD_EXEMPT_FROM_CAD_STANDARDS
 70
     0
  0
ENDTAB
  0
TABLE
  2
DIMSTYLE
  5
9
330
0
100
AcDbSymbolTable
 70
     2
100
AcDbDimStyleTable
 71
     1
340
18
  0
DIMSTYLE
105
18
330
9
100
AcDbSymbolTableRecord
100
AcDbDimStyleTableRecord
  2
Standard
 70
     0
 41
1.25
 42
0.0
 44
0.75
 73
     0
 74
     0
 77
     1
140
2.5
146
0.8
147
1.25
176
     7
177
     7
178
     7
271
     2
340
17
  0
ENDTAB
  0
TABLE
  2
BLOCK_RECORD
  5
1
330
0
100
AcDbSymbolTable
 70
    35
  0
BLOCK_RECORD
  5
A
102
{ACAD_XDICTIONARY
360
5864
102
}
330
1
100
AcDbSymbolTableRecord
100
AcDbBlockTableRecord
  2
*MODEL_SPACE
340
20
  0
BLOCK_RECORD
  5
B
330
1
100
AcDbSymbolTableRecord
100
AcDbBlockTableRecord
  2
*PAPER_SPACE
340
21
  0
ENDTAB
  0
ENDSEC
  0
SECTION
  2
BLOCKS
  0
BLOCK
  5
D
330
A
100
AcDbEntity
  8
0
100
AcDbBlockBegin
  2
*MODEL_SPACE
 70
     0
 10
0.0
 20
0.0
 30
0.0
  3
*MODEL_SPACE
  1

  0
ENDBLK
  5
E
330
A
100
AcDbEntity
  8
0
100
AcDbBlockEnd
  0
BLOCK
  5
F
330
B
100
AcDbEntity
 67
     1
  8
0
100
AcDbBlockBegin
  2
*PAPER_SPACE
 70
     0
 10
0.0
 20
0.0
 30
0.0
  3
*PAPER_SPACE
  1

  0
ENDBLK
  5
10
330
B
100
AcDbEntity
 67
     1
  8
0
100
AcDbBlockEnd
  0
ENDSEC
  0
SECTION
  2
ENTITIES
  0
LINE
  5
1A33
330
A
100
AcDbEntity
  8
0
  6
CENTER
 62
     1
100
AcDbLine
 10
-8.199999999999903
 20
0.0
 30
0.0
 11
8.199999999999988
 21
0.0
 31
0.0
  0
LINE
  5
1A34
330
A
100
AcDbEntity
  8
0
  6
CENTER
 62
     1
100
AcDbLine
 10
0.0
 20
-8.199999999999988
 30
0.0
 11
0.0
 21
8.200000000000017
 31
0.0
  0
LINE
  5
1A35
330
A
100
AcDbEntity
  8
0
  6
CENTER
 62
     1
100
AcDbLine
 10
-8.250000000002415
 20
-49.99999999999992
 30
0.0
 11
8.249999999997584
 21
-49.99999999999992
 31
0.0
  0
LINE
  5
1A36
330
A
100
AcDbEntity
  8
0
  6
CENTER
 62
     1
100
AcDbLine
 10
-0.0000000000024158
 20
-58.24999999999992
 30
0.0
 11
-0.0000000000024158
 21
-41.74999999999991
 31
0.0
  0
LINE
  5
1A37
330
A
100
AcDbEntity
  8
0
  6
CENTER
 62
     1
100
AcDbLine
 10
-117.4999999999999
 20
-54.99999999999992
 30
0.0
 11
-103.4999999999999
 21
-54.99999999999992
 31
0.0
  0
LINE
  5
1A38
330
A
100
AcDbEntity
  8
0
  6
CENTER
 62
     1
100
AcDbLine
 10
-110.4999999999999
 20
-61.99999999999992
 30
0.0
 11
-110.4999999999999
 21
-47.99999999999991
 31
0.0
  0
LINE
  5
1A39
330
A
100
AcDbEntity
  8
0
  6
CENTER
 62
     1
100
AcDbLine
 10
-117.4999999999999
 20
5.000000000000085
 30
0.0
 11
-103.4999999999999
 21
5.000000000000085
 31
0.0
  0
LINE
  5
1A3A
330
A
100
AcDbEntity
  8
0
  6
CENTER
 62
     1
100
AcDbLine
 10
-110.4999999999999
 20
-1.999999999999914
 30
0.0
 11
-110.4999999999999
 21
12.00000000000008
 31
0.0
  0
LINE
  5
1A3B
330
A
100
AcDbEntity
  8
0
  6
CENTER
 62
     1
100
AcDbLine
 10
-89.49999999999993
 20
-54.99999999999992
 30
0.0
 11
-75.49999999999991
 21
-54.99999999999992
 31
0.0
  0
LINE
  5
1A3C
330
A
100
AcDbEntity
  8
0
  6
CENTER
 62
     1
100
AcDbLine
 10
-82.49999999999991
 20
-61.99999999999992
 30
0.0
 11
-82.49999999999991
 21
-47.99999999999991
 31
0.0
  0
LINE
  5
1A3D
330
A
100
AcDbEntity
  8
0
  6
CENTER
 62
     1
100
AcDbLine
 10
-89.49999999999993
 20
5.000000000000085
 30
0.0
 11
-75.49999999999991
 21
5.000000000000085
 31
0.0
  0
LINE
  5
1A3E
330
A
100
AcDbEntity
  8
0
  6
CENTER
 62
     1
100
AcDbLine
 10
-82.49999999999991
 20
-1.999999999999914
 30
0.0
 11
-82.49999999999991
 21
12.00000000000008
 31
0.0
  0
LINE
  5
1A3F
330
A
100
AcDbEntity
  8
0
  6
CENTER
 62
     1
100
AcDbLine
 10
-89.50000000000045
 20
-49.99999999999992
 30
0.0
 11
-83.75000000000046
 21
-49.99999999999992
 31
0.0
  0
LINE
  5
1A40
330
A
100
AcDbEntity
  8
0
  6
CENTER
 62
     1
100
AcDbLine
 10
-89.50000000000045
 20
-0.0000000001734008
 30
0.0
 11
-83.75000000000046
 21
0.0000000000734133
 31
0.0
  0
LINE
  5
1A41
330
A
100
AcDbEntity
  8
0
  6
CENTER
 62
     1
100
AcDbLine
 10
-25.24999999999991
 20
67.50000000000008
 30
0.0
 11
-17.74999999999991
 21
67.50000000000008
 31
0.0
  0
LINE
  5
1A42
330
A
100
AcDbEntity
  8
0
  6
CENTER
 62
     1
100
AcDbLine
 10
-21.49999999999991
 20
63.75000000000008
 30
0.0
 11
-21.49999999999991
 21
71.25000000000003
 31
0.0
  0
LINE
  5
1A43
330
A
100
AcDbEntity
  8
0
  6
CENTER
 62
     1
100
AcDbLine
 10
-0.0000000000024158
 20
60.50000000000048
 30
0.0
 11
-0.0000000000024158
 21
54.7500000000006
 31
0.0
  0
LINE
  5
1A44
330
A
100
AcDbEntity
  8
0
  6
CENTER
 62
     1
100
AcDbLine
 10
-25.99999999999992
 20
-105.0
 30
0.0
 11
-16.99999999999991
 21
-105.0
 31
0.0
  0
LINE
  5
1A45
330
A
100
AcDbEntity
  8
0
  6
CENTER
 62
     1
100
AcDbLine
 10
-21.49999999999991
 20
-109.5
 30
0.0
 11
-21.49999999999991
 21
-100.5
 31
0.0
  0
LINE
  5
1A46
330
A
100
AcDbEntity
  8
0
  6
CENTER
 62
     1
100
AcDbLine
 10
0.0000000000255795
 20
-98.00000000000052
 30
0.0
 11
0.0000000000255795
 21
-92.25000000000051
 31
0.0
  0
LINE
  5
92EB
330
A
100
AcDbEntity
  8
0
  6
Continuous
 62
     7
370
     0
100
AcDbLine
 10
91.6979572135922
 20
-91.09724003635141
 30
0.0
 11
118.5307729435985
 21
-96.5744656114049
 31
0.0
  0
ELLIPSE
  5
92EC
330
A
100
AcDbEntity
  8
0
  6
Continuous
 62
     7
370
     0
100
AcDbEllipse
 10
118.5307729435985
 20
-99.860800956437
 30
0.0
 11
-2.276839915321238
 21
2.788548009269336
 31
0.0000000000000001
210
0.0000000000000001
220
0.0
230
1.0
 40
0.8164965809277259
 41
3.926990816987238
 42
5.497787143782124
  0
LINE
  5
92ED
330
A
100
AcDbEntity
  8
0
  6
Continuous
 62
     7
370
     0
100
AcDbLine
 10
121.7507108311992
 20
-100.5180680254434
 30
0.0
 11
121.7507108311992
 21
-149.6670388522564
 31
0.0
  0
ELLIPSE
  5
92EE
330
A
100
AcDbEntity
  8
0
  6
Continuous
 62
     7
370
     0
100
AcDbEllipse
 10
118.5307729435984
 20
-149.00977178325
 30
0.0
 11
-2.276839915321239
 21
2.788548009269316
 31
0.0000000000000001
210
0.0000000000000001
220
0.0
230
1.0
 40
0.8164965809277259
 41
3.141592653589801
 42
3.926990816987251
  0
LINE
  5
92EF
330
A
100
AcDbEntity
  8
0
  6
Continuous
 62
     9
370
     0
100
AcDbLine
 10
118.8885438199985
 20
-96.28234691406882
 30
0.0
 11
118.5307729435985
 21
-96.5744656114049
 31
0.0
  0
ELLIPSE
  5
92F0
330
A
100
AcDbEntity
  8
0
  6
Continuous
 62
     7
370
     0
100
AcDbEllipse
 10
118.8885438199985
 20
-99.56868225910092
 30
0.0
 11
-2.276839915321238
 21
2.788548009269351
 31
0.0000000000000001
210
0.0000000000000001
220
0.0
230
1.0
 40
0.8164965809277259
 41
3.926990816987241
 42
5.497787143782129
  0
LINE
  5
92F1
330
A
100
AcDbEntity
  8
0
  6
Continuous
 62
     9
370
     0
100
AcDbLine
 10
122.1084817075992
 20
-100.2259493281073
 30
0.0
 11
121.7507108311992
 21
-100.5180680254434
 31
0.0
  0
LINE
  5
92F2
330
A
100
AcDbEntity
  8
0
  6
Continuous
 62
     9
370
     0
100
AcDbLine
 10
122.1084817075992
 20
-149.3749201549203
 30
0.0
 11
121.7507108311992
 21
-149.6670388522564
 31
0.0
  0
LINE
  5
92F3
330
A
100
AcDbEntity
  8
0
  6
Continuous
 62
     7
370
     0
100
AcDbLine
 10
122.1084817075992
 20
-100.2259493281073
 30
0.0
 11
122.1084817075992
 21
-149.3749201549204
 31
0.0
  0
LINE
  5
92F4
330
A
100
AcDbEntity
  8
0
  6
Continuous
 62
     9
370
     0
100
AcDbLine
 10
92.05572808999207
 20
-90.80512133901533
 30
0.0
 11
91.6979572135922
 21
-91.09724003635141
 31
0.0
  0
LINE
  5
92F5
330
A
100
AcDbEntity
  8
0
  6
Continuous
 62
     7
370
     0
100
AcDbLine
 10
92.05572808999207
 20
-90.80512133901533
 30
0.0
 11
118.8885438199985
 21
-96.28234691406882
 31
0.0
  0
ELLIPSE
  5
92F6
330
A
100
AcDbEntity
  8
0
  6
Continuous
 62
     7
370
     0
100
AcDbEllipse
 10
92.05572808999207
 20
-94.09145668404743
 30
0.0
 11
-2.27683991532121
 21
2.788548009269324
 31
0.0000000000000001
210
0.0000000000000001
220
0.0
230
1.0
 40
0.8164965809277259
 41
5.497787143782137
 42
6.283185307179592
  0
ELLIPSE
  5
92F7
330
A
100
AcDbEntity
  8
0
  6
Continuous
 62
     7
370
     0
100
AcDbEllipse
 10
91.6979572135922
 20
-94.38357538138351
 30
0.0
 11
-2.276839915321238
 21
2.788548009269336
 31
0.0000000000000001
210
0.0000000000000001
220
0.0
230
1.0
 40
0.8164965809277259
 41
5.497787143782141
 42
6.283185307179584
  0
ELLIPSE
  5
92F8
330
A
100
AcDbEntity
  8
0
  6
Continuous
 62
     7
370
     0
100
AcDbEllipse
 10
118.8885438199984
 20
-148.7176530859139
 30
0.0
 11
-2.276839915321238
 21
2.788548009269341
 31
0.0000000000000001
210
0.0000000000000001
220
0.0
230
1.0
 40
0.8164965809277259
 41
3.14159265358979
 42
3.92699081698724
  0
ELLIPSE
  5
92F9
330
A
100
AcDbEntity
  8
0
  6
Continuous
 62
     7
370
     0
100
AcDbEllipse
 10
91.34018633719207
 20
-94.67569407871941
 30
0.0
 11
2.276839915321238
 21
-2.788548009269336
 31
-0.0000000000000001
210
0.0000000000000001
220
0.0
230
1.0
 40
0.8164965809277259
 41
2.356194490192346
 42
3.14159265358979
  0
LINE
  5
92FA
330
A
100
AcDbEntity
  8
0
  6
Continuous
 62
     7
370
     0
100
AcDbLine
 10
118.1730020671985
 20
-96.8665843087407
 30
0.0
 11
91.34018633719207
 21
-91.38935873368732
 31
0.0
  0
ELLIPSE
  5
92FB
330
A
100
AcDbEntity
  8
0
  6
Continuous
 62
     7
370
     0
100
AcDbEllipse
 10
118.1730020671985
 20
-100.1529196537729
 30
0.0
 11
2.276839915321238
 21
-2.788548009269336
 31
-0.0000000000000001
210
0.0000000000000001
220
0.0
230
1.0
 40
0.8164965809277259
 41
0.7853981633974481
 42
2.356194490192331
  0
LINE
  5
92FC
330
A
100
AcDbEntity
  8
0
  6
Continuous
 62
     7
370
     0
100
AcDbLine
 10
121.3929399547993
 20
-149.9591575495925
 30
0.0
 11
121.3929399547993
 21
-100.8101867227793
 31
0.0
  0
ELLIPSE
  5
92FD
330
A
100
AcDbEntity
  8
0
  6
Continuous
 62
     7
370
     0
100
AcDbEllipse
 10
118.1730020671985
 20
-149.3018904805861
 30
0.0
 11
2.276839915321238
 21
-2.788548009269336
 31
-0.0000000000000001
210
0.0000000000000001
220
0.0
230
1.0
 40
0.8164965809277259
 41
6.227514800008797
 42
6.28318530717958
  0
LINE
  5
92FE
330
A
100
AcDbEntity
  8
0
  6
Continuous
 62
     9
370
     0
100
AcDbLine
 10
121.3929399547993
 20
-100.8101867227793
 30
0.0
 11
121.7507108311992
 21
-100.5180680254432
 31
0.0
  0
LINE
  5
92FF
330
A
100
AcDbEntity
  8
0
  6
Continuous
 62
     9
370
     0
100
AcDbLine
 10
121.7507108311992
 20
-100.5180680254432
 30
0.0
 11
122.1084817075992
 21
-100.2259493281071
 31
0.0
  0
LINE
  5
9300
330
A
100
AcDbEntity
  8
0
  6
Continuous
 62
     9
370
     0
100
AcDbLine
 10
118.1730020671985
 20
-96.8665843087407
 30
0.0
 11
118.5307729435981
 21
-96.57446561140483
 31
0.0
  0
LINE
  5
9301
330
A
100
AcDbEntity
  8
0
  6
Continuous
 62
     9
370
     0
100
AcDbLine
 10
118.5307729435981
 20
-96.57446561140483
 30
0.0
 11
118.8885438199985
 21
-96.28234691406861
 31
0.0
  0
ELLIPSE
  5
9302
330
A
100
AcDbEntity
  8
0
  6
Continuous
 62
     7
370
     0
100
AcDbEllipse
 10
118.8885438199985
 20
-99.56868225910071
 30
0.0
 11
2.276839915321183
 21
-2.788548009269308
 31
-0.0000000000000001
210
0.0000000000000001
220
0.0
230
1.0
 40
0.8164965809277259
 41
0.7853981633974584
 42
2.356194490192344
  0
LINE
  5
9303
330
A
100
AcDbEntity
  8
0
  6
Continuous
 62
     9
370
     0
100
AcDbLine
 10
91.34018633719207
 20
-91.38935873368732
 30
0.0
 11
91.69795721359207
 21
-91.0972400363512
 31
0.0
  0
LINE
  5
9304
330
A
100
AcDbEntity
  8
0
  6
Continuous
 62
     9
370
     0
100
AcDbLine
 10
91.69795721359207
 20
-91.0972400363512
 30
0.0
 11
92.05572808999198
 21
-90.80512133901512
 31
0.0
  0
LINE
  5
9305
330
A
100
AcDbEntity
  8
0
  6
Continuous
 62
     7
370
     0
100
AcDbLine
 10
118.8885438199985
 20
-96.28234691406861
 30
0.0
 11
92.05572808999198
 21
-90.80512133901512
 31
0.0
  0
LINE
  5
9306
330
A
100
AcDbEntity
  8
0
  6
Continuous
 62
     9
370
     0
100
AcDbLine
 10
121.3929399547993
 20
-149.9591575495925
 30
0.0
 11
121.7507108311992
 21
-149.6670388522564
 31
0.0
  0
LINE
  5
9307
330
A
100
AcDbEntity
  8
0
  6
Continuous
 62
     9
370
     0
100
AcDbLine
 10
121.7507108311992
 20
-149.6670388522564
 30
0.0
 11
122.1084817075992
 21
-149.3749201549203
 31
0.0
  0
LINE
  5
9308
330
A
100
AcDbEntity
  8
0
  6
Continuous
 62
     7
370
     0
100
AcDbLine
 10
122.1084817075992
 20
-149.3749201549203
 30
0.0
 11
122.1084817075992
 21
-100.2259493281071
 31
0.0
  0
ELLIPSE
  5
9309
330
A
100
AcDbEntity
  8
0
  6
Continuous
 62
     7
370
     0
100
AcDbEllipse
 10
91.34018633719207
 20
-94.67569407871941
 30
0.0
 11
2.276839915321238
 21
-2.788548009269336
 31
-0.0000000000000001
210
0.0000000000000001
220
0.0
230
1.0
 40
0.8164965809277259
 41
3.14159265358979
 42
3.310987422387486
  0
ELLIPSE
  5
930A
330
A
100
AcDbEntity
  8
0
  6
Continuous
 62
     7
370
     0
100
AcDbEllipse
 10
92.05572808999198
 20
-94.09145668404722
 30
0.0
 11
2.276839915321238
 21
-2.788548009269336
 31
-0.0000000000000001
210
0.0000000000000001
220
0.0
230
1.0
 40
0.8164965809277259
 41
2.356194490192346
 42
3.141592653589801
  0
ELLIPSE
  5
930B
330
A
100
AcDbEntity
  8
0
  6
Continuous
 62
     7
370
     0
100
AcDbEllipse
 10
118.1730020671985
 20
-149.3018904805861
 30
0.0
 11
2.276839915321238
 21
-2.788548009269336
 31
0.0000000000000001
210
0.0
220
0.0000000000000001
230
1.0
 40
0.8164965809277264
 41
6.283185307179584
 42
7.06858347057703
  0
ELLIPSE
  5
930C
330
A
100
AcDbEntity
  8
0
  6
Continuous
 62
     7
370
     0
100
AcDbEllipse
 10
118.8885438199984
 20
-148.7176530859139
 30
0.0
 11
2.276839915321238
 21
-2.788548009269341
 31
0.0000000000000001
210
0.0
220
0.0000000000000001
230
1.0
 40
0.816496580927726
 41
6.283185307179584
 42
7.068583470577032
  0
LINE
  5
930D
330
A
100
AcDbEntity
  8
0
  6
Continuous
 62
     9
370
     0
100
AcDbLine
 10
124.9706487187977
 20
-98.54626681844072
 30
0.0
 11
123.5395652131979
 21
-99.71474160778512
 31
0.0
  0
ELLIPSE
  5
930E
330
A
100
AcDbEntity
  8
0
  6
Continuous
 62
     7
370
     0
100
AcDbEllipse
 10
119.9618564491983
 20
-98.98444486444482
 30
0.0
 11
2.529822128134683
 21
-3.098386676965922
 31
0.0
210
0.0000000000000001
220
0.0
230
1.0
 40
0.8164965809277255
 41
0.7853981633974501
 42
2.356194490192345
  0
LINE
  5
930F
330
A
100
AcDbEntity
  8
0
  6
Continuous
 62
     9
370
     0
100
AcDbLine
 10
119.9618564491983
 20
-95.33296114774371
 30
0.0
 11
121.3929399547981
 21
-94.16448635839941
 31
0.0
  0
ELLIPSE
  5
9310
330
A
100
AcDbEntity
  8
0
  6
Continuous
 62
     7
370
     0
100
AcDbEllipse
 10
121.3929399547981
 20
-97.8159700751005
 30
0.0
 11
-2.529822128134683
 21
3.098386676965922
 31
0.0
210
0.0000000000000001
220
0.0
230
1.0
 40
0.8164965809277251
 41
3.926990816987246
 42
5.497787143782136
  0
ELLIPSE
  5
9311
330
A
100
AcDbEntity
  8
0
  6
Continuous
 62
     7
370
     0
100
AcDbEllipse
 10
119.9618564491983
 20
-150.1052168982603
 30
0.0
 11
2.529822128134685
 21
-3.098386676965928
 31
-0.0000000000000001
210
0.0
220
0.0
230
1.0
 40
0.8164965809277248
 41
5.593368217047522
 42
6.283185307179584
  0
LINE
  5
9312
330
A
100
AcDbEntity
  8
0
  6
Continuous
 62
     7
370
     0
100
AcDbLine
 10
87.76247757320138
 20
-92.04662580271271
 30
0.0
 11
87.76247757320138
 21
-88.7602904576817
 31
0.0
  0
LINE
  5
9313
330
A
100
AcDbEntity
  8
0
  6
Continuous
 62
     7
370
     0
100
AcDbLine
 10
87.76247757320138
 20
-88.7602904576817
 30
0.0
 11
119.9618564491983
 21
-95.33296114774371
 31
0.0
  0
LINE
  5
9314
330
A
100
AcDbEntity
  8
0
  6
Continuous
 62
     7
370
     0
100
AcDbLine
 10
123.5395652131979
 20
-99.71474160778512
 30
0.0
 11
123.5395652131979
 21
-150.8355136416005
 31
0.0
  0
ELLIPSE
  5
9315
330
A
100
AcDbEntity
  8
0
  6
Continuous
 62
     7
370
     0
100
AcDbEllipse
 10
91.51907177540101
 20
-93.36115994072512
 30
0.0
 11
-2.023857702507763
 21
2.478709341572735
 31
0.0
210
0.0000000000000001
220
0.0
230
1.0
 40
0.8164965809277251
 41
0.0
 42
0.5967817772220424
  0
ELLIPSE
  5
9316
330
A
100
AcDbEntity
  8
0
  6
Continuous
 62
     7
370
     0
100
AcDbEllipse
 10
119.7829710109983
 20
-149.8861278752583
 30
0.0
 11
-2.023857702507791
 21
2.478709341572764
 31
0.0
210
0.0000000000000001
220
0.0
230
1.0
 40
0.8164965809277255
 41
3.141592653589778
 42
3.926990816987238
  0
LINE
  5
9317
330
A
100
AcDbEntity
  8
0
  6
Continuous
 62
     7
370
     0
100
AcDbLine
 10
122.645138022198
 20
-150.4703652699304
 30
0.0
 11
122.645138022198
 21
-99.71474160778512
 31
0.0
  0
ELLIPSE
  5
9318
330
A
100
AcDbEntity
  8
0
  6
Continuous
 62
     7
370
     0
100
AcDbEllipse
 10
119.7829710109983
 20
-99.13050421311291
 30
0.0
 11
-2.023857702507791
 21
2.478709341572764
 31
0.0
210
0.0000000000000001
220
0.0
230
1.0
 40
0.8164965809277255
 41
3.926990816987233
 42
5.497787143782145
  0
LINE
  5
9319
330
A
100
AcDbEntity
  8
0
  6
Continuous
 62
     7
370
     0
100
AcDbLine
 10
119.7829710109983
 20
-96.20931723975202
 30
0.0
 11
91.51907177540101
 21
-90.43997296736421
 31
0.0
  0
ELLIPSE
  5
931A
330
A
100
AcDbEntity
  8
0
  6
Continuous
 62
     7
370
     0
100
AcDbEllipse
 10
119.9618564491983
 20
-149.7400685265902
 30
0.0
 11
2.023857702507736
 21
-2.478709341572735
 31
0.0
210
0.0000000000000001
220
0.0
230
1.0
 40
0.8164965809277255
 41
5.623114974950218
 42
6.238976734526891
  0
LINE
  5
931B
330
A
100
AcDbEntity
  8
0
  6
Continuous
 62
     7
370
     0
100
AcDbLine
 10
87.76247757320138
 20
-88.7602904576817
 30
0.0
 11
88.42400290506009
 21
-88.22015728602201
 31
0.0
  0
ELLIPSE
  5
931C
330
A
100
AcDbEntity
  8
0
  6
Continuous
 62
     7
370
     0
100
AcDbEllipse
 10
90.53520186530111
 20
-90.5130026416983
 30
0.0
 11
6.000000000000003
 21
0.0
 31
-0.0000000000000006
210
0.0000000000000001
220
0.0
230
1.0
 40
0.408248290463863
 41
1.366070259800314
 42
1.930360694919965
  0
LINE
  5
931D
330
A
100
AcDbEntity
  8
0
  6
Continuous
 62
     7
370
     0
100
AcDbLine
 10
91.75499559621542
 20
-88.11466629977212
 30
0.0
 11
121.3929399547981
 21
-94.16448635839941
 31
0.0
  0
LINE
  5
931E
330
A
100
AcDbEntity
  8
0
  6
Continuous
 62
     9
370
     0
100
AcDbLine
 10
123.5395652131979
 20
-150.8355136416005
 30
0.0
 11
124.9706487187977
 21
-149.6670388522562
 31
0.0
  0
LINE
  5
931F
330
A
100
AcDbEntity
  8
0
  6
Continuous
 62
     7
370
     0
100
AcDbLine
 10
124.9706487187977
 20
-149.6670388522562
 30
0.0
 11
124.9706487187977
 21
-98.54626681844072
 31
0.0
  0
ELLIPSE
  5
9320
330
A
100
AcDbEntity
  8
0
  6
Continuous
 62
     7
370
     0
100
AcDbEllipse
 10
91.51907177540101
 20
-93.36115994072512
 30
0.0
 11
-2.023857702507763
 21
2.478709341572735
 31
0.0000000000000001
210
0.0000000000000001
220
0.0
230
1.0
 40
0.8164965809277251
 41
5.497787143782131
 42
6.283185307179584
  0
ELLIPSE
  5
9321
330
A
100
AcDbEntity
  8
0
  6
Continuous
 62
     7
370
     0
100
AcDbEllipse
 10
91.69795721360101
 20
-93.21510059205712
 30
0.0
 11
2.023857702507763
 21
-2.478709341572751
 31
0.0
210
0.0000000000000001
220
0.0
230
1.0
 40
0.8164965809277251
 41
3.185801226197356
 42
3.716990971037466
  0
ELLIPSE
  5
9322
330
A
100
AcDbEntity
  8
0
  6
Continuous
 62
     7
370
     0
100
AcDbEllipse
 10
119.9618564491983
 20
-150.1052168982603
 30
0.0
 11
2.529822128134685
 21
-3.098386676965928
 31
-0.0000000000000001
210
0.0000000000000001
220
0.0
230
1.0
 40
0.8164965809277251
 41
0.0
 42
0.7853981633974528
  0
ELLIPSE
  5
9323
330
A
100
AcDbEntity
  8
0
  6
Continuous
 62
     7
370
     0
100
AcDbEllipse
 10
121.3929399547981
 20
-148.936742108916
 30
0.0
 11
-2.529822128134683
 21
3.098386676965922
 31
0.0
210
0.0000000000000001
220
0.0
230
1.0
 40
0.8164965809277251
 41
3.141592653589792
 42
3.926990816987244
  0
ELLIPSE
  5
9324
330
A
100
AcDbEntity
  8
0
  6
Continuous
 62
     7
370
     0
100
AcDbEllipse
 10
119.7829710109983
 20
-149.8861278752583
 30
0.0
 11
-2.023857702507791
 21
2.478709341572764
 31
0.0000000000000001
210
0.0000000000000001
220
0.0
230
1.0
 40
0.8164965809277259
 41
2.544810876367753
 42
3.141592653589781
  0
LINE
  5
9325
330
A
100
AcDbEntity
  8
0
  6
Continuous
 62
     9
370
     0
100
AcDbLine
 10
120.3196273255982
 20
-102.3438098838098
 30
0.0
 11
118.8885438199984
 21
-103.5122846731542
 31
0.0
  0
ELLIPSE
  5
9326
330
A
100
AcDbEntity
  8
0
  6
Continuous
 62
     7
370
     0
100
AcDbEllipse
 10
115.3108350559987
 20
-102.781987929814
 30
0.0
 11
2.529822128134739
 21
-3.09838667696595
 31
-0.0000000000000001
210
0.0000000000000001
220
0.0
230
1.0
 40
0.8164965809277259
 41
0.7853981633974393
 42
2.356194490192335
  0
LINE
  5
9327
330
A
100
AcDbEntity
  8
0
  6
Continuous
 62
     9
370
     0
100
AcDbLine
 10
115.3108350559987
 20
-99.13050421311291
 30
0.0
 11
116.7419185615987
 21
-97.96202942376851
 31
0.0
  0
ELLIPSE
  5
9328
330
A
100
AcDbEntity
  8
0
  6
Continuous
 62
     7
370
     0
100
AcDbEllipse
 10
116.7419185615987
 20
-101.6135131404696
 30
0.0
 11
-2.529822128134739
 21
3.09838667696595
 31
0.0000000000000001
210
0.0000000000000001
220
0.0
230
1.0
 40
0.8164965809277259
 41
3.926990816987233
 42
5.497787143782129
  0
LINE
  5
9329
330
A
100
AcDbEntity
  8
0
  6
Continuous
 62
     7
370
     0
100
AcDbLine
 10
85.67289069741603
 20
-151.5044236217033
 30
0.0
 11
85.67289069741603
 21
-135.1275191522989
 31
0.0
  0
LINE
  5
932A
330
A
100
AcDbEntity
  8
0
  6
Continuous
 62
     7
370
     0
100
AcDbLine
 10
96.6600099904139
 20
-137.3702554865433
 30
0.0
 11
85.67289069741603
 21
-135.1275191522989
 31
0.0
  0
ELLIPSE
  5
932B
330
A
100
AcDbEntity
  8
0
  6
Continuous
 62
     7
370
     0
100
AcDbEllipse
 10
96.6600099904139
 20
-135.9096619998628
 30
0.0
 11
-1.011928851253868
 21
1.239354670786366
 31
0.0000000000000001
210
0.0000000000000001
220
0.0
230
1.0
 40
0.8164965809277259
 41
3.141592653589805
 42
3.957123955382341
  0
ELLIPSE
  5
932C
330
A
100
AcDbEntity
  8
0
  6
Continuous
 62
     7
370
     0
100
AcDbEllipse
 10
466.3921414232763
 20
-200.0065455158521
 30
0.0
 11
260.5469080228683
 21
-319.1034893579442
 31
-0.0000000000000143
210
0.0000000000000001
220
0.0
230
1.0
 40
0.8164965809277259
 41
3.896857678592141
 42
3.957123955382341
  0
ELLIPSE
  5
932D
330
A
100
AcDbEntity
  8
0
  6
Continuous
 62
     7
370
     0
100
AcDbEllipse
 10
96.6600099904139
 20
-113.160918444815
 30
0.0
 11
-1.011928851253868
 21
1.239354670786366
 31
0.0000000000000001
210
0.0000000000000001
220
0.0
230
1.0
 40
0.8164965809277259
 41
3.896857678592157
 42
5.497787143782145
  0
LINE
  5
932E
330
A
100
AcDbEntity
  8
0
  6
Continuous
 62
     7
370
     0
100
AcDbLine
 10
85.67289069741603
 20
-109.45758862389
 30
0.0
 11
96.6600099904139
 21
-111.7003249581345
 31
0.0
  0
LINE
  5
932F
330
A
100
AcDbEntity
  8
0
  6
Continuous
 62
     7
370
     0
100
AcDbLine
 10
85.67289069741603
 20
-109.45758862389
 30
0.0
 11
85.67289069741603
 21
-93.08068415448563
 31
0.0
  0
LINE
  5
9330
330
A
100
AcDbEntity
  8
0
  6
Continuous
 62
     7
370
     0
100
AcDbLine
 10
115.3108350559987
 20
-99.13050421311291
 30
0.0
 11
85.67289069741603
 21
-93.08068415448563
 31
0.0
  0
LINE
  5
9331
330
A
100
AcDbEntity
  8
0
  6
Continuous
 62
     7
370
     0
100
AcDbLine
 10
118.8885438199984
 20
-103.5122846731542
 30
0.0
 11
118.8885438199984
 21
-154.6330567069697
 31
0.0
  0
ELLIPSE
  5
9332
330
A
100
AcDbEntity
  8
0
  6
Continuous
 62
     7
370
     0
100
AcDbEllipse
 10
115.3108350559987
 20
-153.9027599636295
 30
0.0
 11
2.529822128134739
 21
-3.098386676965957
 31
-0.0000000000000001
210
0.0000000000000001
220
0.0
230
1.0
 40
0.8164965809277259
 41
5.497787143782128
 42
6.283185307179584
  0
LINE
  5
9333
330
A
100
AcDbEntity
  8
0
  6
Continuous
 62
     7
370
     0
100
AcDbLine
 10
85.67289069741603
 20
-151.5044236217033
 30
0.0
 11
115.3108350559987
 21
-157.5542436803305
 31
0.0
  0
LINE
  5
9334
330
A
100
AcDbEntity
  8
0
  6
Continuous
 62
     7
370
     0
100
AcDbLine
 10
120.3196273255982
 20
-153.4645819176253
 30
0.0
 11
120.3196273255982
 21
-102.3438098838098
 31
0.0
  0
LINE
  5
9335
330
A
100
AcDbEntity
  8
0
  6
Continuous
 62
     9
370
     0
100
AcDbLine
 10
118.8885438199984
 20
-154.6330567069697
 30
0.0
 11
120.3196273255982
 21
-153.4645819176253
 31
0.0
  0
ELLIPSE
  5
9336
330
A
100
AcDbEntity
  8
0
  6
Continuous
 62
     7
370
     0
100
AcDbEllipse
 10
89.64077467430119
 20
-91.2432993850385
 30
0.0
 11
5.999999999999975
 21
0.0000000000000139
 31
0.0000000000000002
210
0.0
220
-0.0000000000000001
230
1.0
 40
0.4082482904638657
 41
3.425529394258006
 42
3.989819829377656
  0
LINE
  5
9337
330
A
100
AcDbEntity
  8
0
  6
Continuous
 62
     7
370
     0
100
AcDbLine
 10
83.88101435374293
 20
-91.92949190536632
 30
0.0
 11
84.54253968560157
 21
-91.3893587337065
 31
0.0
  0
LINE
  5
9338
330
A
100
AcDbEntity
  8
0
  6
Continuous
 62
     7
370
     0
100
AcDbLine
 10
116.7419185615987
 20
-97.96202942376851
 30
0.0
 11
84.54253968560157
 21
-91.3893587337065
 31
0.0
  0
ELLIPSE
  5
9339
330
A
100
AcDbEntity
  8
0
  6
Continuous
 62
     7
370
     0
100
AcDbEllipse
 10
89.64077467430119
 20
-107.6202038544429
 30
0.0
 11
5.999999999999975
 21
0.0000000000000139
 31
0.0000000000000002
210
0.0
220
-0.0000000000000001
230
1.0
 40
0.4082482904638657
 41
3.425529394258011
 42
3.989819829377656
  0
LINE
  5
933A
330
A
100
AcDbEntity
  8
0
  6
Continuous
 62
     7
370
     0
100
AcDbLine
 10
83.88101435374293
 20
-91.92949190536632
 30
0.0
 11
83.88101435374293
 21
-108.3063963747707
 31
0.0
  0
ELLIPSE
  5
933B
330
A
100
AcDbEntity
  8
0
  6
Continuous
 62
     7
370
     0
100
AcDbEllipse
 10
115.3108350559987
 20
-153.9027599636295
 30
0.0
 11
2.529822128134739
 21
-3.098386676965957
 31
-0.0000000000000001
210
0.0000000000000001
220
0.0
230
1.0
 40
0.8164965809277259
 41
0.0
 42
0.7853981633974425
  0
ELLIPSE
  5
933C
330
A
100
AcDbEntity
  8
0
  6
Continuous
 62
     7
370
     0
100
AcDbEllipse
 10
116.7419185615987
 20
-152.7342851742851
 30
0.0
 11
-2.529822128134739
 21
3.098386676965957
 31
0.0000000000000001
210
0.0000000000000001
220
0.0
230
1.0
 40
0.8164965809277259
 41
3.141592653589781
 42
3.926990816987233
  0
ELLIPSE
  5
933D
330
A
100
AcDbEntity
  8
0
  6
Continuous
 62
     7
370
     0
100
AcDbEllipse
 10
96.6600099904139
 20
-135.9096619998628
 30
0.0
 11
-1.011928851253868
 21
1.239354670786366
 31
0.0000000000000001
210
0.0000000000000001
220
0.0
230
1.0
 40
0.8164965809277259
 41
2.356194490192345
 42
3.141592653589805
  0
LINE
  5
933E
330
A
100
AcDbEntity
  8
0
  6
Continuous
 62
     7
370
     0
100
AcDbLine
 10
98.09093927921049
 20
-136.2231912536507
 30
0.0
 11
97.32500638666079
 21
-136.8485728416375
 31
0.0
  0
LINE
  5
933F
330
A
100
AcDbEntity
  8
0
  6
Continuous
 62
     9
370
     0
100
AcDbLine
 10
96.6600099904139
 20
-137.3702554865433
 30
0.0
 11
98.09109349601378
 21
-136.2017806971989
 31
0.0
  0
ELLIPSE
  5
9340
330
A
100
AcDbEntity
  8
0
  6
Continuous
 62
     7
370
     0
100
AcDbEllipse
 10
97.30399756793378
 20
-135.3838483446579
 30
0.0
 11
1.011928851253893
 21
-1.239354670786409
 31
0.0
210
0.0
220
0.0
230
1.0
 40
0.8164965809277296
 41
5.512468029509627
 42
5.959357168604809
  0
ELLIPSE
  5
9341
330
A
100
AcDbEntity
  8
0
  6
Continuous
 62
     7
370
     0
100
AcDbEllipse
 10
89.64077467430119
 20
-133.2901343828517
 30
0.0
 11
-6.000000000000003
 21
0.0
 31
0.0
210
0.0
220
0.0
230
1.0
 40
0.4082482904638632
 41
0.379389239565127
 42
0.8482271757878676
  0
LINE
  5
9342
330
A
100
AcDbEntity
  8
0
  6
Continuous
 62
     7
370
     0
100
AcDbLine
 10
83.88101435374293
 20
-134.1592591120296
 30
0.0
 11
83.88101435374293
 21
-150.353231372584
 31
0.0
  0
ELLIPSE
  5
9343
330
A
100
AcDbEntity
  8
0
  6
Continuous
 62
     7
370
     0
100
AcDbEllipse
 10
89.64077467430119
 20
-149.6670388522562
 30
0.0
 11
-6.000000000000003
 21
0.0
 31
0.0
210
0.0
220
0.0
230
1.0
 40
0.4082482904638632
 41
0.2839367406682173
 42
0.8482271757878669
  0
ELLIPSE
  5
9344
330
A
100
AcDbEntity
  8
0
  6
Continuous
 62
     7
370
     0
100
AcDbEllipse
 10
93.84458247200115
 20
-109.17208443404
 30
0.0
 11
4.60000000000002
 21
0.0
 31
-0.0000000000000003
210
0.0000000000000001
220
0.0
230
1.0
 40
0.4082482904638633
 41
3.873542555181805
 42
4.623940187585962
  0
ELLIPSE
  5
9345
330
A
100
AcDbEntity
  8
0
  6
Continuous
 62
     7
370
     0
100
AcDbEllipse
 10
90.26687370800107
 20
-91.09724003637042
 30
0.0
 11
-9.599999999999996
 21
0.0
 31
0.0
210
0.0
220
0.0
230
1.0
 40
0.4082482904638631
 41
5.106940940494978
 42
6.283185307179584
  0
LINE
  5
9346
330
A
100
AcDbEntity
  8
0
  6
Continuous
 62
     7
370
     0
100
AcDbLine
 10
80.96282374198665
 20
-92.06287059287282
 30
0.0
 11
80.23365303258401
 21
-92.6582359840127
 31
0.0
  0
ELLIPSE
  5
9347
330
A
100
AcDbEntity
  8
0
  6
Continuous
 62
     7
370
     0
100
AcDbEllipse
 10
80.90273237150629
 20
-92.8372764069285
 30
0.0
 11
0.7999999999999952
 21
0.0
 31
0.0
210
0.0
220
0.0
230
1.0
 40
0.4082482904638628
 41
2.561385621872267
 42
2.587285157388219
  0
LINE
  5
9348
330
A
100
AcDbEntity
  8
0
  6
Continuous
 62
     7
370
     0
100
AcDbLine
 10
76.34057844304848
 20
-95.22542496114201
 30
0.0
 11
80.222520254156
 21
-92.66536970965262
 31
0.0
  0
ELLIPSE
  5
9349
330
A
100
AcDbEntity
  8
0
  6
Continuous
 62
     7
370
     0
100
AcDbEllipse
 10
75.66036632569816
 20
-95.05351826386611
 30
0.0
 11
-0.7999999999999952
 21
0.0
 31
0.0
210
0.0
220
0.0
230
1.0
 40
0.4082482904638631
 41
1.107148717794105
 42
2.587285157388284
  0
LINE
  5
934A
330
A
100
AcDbEntity
  8
0
  6
Continuous
 62
     7
370
     0
100
AcDbLine
 10
73.09387164080269
 20
-94.89478310173963
 30
0.0
 11
75.30259544929825
 21
-95.34563696120212
 31
0.0
  0
LINE
  5
934B
330
A
100
AcDbEntity
  8
0
  6
Continuous
 62
     7
370
     0
100
AcDbLine
 10
87.40470669680139
 20
-83.210035208296
 30
0.0
 11
73.09387164080269
 21
-94.89478310173963
 31
0.0
  0
LINE
  5
934C
330
A
100
AcDbEntity
  8
0
  6
Continuous
 62
     7
370
     0
100
AcDbLine
 10
89.61343050529691
 20
-83.66088906775861
 30
0.0
 11
87.40470669680139
 21
-83.210035208296
 31
0.0
  0
ELLIPSE
  5
934D
330
A
100
AcDbEntity
  8
0
  6
Continuous
 62
     7
370
     0
100
AcDbEllipse
 10
89.25565962889692
 20
-83.9530077650947
 30
0.0
 11
-0.8000000000000229
 21
0.0
 31
0.0000000000000001
210
0.0000000000000001
220
0.0
230
1.0
 40
0.408248290463863
 41
2.768604931789691
 42
3.141592653589792
  0
LINE
  5
934E
330
A
100
AcDbEntity
  8
0
  6
Continuous
 62
     7
370
     0
100
AcDbLine
 10
87.31315567574098
 20
-86.87589013132351
 30
0.0
 11
90.00065385266148
 21
-84.07202009397801
 31
0.0
  0
ELLIPSE
  5
934F
330
A
100
AcDbEntity
  8
0
  6
Continuous
 62
     7
370
     0
100
AcDbEllipse
 10
88.0581498995056
 20
-86.99490246020671
 30
0.0
 11
0.7999999999999952
 21
0.0
 31
0.0
210
0.0
220
0.0
230
1.0
 40
0.408248290463863
 41
2.768604931789738
 42
2.794504467305752
  0
LINE
  5
9350
330
A
100
AcDbEntity
  8
0
  6
Continuous
 62
     7
370
     0
100
AcDbLine
 10
87.30585615257149
 20
-86.88380631691652
 30
0.0
 11
86.57668544316877
 21
-87.47917170805642
 31
0.0
  0
LINE
  5
9351
330
A
100
AcDbEntity
  8
0
  6
Continuous
 62
     9
370
     0
100
AcDbLine
 10
75.30259544929825
 20
-95.34563696120212
 30
0.0
 11
75.30259544929825
 21
-153.7693764284199
 31
0.0
  0
LINE
  5
9352
330
A
100
AcDbEntity
  8
0
  6
Continuous
 62
     9
370
     0
100
AcDbLine
 10
76.34057844304848
 20
-95.22542496114201
 30
0.0
 11
76.34057844304848
 21
-153.6491644283596
 31
0.0
  0
ELLIPSE
  5
9353
330
A
100
AcDbEntity
  8
0
  6
Continuous
 62
     7
370
     0
100
AcDbEllipse
 10
75.66036632569816
 20
-153.4772577310837
 30
0.0
 11
-0.7999999999999952
 21
0.0
 31
0.0
210
0.0
220
0.0
230
1.0
 40
0.4082482904638631
 41
1.107148717794093
 42
2.58728515738825
  0
ELLIPSE
  5
9354
330
A
100
AcDbEntity
  8
0
  6
Continuous
 62
     7
370
     0
100
AcDbEllipse
 10
78.49295941192949
 20
-144.9267490818478
 30
0.0
 11
-0.9892159654250331
 21
-3.879453761234946
 31
0.0
210
0.0
220
0.0
230
1.0
 40
0.4816110701770015
 41
0.0232806526337337
 42
1.445039993873283
  0
LINE
  5
9355
330
A
100
AcDbEntity
  8
0
  6
Continuous
 62
     9
370
     0
100
AcDbLine
 10
80.222520254156
 20
-145.8859852056146
 30
0.0
 11
80.222520254156
 21
-151.0891091768703
 31
0.0
  0
LINE
  5
9356
330
A
100
AcDbEntity
  8
0
  6
Continuous
 62
     7
370
     0
100
AcDbLine
 10
76.34057844304848
 20
-153.6491644283596
 30
0.0
 11
80.222520254156
 21
-151.0891091768703
 31
0.0
  0
LINE
  5
9357
330
A
100
AcDbEntity
  8
0
  6
Continuous
 62
     9
370
     0
100
AcDbLine
 10
80.222520254156
 20
-92.66536970965262
 30
0.0
 11
80.222520254156
 21
-97.86849368090843
 31
0.0
  0
ELLIPSE
  5
9358
330
A
100
AcDbEntity
  8
0
  6
Continuous
 62
     7
370
     0
100
AcDbEllipse
 10
78.49295941192949
 20
-101.1089444814346
 30
0.0
 11
-0.9892159654250329
 21
-3.879453761234936
 31
0.0
210
0.0
220
0.0
230
1.0
 40
0.4816110701770013
 41
0.0232806526337337
 42
1.445039993873284
  0
LINE
  5
9359
330
A
100
AcDbEntity
  8
0
  6
Continuous
 62
     9
370
     0
100
AcDbLine
 10
80.222520254156
 20
-102.0681806052013
 30
0.0
 11
80.222520254156
 21
-141.6862982813217
 31
0.0
  0
LINE
  5
935A
330
A
100
AcDbEntity
  8
0
  6
Continuous
 62
     7
370
     0
100
AcDbLine
 10
73.09387164080269
 20
-94.89478310173963
 30
0.0
 11
73.09387164080269
 21
-153.3185225689573
 31
0.0
  0
LINE
  5
935B
330
A
100
AcDbEntity
  8
0
  6
Continuous
 62
     7
370
     0
100
AcDbLine
 10
73.09387164080269
 20
-153.3185225689573
 30
0.0
 11
75.30259544929825
 21
-153.7693764284199
 31
0.0
  0
ELLIPSE
  5
935C
330
A
100
AcDbEntity
  8
0
  6
Continuous
 62
     7
370
     0
100
AcDbEllipse
 10
78.49295941192949
 20
-101.1089444814346
 30
0.0
 11
-0.9892159654250329
 21
-3.879453761234936
 31
0.0
210
0.0
220
0.0
230
1.0
 40
0.4816110701770013
 41
2.670409182985587
 42
3.164873306223528
  0
ELLIPSE
  5
935D
330
A
100
AcDbEntity
  8
0
  6
Continuous
 62
     7
370
     0
100
AcDbEllipse
 10
78.49295941192949
 20
-101.1089444814346
 30
0.0
 11
-0.9892159654250329
 21
-3.879453761234936
 31
0.0
210
0.0
220
0.0
230
1.0
 40
0.4816110701770013
 41
3.164873306223528
 42
6.306465959813317
  0
ELLIPSE
  5
935E
330
A
100
AcDbEntity
  8
0
  6
Continuous
 62
     7
370
     0
100
AcDbEllipse
 10
77.77709241287826
 20
-100.9628187421535
 30
0.0
 11
-0.7999999999999955
 21
-3.919183588453084
 31
0.0
210
0.0
220
0.0
230
1.0
 40
0.4082482904638633
 41
0.4636476090008061
 42
2.893600499797318
  0
LINE
  5
935F
330
A
100
AcDbEntity
  8
0
  6
Continuous
 62
     7
370
     0
100
AcDbLine
 10
80.222520254156
 20
-97.86849368090843
 30
0.0
 11
80.23365303258367
 21
-97.88838119292501
 31
0.0
  0
ELLIPSE
  5
9360
330
A
100
AcDbEntity
  8
0
  6
Continuous
 62
     7
370
     0
100
AcDbEllipse
 10
78.76096232297817
 20
-101.163650346572
 30
0.0
 11
0.8000000000000229
 21
3.919183588453084
 31
0.0000000000000003
210
0.0
220
-0.0000000000000001
230
1.0
 40
0.4082482904638482
 41
4.572368898167523
 42
5.779704280603445
  0
LINE
  5
9361
330
A
100
AcDbEntity
  8
0
  6
Continuous
 62
     7
370
     0
100
AcDbLine
 10
80.23365303258367
 20
-102.0340256419052
 30
0.0
 11
80.222520254156
 21
-102.0681806052013
 31
0.0
  0
ELLIPSE
  5
9362
330
A
100
AcDbEntity
  8
0
  6
Continuous
 62
     7
370
     0
100
AcDbEllipse
 10
77.77709241287826
 20
-100.9628187421535
 30
0.0
 11
-0.7999999999999955
 21
-3.919183588453084
 31
0.0
210
0.0
220
0.0
230
1.0
 40
0.4082482904638633
 41
0.1647069955464055
 42
0.4636476090008049
  0
ELLIPSE
  5
9363
330
A
100
AcDbEntity
  8
0
  6
Continuous
 62
     7
370
     0
100
AcDbEllipse
 10
76.09556929379849
 20
-100.6195792727836
 30
0.0
 11
-0.4240000000000077
 21
-2.077167301880136
 31
0.0000000000000001
210
0.0000000000000001
220
0.0
230
1.0
 40
0.4082482904638633
 41
0.7736158149669175
 42
2.246565873338279
  0
LINE
  5
9364
330
A
100
AcDbEntity
  8
0
  6
Continuous
 62
     7
370
     0
100
AcDbLine
 10
80.23365303258367
 20
-97.88838119292501
 30
0.0
 11
80.23365303258401
 21
-92.6582359840127
 31
0.0
  0
LINE
  5
9365
330
A
100
AcDbEntity
  8
0
  6
Continuous
 62
     7
370
     0
100
AcDbLine
 10
80.96282374198665
 20
-92.06287059287282
 30
0.0
 11
80.96282374198665
 21
-108.6771215038627
 31
0.0
  0
LINE
  5
9366
330
A
100
AcDbEntity
  8
0
  6
Continuous
 62
     9
370
     0
100
AcDbLine
 10
80.23365303258401
 20
-109.2724868950027
 30
0.0
 11
80.96282374198665
 21
-108.6771215038627
 31
0.0
  0
LINE
  5
9367
330
A
100
AcDbEntity
  8
0
  6
Continuous
 62
     7
370
     0
100
AcDbLine
 10
80.23365303258401
 20
-109.2724868950027
 30
0.0
 11
80.23365303258367
 21
-102.0340256419052
 31
0.0
  0
ELLIPSE
  5
9368
330
A
100
AcDbEntity
  8
0
  6
Continuous
 62
     7
370
     0
100
AcDbEllipse
 10
94.56012422480069
 20
-109.3181437827089
 30
0.0
 11
7.200000000000011
 21
0.0
 31
-0.0000000000000005
210
0.0000000000000001
220
0.0
230
1.0
 40
0.408248290463863
 41
4.493507209730426
 42
5.111209138716839
  0
ELLIPSE
  5
9369
330
A
100
AcDbEntity
  8
0
  6
Continuous
 62
     7
370
     0
100
AcDbEllipse
 10
93.2572949665956
 20
-111.7091908310389
 30
0.0
 11
1.200000000000004
 21
0.0
 31
-0.0000000000000001
210
0.0000000000000001
220
0.0
230
1.0
 40
0.408248290463863
 41
3.710918978479281
 42
4.493507209730434
  0
ELLIPSE
  5
936A
330
A
100
AcDbEntity
  8
0
  6
Continuous
 62
     7
370
     0
100
AcDbEllipse
 10
89.55133195520119
 20
-112.6775088020739
 30
0.0
 11
-3.200000000000008
 21
0.0
 31
0.0
210
0.0
220
0.0
230
1.0
 40
0.4082482904638626
 41
3.710918978479285
 42
4.861296109723229
  0
ELLIPSE
  5
936B
330
A
100
AcDbEntity
  8
0
  6
Continuous
 62
     7
370
     0
100
AcDbEllipse
 10
88.89855919920407
 20
-110.9010944487098
 30
0.0
 11
1.200000000000004
 21
0.0
 31
0.0
210
0.0
220
0.0
230
1.0
 40
0.408248290463863
 41
4.248741371383896
 42
4.861296109723221
  0
LINE
  5
936C
330
A
100
AcDbEntity
  8
0
  6
Continuous
 62
     7
370
     0
100
AcDbLine
 10
88.3619028846042
 20
-111.339272494714
 30
0.0
 11
81.26535845777798
 21
-109.8906964294877
 31
0.0
  0
LINE
  5
936D
330
A
100
AcDbEntity
  8
0
  6
Continuous
 62
     9
370
     0
100
AcDbLine
 10
81.81483930584297
 20
-109.4420471957573
 30
0.0
 11
81.26535845777798
 21
-109.8906964294877
 31
0.0
  0
ELLIPSE
  5
936E
330
A
100
AcDbEntity
  8
0
  6
Continuous
 62
     9
370
     0
100
AcDbEllipse
 10
90.26687370800107
 20
-108.4417876907006
 30
0.0
 11
-8.799999999999975
 21
0.0
 31
0.0
210
0.0
220
0.0
230
1.0
 40
0.4082482904638631
 41
5.524390599411969
 42
6.565337455336827
  0
ELLIPSE
  5
936F
330
A
100
AcDbEntity
  8
0
  6
Continuous
 62
     7
370
     0
100
AcDbEllipse
 10
94.56012422480069
 20
-133.0527879412661
 30
0.0
 11
7.200000000000011
 21
0.0
 31
0.0
210
0.0
220
0.0
230
1.0
 40
0.408248290463863
 41
4.493507209730426
 42
5.222385521847691
  0
LINE
  5
9370
330
A
100
AcDbEntity
  8
0
  6
Continuous
 62
     9
370
     0
100
AcDbLine
 10
92.99672911495449
 20
-112.1874002407049
 30
0.0
 11
92.99672911495449
 21
-135.9220443992621
 31
0.0
  0
ELLIPSE
  5
9371
330
A
100
AcDbEntity
  8
0
  6
Continuous
 62
     7
370
     0
100
AcDbEllipse
 10
90.26687370800107
 20
-91.09724003637042
 30
0.0
 11
-9.599999999999996
 21
0.0
 31
0.0
210
0.0
220
0.0
230
1.0
 40
0.4082482904638633
 41
0.0
 42
0.2489491486829941
  0
ELLIPSE
  5
9372
330
A
100
AcDbEntity
  8
0
  6
Continuous
 62
     9
370
     0
100
AcDbEllipse
 10
90.26687370800107
 20
-107.7114909473604
 30
0.0
 11
9.599999999999996
 21
0.0
 31
-0.0000000000000007
210
0.0000000000000001
220
0.0
230
1.0
 40
0.4082482904638633
 41
2.298549509900019
 42
2.892643504906798
  0
LINE
  5
9373
330
A
100
AcDbEntity
  8
0
  6
Continuous
 62
     7
370
     0
100
AcDbLine
 10
86.57668544316877
 20
-87.47917170805642
 30
0.0
 11
86.57668544316877
 21
-91.80457699774711
 31
0.0
  0
ELLIPSE
  5
9374
330
A
100
AcDbEntity
  8
0
  6
Continuous
 62
     7
370
     0
100
AcDbEllipse
 10
93.2572949665956
 20
-135.4438349895961
 30
0.0
 11
1.200000000000004
 21
0.0
 31
-0.0000000000000001
210
0.0000000000000001
220
0.0
230
1.0
 40
0.408248290463863
 41
3.710918978479281
 42
4.493507209730426
  0
LINE
  5
9375
330
A
100
AcDbEntity
  8
0
  6
Continuous
 62
     9
370
     0
100
AcDbLine
 10
92.24657778166976
 20
-111.9732775504121
 30
0.0
 11
92.24657778166976
 21
-135.7079217089693
 31
0.0
  0
ELLIPSE
  5
9376
330
A
100
AcDbEntity
  8
0
  6
Continuous
 62
     7
370
     0
100
AcDbEllipse
 10
89.55133195520119
 20
-136.4121529606312
 30
0.0
 11
-3.200000000000008
 21
0.0
 31
0.0000000000000002
210
0.0000000000000001
220
0.0
230
1.0
 40
0.4082482904638631
 41
3.710918978479285
 42
4.861296109723226
  0
LINE
  5
9377
330
A
100
AcDbEntity
  8
0
  6
Continuous
 62
     9
370
     0
100
AcDbLine
 10
89.07658813265788
 20
-111.3855710905364
 30
0.0
 11
89.07658813265788
 21
-135.1202152490936
 31
0.0
  0
LINE
  5
937D
330
A
100
AcDbEntity
  8
0
  6
Continuous
 62
     7
370
     0
100
AcDbLine
 10
80.23365303258401
 20
-134.4677245402403
 30
0.0
 11
80.23365303258367
 21
-141.7061857933383
 31
0.0
  0
LINE
  5
937E
330
A
100
AcDbEntity
  8
0
  6
Continuous
 62
     7
370
     0
100
AcDbLine
 10
80.222520254156
 20
-141.6862982813217
 30
0.0
 11
80.23365303258367
 21
-141.7061857933383
 31
0.0
  0
LINE
  5
9386
330
A
100
AcDbEntity
  8
0
  6
Continuous
 62
     9
370
     0
100
AcDbLine
 10
81.2605032479062
 20
-109.8896885518824
 30
0.0
 11
81.2605032479062
 21
-133.6243663345201
 31
0.0
  0
ELLIPSE
  5
9387
330
A
100
AcDbEntity
  8
0
  6
Continuous
 62
     7
370
     0
100
AcDbEllipse
 10
88.89855919920407
 20
-134.635738607267
 30
0.0
 11
1.200000000000004
 21
0.0
 31
-0.0000000000000001
210
0.0000000000000001
220
0.0
230
1.0
 40
0.408248290463863
 41
4.248741371383919
 42
4.861296109723233
  0
LINE
  5
9388
330
A
100
AcDbEntity
  8
0
  6
Continuous
 62
     9
370
     0
100
AcDbLine
 10
88.3619028846042
 20
-111.339272494714
 30
0.0
 11
88.3619028846042
 21
-135.0739166532712
 31
0.0
  0
LINE
  5
9389
330
A
100
AcDbEntity
  8
0
  6
Continuous
 62
     7
370
     0
100
AcDbLine
 10
88.3619028846042
 20
-135.0739166532712
 30
0.0
 11
81.26535845777798
 21
-133.6253405880448
 31
0.0
  0
ELLIPSE
  5
938A
330
A
100
AcDbEntity
  8
0
  6
Continuous
 62
     7
370
     0
100
AcDbEllipse
 10
81.26535845777798
 20
-134.3556373313851
 30
0.0
 11
-0.505964425626948
 21
0.6196773353931845
 31
0.0
210
0.0
220
0.0
230
1.0
 40
0.8164965809277264
 41
5.497787143782128
 42
5.504572557924733
  0
ELLIPSE
  5
938B
330
A
100
AcDbEntity
  8
0
  6
Continuous
 62
     7
370
     0
100
AcDbEllipse
 10
81.26535845777798
 20
-109.1603996861475
 30
0.0
 11
-0.505964425626948
 21
0.6196773353931845
 31
0.0
210
0.0
220
0.0
230
1.0
 40
0.8164965809277264
 41
2.349409076049703
 42
2.356194490192331
  0
LINE
  5
938C
330
A
100
AcDbEntity
  8
0
  6
Continuous
 62
     7
370
     0
100
AcDbLine
 10
80.96282374198665
 20
-108.6771215038628
 30
0.0
 11
81.07111131630588
 21
-109.0387157116207
 31
0.0
  0
LINE
  5
93AA
330
A
100
AcDbEntity
  8
0
  6
Continuous
 62
     7
370
     0
100
AcDbLine
 10
87.30585615257149
 20
-86.88380631691652
 30
0.0
 11
87.30585615257158
 21
-91.95341834553213
 31
0.0
  0
LINE
  5
93AB
330
A
100
AcDbEntity
  8
0
  6
Continuous
 62
     9
370
     0
100
AcDbLine
 10
87.31315567574098
 20
-86.87589013132351
 30
0.0
 11
87.31315567574098
 21
-91.95490835445962
 31
0.0
  0
LINE
  5
93AC
330
A
100
AcDbEntity
  8
0
  6
Continuous
 62
     9
370
     0
100
AcDbLine
 10
90.00065385266148
 20
-84.07202009397801
 30
0.0
 11
90.00065385266148
 21
-88.07325339152992
 31
0.0
  0
ELLIPSE
  5
93AD
330
A
100
AcDbEntity
  8
0
  6
Continuous
 62
     7
370
     0
100
AcDbEllipse
 10
88.51054395112859
 20
-92.92962095602412
 30
0.0
 11
0.6362491642629699
 21
3.952213099278763
 31
0.0
210
0.0
220
0.0
230
1.0
 40
0.33350436800251
 41
0.9861963376781655
 42
1.377014542305537
  0
ELLIPSE
  5
93AE
330
A
100
AcDbEntity
  8
0
  6
Continuous
 62
     7
370
     0
100
AcDbEllipse
 10
78.49295941192949
 20
-144.9267490818478
 30
0.0
 11
-0.9892159654250331
 21
-3.879453761234946
 31
0.0
210
0.0
220
0.0
230
1.0
 40
0.4816110701770015
 41
2.670409182985586
 42
3.164873306223526
  0
ELLIPSE
  5
93AF
330
A
100
AcDbEntity
  8
0
  6
Continuous
 62
     7
370
     0
100
AcDbEllipse
 10
78.49295941192949
 20
-144.9267490818478
 30
0.0
 11
-0.9892159654250331
 21
-3.879453761234946
 31
0.0
210
0.0
220
0.0
230
1.0
 40
0.4816110701770015
 41
3.164873306223526
 42
6.306465959813317
  0
ELLIPSE
  5
93B0
330
A
100
AcDbEntity
  8
0
  6
Continuous
 62
     7
370
     0
100
AcDbEllipse
 10
77.77709241287826
 20
-144.7806233425667
 30
0.0
 11
-0.7999999999999955
 21
-3.919183588453084
 31
0.0000000000000003
210
0.0000000000000001
220
0.0000000000000001
230
1.0
 40
0.4082482904638633
 41
2.0344439357957
 42
2.893600499702765
  0
ELLIPSE
  5
93B1
330
A
100
AcDbEntity
  8
0
  6
Continuous
 62
     7
370
     0
100
AcDbEllipse
 10
78.76096232297817
 20
-144.9814549469853
 30
0.0
 11
-0.799999999999995
 21
-3.919183588453091
 31
0.0
210
0.0000000000000001
220
0.0
230
1.0
 40
0.408248290463865
 41
1.430776244577731
 42
2.638111627013667
  0
LINE
  5
93B2
330
A
100
AcDbEntity
  8
0
  6
Continuous
 62
     7
370
     0
100
AcDbLine
 10
80.23365303258367
 20
-145.8518302423185
 30
0.0
 11
80.222520254156
 21
-145.8859852056146
 31
0.0
  0
ELLIPSE
  5
93B3
330
A
100
AcDbEntity
  8
0
  6
Continuous
 62
     7
370
     0
100
AcDbEllipse
 10
77.77709241287826
 20
-144.7806233425667
 30
0.0
 11
-0.7999999999999955
 21
-3.919183588453084
 31
0.0
210
0.0
220
0.0
230
1.0
 40
0.4082482904638633
 41
0.164706995687964
 42
2.0344439357957
  0
LINE
  5
93B4
330
A
100
AcDbEntity
  8
0
  6
Continuous
 62
     7
370
     0
100
AcDbLine
 10
81.01031156911076
 20
-133.6336027976144
 30
0.0
 11
80.96282374198665
 21
-133.8723591491004
 31
0.0
  0
LINE
  5
93CF
330
A
100
AcDbEntity
  8
0
  6
Continuous
 62
     9
370
     0
100
AcDbLine
 10
80.96282374198665
 20
-133.8723591491004
 30
0.0
 11
80.23365303258401
 21
-134.4677245402403
 31
0.0
  0
LINE
  5
93D0
330
A
100
AcDbEntity
  8
0
  6
Continuous
 62
     7
370
     0
100
AcDbLine
 10
80.23365303258401
 20
-151.0819754512304
 30
0.0
 11
80.96282374198665
 21
-150.4866100600905
 31
0.0
  0
LINE
  5
93D1
330
A
100
AcDbEntity
  8
0
  6
Continuous
 62
     7
370
     0
100
AcDbLine
 10
80.23365303258367
 20
-145.8518302423185
 30
0.0
 11
80.23365303258401
 21
-151.0819754512304
 31
0.0
  0
LINE
  5
93D2
330
A
100
AcDbEntity
  8
0
  6
Continuous
 62
     7
370
     0
100
AcDbLine
 10
80.96282374198665
 20
-150.4866100600905
 30
0.0
 11
80.96282374198665
 21
-133.8723591491004
 31
0.0
  0
ELLIPSE
  5
93D3
330
A
100
AcDbEntity
  8
0
  6
Continuous
 62
     7
370
     0
100
AcDbEllipse
 10
76.09556929379849
 20
-144.4373838731968
 30
0.0
 11
-0.4240000000000077
 21
-2.077167301880129
 31
0.0
210
0.0
220
0.0
230
1.0
 40
0.4082482904638633
 41
0.7736158149813476
 42
2.246565873324541
  0
ELLIPSE
  5
93D4
330
A
100
AcDbEntity
  8
0
  6
Continuous
 62
     7
370
     0
100
AcDbEllipse
 10
89.25565962889692
 20
-83.9530077650947
 30
0.0
 11
-0.8000000000000229
 21
0.0
 31
0.0
210
0.0
220
0.0
230
1.0
 40
0.4082482904638631
 41
3.141592653589792
 42
4.248741371383883
  0
ELLIPSE
  5
93D5
330
A
100
AcDbEntity
  8
0
  6
Continuous
 62
     7
370
     0
100
AcDbEllipse
 10
90.26687370800107
 20
-149.5209795035881
 30
0.0
 11
9.599999999999996
 21
0.0
 31
0.0
210
0.0
220
0.0
230
1.0
 40
0.4082482904638633
 41
2.298549509900018
 42
2.892643504906796
  0
ELLIPSE
  5
93D6
330
A
100
AcDbEntity
  8
0
  6
Continuous
 62
     7
370
     0
100
AcDbEllipse
 10
80.90273237150629
 20
-151.2610158741462
 30
0.0
 11
0.7999999999999952
 21
0.0
 31
0.0
210
0.0
220
0.0
230
1.0
 40
0.4082482904638628
 41
2.561385621872275
 42
2.587285157388249
  0
LINE
  5
93D7
330
A
100
AcDbEntity
  8
0
  6
Continuous
 62
     7
370
     0
100
AcDbLine
 10
89.77888817467018
 20
-91.30290867477711
 30
0.0
 11
89.42111729827018
 21
-91.59502737211322
 31
0.0
  0
LINE
  5
93D8
330
A
100
AcDbEntity
  8
0
  6
Continuous
 62
     7
370
     0
100
AcDbLine
 10
120.8076128589204
 20
-151.7983197925203
 30
0.0
 11
121.1653837353204
 21
-151.5062010951842
 31
0.0
  0
LINE
  5
93D9
330
A
100
AcDbEntity
  8
0
  6
Continuous
 62
     7
370
     0
100
AcDbLine
 10
89.77888817467009
 20
-91.3029086747769
 30
0.0
 11
89.42111729827002
 21
-91.59502737211301
 31
0.0
  0
LINE
  5
93DA
330
A
100
AcDbEntity
  8
0
  6
Continuous
 62
     7
370
     0
100
AcDbLine
 10
89.42111729827002
 20
-91.59502737211301
 30
0.0
 11
89.06334642187008
 21
-91.88714606944911
 31
0.0
  0
LINE
  5
93DB
330
A
100
AcDbEntity
  8
0
  6
Continuous
 62
     7
370
     0
100
AcDbLine
 10
120.4498419825205
 20
-152.0904384898564
 30
0.0
 11
120.8076128589204
 21
-151.7983197925203
 31
0.0
  0
LINE
  5
93DC
330
A
100
AcDbEntity
  8
0
  6
Continuous
 62
     7
370
     0
100
AcDbLine
 10
120.8076128589204
 20
-151.7983197925203
 30
0.0
 11
121.1653837353204
 21
-151.5062010951842
 31
0.0
  0
LINE
  5
93DD
330
A
100
AcDbEntity
  8
0
  6
Continuous
 62
     7
370
     0
100
AcDbLine
 10
122.491678577333
 20
-153.2036035752263
 30
0.0
 11
123.9227620829329
 21
-152.0351287858819
 31
0.0
  0
LINE
  5
93DE
330
A
100
AcDbEntity
  8
0
  6
Continuous
 62
     7
370
     0
100
AcDbLine
 10
117.8406571841335
 20
-157.0011466405954
 30
0.0
 11
119.2717406897333
 21
-155.832671851251
 31
0.0
  0
LINE
  5
93DF
330
A
100
AcDbEntity
  8
0
  6
Continuous
 62
     7
370
     0
100
AcDbLine
 10
90.0556596288969
 20
-88.07134885640222
 30
0.0
 11
90.0556596288969
 21
-83.9530077650947
 31
0.0
  0
LINE
  5
93E0
330
A
100
AcDbEntity
  8
0
  6
Continuous
 62
     7
370
     0
100
AcDbLine
 10
-4.979829407785217
 20
-94.00000000000051
 30
0.0
 11
-0.0000000003267075
 21
-94.00000000000051
 31
0.0
  0
LINE
  5
93E1
330
A
100
AcDbEntity
  8
0
  6
Continuous
 62
     7
370
     0
100
AcDbLine
 10
-0.0000000003267075
 20
-94.00000000000051
 30
0.0
 11
4.979829407780385
 21
-94.00000000000051
 31
0.0
  0
LINE
  5
93E2
330
A
100
AcDbEntity
  8
0
  6
Continuous
 62
     9
370
     0
100
AcDbLine
 10
5.412842109700676
 20
-94.25000000000062
 30
0.0
 11
-0.0000000005591119
 21
-94.25000000000052
 31
0.0
  0
LINE
  5
93E3
330
A
100
AcDbEntity
  8
0
  6
Continuous
 62
     7
370
     0
100
AcDbLine
 10
-6.24999999997442
 20
-95.70000000000041
 30
0.0
 11
6.250000000025579
 21
-95.70000000000062
 31
0.0
  0
LINE
  5
93E4
330
A
100
AcDbEntity
  8
0
  6
Continuous
 62
     9
370
     0
100
AcDbLine
 10
-0.0000000005591119
 20
-94.25000000000052
 30
0.0
 11
-5.412842109649432
 21
-94.25000000000041
 31
0.0
  0
LINE
  5
93E5
330
A
100
AcDbEntity
  8
0
  6
Continuous
 62
     7
370
     0
100
AcDbLine
 10
-4.979829407757222
 20
-94.00000000000041
 30
0.0
 11
-0.000000000512415
 21
-94.00000000000051
 31
0.0
  0
LINE
  5
93E6
330
A
100
AcDbEntity
  8
0
  6
Continuous
 62
     7
370
     0
100
AcDbLine
 10
-0.000000000512415
 20
-94.00000000000051
 30
0.0
 11
4.979829407808495
 21
-94.00000000000062
 31
0.0
  0
LINE
  5
93E7
330
A
100
AcDbEntity
  8
0
  6
Continuous
 62
     7
370
     0
100
AcDbLine
 10
-31.2500000000137
 20
-100.0
 30
0.0
 11
-31.2500000000137
 21
-100.5
 31
0.0
  0
LINE
  5
93E8
330
A
100
AcDbEntity
  8
0
  6
Continuous
 62
     9
370
     0
100
AcDbLine
 10
-26.75000000001222
 20
-100.0
 30
0.0
 11
-26.75000000001222
 21
-100.5
 31
0.0
  0
LINE
  5
93E9
330
A
100
AcDbEntity
  8
0
  6
Continuous
 62
     7
370
     0
100
AcDbLine
 10
-31.25000000001222
 20
-100.5
 30
0.0
 11
-26.75000000001222
 21
-100.5
 31
0.0
  0
LINE
  5
93EA
330
A
100
AcDbEntity
  8
0
  6
Continuous
 62
     9
370
     0
100
AcDbLine
 10
10.75000000000008
 20
-100.0
 30
0.0
 11
10.75000000000008
 21
-100.5
 31
0.0
  0
LINE
  5
93EB
330
A
100
AcDbEntity
  8
0
  6
Continuous
 62
     7
370
     0
100
AcDbLine
 10
-26.75000000001222
 20
-100.5
 30
0.0
 11
10.75000000000008
 21
-100.5
 31
0.0
  0
LINE
  5
93EC
330
A
100
AcDbEntity
  8
0
  6
Continuous
 62
     7
370
     0
100
AcDbLine
 10
15.25000000000159
 20
-100.0
 30
0.0
 11
15.25000000000159
 21
-100.5
 31
0.0
  0
LINE
  5
93ED
330
A
100
AcDbEntity
  8
0
  6
Continuous
 62
     7
370
     0
100
AcDbLine
 10
10.75000000000008
 20
-100.5
 30
0.0
 11
15.25000000000008
 21
-100.5
 31
0.0
  0
LINE
  5
93EE
330
A
100
AcDbEntity
  8
0
  6
Continuous
 62
     9
370
     0
100
AcDbLine
 10
-26.75000000001241
 20
-101.5
 30
0.0
 11
-26.75000000001241
 21
-100.5
 31
0.0
  0
LINE
  5
93EF
330
A
100
AcDbEntity
  8
0
  6
Continuous
 62
     9
370
     0
100
AcDbLine
 10
-26.75000000001241
 20
-100.5
 30
0.0
 11
-26.75000000001241
 21
-100.0
 31
0.0
  0
LINE
  5
93F0
330
A
100
AcDbEntity
  8
0
  6
Continuous
 62
     7
370
     0
100
AcDbLine
 10
-26.75000000001241
 20
-101.5
 30
0.0
 11
-31.25000000001241
 21
-101.5
 31
0.0
  0
LINE
  5
93F1
330
A
100
AcDbEntity
  8
0
  6
Continuous
 62
     7
370
     0
100
AcDbLine
 10
-31.25000000001391
 20
-101.5
 30
0.0
 11
-31.25000000001391
 21
-100.5
 31
0.0
  0
LINE
  5
93F2
330
A
100
AcDbEntity
  8
0
  6
Continuous
 62
     7
370
     0
100
AcDbLine
 10
-31.25000000001391
 20
-100.5
 30
0.0
 11
-31.25000000001391
 21
-100.0
 31
0.0
  0
LINE
  5
93F3
330
A
100
AcDbEntity
  8
0
  6
Continuous
 62
     9
370
     0
100
AcDbLine
 10
10.75000000000008
 20
-101.5
 30
0.0
 11
10.75000000000008
 21
-100.5
 31
0.0
  0
LINE
  5
93F4
330
A
100
AcDbEntity
  8
0
  6
Continuous
 62
     9
370
     0
100
AcDbLine
 10
10.75000000000008
 20
-100.5
 30
0.0
 11
10.75000000000008
 21
-100.0
 31
0.0
  0
LINE
  5
93F5
330
A
100
AcDbEntity
  8
0
  6
Continuous
 62
     7
370
     0
100
AcDbLine
 10
10.75000000000008
 20
-101.5
 30
0.0
 11
-26.75000000001241
 21
-101.5
 31
0.0
  0
LINE
  5
93F6
330
A
100
AcDbEntity
  8
0
  6
Continuous
 62
     7
370
     0
100
AcDbLine
 10
15.25000000000159
 20
-101.5
 30
0.0
 11
15.25000000000159
 21
-100.5
 31
0.0
  0
LINE
  5
93F7
330
A
100
AcDbEntity
  8
0
  6
Continuous
 62
     7
370
     0
100
AcDbLine
 10
15.25000000000159
 20
-100.5
 30
0.0
 11
15.25000000000159
 21
-100.0
 31
0.0
  0
LINE
  5
93F8
330
A
100
AcDbEntity
  8
0
  6
Continuous
 62
     7
370
     0
100
AcDbLine
 10
15.25000000000008
 20
-101.5
 30
0.0
 11
10.75000000000008
 21
-101.5
 31
0.0
  0
LINE
  5
93F9
330
A
100
AcDbEntity
  8
0
  6
Continuous
 62
     9
370
     0
100
AcDbLine
 10
-26.74999999999992
 20
-109.0
 30
0.0
 11
-26.74999999999992
 21
-108.4999999999999
 31
0.0
  0
LINE
  5
93FA
330
A
100
AcDbEntity
  8
0
  6
Continuous
 62
     7
370
     0
100
AcDbLine
 10
-31.24999999999992
 20
-109.0
 30
0.0
 11
-31.24999999999992
 21
-108.4999999999999
 31
0.0
  0
LINE
  5
93FB
330
A
100
AcDbEntity
  8
0
  6
Continuous
 62
     7
370
     0
100
AcDbLine
 10
-26.74999999999992
 20
-108.4999999999999
 30
0.0
 11
-31.24999999999992
 21
-108.4999999999999
 31
0.0
  0
LINE
  5
93FC
330
A
100
AcDbEntity
  8
0
  6
Continuous
 62
     9
370
     0
100
AcDbLine
 10
10.75000000000008
 20
-109.0
 30
0.0
 11
10.75000000000008
 21
-108.4999999999999
 31
0.0
  0
LINE
  5
93FD
330
A
100
AcDbEntity
  8
0
  6
Continuous
 62
     7
370
     0
100
AcDbLine
 10
10.75000000000008
 20
-108.4999999999999
 30
0.0
 11
-26.74999999999992
 21
-108.4999999999999
 31
0.0
  0
LINE
  5
93FE
330
A
100
AcDbEntity
  8
0
  6
Continuous
 62
     7
370
     0
100
AcDbLine
 10
15.25000000000008
 20
-109.0
 30
0.0
 11
15.25000000000008
 21
-108.4999999999999
 31
0.0
  0
LINE
  5
93FF
330
A
100
AcDbEntity
  8
0
  6
Continuous
 62
     7
370
     0
100
AcDbLine
 10
15.25000000000008
 20
-108.4999999999999
 30
0.0
 11
10.75000000000008
 21
-108.4999999999999
 31
0.0
  0
LINE
  5
9400
330
A
100
AcDbEntity
  8
0
  6
Continuous
 62
     9
370
     0
100
AcDbLine
 10
-26.75000000001033
 20
-109.0
 30
0.0
 11
-26.75000000001033
 21
-108.4999999999999
 31
0.0
  0
LINE
  5
9401
330
A
100
AcDbEntity
  8
0
  6
Continuous
 62
     9
370
     0
100
AcDbLine
 10
-26.75000000001033
 20
-108.4999999999999
 30
0.0
 11
-26.75000000001033
 21
-107.5
 31
0.0
  0
LINE
  5
9402
330
A
100
AcDbEntity
  8
0
  6
Continuous
 62
     7
370
     0
100
AcDbLine
 10
-31.25000000001163
 20
-109.0
 30
0.0
 11
-31.25000000001163
 21
-108.4999999999999
 31
0.0
  0
LINE
  5
9403
330
A
100
AcDbEntity
  8
0
  6
Continuous
 62
     7
370
     0
100
AcDbLine
 10
-31.25000000001163
 20
-108.4999999999999
 30
0.0
 11
-31.25000000001163
 21
-107.5
 31
0.0
  0
LINE
  5
9404
330
A
100
AcDbEntity
  8
0
  6
Continuous
 62
     7
370
     0
100
AcDbLine
 10
-26.75000000001033
 20
-107.5
 30
0.0
 11
-31.25000000001033
 21
-107.5
 31
0.0
  0
LINE
  5
9405
330
A
100
AcDbEntity
  8
0
  6
Continuous
 62
     9
370
     0
100
AcDbLine
 10
10.75000000000008
 20
-109.0
 30
0.0
 11
10.75000000000008
 21
-108.4999999999999
 31
0.0
  0
LINE
  5
9406
330
A
100
AcDbEntity
  8
0
  6
Continuous
 62
     9
370
     0
100
AcDbLine
 10
10.75000000000008
 20
-108.4999999999999
 30
0.0
 11
10.75000000000008
 21
-107.5
 31
0.0
  0
LINE
  5
9407
330
A
100
AcDbEntity
  8
0
  6
Continuous
 62
     7
370
     0
100
AcDbLine
 10
10.75000000000008
 20
-107.5
 30
0.0
 11
-26.75000000001033
 21
-107.5
 31
0.0
  0
LINE
  5
9408
330
A
100
AcDbEntity
  8
0
  6
Continuous
 62
     7
370
     0
100
AcDbLine
 10
15.25000000000128
 20
-109.0
 30
0.0
 11
15.25000000000128
 21
-108.4999999999999
 31
0.0
  0
LINE
  5
9409
330
A
100
AcDbEntity
  8
0
  6
Continuous
 62
     7
370
     0
100
AcDbLine
 10
15.25000000000128
 20
-108.4999999999999
 30
0.0
 11
15.25000000000128
 21
-107.5
 31
0.0
  0
LINE
  5
940A
330
A
100
AcDbEntity
  8
0
  6
Continuous
 62
     7
370
     0
100
AcDbLine
 10
15.25000000000008
 20
-107.5
 30
0.0
 11
10.75000000000008
 21
-107.5
 31
0.0
  0
LINE
  5
940B
330
A
100
AcDbEntity
  8
0
  6
Continuous
 62
     7
370
     0
100
AcDbLine
 10
17.50000000000008
 20
-96.00000000000001
 30
0.0
 11
17.50000000000008
 21
-100.0
 31
0.0
  0
LINE
  5
940C
330
A
100
AcDbEntity
  8
0
  6
Continuous
 62
     7
370
     0
100
AcDbLine
 10
17.50000000000008
 20
-100.0
 30
0.0
 11
12.50000000000008
 21
-100.0
 31
0.0
  0
LINE
  5
940D
330
A
100
AcDbEntity
  8
0
  6
Continuous
 62
     9
370
     0
100
AcDbLine
 10
12.50000000000008
 20
-100.0
 30
0.0
 11
12.50000000000008
 21
-96.00000000000001
 31
0.0
  0
LINE
  5
940E
330
A
100
AcDbEntity
  8
0
  6
Continuous
 62
     7
370
     0
100
AcDbLine
 10
12.50000000000008
 20
-96.00000000000001
 30
0.0
 11
17.5
 21
-96.00000000000001
 31
0.0
  0
ARC
  5
940F
330
A
100
AcDbEntity
  8
0
  6
Continuous
 62
     7
370
     0
100
AcDbCircle
 10
-26.99999999999992
 20
-103.25
 30
0.0
 40
7.500000000000007
100
AcDbArc
 50
104.8351115819757
 51
137.1665719339316
  0
LINE
  5
9410
330
A
100
AcDbEntity
  8
0
  6
Continuous
 62
     7
370
     0
100
AcDbLine
 10
-28.92028643696712
 20
-96.00000000000001
 30
0.0
 11
12.50000000000008
 21
-96.00000000000001
 31
0.0
  0
LINE
  5
9411
330
A
100
AcDbEntity
  8
0
  6
Continuous
 62
     7
370
     0
100
AcDbLine
 10
-32.49999999999992
 20
-100.0
 30
0.0
 11
12.50000000000008
 21
-100.0
 31
0.0
  0
LINE
  5
9412
330
A
100
AcDbEntity
  8
0
  6
Continuous
 62
     7
370
     0
100
AcDbLine
 10
-32.49999999999992
 20
-100.0
 30
0.0
 11
-32.49999999999992
 21
-98.15098048640722
 31
0.0
  0
CIRCLE
  5
9413
330
A
100
AcDbEntity
  8
0
  6
Continuous
 62
     7
370
     0
100
AcDbCircle
 10
-21.49999999999991
 20
-105.0
 30
0.0
 40
1.772059531467584
  0
ARC
  5
9414
330
A
100
AcDbEntity
  8
0
  6
Continuous
 62
     7
370
     0
100
AcDbCircle
 10
-26.99999999999992
 20
-105.75
 30
0.0
 40
7.499999999999996
100
AcDbArc
 50
222.8334280660684
 51
255.1648884180242
  0
LINE
  5
9415
330
A
100
AcDbEntity
  8
0
  6
Continuous
 62
     7
370
     0
100
AcDbLine
 10
-32.49999999999992
 20
-110.8490195135927
 30
0.0
 11
-32.49999999999992
 21
-109.0
 31
0.0
  0
LINE
  5
9416
330
A
100
AcDbEntity
  8
0
  6
Continuous
 62
     7
370
     0
100
AcDbLine
 10
12.50000000000008
 20
-109.0
 30
0.0
 11
-32.49999999999992
 21
-109.0
 31
0.0
  0
LINE
  5
9417
330
A
100
AcDbEntity
  8
0
  6
Continuous
 62
     9
370
     0
100
AcDbLine
 10
12.50000000000008
 20
-113.0
 30
0.0
 11
12.50000000000008
 21
-109.0
 31
0.0
  0
LINE
  5
9418
330
A
100
AcDbEntity
  8
0
  6
Continuous
 62
     7
370
     0
100
AcDbLine
 10
12.50000000000008
 20
-113.0
 30
0.0
 11
-28.92028643696712
 21
-113.0
 31
0.0
  0
LINE
  5
9419
330
A
100
AcDbEntity
  8
0
  6
Continuous
 62
     7
370
     0
100
AcDbLine
 10
17.50000000000008
 20
-109.0
 30
0.0
 11
17.50000000000008
 21
-113.0
 31
0.0
  0
LINE
  5
941A
330
A
100
AcDbEntity
  8
0
  6
Continuous
 62
     7
370
     0
100
AcDbLine
 10
17.50000000000008
 20
-113.0
 30
0.0
 11
12.50000000000008
 21
-113.0
 31
0.0
  0
LINE
  5
941B
330
A
100
AcDbEntity
  8
0
  6
Continuous
 62
     7
370
     0
100
AcDbLine
 10
12.50000000000008
 20
-109.0
 30
0.0
 11
17.50000000000008
 21
-109.0
 31
0.0
  0
LINE
  5
941C
330
A
100
AcDbEntity
  8
0
  6
Continuous
 62
     7
370
     0
100
AcDbLine
 10
5.500000000000085
 20
-101.5
 30
0.0
 11
5.500000000000085
 21
-107.5
 31
0.0
  0
LINE
  5
941D
330
A
100
AcDbEntity
  8
0
  6
Continuous
 62
     9
370
     0
100
AcDbLine
 10
-5.306140278369923
 20
-101.5
 30
0.0
 11
-5.306140278369923
 21
-107.5
 31
0.0
  0
LINE
  5
941E
330
A
100
AcDbEntity
  8
0
  6
Continuous
 62
     9
370
     0
100
AcDbLine
 10
-9.165151389911713
 20
-101.5
 30
0.0
 11
-9.165151389911628
 21
-107.5
 31
0.0
  0
ARC
  5
941F
330
A
100
AcDbEntity
  8
0
  6
Continuous
 62
     7
370
     0
100
AcDbCircle
 10
-21.49999999999991
 20
-105.0
 30
0.0
 40
2.500000000000002
100
AcDbArc
 50
270.0
 51
0.0
  0
ARC
  5
9420
330
A
100
AcDbEntity
  8
0
  6
Continuous
 62
     7
370
     0
100
AcDbCircle
 10
-21.49999999999991
 20
-105.0
 30
0.0
 40
2.500000000000002
100
AcDbArc
 50
0.0
 51
270.0
  0
LINE
  5
9421
330
A
100
AcDbEntity
  8
0
  6
Continuous
 62
     7
370
     0
100
AcDbLine
 10
-31.25000000001391
 20
-101.0
 30
0.0
 11
-32.49999999999992
 21
-101.0
 31
0.0
  0
LINE
  5
9422
330
A
100
AcDbEntity
  8
0
  6
Continuous
 62
     7
370
     0
100
AcDbLine
 10
-32.49999999999992
 20
-101.0
 30
0.0
 11
-32.49999999999992
 21
-109.0
 31
0.0
  0
ARC
  5
9423
330
A
100
AcDbEntity
  8
0
  6
Continuous
 62
     7
370
     0
100
AcDbCircle
 10
-34.58678536207381
 20
-115.0
 30
0.0
 40
0.9999999999999984
100
AcDbArc
 50
173.3216370158517
 51
174.8055710922652
  0
LINE
  5
9424
330
A
100
AcDbEntity
  8
0
  6
Continuous
 62
     7
370
     0
100
AcDbLine
 10
-36.4173214314583
 20
-124.0905357460425
 30
0.0
 11
-35.58267856854153
 21
-114.9094642539574
 31
0.0
  0
ARC
  5
9425
330
A
100
AcDbEntity
  8
0
  6
Continuous
 62
     7
370
     0
100
AcDbCircle
 10
-37.41321463792603
 20
-124.0
 30
0.0
 40
1.0
100
AcDbArc
 50
270.0
 51
354.8055710922652
  0
LINE
  5
9426
330
A
100
AcDbEntity
  8
0
  6
Continuous
 62
     7
370
     0
100
AcDbLine
 10
-40.49999999999991
 20
-125.0
 30
0.0
 11
-37.41321463792603
 21
-125.0
 31
0.0
  0
LINE
  5
9427
330
A
100
AcDbEntity
  8
0
  6
Continuous
 62
     7
370
     0
100
AcDbLine
 10
-40.49999999999991
 20
-85.00000000000001
 30
0.0
 11
-40.49999999999991
 21
-125.0
 31
0.0
  0
LINE
  5
9428
330
A
100
AcDbEntity
  8
0
  6
Continuous
 62
     7
370
     0
100
AcDbLine
 10
-37.41321463792603
 20
-85.00000000000001
 30
0.0
 11
-40.49999999999991
 21
-85.00000000000001
 31
0.0
  0
ARC
  5
9429
330
A
100
AcDbEntity
  8
0
  6
Continuous
 62
     7
370
     0
100
AcDbCircle
 10
-37.41321463792603
 20
-86.00000000000001
 30
0.0
 40
0.9999999999999968
100
AcDbArc
 50
5.194428907734805
 51
90.0
  0
LINE
  5
942A
330
A
100
AcDbEntity
  8
0
  6
Continuous
 62
     7
370
     0
100
AcDbLine
 10
-35.58267856854153
 20
-95.0905357460425
 30
0.0
 11
-36.4173214314583
 21
-85.90946425395751
 31
0.0
  0
ARC
  5
942B
330
A
100
AcDbEntity
  8
0
  6
Continuous
 62
     7
370
     0
100
AcDbCircle
 10
-34.58678536207381
 20
-95.00000000000001
 30
0.0
 40
0.9999999999999996
100
AcDbArc
 50
185.1944289077348
 51
186.6783629841498
  0
LINE
  5
942C
330
A
100
AcDbEntity
  8
0
  6
Continuous
 62
     7
370
     0
100
AcDbLine
 10
-35.57999999999991
 20
-95.1162956706387
 30
0.0
 11
-35.57999999999991
 21
-97.15438976242133
 31
0.0
  0
LINE
  5
942D
330
A
100
AcDbEntity
  8
0
  6
Continuous
 62
     7
370
     0
100
AcDbLine
 10
-35.57999999999991
 20
-112.8456102375787
 30
0.0
 11
-35.57999999999991
 21
-114.8837043293613
 31
0.0
  0
ARC
  5
942E
330
A
100
AcDbEntity
  8
0
  6
Continuous
 62
     7
370
     0
100
AcDbCircle
 10
-26.49999999999991
 20
-105.0
 30
0.0
 40
11.99999999999998
100
AcDbArc
 50
139.1712132900108
 51
220.8287867099892
  0
LINE
  5
942F
330
A
100
AcDbEntity
  8
0
  6
Continuous
 62
     7
370
     0
100
AcDbLine
 10
-34.57999999999991
 20
-96.00000000000001
 30
0.0
 11
-34.58678536207381
 21
-96.00000000000001
 31
0.0
  0
LINE
  5
9430
330
A
100
AcDbEntity
  8
0
  6
Continuous
 62
     9
370
     0
100
AcDbLine
 10
-34.57999999999991
 20
-96.00000000000001
 30
0.0
 11
-34.57999999999981
 21
-97.53584566075952
 31
0.0
  0
LINE
  5
9431
330
A
100
AcDbEntity
  8
0
  6
Continuous
 62
     7
370
     0
100
AcDbLine
 10
-34.57999999999981
 20
-97.53584566075952
 30
0.0
 11
-35.57999999999991
 21
-97.15438976242133
 31
0.0
  0
LINE
  5
9468
330
A
100
AcDbEntity
  8
0
  6
Continuous
 62
     7
370
     0
100
AcDbLine
 10
-35.57999999999991
 20
-112.8456102375787
 30
0.0
 11
-34.57999999999991
 21
-112.4641543392403
 31
0.0
  0
LINE
  5
9469
330
A
100
AcDbEntity
  8
0
  6
Continuous
 62
     9
370
     0
100
AcDbLine
 10
-34.57999999999991
 20
-112.4641543392405
 30
0.0
 11
-34.57999999999991
 21
-114.0
 31
0.0
  0
LINE
  5
946A
330
A
100
AcDbEntity
  8
0
  6
Continuous
 62
     7
370
     0
100
AcDbLine
 10
-34.58678536207381
 20
-114.0
 30
0.0
 11
-34.57999999999991
 21
-114.0
 31
0.0
  0
ARC
  5
94A2
330
A
100
AcDbEntity
  8
0
  6
Continuous
 62
     9
370
     0
100
AcDbCircle
 10
-26.49999999999991
 20
-105.0
 30
0.0
 40
10.99999999999999
100
AcDbArc
 50
137.2688215529613
 51
222.7311784470386
  0
ARC
  5
94A3
330
A
100
AcDbEntity
  8
0
  6
Continuous
 62
     7
370
     0
100
AcDbCircle
 10
-20.49999999999991
 20
-105.0
 30
0.0
 40
9.000000000000005
100
AcDbArc
 50
284.0240495062387
 51
297.2660444507322
  0
ARC
  5
94A4
330
A
100
AcDbEntity
  8
0
  6
Continuous
 62
     7
370
     0
100
AcDbCircle
 10
-18.68253138114491
 20
-112.2764557182379
 30
0.0
 40
1.499999999999992
100
AcDbArc
 50
239.1850467589392
 51
284.0240495062371
  0
ARC
  5
94A5
330
A
100
AcDbEntity
  8
0
  6
Continuous
 62
     7
370
     0
100
AcDbCircle
 10
-21.49999999999991
 20
-117.0
 30
0.0
 40
4.000000000000004
100
AcDbArc
 50
59.18504675894012
 51
90.0
  0
ARC
  5
94A6
330
A
100
AcDbEntity
  8
0
  6
Continuous
 62
     7
370
     0
100
AcDbCircle
 10
-21.49999999999991
 20
-117.0
 30
0.0
 40
4.000000000000001
100
AcDbArc
 50
90.0
 51
125.0968012275848
  0
ARC
  5
94A7
330
A
100
AcDbEntity
  8
0
  6
Continuous
 62
     7
370
     0
100
AcDbCircle
 10
-24.66227766016832
 20
-112.5
 30
0.0
 40
1.5
100
AcDbArc
 50
270.0
 51
305.0968012275848
  0
LINE
  5
94A8
330
A
100
AcDbEntity
  8
0
  6
Continuous
 62
     7
370
     0
100
AcDbLine
 10
-34.57999999999991
 20
-96.00000000000001
 30
0.0
 11
-28.92028643696712
 21
-96.00000000000001
 31
0.0
  0
LINE
  5
94A9
330
A
100
AcDbEntity
  8
0
  6
Continuous
 62
     7
370
     0
100
AcDbLine
 10
-24.66227766016832
 20
-114.0
 30
0.0
 11
-34.57999999999991
 21
-114.0
 31
0.0
  0
LINE
  5
94AA
330
A
100
AcDbEntity
  8
0
  6
Continuous
 62
     7
370
     0
100
AcDbLine
 10
6.250000000025579
 20
-95.70000000000062
 30
0.0
 11
5.412842109700676
 21
-94.25000000000062
 31
0.0
  0
LINE
  5
94AB
330
A
100
AcDbEntity
  8
0
  6
Continuous
 62
     7
370
     0
100
AcDbLine
 10
-5.412842109649432
 20
-94.25000000000041
 30
0.0
 11
-6.24999999997442
 21
-95.70000000000041
 31
0.0
  0
LINE
  5
94AC
330
A
100
AcDbEntity
  8
0
  6
Continuous
 62
     7
370
     0
100
AcDbLine
 10
-6.24999999997442
 20
-95.70000000000041
 30
0.0
 11
-6.24999999997442
 21
-96.00000000000042
 31
0.0
  0
LINE
  5
94AD
330
A
100
AcDbEntity
  8
0
  6
Continuous
 62
     7
370
     0
100
AcDbLine
 10
6.250000000025579
 20
-96.00000000000063
 30
0.0
 11
6.250000000025579
 21
-95.70000000000062
 31
0.0
  0
ARC
  5
94AE
330
A
100
AcDbEntity
  8
0
  6
Continuous
 62
     7
370
     0
100
AcDbCircle
 10
-4.979829407757222
 20
-94.50000000000041
 30
0.0
 40
0.5000000000000006
100
AcDbArc
 50
90.0
 51
150.0000000000002
  0
ARC
  5
94AF
330
A
100
AcDbEntity
  8
0
  6
Continuous
 62
     7
370
     0
100
AcDbCircle
 10
4.979829407808495
 20
-94.50000000000063
 30
0.0
 40
0.500000000000002
100
AcDbArc
 50
29.99999999999973
 51
90.0
  0
LINE
  5
94B0
330
A
100
AcDbEntity
  8
0
  6
Continuous
 62
     7
370
     0
100
AcDbLine
 10
-87.20000000000041
 20
-43.75
 30
0.0
 11
-87.20000000000041
 21
-56.25
 31
0.0
  0
LINE
  5
94B1
330
A
100
AcDbEntity
  8
0
  6
Continuous
 62
     9
370
     0
100
AcDbLine
 10
-85.75000000000043
 20
-55.41284210967501
 30
0.0
 11
-85.75000000000043
 21
-44.5871578903249
 31
0.0
  0
LINE
  5
94B2
330
A
100
AcDbEntity
  8
0
  6
Continuous
 62
     7
370
     0
100
AcDbLine
 10
-85.50000000000043
 20
-45.02017059221723
 30
0.0
 11
-85.50000000000043
 21
-54.9798294077828
 31
0.0
  0
LINE
  5
94B3
330
A
100
AcDbEntity
  8
0
  6
Continuous
 62
     7
370
     0
100
AcDbLine
 10
-87.20000000026848
 20
6.249999999925279
 30
0.0
 11
-87.19999999973238
 21
-6.25000000007472
 31
0.0
  0
LINE
  5
94B4
330
A
100
AcDbEntity
  8
0
  6
Continuous
 62
     9
370
     0
100
AcDbLine
 10
-85.7499999997683
 20
-5.412842109687602
 30
0.0
 11
-85.75000000023257
 21
5.412842109662477
 31
0.0
  0
LINE
  5
94B5
330
A
100
AcDbEntity
  8
0
  6
Continuous
 62
     7
370
     0
100
AcDbLine
 10
-85.50000000021398
 20
4.979829407781011
 30
0.0
 11
-85.49999999978684
 21
-4.979829407784592
 31
0.0
  0
LINE
  5
94B6
330
A
100
AcDbEntity
  8
0
  6
Continuous
 62
     9
370
     0
100
AcDbLine
 10
-91.49999999999991
 20
8.650000000022174
 30
0.0
 11
-91.99999999999993
 21
8.650000000022174
 31
0.0
  0
LINE
  5
94B7
330
A
100
AcDbEntity
  8
0
  6
Continuous
 62
     9
370
     0
100
AcDbLine
 10
-91.49999999999991
 20
-58.65000000000001
 30
0.0
 11
-91.99999999999993
 21
-58.65000000000001
 31
0.0
  0
LINE
  5
94B8
330
A
100
AcDbEntity
  8
0
  6
Continuous
 62
     7
370
     0
100
AcDbLine
 10
-91.99999999999993
 20
8.650000000022174
 30
0.0
 11
-91.99999999999993
 21
-58.65000000000001
 31
0.0
  0
LINE
  5
94B9
330
A
100
AcDbEntity
  8
0
  6
Continuous
 62
     7
370
     0
100
AcDbLine
 10
-91.49999999999991
 20
13.15000000002359
 30
0.0
 11
-91.99999999999993
 21
13.15000000002359
 31
0.0
  0
LINE
  5
94BA
330
A
100
AcDbEntity
  8
0
  6
Continuous
 62
     7
370
     0
100
AcDbLine
 10
-91.99999999999993
 20
13.15000000002209
 30
0.0
 11
-91.99999999999993
 21
8.650000000022174
 31
0.0
  0
LINE
  5
94BB
330
A
100
AcDbEntity
  8
0
  6
Continuous
 62
     7
370
     0
100
AcDbLine
 10
-91.49999999999991
 20
-63.15000000000151
 30
0.0
 11
-91.99999999999993
 21
-63.15000000000151
 31
0.0
  0
LINE
  5
94BC
330
A
100
AcDbEntity
  8
0
  6
Continuous
 62
     7
370
     0
100
AcDbLine
 10
-91.99999999999993
 20
-58.65000000000001
 30
0.0
 11
-91.99999999999993
 21
-63.15000000000001
 31
0.0
  0
LINE
  5
94BD
330
A
100
AcDbEntity
  8
0
  6
Continuous
 62
     9
370
     0
100
AcDbLine
 10
-92.99999999999995
 20
8.650000000022401
 30
0.0
 11
-91.99999999999993
 21
8.650000000022401
 31
0.0
  0
LINE
  5
94BE
330
A
100
AcDbEntity
  8
0
  6
Continuous
 62
     9
370
     0
100
AcDbLine
 10
-91.99999999999993
 20
8.650000000022401
 30
0.0
 11
-91.49999999999991
 21
8.650000000022401
 31
0.0
  0
LINE
  5
94BF
330
A
100
AcDbEntity
  8
0
  6
Continuous
 62
     7
370
     0
100
AcDbLine
 10
-92.99999999999995
 20
13.15000000002388
 30
0.0
 11
-91.99999999999993
 21
13.15000000002388
 31
0.0
  0
LINE
  5
94C0
330
A
100
AcDbEntity
  8
0
  6
Continuous
 62
     7
370
     0
100
AcDbLine
 10
-91.99999999999993
 20
13.15000000002388
 30
0.0
 11
-91.49999999999991
 21
13.15000000002388
 31
0.0
  0
LINE
  5
94C1
330
A
100
AcDbEntity
  8
0
  6
Continuous
 62
     7
370
     0
100
AcDbLine
 10
-92.99999999999995
 20
8.650000000022401
 30
0.0
 11
-92.99999999999995
 21
13.1500000000224
 31
0.0
  0
LINE
  5
94C2
330
A
100
AcDbEntity
  8
0
  6
Continuous
 62
     9
370
     0
100
AcDbLine
 10
-92.99999999999995
 20
-58.65000000000001
 30
0.0
 11
-91.99999999999993
 21
-58.65000000000001
 31
0.0
  0
LINE
  5
94C3
330
A
100
AcDbEntity
  8
0
  6
Continuous
 62
     9
370
     0
100
AcDbLine
 10
-91.99999999999993
 20
-58.65000000000001
 30
0.0
 11
-91.49999999999991
 21
-58.65000000000001
 31
0.0
  0
LINE
  5
94C4
330
A
100
AcDbEntity
  8
0
  6
Continuous
 62
     7
370
     0
100
AcDbLine
 10
-92.99999999999995
 20
-58.65000000000001
 30
0.0
 11
-92.99999999999995
 21
8.650000000022401
 31
0.0
  0
LINE
  5
94C5
330
A
100
AcDbEntity
  8
0
  6
Continuous
 62
     7
370
     0
100
AcDbLine
 10
-92.99999999999995
 20
-63.15000000000151
 30
0.0
 11
-91.99999999999993
 21
-63.15000000000151
 31
0.0
  0
LINE
  5
94C6
330
A
100
AcDbEntity
  8
0
  6
Continuous
 62
     7
370
     0
100
AcDbLine
 10
-91.99999999999993
 20
-63.15000000000151
 30
0.0
 11
-91.49999999999991
 21
-63.15000000000151
 31
0.0
  0
LINE
  5
94C7
330
A
100
AcDbEntity
  8
0
  6
Continuous
 62
     7
370
     0
100
AcDbLine
 10
-92.99999999999995
 20
-63.15000000000001
 30
0.0
 11
-92.99999999999995
 21
-58.65000000000001
 31
0.0
  0
LINE
  5
94C8
330
A
100
AcDbEntity
  8
0
  6
Continuous
 62
     7
370
     0
100
AcDbLine
 10
-100.4999999999999
 20
13.15
 30
0.0
 11
-99.99999999999992
 21
13.15
 31
0.0
  0
LINE
  5
94C9
330
A
100
AcDbEntity
  8
0
  6
Continuous
 62
     7
370
     0
100
AcDbLine
 10
-99.99999999999992
 20
8.650000000000005
 30
0.0
 11
-99.99999999999992
 21
13.15
 31
0.0
  0
LINE
  5
94CA
330
A
100
AcDbEntity
  8
0
  6
Continuous
 62
     9
370
     0
100
AcDbLine
 10
-100.4999999999999
 20
-58.65000000000001
 30
0.0
 11
-99.99999999999992
 21
-58.65000000000001
 31
0.0
  0
LINE
  5
94CB
330
A
100
AcDbEntity
  8
0
  6
Continuous
 62
     9
370
     0
100
AcDbLine
 10
-100.4999999999999
 20
8.650000000000005
 30
0.0
 11
-99.99999999999992
 21
8.650000000000005
 31
0.0
  0
LINE
  5
94CC
330
A
100
AcDbEntity
  8
0
  6
Continuous
 62
     7
370
     0
100
AcDbLine
 10
-99.99999999999992
 20
-58.65000000000001
 30
0.0
 11
-99.99999999999992
 21
8.650000000000005
 31
0.0
  0
LINE
  5
94CD
330
A
100
AcDbEntity
  8
0
  6
Continuous
 62
     7
370
     0
100
AcDbLine
 10
-100.4999999999999
 20
-63.15000000000001
 30
0.0
 11
-99.99999999999992
 21
-63.15000000000001
 31
0.0
  0
LINE
  5
94CE
330
A
100
AcDbEntity
  8
0
  6
Continuous
 62
     7
370
     0
100
AcDbLine
 10
-99.99999999999992
 20
-63.15000000000001
 30
0.0
 11
-99.99999999999992
 21
-58.65000000000001
 31
0.0
  0
LINE
  5
94CF
330
A
100
AcDbEntity
  8
0
  6
Continuous
 62
     9
370
     0
100
AcDbLine
 10
-100.4999999999999
 20
8.650000000018593
 30
0.0
 11
-99.99999999999992
 21
8.650000000018593
 31
0.0
  0
LINE
  5
94D0
330
A
100
AcDbEntity
  8
0
  6
Continuous
 62
     9
370
     0
100
AcDbLine
 10
-99.99999999999992
 20
8.650000000018593
 30
0.0
 11
-98.99999999999991
 21
8.650000000018593
 31
0.0
  0
LINE
  5
94D1
330
A
100
AcDbEntity
  8
0
  6
Continuous
 62
     7
370
     0
100
AcDbLine
 10
-100.4999999999999
 20
13.15000000001987
 30
0.0
 11
-99.99999999999992
 21
13.15000000001987
 31
0.0
  0
LINE
  5
94D2
330
A
100
AcDbEntity
  8
0
  6
Continuous
 62
     7
370
     0
100
AcDbLine
 10
-99.99999999999992
 20
13.15000000001987
 30
0.0
 11
-98.99999999999991
 21
13.15000000001987
 31
0.0
  0
LINE
  5
94D3
330
A
100
AcDbEntity
  8
0
  6
Continuous
 62
     7
370
     0
100
AcDbLine
 10
-98.99999999999991
 20
8.650000000018593
 30
0.0
 11
-98.99999999999991
 21
13.15000000001865
 31
0.0
  0
LINE
  5
94D4
330
A
100
AcDbEntity
  8
0
  6
Continuous
 62
     9
370
     0
100
AcDbLine
 10
-100.4999999999999
 20
-58.65000000000001
 30
0.0
 11
-99.99999999999992
 21
-58.65000000000001
 31
0.0
  0
LINE
  5
94D5
330
A
100
AcDbEntity
  8
0
  6
Continuous
 62
     9
370
     0
100
AcDbLine
 10
-99.99999999999992
 20
-58.65000000000001
 30
0.0
 11
-98.99999999999991
 21
-58.65000000000001
 31
0.0
  0
LINE
  5
94D6
330
A
100
AcDbEntity
  8
0
  6
Continuous
 62
     7
370
     0
100
AcDbLine
 10
-98.99999999999991
 20
-58.65000000000001
 30
0.0
 11
-98.99999999999991
 21
8.650000000018593
 31
0.0
  0
LINE
  5
94D7
330
A
100
AcDbEntity
  8
0
  6
Continuous
 62
     7
370
     0
100
AcDbLine
 10
-100.4999999999999
 20
-63.15000000000122
 30
0.0
 11
-99.99999999999992
 21
-63.15000000000122
 31
0.0
  0
LINE
  5
94D8
330
A
100
AcDbEntity
  8
0
  6
Continuous
 62
     7
370
     0
100
AcDbLine
 10
-99.99999999999992
 20
-63.15000000000122
 30
0.0
 11
-98.99999999999991
 21
-63.15000000000122
 31
0.0
  0
LINE
  5
94D9
330
A
100
AcDbEntity
  8
0
  6
Continuous
 62
     7
370
     0
100
AcDbLine
 10
-98.99999999999991
 20
-63.15000000000001
 30
0.0
 11
-98.99999999999991
 21
-58.65000000000001
 31
0.0
  0
LINE
  5
94DA
330
A
100
AcDbEntity
  8
0
  6
Continuous
 62
     9
370
     0
100
AcDbLine
 10
-87.49999999999994
 20
10.0
 30
0.0
 11
-91.49999999999991
 21
10.0
 31
0.0
  0
LINE
  5
94DB
330
A
100
AcDbEntity
  8
0
  6
Continuous
 62
     7
370
     0
100
AcDbLine
 10
-91.49999999999991
 20
15.0
 30
0.0
 11
-87.49999999999994
 21
15.0
 31
0.0
  0
LINE
  5
94DC
330
A
100
AcDbEntity
  8
0
  6
Continuous
 62
     7
370
     0
100
AcDbLine
 10
-87.49999999999994
 20
15.0
 30
0.0
 11
-87.49999999999994
 21
10.0
 31
0.0
  0
LINE
  5
94DD
330
A
100
AcDbEntity
  8
0
  6
Continuous
 62
     7
370
     0
100
AcDbLine
 10
-91.49999999999991
 20
10.0
 30
0.0
 11
-91.49999999999991
 21
15.0
 31
0.0
  0
LINE
  5
94DE
330
A
100
AcDbEntity
  8
0
  6
Continuous
 62
     9
370
     0
100
AcDbLine
 10
-91.49999999999991
 20
-60.0
 30
0.0
 11
-87.49999999999994
 21
-60.0
 31
0.0
  0
LINE
  5
94DF
330
A
100
AcDbEntity
  8
0
  6
Continuous
 62
     7
370
     0
100
AcDbLine
 10
-87.49999999999994
 20
-60.0
 30
0.0
 11
-87.49999999999994
 21
10.0
 31
0.0
  0
LINE
  5
94E0
330
A
100
AcDbEntity
  8
0
  6
Continuous
 62
     7
370
     0
100
AcDbLine
 10
-91.49999999999991
 20
10.0
 30
0.0
 11
-91.49999999999991
 21
-60.0
 31
0.0
  0
LINE
  5
94E1
330
A
100
AcDbEntity
  8
0
  6
Continuous
 62
     7
370
     0
100
AcDbLine
 10
-87.49999999999994
 20
-65.0
 30
0.0
 11
-91.49999999999991
 21
-65.0
 31
0.0
  0
LINE
  5
94E2
330
A
100
AcDbEntity
  8
0
  6
Continuous
 62
     7
370
     0
100
AcDbLine
 10
-87.49999999999994
 20
-60.0
 30
0.0
 11
-87.49999999999994
 21
-65.0
 31
0.0
  0
LINE
  5
94E3
330
A
100
AcDbEntity
  8
0
  6
Continuous
 62
     7
370
     0
100
AcDbLine
 10
-91.49999999999991
 20
-65.0
 30
0.0
 11
-91.49999999999991
 21
-60.0
 31
0.0
  0
LINE
  5
94E4
330
A
100
AcDbEntity
  8
0
  6
Continuous
 62
     9
370
     0
100
AcDbLine
 10
-104.4999999999999
 20
-60.0
 30
0.0
 11
-100.4999999999999
 21
-60.0
 31
0.0
  0
LINE
  5
94E5
330
A
100
AcDbEntity
  8
0
  6
Continuous
 62
     7
370
     0
100
AcDbLine
 10
-100.4999999999999
 20
-60.0
 30
0.0
 11
-100.4999999999999
 21
-65.0
 31
0.0
  0
LINE
  5
94E6
330
A
100
AcDbEntity
  8
0
  6
Continuous
 62
     7
370
     0
100
AcDbLine
 10
-100.4999999999999
 20
-65.0
 30
0.0
 11
-104.4999999999999
 21
-65.0
 31
0.0
  0
LINE
  5
94E7
330
A
100
AcDbEntity
  8
0
  6
Continuous
 62
     7
370
     0
100
AcDbLine
 10
-104.4999999999999
 20
-65.0
 30
0.0
 11
-104.4999999999999
 21
-60.0
 31
0.0
  0
LINE
  5
94E8
330
A
100
AcDbEntity
  8
0
  6
Continuous
 62
     9
370
     0
100
AcDbLine
 10
-100.4999999999999
 20
10.00000000000008
 30
0.0
 11
-104.4999999999999
 21
10.00000000000008
 31
0.0
  0
LINE
  5
94E9
330
A
100
AcDbEntity
  8
0
  6
Continuous
 62
     7
370
     0
100
AcDbLine
 10
-100.4999999999999
 20
-60.0
 30
0.0
 11
-100.4999999999999
 21
10.00000000000008
 31
0.0
  0
LINE
  5
94EA
330
A
100
AcDbEntity
  8
0
  6
Continuous
 62
     7
370
     0
100
AcDbLine
 10
-104.4999999999999
 20
10.00000000000008
 30
0.0
 11
-104.4999999999999
 21
-60.0
 31
0.0
  0
LINE
  5
94EB
330
A
100
AcDbEntity
  8
0
  6
Continuous
 62
     7
370
     0
100
AcDbLine
 10
-104.4999999999999
 20
15.00000000000008
 30
0.0
 11
-100.4999999999999
 21
15.00000000000008
 31
0.0
  0
LINE
  5
94EC
330
A
100
AcDbEntity
  8
0
  6
Continuous
 62
     7
370
     0
100
AcDbLine
 10
-100.4999999999999
 20
15.00000000000008
 30
0.0
 11
-100.4999999999999
 21
10.00000000000008
 31
0.0
  0
LINE
  5
94ED
330
A
100
AcDbEntity
  8
0
  6
Continuous
 62
     7
370
     0
100
AcDbLine
 10
-104.4999999999999
 20
10.00000000000008
 30
0.0
 11
-104.4999999999999
 21
15.00000000000008
 31
0.0
  0
LINE
  5
94EE
330
A
100
AcDbEntity
  8
0
  6
Continuous
 62
     9
370
     0
100
AcDbLine
 10
-92.99999999999995
 20
-50.0
 30
0.0
 11
-98.99999999999991
 21
-50.0
 31
0.0
  0
LINE
  5
94EF
330
A
100
AcDbEntity
  8
0
  6
Continuous
 62
     9
370
     0
100
AcDbLine
 10
-92.99999999999995
 20
0.0
 30
0.0
 11
-98.99999999999991
 21
0.0
 31
0.0
  0
LINE
  5
94F0
330
A
100
AcDbEntity
  8
0
  6
Continuous
 62
     9
370
     0
100
AcDbLine
 10
-105.2317468618854
 20
-8.75
 30
0.0
 11
-105.2317468618854
 21
-41.25
 31
0.0
  0
LINE
  5
94F1
330
A
100
AcDbEntity
  8
0
  6
Continuous
 62
     7
370
     0
100
AcDbLine
 10
-104.4999999999999
 20
-8.75
 30
0.0
 11
-105.2317468618854
 21
-8.75
 31
0.0
  0
LINE
  5
94F2
330
A
100
AcDbEntity
  8
0
  6
Continuous
 62
     7
370
     0
100
AcDbLine
 10
-104.4999999999999
 20
-41.25
 30
0.0
 11
-105.2317468618854
 21
-41.25
 31
0.0
  0
LINE
  5
94F3
330
A
100
AcDbEntity
  8
0
  6
Continuous
 62
     7
370
     0
100
AcDbLine
 10
-105.2317468618854
 20
-8.75
 30
0.0
 11
-105.2764557182378
 21
-8.75
 31
0.0
  0
LINE
  5
94F4
330
A
100
AcDbEntity
  8
0
  6
Continuous
 62
     7
370
     0
100
AcDbLine
 10
-105.2317468618854
 20
-41.25
 30
0.0
 11
-105.2764557182378
 21
-41.25
 31
0.0
  0
LINE
  5
94F5
330
A
100
AcDbEntity
  8
0
  6
Continuous
 62
     7
370
     0
100
AcDbLine
 10
-105.4999999999999
 20
-8.75
 30
0.0
 11
-105.4999999999999
 21
-41.25
 31
0.0
  0
LINE
  5
94F6
330
A
100
AcDbEntity
  8
0
  6
Continuous
 62
     7
370
     0
100
AcDbLine
 10
-105.2764557182378
 20
-8.75
 30
0.0
 11
-105.4999999999999
 21
-8.75
 31
0.0
  0
LINE
  5
94F7
330
A
100
AcDbEntity
  8
0
  6
Continuous
 62
     7
370
     0
100
AcDbLine
 10
-105.2764557182378
 20
-41.25
 30
0.0
 11
-105.4999999999999
 21
-41.25
 31
0.0
  0
LINE
  5
94F8
330
A
100
AcDbEntity
  8
0
  6
Continuous
 62
     9
370
     0
100
AcDbLine
 10
-86.59053574604243
 20
-5.898125649110511
 30
0.0
 11
-86.59053574604243
 21
-44.101874351084
 31
0.0
  0
LINE
  5
94F9
330
A
100
AcDbEntity
  8
0
  6
Continuous
 62
     7
370
     0
100
AcDbLine
 10
-86.61629567063853
 20
-44.08700185168422
 30
0.0
 11
-86.61629567063867
 21
-42.25
 31
0.0
  0
LINE
  5
94FA
330
A
100
AcDbEntity
  8
0
  6
Continuous
 62
     7
370
     0
100
AcDbLine
 10
-87.49999999999994
 20
-41.25002302083422
 30
0.0
 11
-86.61629567063867
 21
-42.25
 31
0.0
  0
LINE
  5
94FB
330
A
100
AcDbEntity
  8
0
  6
Continuous
 62
     7
370
     0
100
AcDbLine
 10
-86.61629567063867
 20
-7.75
 30
0.0
 11
-87.50000000000026
 21
-8.749976979166092
 31
0.0
  0
LINE
  5
94FC
330
A
100
AcDbEntity
  8
0
  6
Continuous
 62
     7
370
     0
100
AcDbLine
 10
-86.61629567063853
 20
-5.912998148511832
 30
0.0
 11
-86.61629567063867
 21
-7.75
 31
0.0
  0
LINE
  5
94FD
330
A
100
AcDbEntity
  8
0
  6
Continuous
 62
     9
370
     0
100
AcDbLine
 10
-87.49999999999994
 20
-7.75
 30
0.0
 11
-86.61629567063867
 21
-7.75
 31
0.0
  0
LINE
  5
94FE
330
A
100
AcDbEntity
  8
0
  6
Continuous
 62
     9
370
     0
100
AcDbLine
 10
-104.4999999999999
 20
-42.25
 30
0.0
 11
-106.3837043293612
 21
-42.25
 31
0.0
  0
LINE
  5
94FF
330
A
100
AcDbEntity
  8
0
  6
Continuous
 62
     7
370
     0
100
AcDbLine
 10
-106.3837043293612
 20
-42.25
 30
0.0
 11
-105.4999999999996
 21
-41.25002302083394
 31
0.0
  0
LINE
  5
9500
330
A
100
AcDbEntity
  8
0
  6
Continuous
 62
     7
370
     0
100
AcDbLine
 10
-106.3837043293612
 20
-42.25
 30
0.0
 11
-106.383704329362
 21
-52.16167127487182
 31
0.0
  0
LINE
  5
9501
330
A
100
AcDbEntity
  8
0
  6
Continuous
 62
     7
370
     0
100
AcDbLine
 10
-106.4094642539574
 20
-52.12467092138161
 30
0.0
 11
-106.383704329362
 21
-52.16167127487182
 31
0.0
  0
LINE
  5
9502
330
A
100
AcDbEntity
  8
0
  6
Continuous
 62
     9
370
     0
100
AcDbLine
 10
-106.4094642539574
 20
2.124670921381692
 30
0.0
 11
-106.4094642539574
 21
-52.12467092138161
 31
0.0
  0
LINE
  5
9503
330
A
100
AcDbEntity
  8
0
  6
Continuous
 62
     7
370
     0
100
AcDbLine
 10
-106.383704329362
 20
2.161671274871906
 30
0.0
 11
-106.4094642539574
 21
2.124670921381692
 31
0.0
  0
LINE
  5
9504
330
A
100
AcDbEntity
  8
0
  6
Continuous
 62
     7
370
     0
100
AcDbLine
 10
-106.3837043293612
 20
-7.75
 30
0.0
 11
-106.383704329362
 21
2.161671274871906
 31
0.0
  0
LINE
  5
9505
330
A
100
AcDbEntity
  8
0
  6
Continuous
 62
     7
370
     0
100
AcDbLine
 10
-105.4999999999999
 20
-8.749976979165722
 30
0.0
 11
-106.3837043293612
 21
-7.75
 31
0.0
  0
LINE
  5
9506
330
A
100
AcDbEntity
  8
0
  6
Continuous
 62
     9
370
     0
100
AcDbLine
 10
-86.61629567063867
 20
-42.25
 30
0.0
 11
-87.49999999999994
 21
-42.25
 31
0.0
  0
LINE
  5
9507
330
A
100
AcDbEntity
  8
0
  6
Continuous
 62
     9
370
     0
100
AcDbLine
 10
-106.3837043293612
 20
-7.75
 30
0.0
 11
-104.4999999999999
 21
-7.75
 31
0.0
  0
LINE
  5
9508
330
A
100
AcDbEntity
  8
0
  6
Continuous
 62
     9
370
     0
100
AcDbLine
 10
-86.59053574604243
 20
-57.87532907861842
 30
0.0
 11
-86.59053574604243
 21
-65.0
 31
0.0
  0
LINE
  5
9509
330
A
100
AcDbEntity
  8
0
  6
Continuous
 62
     7
370
     0
100
AcDbLine
 10
-86.59053574604243
 20
-65.0
 30
0.0
 11
-86.61629567063867
 21
-65.0
 31
0.0
  0
LINE
  5
950A
330
A
100
AcDbEntity
  8
0
  6
Continuous
 62
     7
370
     0
100
AcDbLine
 10
-86.61629567063867
 20
-65.0
 30
0.0
 11
-86.61629567063789
 21
-57.838328725128
 31
0.0
  0
LINE
  5
950B
330
A
100
AcDbEntity
  8
0
  6
Continuous
 62
     7
370
     0
100
AcDbLine
 10
-86.59053574604243
 20
-57.87532907861842
 30
0.0
 11
-86.61629567063789
 21
-57.838328725128
 31
0.0
  0
LINE
  5
950C
330
A
100
AcDbEntity
  8
0
  6
Continuous
 62
     9
370
     0
100
AcDbLine
 10
-106.4094642539574
 20
15.00000000000008
 30
0.0
 11
-106.4094642539574
 21
7.875329078618392
 31
0.0
  0
LINE
  5
950D
330
A
100
AcDbEntity
  8
0
  6
Continuous
 62
     7
370
     0
100
AcDbLine
 10
-106.383704329362
 20
7.838328725128178
 30
0.0
 11
-106.3837043293612
 21
15.00000000000008
 31
0.0
  0
LINE
  5
950E
330
A
100
AcDbEntity
  8
0
  6
Continuous
 62
     7
370
     0
100
AcDbLine
 10
-106.4094642539574
 20
7.875329078618392
 30
0.0
 11
-106.383704329362
 21
7.838328725128178
 31
0.0
  0
LINE
  5
950F
330
A
100
AcDbEntity
  8
0
  6
Continuous
 62
     7
370
     0
100
AcDbLine
 10
-106.3837043293612
 20
15.00000000000008
 30
0.0
 11
-106.4094642539574
 21
15.00000000000008
 31
0.0
  0
LINE
  5
9510
330
A
100
AcDbEntity
  8
0
  6
Continuous
 62
     9
370
     0
100
AcDbLine
 10
-86.59053574604243
 20
15.00000000000008
 30
0.0
 11
-86.59053574604243
 21
7.875329078618392
 31
0.0
  0
LINE
  5
9511
330
A
100
AcDbEntity
  8
0
  6
Continuous
 62
     7
370
     0
100
AcDbLine
 10
-86.61629567063789
 20
7.838328725128064
 30
0.0
 11
-86.59053574604243
 21
7.875329078618392
 31
0.0
  0
LINE
  5
9512
330
A
100
AcDbEntity
  8
0
  6
Continuous
 62
     7
370
     0
100
AcDbLine
 10
-86.61629567063867
 20
15.00000000000008
 30
0.0
 11
-86.61629567063789
 21
7.838328725128064
 31
0.0
  0
LINE
  5
9513
330
A
100
AcDbEntity
  8
0
  6
Continuous
 62
     7
370
     0
100
AcDbLine
 10
-86.59053574604243
 20
15.00000000000008
 30
0.0
 11
-86.61629567063867
 21
15.00000000000008
 31
0.0
  0
LINE
  5
9514
330
A
100
AcDbEntity
  8
0
  6
Continuous
 62
     7
370
     0
100
AcDbLine
 10
-100.4999999999999
 20
15.00000000000008
 30
0.0
 11
-91.49999999999991
 21
15.00000000000008
 31
0.0
  0
ARC
  5
9515
330
A
100
AcDbEntity
  8
0
  6
Continuous
 62
     7
370
     0
100
AcDbCircle
 10
-110.4999999999999
 20
5.000000000000085
 30
0.0
 40
4.999999999999995
100
AcDbArc
 50
325.412389064804
 51
34.58761093519601
  0
LINE
  5
9516
330
A
100
AcDbEntity
  8
0
  6
Continuous
 62
     7
370
     0
100
AcDbLine
 10
-104.4999999999999
 20
15.00000000000008
 30
0.0
 11
-106.3837043293612
 21
15.00000000000008
 31
0.0
  0
LINE
  5
9517
330
A
100
AcDbEntity
  8
0
  6
Continuous
 62
     9
370
     0
100
AcDbLine
 10
-106.4094642539574
 20
-57.87532907861842
 30
0.0
 11
-106.4094642539574
 21
-65.0
 31
0.0
  0
LINE
  5
9518
330
A
100
AcDbEntity
  8
0
  6
Continuous
 62
     7
370
     0
100
AcDbLine
 10
-106.383704329362
 20
-57.83832872512812
 30
0.0
 11
-106.3837043293612
 21
-65.0
 31
0.0
  0
LINE
  5
9519
330
A
100
AcDbEntity
  8
0
  6
Continuous
 62
     7
370
     0
100
AcDbLine
 10
-106.383704329362
 20
-57.83832872512812
 30
0.0
 11
-106.4094642539574
 21
-57.87532907861842
 31
0.0
  0
LINE
  5
951A
330
A
100
AcDbEntity
  8
0
  6
Continuous
 62
     7
370
     0
100
AcDbLine
 10
-106.3837043293612
 20
-65.0
 30
0.0
 11
-106.4094642539574
 21
-65.0
 31
0.0
  0
LINE
  5
951B
330
A
100
AcDbEntity
  8
0
  6
Continuous
 62
     7
370
     0
100
AcDbLine
 10
-91.49999999999991
 20
-65.0
 30
0.0
 11
-100.4999999999999
 21
-65.0
 31
0.0
  0
ARC
  5
951C
330
A
100
AcDbEntity
  8
0
  6
Continuous
 62
     7
370
     0
100
AcDbCircle
 10
-110.4999999999999
 20
-54.99999999999992
 30
0.0
 40
4.999999999999992
100
AcDbArc
 50
325.412389064804
 51
34.58761093519601
  0
LINE
  5
951D
330
A
100
AcDbEntity
  8
0
  6
Continuous
 62
     7
370
     0
100
AcDbLine
 10
-106.3837043293612
 20
-65.0
 30
0.0
 11
-104.4999999999999
 21
-65.0
 31
0.0
  0
ARC
  5
951E
330
A
100
AcDbEntity
  8
0
  6
Continuous
 62
     7
370
     0
100
AcDbCircle
 10
-82.49999999999991
 20
5.000000000000085
 30
0.0
 40
4.999999999999988
100
AcDbArc
 50
145.4123890648053
 51
165.5224878150271
  0
LINE
  5
951F
330
A
100
AcDbEntity
  8
0
  6
Continuous
 62
     7
370
     0
100
AcDbLine
 10
-86.61629567063867
 20
15.00000000000008
 30
0.0
 11
-87.49999999999994
 21
15.00000000000008
 31
0.0
  0
ARC
  5
9520
330
A
100
AcDbEntity
  8
0
  6
Continuous
 62
     7
370
     0
100
AcDbCircle
 10
-82.49999999999991
 20
-54.99999999999992
 30
0.0
 40
4.999999999999988
100
AcDbArc
 50
194.4775121859299
 51
214.5876109351947
  0
LINE
  5
9521
330
A
100
AcDbEntity
  8
0
  6
Continuous
 62
     7
370
     0
100
AcDbLine
 10
-87.49999999999994
 20
-65.0
 30
0.0
 11
-86.61629567063867
 21
-65.0
 31
0.0
  0
LINE
  5
9522
330
A
100
AcDbEntity
  8
0
  6
Continuous
 62
     9
370
     0
100
AcDbLine
 10
-77.40946425395742
 20
15.00000000000008
 30
0.0
 11
-77.40946425395742
 21
-65.0
 31
0.0
  0
ARC
  5
9523
330
A
100
AcDbEntity
  8
0
  6
Continuous
 62
     7
370
     0
100
AcDbCircle
 10
-82.49999999999991
 20
5.000000000000085
 30
0.0
 40
5.000000000000004
100
AcDbArc
 50
233.1301023535414
 51
144.8957585592496
  0
ARC
  5
9524
330
A
100
AcDbEntity
  8
0
  6
Continuous
 62
     7
370
     0
100
AcDbCircle
 10
-82.49999999999991
 20
-54.99999999999992
 30
0.0
 40
4.999999999999997
100
AcDbArc
 50
215.1042414407503
 51
126.8698976458515
  0
LINE
  5
9525
330
A
100
AcDbEntity
  8
0
  6
Continuous
 62
     7
370
     0
100
AcDbLine
 10
-86.59053574604243
 20
15.00000000000008
 30
0.0
 11
-77.40946425395742
 21
15.00000000000008
 31
0.0
  0
LINE
  5
9526
330
A
100
AcDbEntity
  8
0
  6
Continuous
 62
     7
370
     0
100
AcDbLine
 10
-86.59053574604243
 20
-65.0
 30
0.0
 11
-77.40946425395742
 21
-65.0
 31
0.0
  0
LINE
  5
9527
330
A
100
AcDbEntity
  8
0
  6
Continuous
 62
     9
370
     0
100
AcDbLine
 10
-115.5905357460424
 20
15.00000000000008
 30
0.0
 11
-115.5905357460424
 21
-65.0
 31
0.0
  0
ARC
  5
9528
330
A
100
AcDbEntity
  8
0
  6
Continuous
 62
     7
370
     0
100
AcDbCircle
 10
-110.4999999999999
 20
5.000000000000085
 30
0.0
 40
5.000000000000004
100
AcDbArc
 50
35.10424144075033
 51
324.8957585592474
  0
ARC
  5
9529
330
A
100
AcDbEntity
  8
0
  6
Continuous
 62
     7
370
     0
100
AcDbCircle
 10
-110.4999999999999
 20
-54.99999999999992
 30
0.0
 40
4.999999999999998
100
AcDbArc
 50
35.10424144075033
 51
324.8957585592474
  0
LINE
  5
952A
330
A
100
AcDbEntity
  8
0
  6
Continuous
 62
     7
370
     0
100
AcDbLine
 10
-115.5905357460424
 20
15.00000000000008
 30
0.0
 11
-106.4094642539574
 21
15.00000000000008
 31
0.0
  0
LINE
  5
952B
330
A
100
AcDbEntity
  8
0
  6
Continuous
 62
     7
370
     0
100
AcDbLine
 10
-115.5905357460424
 20
-65.0
 30
0.0
 11
-106.4094642539574
 21
-65.0
 31
0.0
  0
LINE
  5
952C
330
A
100
AcDbEntity
  8
0
  6
Continuous
 62
     7
370
     0
100
AcDbLine
 10
-116.4999999999999
 20
15.00000000000008
 30
0.0
 11
-116.4999999999999
 21
-65.0
 31
0.0
  0
LINE
  5
952D
330
A
100
AcDbEntity
  8
0
  6
Continuous
 62
     7
370
     0
100
AcDbLine
 10
-116.4999999999999
 20
15.00000000000008
 30
0.0
 11
-115.5905357460424
 21
15.00000000000008
 31
0.0
  0
LINE
  5
952E
330
A
100
AcDbEntity
  8
0
  6
Continuous
 62
     7
370
     0
100
AcDbLine
 10
-116.4999999999999
 20
-65.0
 30
0.0
 11
-115.5905357460424
 21
-65.0
 31
0.0
  0
LINE
  5
952F
330
A
100
AcDbEntity
  8
0
  6
Continuous
 62
     7
370
     0
100
AcDbLine
 10
-76.49999999999991
 20
15.00000000000008
 30
0.0
 11
-76.49999999999991
 21
-65.0
 31
0.0
  0
LINE
  5
9530
330
A
100
AcDbEntity
  8
0
  6
Continuous
 62
     7
370
     0
100
AcDbLine
 10
-77.40946425395742
 20
15.00000000000008
 30
0.0
 11
-76.49999999999991
 21
15.00000000000008
 31
0.0
  0
LINE
  5
9531
330
A
100
AcDbEntity
  8
0
  6
Continuous
 62
     7
370
     0
100
AcDbLine
 10
-77.40946425395742
 20
-65.0
 30
0.0
 11
-76.49999999999991
 21
-65.0
 31
0.0
  0
CIRCLE
  5
9532
330
A
100
AcDbEntity
  8
0
  6
Continuous
 62
     7
370
     0
100
AcDbCircle
 10
-110.4999999999999
 20
5.000000000000085
 30
0.0
 40
2.649999999999999
  0
CIRCLE
  5
9533
330
A
100
AcDbEntity
  8
0
  6
Continuous
 62
     7
370
     0
100
AcDbCircle
 10
-82.49999999999991
 20
5.000000000000085
 30
0.0
 40
2.649999999999999
  0
CIRCLE
  5
9534
330
A
100
AcDbEntity
  8
0
  6
Continuous
 62
     7
370
     0
100
AcDbCircle
 10
-82.49999999999991
 20
-54.99999999999992
 30
0.0
 40
2.649999999999999
  0
CIRCLE
  5
9535
330
A
100
AcDbEntity
  8
0
  6
Continuous
 62
     7
370
     0
100
AcDbCircle
 10
-110.4999999999999
 20
-54.99999999999992
 30
0.0
 40
2.649999999999999
  0
LINE
  5
9536
330
A
100
AcDbEntity
  8
0
  6
Continuous
 62
     7
370
     0
100
AcDbLine
 10
-87.20000000000041
 20
-43.75
 30
0.0
 11
-87.50000000000046
 21
-43.75
 31
0.0
  0
LINE
  5
9537
330
A
100
AcDbEntity
  8
0
  6
Continuous
 62
     7
370
     0
100
AcDbLine
 10
-87.50000000000046
 20
-56.24999999999992
 30
0.0
 11
-87.20000000000041
 21
-56.24999999999992
 31
0.0
  0
LINE
  5
9538
330
A
100
AcDbEntity
  8
0
  6
Continuous
 62
     7
370
     0
100
AcDbLine
 10
-87.20000000000041
 20
-56.25
 30
0.0
 11
-85.75000000000043
 21
-55.41284210967501
 31
0.0
  0
LINE
  5
9539
330
A
100
AcDbEntity
  8
0
  6
Continuous
 62
     7
370
     0
100
AcDbLine
 10
-85.75000000000043
 20
-44.5871578903249
 30
0.0
 11
-87.20000000000041
 21
-43.75
 31
0.0
  0
ARC
  5
953A
330
A
100
AcDbEntity
  8
0
  6
Continuous
 62
     7
370
     0
100
AcDbCircle
 10
-86.00000000000042
 20
-45.02017059221708
 30
0.0
 40
0.5000000000000006
100
AcDbArc
 50
0.0
 51
60.00000000000028
  0
ARC
  5
953B
330
A
100
AcDbEntity
  8
0
  6
Continuous
 62
     7
370
     0
100
AcDbCircle
 10
-86.00000000000042
 20
-54.9798294077828
 30
0.0
 40
0.500000000000002
100
AcDbArc
 50
299.9999999999997
 51
0.0
  0
LINE
  5
953C
330
A
100
AcDbEntity
  8
0
  6
Continuous
 62
     7
370
     0
100
AcDbLine
 10
-87.19999999973238
 20
-6.25000000007472
 30
0.0
 11
-85.7499999997683
 21
-5.412842109687602
 31
0.0
  0
LINE
  5
953D
330
A
100
AcDbEntity
  8
0
  6
Continuous
 62
     7
370
     0
100
AcDbLine
 10
-85.75000000023257
 20
5.412842109662477
 30
0.0
 11
-87.20000000026848
 21
6.249999999925279
 31
0.0
  0
LINE
  5
953E
330
A
100
AcDbEntity
  8
0
  6
Continuous
 62
     7
370
     0
100
AcDbLine
 10
-87.20000000026848
 20
6.249999999925279
 30
0.0
 11
-87.50000000026844
 21
6.249999999912489
 31
0.0
  0
LINE
  5
953F
330
A
100
AcDbEntity
  8
0
  6
Continuous
 62
     7
370
     0
100
AcDbLine
 10
-87.49999999973239
 20
-6.250000000087624
 30
0.0
 11
-87.19999999973238
 21
-6.25000000007472
 31
0.0
  0
ARC
  5
9540
330
A
100
AcDbEntity
  8
0
  6
Continuous
 62
     7
370
     0
100
AcDbCircle
 10
-86.00000000021399
 20
4.979829407759609
 30
0.0
 40
0.5000000000000006
100
AcDbArc
 50
0.0000000024589504
 51
60.00000000245965
  0
ARC
  5
9541
330
A
100
AcDbEntity
  8
0
  6
Continuous
 62
     7
370
     0
100
AcDbCircle
 10
-85.99999999978685
 20
-4.979829407806107
 30
0.0
 40
0.5000000000000151
100
AcDbArc
 50
300.0000000024577
 51
0.000000002457322
  0
LINE
  5
9542
330
A
100
AcDbEntity
  8
0
  6
Continuous
 62
     7
370
     0
100
AcDbLine
 10
-98.99999999999991
 20
-55.5
 30
0.0
 11
-92.99999999999995
 21
-55.5
 31
0.0
  0
LINE
  5
9543
330
A
100
AcDbEntity
  8
0
  6
Continuous
 62
     7
370
     0
100
AcDbLine
 10
-92.99999999999995
 20
5.5
 30
0.0
 11
-98.99999999999991
 21
5.5
 31
0.0
  0
LINE
  5
9544
330
A
100
AcDbEntity
  8
0
  6
Continuous
 62
     7
370
     0
100
AcDbLine
 10
-105.2764557182378
 20
-8.75
 30
0.0
 11
-105.2764557182378
 21
-41.25
 31
0.0
  0
LINE
  5
954D
330
A
100
AcDbEntity
  8
0
  6
Continuous
 62
     7
370
     0
100
AcDbLine
 10
6.249999999997584
 20
58.20000000000058
 30
0.0
 11
-6.250000000002415
 21
58.20000000000058
 31
0.0
  0
LINE
  5
954E
330
A
100
AcDbEntity
  8
0
  6
Continuous
 62
     9
370
     0
100
AcDbLine
 10
-5.412842109677427
 20
56.7500000000006
 30
0.0
 11
5.412842109672681
 21
56.7500000000006
 31
0.0
  0
LINE
  5
954F
330
A
100
AcDbEntity
  8
0
  6
Continuous
 62
     7
370
     0
100
AcDbLine
 10
4.979829407780385
 20
56.50000000000048
 30
0.0
 11
-4.979829407785217
 21
56.50000000000048
 31
0.0
  0
LINE
  5
9550
330
A
100
AcDbEntity
  8
0
  6
Continuous
 62
     7
370
     0
100
AcDbLine
 10
4.979829407808495
 20
56.50000000000059
 30
0.0
 11
-0.0015437588228053
 21
56.50000000000048
 31
0.0
  0
LINE
  5
9551
330
A
100
AcDbEntity
  8
0
  6
Continuous
 62
     7
370
     0
100
AcDbLine
 10
-0.0015437588228053
 20
56.50000000000048
 30
0.0
 11
-4.979829407757222
 21
56.50000000000037
 31
0.0
  0
LINE
  5
9552
330
A
100
AcDbEntity
  8
0
  6
Continuous
 62
     7
370
     0
100
AcDbLine
 10
15.2500000000015
 20
62.50000000000003
 30
0.0
 11
15.2500000000015
 21
63.00000000000003
 31
0.0
  0
LINE
  5
9553
330
A
100
AcDbEntity
  8
0
  6
Continuous
 62
     9
370
     0
100
AcDbLine
 10
10.75
 20
62.50000000000003
 30
0.0
 11
10.75
 21
63.00000000000003
 31
0.0
  0
LINE
  5
9554
330
A
100
AcDbEntity
  8
0
  6
Continuous
 62
     7
370
     0
100
AcDbLine
 10
15.25000000000008
 20
63.00000000000003
 30
0.0
 11
10.75
 21
63.00000000000003
 31
0.0
  0
LINE
  5
9555
330
A
100
AcDbEntity
  8
0
  6
Continuous
 62
     9
370
     0
100
AcDbLine
 10
-26.75000000001231
 20
62.50000000000003
 30
0.0
 11
-26.75000000001231
 21
63.00000000000003
 31
0.0
  0
LINE
  5
9556
330
A
100
AcDbEntity
  8
0
  6
Continuous
 62
     7
370
     0
100
AcDbLine
 10
10.75
 20
63.00000000000003
 30
0.0
 11
-26.75000000001231
 21
63.00000000000003
 31
0.0
  0
LINE
  5
9557
330
A
100
AcDbEntity
  8
0
  6
Continuous
 62
     7
370
     0
100
AcDbLine
 10
-31.25000000001382
 20
62.50000000000003
 30
0.0
 11
-31.25000000001382
 21
63.00000000000003
 31
0.0
  0
LINE
  5
9558
330
A
100
AcDbEntity
  8
0
  6
Continuous
 62
     7
370
     0
100
AcDbLine
 10
-26.75000000001231
 20
63.00000000000003
 30
0.0
 11
-31.25000000001231
 21
63.00000000000003
 31
0.0
  0
LINE
  5
9559
330
A
100
AcDbEntity
  8
0
  6
Continuous
 62
     9
370
     0
100
AcDbLine
 10
10.75
 20
64.00000000000003
 30
0.0
 11
10.75
 21
63.00000000000003
 31
0.0
  0
LINE
  5
955A
330
A
100
AcDbEntity
  8
0
  6
Continuous
 62
     9
370
     0
100
AcDbLine
 10
10.75
 20
63.00000000000003
 30
0.0
 11
10.75
 21
62.50000000000003
 31
0.0
  0
LINE
  5
955B
330
A
100
AcDbEntity
  8
0
  6
Continuous
 62
     7
370
     0
100
AcDbLine
 10
10.75
 20
64.00000000000003
 30
0.0
 11
15.25000000000008
 21
64.00000000000003
 31
0.0
  0
LINE
  5
955C
330
A
100
AcDbEntity
  8
0
  6
Continuous
 62
     7
370
     0
100
AcDbLine
 10
15.2500000000015
 20
64.00000000000003
 30
0.0
 11
15.2500000000015
 21
63.00000000000003
 31
0.0
  0
LINE
  5
955D
330
A
100
AcDbEntity
  8
0
  6
Continuous
 62
     7
370
     0
100
AcDbLine
 10
15.2500000000015
 20
63.00000000000003
 30
0.0
 11
15.2500000000015
 21
62.50000000000003
 31
0.0
  0
LINE
  5
955E
330
A
100
AcDbEntity
  8
0
  6
Continuous
 62
     9
370
     0
100
AcDbLine
 10
-26.75000000001241
 20
64.00000000000003
 30
0.0
 11
-26.75000000001241
 21
63.00000000000003
 31
0.0
  0
LINE
  5
955F
330
A
100
AcDbEntity
  8
0
  6
Continuous
 62
     9
370
     0
100
AcDbLine
 10
-26.75000000001241
 20
63.00000000000003
 30
0.0
 11
-26.75000000001241
 21
62.50000000000003
 31
0.0
  0
LINE
  5
9560
330
A
100
AcDbEntity
  8
0
  6
Continuous
 62
     7
370
     0
100
AcDbLine
 10
-26.75000000001241
 20
64.00000000000003
 30
0.0
 11
10.75
 21
64.00000000000003
 31
0.0
  0
LINE
  5
9561
330
A
100
AcDbEntity
  8
0
  6
Continuous
 62
     7
370
     0
100
AcDbLine
 10
-31.25000000001391
 20
64.00000000000003
 30
0.0
 11
-31.25000000001391
 21
63.00000000000003
 31
0.0
  0
LINE
  5
9562
330
A
100
AcDbEntity
  8
0
  6
Continuous
 62
     7
370
     0
100
AcDbLine
 10
-31.25000000001391
 20
63.00000000000003
 30
0.0
 11
-31.25000000001391
 21
62.50000000000003
 31
0.0
  0
LINE
  5
9563
330
A
100
AcDbEntity
  8
0
  6
Continuous
 62
     7
370
     0
100
AcDbLine
 10
-31.25000000001241
 20
64.00000000000003
 30
0.0
 11
-26.75000000001241
 21
64.00000000000003
 31
0.0
  0
LINE
  5
9564
330
A
100
AcDbEntity
  8
0
  6
Continuous
 62
     9
370
     0
100
AcDbLine
 10
10.75
 20
71.50000000000009
 30
0.0
 11
10.75
 21
71.00000000000003
 31
0.0
  0
LINE
  5
9565
330
A
100
AcDbEntity
  8
0
  6
Continuous
 62
     7
370
     0
100
AcDbLine
 10
15.25000000000008
 20
71.50000000000009
 30
0.0
 11
15.25000000000008
 21
71.00000000000003
 31
0.0
  0
LINE
  5
9566
330
A
100
AcDbEntity
  8
0
  6
Continuous
 62
     7
370
     0
100
AcDbLine
 10
10.75
 20
71.00000000000003
 30
0.0
 11
15.25000000000008
 21
71.00000000000003
 31
0.0
  0
LINE
  5
9567
330
A
100
AcDbEntity
  8
0
  6
Continuous
 62
     9
370
     0
100
AcDbLine
 10
-26.74999999999992
 20
71.50000000000009
 30
0.0
 11
-26.74999999999992
 21
71.00000000000003
 31
0.0
  0
LINE
  5
9568
330
A
100
AcDbEntity
  8
0
  6
Continuous
 62
     7
370
     0
100
AcDbLine
 10
-26.74999999999992
 20
71.00000000000003
 30
0.0
 11
10.75
 21
71.00000000000003
 31
0.0
  0
LINE
  5
9569
330
A
100
AcDbEntity
  8
0
  6
Continuous
 62
     7
370
     0
100
AcDbLine
 10
-31.25000000000002
 20
71.50000000000009
 30
0.0
 11
-31.25000000000002
 21
71.00000000000003
 31
0.0
  0
LINE
  5
956A
330
A
100
AcDbEntity
  8
0
  6
Continuous
 62
     7
370
     0
100
AcDbLine
 10
-31.25000000000002
 20
71.00000000000003
 30
0.0
 11
-26.74999999999992
 21
71.00000000000003
 31
0.0
  0
LINE
  5
956B
330
A
100
AcDbEntity
  8
0
  6
Continuous
 62
     9
370
     0
100
AcDbLine
 10
10.75
 20
71.50000000000009
 30
0.0
 11
10.75
 21
71.00000000000003
 31
0.0
  0
LINE
  5
956C
330
A
100
AcDbEntity
  8
0
  6
Continuous
 62
     9
370
     0
100
AcDbLine
 10
10.75
 20
71.00000000000003
 30
0.0
 11
10.75
 21
70.00000000000008
 31
0.0
  0
LINE
  5
956D
330
A
100
AcDbEntity
  8
0
  6
Continuous
 62
     7
370
     0
100
AcDbLine
 10
15.25000000000128
 20
71.50000000000009
 30
0.0
 11
15.25000000000128
 21
71.00000000000003
 31
0.0
  0
LINE
  5
956E
330
A
100
AcDbEntity
  8
0
  6
Continuous
 62
     7
370
     0
100
AcDbLine
 10
15.25000000000128
 20
71.00000000000003
 30
0.0
 11
15.25000000000128
 21
70.00000000000008
 31
0.0
  0
LINE
  5
956F
330
A
100
AcDbEntity
  8
0
  6
Continuous
 62
     7
370
     0
100
AcDbLine
 10
10.75
 20
70.00000000000008
 30
0.0
 11
15.25000000000008
 21
70.00000000000008
 31
0.0
  0
LINE
  5
9570
330
A
100
AcDbEntity
  8
0
  6
Continuous
 62
     9
370
     0
100
AcDbLine
 10
-26.75000000001033
 20
71.50000000000009
 30
0.0
 11
-26.75000000001033
 21
71.00000000000003
 31
0.0
  0
LINE
  5
9571
330
A
100
AcDbEntity
  8
0
  6
Continuous
 62
     9
370
     0
100
AcDbLine
 10
-26.75000000001033
 20
71.00000000000003
 30
0.0
 11
-26.75000000001033
 21
70.00000000000008
 31
0.0
  0
LINE
  5
9572
330
A
100
AcDbEntity
  8
0
  6
Continuous
 62
     7
370
     0
100
AcDbLine
 10
-26.75000000001033
 20
70.00000000000008
 30
0.0
 11
10.75
 21
70.00000000000008
 31
0.0
  0
LINE
  5
9573
330
A
100
AcDbEntity
  8
0
  6
Continuous
 62
     7
370
     0
100
AcDbLine
 10
-31.25000000001163
 20
71.50000000000009
 30
0.0
 11
-31.25000000001163
 21
71.00000000000003
 31
0.0
  0
LINE
  5
9574
330
A
100
AcDbEntity
  8
0
  6
Continuous
 62
     7
370
     0
100
AcDbLine
 10
-31.25000000001163
 20
71.00000000000003
 30
0.0
 11
-31.25000000001163
 21
70.00000000000008
 31
0.0
  0
LINE
  5
9575
330
A
100
AcDbEntity
  8
0
  6
Continuous
 62
     7
370
     0
100
AcDbLine
 10
-31.25000000001043
 20
70.00000000000008
 30
0.0
 11
-26.75000000001033
 21
70.00000000000008
 31
0.0
  0
LINE
  5
9576
330
A
100
AcDbEntity
  8
0
  6
Continuous
 62
     7
370
     0
100
AcDbLine
 10
17.5
 20
62.50000000000003
 30
0.0
 11
17.5
 21
58.50000000000003
 31
0.0
  0
LINE
  5
9577
330
A
100
AcDbEntity
  8
0
  6
Continuous
 62
     7
370
     0
100
AcDbLine
 10
17.5
 20
58.50000000000003
 30
0.0
 11
12.50000000000008
 21
58.50000000000003
 31
0.0
  0
LINE
  5
9578
330
A
100
AcDbEntity
  8
0
  6
Continuous
 62
     9
370
     0
100
AcDbLine
 10
12.50000000000008
 20
58.50000000000003
 30
0.0
 11
12.50000000000008
 21
62.50000000000003
 31
0.0
  0
LINE
  5
9579
330
A
100
AcDbEntity
  8
0
  6
Continuous
 62
     7
370
     0
100
AcDbLine
 10
12.50000000000008
 20
62.50000000000003
 30
0.0
 11
17.5
 21
62.50000000000003
 31
0.0
  0
ARC
  5
957A
330
A
100
AcDbEntity
  8
0
  6
Continuous
 62
     7
370
     0
100
AcDbCircle
 10
-26.99999999999992
 20
65.75000000000009
 30
0.0
 40
7.500000000000039
100
AcDbArc
 50
222.8334280660672
 51
255.1648884180242
  0
LINE
  5
957B
330
A
100
AcDbEntity
  8
0
  6
Continuous
 62
     7
370
     0
100
AcDbLine
 10
-32.49999999999992
 20
60.65098048640717
 30
0.0
 11
-32.49999999999992
 21
62.50000000000003
 31
0.0
  0
LINE
  5
957C
330
A
100
AcDbEntity
  8
0
  6
Continuous
 62
     7
370
     0
100
AcDbLine
 10
12.50000000000008
 20
58.50000000000003
 30
0.0
 11
-28.92028643696712
 21
58.50000000000003
 31
0.0
  0
LINE
  5
957D
330
A
100
AcDbEntity
  8
0
  6
Continuous
 62
     7
370
     0
100
AcDbLine
 10
12.50000000000008
 20
62.50000000000003
 30
0.0
 11
-32.49999999999992
 21
62.50000000000003
 31
0.0
  0
CIRCLE
  5
957E
330
A
100
AcDbEntity
  8
0
  6
Continuous
 62
     7
370
     0
100
AcDbCircle
 10
-21.49999999999991
 20
67.50000000000008
 30
0.0
 40
1.749999999999973
  0
LINE
  5
957F
330
A
100
AcDbEntity
  8
0
  6
Continuous
 62
     7
370
     0
100
AcDbLine
 10
-32.49999999999992
 20
71.50000000000009
 30
0.0
 11
-32.49999999999992
 21
73.34901951359277
 31
0.0
  0
ARC
  5
9580
330
A
100
AcDbEntity
  8
0
  6
Continuous
 62
     7
370
     0
100
AcDbCircle
 10
-26.99999999999992
 20
68.25000000000002
 30
0.0
 40
7.500000000000023
100
AcDbArc
 50
104.8351115819757
 51
137.1665719339316
  0
LINE
  5
9581
330
A
100
AcDbEntity
  8
0
  6
Continuous
 62
     7
370
     0
100
AcDbLine
 10
-28.92028643696712
 20
75.49999999999997
 30
0.0
 11
12.50000000000008
 21
75.49999999999997
 31
0.0
  0
LINE
  5
9582
330
A
100
AcDbEntity
  8
0
  6
Continuous
 62
     9
370
     0
100
AcDbLine
 10
12.50000000000008
 20
71.50000000000009
 30
0.0
 11
12.50000000000008
 21
75.49999999999997
 31
0.0
  0
LINE
  5
9583
330
A
100
AcDbEntity
  8
0
  6
Continuous
 62
     7
370
     0
100
AcDbLine
 10
-32.49999999999992
 20
71.50000000000009
 30
0.0
 11
12.50000000000008
 21
71.50000000000009
 31
0.0
  0
LINE
  5
9584
330
A
100
AcDbEntity
  8
0
  6
Continuous
 62
     7
370
     0
100
AcDbLine
 10
17.50000000000008
 20
75.49999999999997
 30
0.0
 11
17.50000000000008
 21
71.50000000000009
 31
0.0
  0
LINE
  5
9585
330
A
100
AcDbEntity
  8
0
  6
Continuous
 62
     7
370
     0
100
AcDbLine
 10
17.50000000000008
 20
71.50000000000009
 30
0.0
 11
12.50000000000008
 21
71.50000000000009
 31
0.0
  0
LINE
  5
9586
330
A
100
AcDbEntity
  8
0
  6
Continuous
 62
     7
370
     0
100
AcDbLine
 10
12.50000000000008
 20
75.49999999999997
 30
0.0
 11
17.50000000000008
 21
75.49999999999997
 31
0.0
  0
LINE
  5
9587
330
A
100
AcDbEntity
  8
0
  6
Continuous
 62
     9
370
     0
100
AcDbLine
 10
-5.266062276209822
 20
64.00000000000003
 30
0.0
 11
-5.266062276209822
 21
70.00000000000008
 31
0.0
  0
LINE
  5
9588
330
A
100
AcDbEntity
  8
0
  6
Continuous
 62
     7
370
     0
100
AcDbLine
 10
5.500000000000085
 20
64.00000000000003
 30
0.0
 11
5.500000000000085
 21
70.00000000000008
 31
0.0
  0
LINE
  5
9589
330
A
100
AcDbEntity
  8
0
  6
Continuous
 62
     9
370
     0
100
AcDbLine
 10
-8.530240324867719
 20
64.00000000000003
 30
0.0
 11
-8.530240324867719
 21
70.00000000000008
 31
0.0
  0
LINE
  5
958A
330
A
100
AcDbEntity
  8
0
  6
Continuous
 62
     7
370
     0
100
AcDbLine
 10
-10.49999999999991
 20
64.00000000000003
 30
0.0
 11
-10.49999999999991
 21
70.00000000000008
 31
0.0
  0
ARC
  5
958B
330
A
100
AcDbEntity
  8
0
  6
Continuous
 62
     7
370
     0
100
AcDbCircle
 10
-21.49999999999991
 20
67.50000000000008
 30
0.0
 40
2.500000000000002
100
AcDbArc
 50
270.0
 51
90.0
  0
ARC
  5
958C
330
A
100
AcDbEntity
  8
0
  6
Continuous
 62
     7
370
     0
100
AcDbCircle
 10
-21.49999999999991
 20
67.50000000000008
 30
0.0
 40
2.500000000000002
100
AcDbArc
 50
90.0
 51
270.0
  0
LINE
  5
958D
330
A
100
AcDbEntity
  8
0
  6
Continuous
 62
     7
370
     0
100
AcDbLine
 10
-32.49999999999992
 20
63.50000000000008
 30
0.0
 11
-31.25000000001391
 21
63.50000000000008
 31
0.0
  0
LINE
  5
958E
330
A
100
AcDbEntity
  8
0
  6
Continuous
 62
     7
370
     0
100
AcDbLine
 10
-32.49999999999992
 20
71.50000000000009
 30
0.0
 11
-32.49999999999992
 21
63.50000000000008
 31
0.0
  0
LINE
  5
958F
330
A
100
AcDbEntity
  8
0
  6
Continuous
 62
     7
370
     0
100
AcDbLine
 10
-35.58267856854153
 20
57.59053574604249
 30
0.0
 11
-36.4173214314583
 21
48.40946425395748
 31
0.0
  0
ARC
  5
9590
330
A
100
AcDbEntity
  8
0
  6
Continuous
 62
     7
370
     0
100
AcDbCircle
 10
-37.41321463792603
 20
48.5
 30
0.0
 40
0.9999999999999968
100
AcDbArc
 50
270.0
 51
354.8055710922652
  0
LINE
  5
9591
330
A
100
AcDbEntity
  8
0
  6
Continuous
 62
     7
370
     0
100
AcDbLine
 10
-37.41321463792603
 20
47.5
 30
0.0
 11
-40.49999999999991
 21
47.5
 31
0.0
  0
LINE
  5
9592
330
A
100
AcDbEntity
  8
0
  6
Continuous
 62
     7
370
     0
100
AcDbLine
 10
-40.49999999999991
 20
47.5
 30
0.0
 11
-40.49999999999991
 21
87.49999999999998
 31
0.0
  0
LINE
  5
9593
330
A
100
AcDbEntity
  8
0
  6
Continuous
 62
     7
370
     0
100
AcDbLine
 10
-40.49999999999991
 20
87.49999999999998
 30
0.0
 11
-37.41321463792603
 21
87.49999999999998
 31
0.0
  0
ARC
  5
9594
330
A
100
AcDbEntity
  8
0
  6
Continuous
 62
     7
370
     0
100
AcDbCircle
 10
-37.41321463792603
 20
86.50000000000009
 30
0.0
 40
1.0
100
AcDbArc
 50
5.194428907734805
 51
90.0
  0
LINE
  5
9595
330
A
100
AcDbEntity
  8
0
  6
Continuous
 62
     7
370
     0
100
AcDbLine
 10
-36.4173214314583
 20
86.59053574604261
 30
0.0
 11
-35.58267856854153
 21
77.40946425395745
 31
0.0
  0
ARC
  5
9596
330
A
100
AcDbEntity
  8
0
  6
Continuous
 62
     7
370
     0
100
AcDbCircle
 10
-34.58678536207381
 20
77.49999999999997
 30
0.0
 40
0.9999999999999968
100
AcDbArc
 50
185.1944289077348
 51
186.6783629841482
  0
LINE
  5
9597
330
A
100
AcDbEntity
  8
0
  6
Continuous
 62
     7
370
     0
100
AcDbLine
 10
-35.57999999999991
 20
77.38370432936128
 30
0.0
 11
-35.57999999999991
 21
75.34561023757871
 31
0.0
  0
ARC
  5
9598
330
A
100
AcDbEntity
  8
0
  6
Continuous
 62
     7
370
     0
100
AcDbCircle
 10
-34.58678536207381
 20
57.50000000000008
 30
0.0
 40
1.000000000000001
100
AcDbArc
 50
173.3216370158485
 51
174.8055710922635
  0
LINE
  5
9599
330
A
100
AcDbEntity
  8
0
  6
Continuous
 62
     7
370
     0
100
AcDbLine
 10
-35.57999999999991
 20
59.65438976242129
 30
0.0
 11
-35.57999999999991
 21
57.61629567063867
 31
0.0
  0
ARC
  5
959A
330
A
100
AcDbEntity
  8
0
  6
Continuous
 62
     7
370
     0
100
AcDbCircle
 10
-26.49999999999991
 20
67.50000000000008
 30
0.0
 40
12.00000000000001
100
AcDbArc
 50
139.1712132900108
 51
220.8287867099892
  0
LINE
  5
959B
330
A
100
AcDbEntity
  8
0
  6
Continuous
 62
     7
370
     0
100
AcDbLine
 10
-34.57999999999991
 20
76.49999999999997
 30
0.0
 11
-34.58678536207381
 21
76.49999999999997
 31
0.0
  0
LINE
  5
959C
330
A
100
AcDbEntity
  8
0
  6
Continuous
 62
     9
370
     0
100
AcDbLine
 10
-34.57999999999991
 20
76.49999999999997
 30
0.0
 11
-34.57999999999991
 21
74.96415433924048
 31
0.0
  0
LINE
  5
959D
330
A
100
AcDbEntity
  8
0
  6
Continuous
 62
     7
370
     0
100
AcDbLine
 10
-34.57999999999991
 20
74.96415433924048
 30
0.0
 11
-35.57999999999991
 21
75.34561023757871
 31
0.0
  0
LINE
  5
95D3
330
A
100
AcDbEntity
  8
0
  6
Continuous
 62
     7
370
     0
100
AcDbLine
 10
-35.57999999999991
 20
59.65438976242129
 30
0.0
 11
-34.57999999999991
 21
60.03584566075969
 31
0.0
  0
LINE
  5
95D4
330
A
100
AcDbEntity
  8
0
  6
Continuous
 62
     9
370
     0
100
AcDbLine
 10
-34.57999999999981
 20
60.03584566075947
 30
0.0
 11
-34.57999999999991
 21
58.50000000000003
 31
0.0
  0
LINE
  5
95D5
330
A
100
AcDbEntity
  8
0
  6
Continuous
 62
     7
370
     0
100
AcDbLine
 10
-34.58678536207381
 20
58.50000000000003
 30
0.0
 11
-34.57999999999991
 21
58.50000000000003
 31
0.0
  0
ARC
  5
960D
330
A
100
AcDbEntity
  8
0
  6
Continuous
 62
     9
370
     0
100
AcDbCircle
 10
-26.49999999999991
 20
67.50000000000008
 30
0.0
 40
11.0
100
AcDbArc
 50
137.2688215529613
 51
222.7311784470386
  0
ARC
  5
960E
330
A
100
AcDbEntity
  8
0
  6
Continuous
 62
     7
370
     0
100
AcDbCircle
 10
-24.66227766016832
 20
74.99999999999997
 30
0.0
 40
1.500000000000019
100
AcDbArc
 50
54.90319877241518
 51
90.0
  0
ARC
  5
960F
330
A
100
AcDbEntity
  8
0
  6
Continuous
 62
     7
370
     0
100
AcDbCircle
 10
-21.49999999999991
 20
79.49999999999997
 30
0.0
 40
4.000000000000023
100
AcDbArc
 50
270.0
 51
300.8149532410599
  0
ARC
  5
9610
330
A
100
AcDbEntity
  8
0
  6
Continuous
 62
     7
370
     0
100
AcDbCircle
 10
-21.49999999999991
 20
79.49999999999997
 30
0.0
 40
4.000000000000001
100
AcDbArc
 50
234.9031987724152
 51
270.0
  0
ARC
  5
9611
330
A
100
AcDbEntity
  8
0
  6
Continuous
 62
     7
370
     0
100
AcDbCircle
 10
-18.68253138114491
 20
74.77645571823789
 30
0.0
 40
1.499999999999976
100
AcDbArc
 50
75.97595049376133
 51
120.8149532410598
  0
ARC
  5
9612
330
A
100
AcDbEntity
  8
0
  6
Continuous
 62
     7
370
     0
100
AcDbCircle
 10
-20.49999999999991
 20
67.50000000000008
 30
0.0
 40
9.000000000000005
100
AcDbArc
 50
62.73395554926779
 51
75.97595049376133
  0
LINE
  5
9613
330
A
100
AcDbEntity
  8
0
  6
Continuous
 62
     7
370
     0
100
AcDbLine
 10
-34.57999999999991
 20
58.50000000000003
 30
0.0
 11
-28.92028643696712
 21
58.50000000000003
 31
0.0
  0
LINE
  5
9614
330
A
100
AcDbEntity
  8
0
  6
Continuous
 62
     7
370
     0
100
AcDbLine
 10
-24.66227766016832
 20
76.49999999999997
 30
0.0
 11
-34.57999999999991
 21
76.49999999999997
 31
0.0
  0
LINE
  5
9615
330
A
100
AcDbEntity
  8
0
  6
Continuous
 62
     7
370
     0
100
AcDbLine
 10
6.249999999997584
 20
58.20000000000058
 30
0.0
 11
6.249999999997584
 21
58.50000000000048
 31
0.0
  0
LINE
  5
9616
330
A
100
AcDbEntity
  8
0
  6
Continuous
 62
     7
370
     0
100
AcDbLine
 10
-6.250000000002415
 20
58.50000000000048
 30
0.0
 11
-6.250000000002415
 21
58.20000000000058
 31
0.0
  0
LINE
  5
9617
330
A
100
AcDbEntity
  8
0
  6
Continuous
 62
     7
370
     0
100
AcDbLine
 10
-6.250000000002415
 20
58.20000000000058
 30
0.0
 11
-5.412842109677427
 21
56.7500000000006
 31
0.0
  0
LINE
  5
9618
330
A
100
AcDbEntity
  8
0
  6
Continuous
 62
     7
370
     0
100
AcDbLine
 10
5.412842109672681
 20
56.7500000000006
 30
0.0
 11
6.249999999997584
 21
58.20000000000058
 31
0.0
  0
ARC
  5
9619
330
A
100
AcDbEntity
  8
0
  6
Continuous
 62
     7
370
     0
100
AcDbCircle
 10
4.979829407780385
 20
57.00000000000049
 30
0.0
 40
0.5000000000000006
100
AcDbArc
 50
270.0
 51
330.0000000000003
  0
ARC
  5
961A
330
A
100
AcDbEntity
  8
0
  6
Continuous
 62
     7
370
     0
100
AcDbCircle
 10
-4.979829407785217
 20
57.00000000000049
 30
0.0
 40
0.499999999999988
100
AcDbArc
 50
209.9999999999961
 51
269.9999999999968
  0
LINE
  5
961B
330
A
100
AcDbEntity
  8
0
  6
Continuous
 62
     7
370
     0
100
AcDbLine
 10
-11.77572527557042
 20
-30.0000000000075
 30
0.0
 11
-12.31818181818171
 21
-30.0000000000075
 31
0.0
  0
LINE
  5
961C
330
A
100
AcDbEntity
  8
0
  6
Continuous
 62
     7
370
     0
100
AcDbLine
 10
-12.31818181818183
 20
-29.70000000000749
 30
0.0
 11
-11.77855091234302
 21
-29.70000000000749
 31
0.0
  0
LINE
  5
961D
330
A
100
AcDbEntity
  8
0
  6
Continuous
 62
     7
370
     0
100
AcDbLine
 10
-11.7785509123431
 20
-20.30000000000752
 30
0.0
 11
-12.31818181818171
 21
-20.30000000000752
 31
0.0
  0
LINE
  5
961E
330
A
100
AcDbEntity
  8
0
  6
Continuous
 62
     7
370
     0
100
AcDbLine
 10
-12.31818181818183
 20
-20.0000000000075
 30
0.0
 11
-11.77572527557052
 21
-20.0000000000075
 31
0.0
  0
LINE
  5
961F
330
A
100
AcDbEntity
  8
0
  6
Continuous
 62
     7
370
     0
100
AcDbLine
 10
-11.79500000000001
 20
-40.74999999999883
 30
0.0
 11
-11.79500000000001
 21
-40.24999999999884
 31
0.0
  0
LINE
  5
9620
330
A
100
AcDbEntity
  8
0
  6
Continuous
 62
     9
370
     0
100
AcDbLine
 10
-11.79500000000001
 20
-40.24999999999884
 30
0.0
 11
-11.574140166887
 21
-40.24999999999884
 31
0.0
  0
LINE
  5
9621
330
A
100
AcDbEntity
  8
0
  6
Continuous
 62
     7
370
     0
100
AcDbLine
 10
-11.57299138785062
 20
-40.74999999999849
 30
0.0
 11
-11.79500000000001
 21
-40.74999999999849
 31
0.0
  0
LINE
  5
9622
330
A
100
AcDbEntity
  8
0
  6
Continuous
 62
     9
370
     0
100
AcDbLine
 10
-11.5741401668875
 20
-9.75000000001151
 30
0.0
 11
-11.79500000000001
 21
-9.75000000001151
 31
0.0
  0
LINE
  5
9623
330
A
100
AcDbEntity
  8
0
  6
Continuous
 62
     7
370
     0
100
AcDbLine
 10
-11.79500000000001
 20
-40.24999999999884
 30
0.0
 11
-11.79500000000001
 21
-27.26924776448783
 31
0.0
  0
LINE
  5
9624
330
A
100
AcDbEntity
  8
0
  6
Continuous
 62
     7
370
     0
100
AcDbLine
 10
-11.79500000000001
 20
-22.7307522355384
 30
0.0
 11
-11.79500000000001
 21
-9.75000000001151
 31
0.0
  0
LINE
  5
9625
330
A
100
AcDbEntity
  8
0
  6
Continuous
 62
     7
370
     0
100
AcDbLine
 10
-11.79500000000001
 20
-9.250000000011738
 30
0.0
 11
-11.5729913878497
 21
-9.250000000011738
 31
0.0
  0
LINE
  5
9626
330
A
100
AcDbEntity
  8
0
  6
Continuous
 62
     7
370
     0
100
AcDbLine
 10
-11.79500000000001
 20
-9.75000000001151
 30
0.0
 11
-11.79500000000001
 21
-9.25000000001151
 31
0.0
  0
LINE
  5
9627
330
A
100
AcDbEntity
  8
0
  6
Continuous
 62
     7
370
     0
100
AcDbLine
 10
-11.79500000000001
 20
-9.250000000011738
 30
0.0
 11
-11.79500000000001
 21
-8.494427280672596
 31
0.0
  0
LINE
  5
9628
330
A
100
AcDbEntity
  8
0
  6
Continuous
 62
     7
370
     0
100
AcDbLine
 10
-11.79500000000001
 20
-41.5055727193286
 30
0.0
 11
-11.79500000000001
 21
-40.74999999999849
 31
0.0
  0
LINE
  5
9629
330
A
100
AcDbEntity
  8
0
  6
Continuous
 62
     7
370
     0
100
AcDbLine
 10
-28.92028643696712
 20
-65.0
 30
0.0
 11
-28.92028643696712
 21
-42.57500000000002
 31
0.0
  0
LINE
  5
962A
330
A
100
AcDbEntity
  8
0
  6
Continuous
 62
     7
370
     0
100
AcDbLine
 10
-32.49999999999992
 20
-65.0
 30
0.0
 11
-28.92028643696712
 21
-65.0
 31
0.0
  0
LINE
  5
962B
330
A
100
AcDbEntity
  8
0
  6
Continuous
 62
     7
370
     0
100
AcDbLine
 10
-32.49999999999992
 20
-42.57500000000002
 30
0.0
 11
-32.49999999999992
 21
-65.0
 31
0.0
  0
LINE
  5
962C
330
A
100
AcDbEntity
  8
0
  6
Continuous
 62
     7
370
     0
100
AcDbLine
 10
-32.49999999999992
 20
-42.57500000000002
 30
0.0
 11
-28.92028643696712
 21
-42.57500000000002
 31
0.0
  0
LINE
  5
962D
330
A
100
AcDbEntity
  8
0
  6
Continuous
 62
     7
370
     0
100
AcDbLine
 10
-13.56532042694041
 20
-42.57500000000002
 30
0.0
 11
-28.92028643696712
 21
-42.57500000000002
 31
0.0
  0
LINE
  5
962E
330
A
100
AcDbEntity
  8
0
  6
Continuous
 62
     7
370
     0
100
AcDbLine
 10
-28.92028643696712
 20
-7.424999999999982
 30
0.0
 11
-28.92028643696712
 21
15.0
 31
0.0
  0
LINE
  5
962F
330
A
100
AcDbEntity
  8
0
  6
Continuous
 62
     7
370
     0
100
AcDbLine
 10
-28.92028643696712
 20
-65.0
 30
0.0
 11
12.50000000000008
 21
-65.0
 31
0.0
  0
ARC
  5
9630
330
A
100
AcDbEntity
  8
0
  6
Continuous
 62
     7
370
     0
100
AcDbCircle
 10
12.50000000000008
 20
-60.0
 30
0.0
 40
5.000000000000004
100
AcDbArc
 50
270.0
 51
0.0
  0
ARC
  5
9631
330
A
100
AcDbEntity
  8
0
  6
Continuous
 62
     7
370
     0
100
AcDbCircle
 10
-13.56532042694041
 20
-9.424999999999982
 30
0.0
 40
2.0
100
AcDbArc
 50
358.2734983464779
 51
90.0
  0
LINE
  5
9632
330
A
100
AcDbEntity
  8
0
  6
Continuous
 62
     7
370
     0
100
AcDbLine
 10
12.50000000000008
 20
15.00000000000008
 30
0.0
 11
-28.92028643696712
 21
15.0
 31
0.0
  0
ARC
  5
9633
330
A
100
AcDbEntity
  8
0
  6
Continuous
 62
     7
370
     0
100
AcDbCircle
 10
503.1510416666642
 20
-24.99999999999992
 30
0.0
 40
514.951041666664
100
AcDbArc
 50
178.2734983464778
 51
181.7265016535221
  0
LINE
  5
9634
330
A
100
AcDbEntity
  8
0
  6
Continuous
 62
     7
370
     0
100
AcDbLine
 10
17.50000000000008
 20
10.00000000000008
 30
0.0
 11
17.50000000000008
 21
-60.0
 31
0.0
  0
ARC
  5
9635
330
A
100
AcDbEntity
  8
0
  6
Continuous
 62
     7
370
     0
100
AcDbCircle
 10
12.50000000000008
 20
10.00000000000008
 30
0.0
 40
4.999999999999976
100
AcDbArc
 50
0.0
 51
90.0
  0
LINE
  5
9636
330
A
100
AcDbEntity
  8
0
  6
Continuous
 62
     7
370
     0
100
AcDbLine
 10
-28.92028643696712
 20
-7.424999999999982
 30
0.0
 11
-13.56532042694041
 21
-7.424999999999982
 31
0.0
  0
ARC
  5
9637
330
A
100
AcDbEntity
  8
0
  6
Continuous
 62
     7
370
     0
100
AcDbCircle
 10
-13.56532042694041
 20
-40.57500000000001
 30
0.0
 40
1.999999999999993
100
AcDbArc
 50
270.0
 51
1.726501653522121
  0
LINE
  5
9638
330
A
100
AcDbEntity
  8
0
  6
Continuous
 62
     7
370
     0
100
AcDbLine
 10
-32.49999999999992
 20
15.0
 30
0.0
 11
-32.49999999999992
 21
-7.424999999999982
 31
0.0
  0
LINE
  5
9639
330
A
100
AcDbEntity
  8
0
  6
Continuous
 62
     7
370
     0
100
AcDbLine
 10
-28.92028643696712
 20
15.00000000000008
 30
0.0
 11
-32.49999999999992
 21
15.0
 31
0.0
  0
LINE
  5
963A
330
A
100
AcDbEntity
  8
0
  6
Continuous
 62
     7
370
     0
100
AcDbLine
 10
-28.92028643696712
 20
-7.424999999999982
 30
0.0
 11
-32.49999999999992
 21
-7.424999999999982
 31
0.0
  0
LINE
  5
963B
330
A
100
AcDbEntity
  8
0
  6
Continuous
 62
     9
370
     0
100
AcDbLine
 10
-15.74999999999991
 20
-8.52985192118092
 30
0.0
 11
-27.24999999999992
 21
-8.52985192118092
 31
0.0
  0
LINE
  5
963C
330
A
100
AcDbEntity
  8
0
  6
Continuous
 62
     9
370
     0
100
AcDbLine
 10
-26.58891854213351
 20
-7.742005718771309
 30
0.0
 11
-16.41108145786641
 21
-7.742005718771309
 31
0.0
  0
LINE
  5
963D
330
A
100
AcDbEntity
  8
0
  6
Continuous
 62
     7
370
     0
100
AcDbLine
 10
-17.50000000000001
 20
-7.5499999999993
 30
0.0
 11
-25.49999999556083
 21
-7.5499999999993
 31
0.0
  0
LINE
  5
963E
330
A
100
AcDbEntity
  8
0
  6
Continuous
 62
     9
370
     0
100
AcDbLine
 10
-27.24999999999992
 20
-41.4701480788184
 30
0.0
 11
-17.21869778035152
 21
-41.4701480788184
 31
0.0
  0
LINE
  5
963F
330
A
100
AcDbEntity
  8
0
  6
Continuous
 62
     9
370
     0
100
AcDbLine
 10
-16.41108145786641
 20
-42.25799428122809
 30
0.0
 11
-17.71092204347012
 21
-42.25799428122809
 31
0.0
  0
LINE
  5
9640
330
A
100
AcDbEntity
  8
0
  6
Continuous
 62
     9
370
     0
100
AcDbLine
 10
-17.21869778035152
 20
-41.4701480788184
 30
0.0
 11
-15.74999999999991
 21
-41.4701480788184
 31
0.0
  0
LINE
  5
9641
330
A
100
AcDbEntity
  8
0
  6
Continuous
 62
     9
370
     0
100
AcDbLine
 10
-17.71092204347012
 20
-42.25799428122809
 30
0.0
 11
-26.58891854213351
 21
-42.25799428122809
 31
0.0
  0
LINE
  5
9642
330
A
100
AcDbEntity
  8
0
  6
Continuous
 62
     7
370
     0
100
AcDbLine
 10
-25.49999999999992
 20
-42.45000000000001
 30
0.0
 11
-17.49999999999991
 21
-42.45000000000001
 31
0.0
  0
LINE
  5
9643
330
A
100
AcDbEntity
  8
0
  6
Continuous
 62
     9
370
     0
100
AcDbLine
 10
-37.41321463792603
 20
15.00000000000008
 30
0.0
 11
-37.41321463792603
 21
-65.0
 31
0.0
  0
LINE
  5
9644
330
A
100
AcDbEntity
  8
0
  6
Continuous
 62
     7
370
     0
100
AcDbLine
 10
-37.41321463792603
 20
15.00000000000008
 30
0.0
 11
-36.4173214314583
 21
15.00000000000008
 31
0.0
  0
LINE
  5
9645
330
A
100
AcDbEntity
  8
0
  6
Continuous
 62
     9
370
     0
100
AcDbLine
 10
-36.4173214314583
 20
15.00000000000008
 30
0.0
 11
-36.4173214314583
 21
-65.0
 31
0.0
  0
LINE
  5
9646
330
A
100
AcDbEntity
  8
0
  6
Continuous
 62
     7
370
     0
100
AcDbLine
 10
-37.41321463792603
 20
-65.0
 30
0.0
 11
-36.4173214314583
 21
-65.0
 31
0.0
  0
LINE
  5
9647
330
A
100
AcDbEntity
  8
0
  6
Continuous
 62
     7
370
     0
100
AcDbLine
 10
-40.49999999999991
 20
-65.0
 30
0.0
 11
-37.41321463792603
 21
-65.0
 31
0.0
  0
LINE
  5
9648
330
A
100
AcDbEntity
  8
0
  6
Continuous
 62
     7
370
     0
100
AcDbLine
 10
-40.49999999999991
 20
15.00000000000008
 30
0.0
 11
-40.49999999999991
 21
-65.0
 31
0.0
  0
LINE
  5
9649
330
A
100
AcDbEntity
  8
0
  6
Continuous
 62
     7
370
     0
100
AcDbLine
 10
-40.49999999999991
 20
15.00000000000008
 30
0.0
 11
-37.41321463792603
 21
15.00000000000008
 31
0.0
  0
ELLIPSE
  5
964A
330
A
100
AcDbEntity
  8
0
  6
Continuous
 62
     7
370
     0
100
AcDbEllipse
 10
-35.95454545454541
 20
-54.99999999999992
 30
0.0
 11
0.0
 21
-5.000000000000004
 31
0.0
210
0.0
220
0.0
230
1.0
 40
0.0909090909090907
 41
0.000000000000001
 42
0.9581117322387433
  0
LINE
  5
964B
330
A
100
AcDbEntity
  8
0
  6
Continuous
 62
     9
370
     0
100
AcDbLine
 10
-35.58267856854153
 20
-57.87532907861842
 30
0.0
 11
-35.58267856854153
 21
-65.0
 31
0.0
  0
LINE
  5
964C
330
A
100
AcDbEntity
  8
0
  6
Continuous
 62
     9
370
     0
100
AcDbLine
 10
-35.58267856854153
 20
15.00000000000008
 30
0.0
 11
-35.58267856854153
 21
7.875329078618392
 31
0.0
  0
ELLIPSE
  5
964D
330
A
100
AcDbEntity
  8
0
  6
Continuous
 62
     7
370
     0
100
AcDbEllipse
 10
-35.95454545454541
 20
5.000000000000085
 30
0.0
 11
0.0
 21
-5.000000000000004
 31
0.0
210
0.0
220
0.0
230
1.0
 40
0.0909090909090907
 41
0.000000000000001
 42
0.9581117322387463
  0
LINE
  5
964E
330
A
100
AcDbEntity
  8
0
  6
Continuous
 62
     9
370
     0
100
AcDbLine
 10
-35.58267856854153
 20
2.124670921381692
 30
0.0
 11
-35.58267856854153
 21
-52.12467092138161
 31
0.0
  0
LINE
  5
964F
330
A
100
AcDbEntity
  8
0
  6
Continuous
 62
     7
370
     0
100
AcDbLine
 10
-36.4173214314583
 20
-65.0
 30
0.0
 11
-35.58267856854153
 21
-65.0
 31
0.0
  0
LINE
  5
9650
330
A
100
AcDbEntity
  8
0
  6
Continuous
 62
     7
370
     0
100
AcDbLine
 10
-36.4173214314583
 20
15.00000000000008
 30
0.0
 11
-35.58267856854153
 21
15.00000000000008
 31
0.0
  0
ELLIPSE
  5
9651
330
A
100
AcDbEntity
  8
0
  6
Continuous
 62
     7
370
     0
100
AcDbEllipse
 10
-35.95454545454541
 20
-54.99999999999992
 30
0.0
 11
0.0
 21
-5.000000000000004
 31
0.0
210
0.0
220
0.0
230
1.0
 40
0.0909090909090907
 41
2.183480921351043
 42
3.141592653589792
  0
ELLIPSE
  5
9652
330
A
100
AcDbEntity
  8
0
  6
Continuous
 62
     7
370
     0
100
AcDbEllipse
 10
-35.95454545454541
 20
-54.99999999999992
 30
0.0
 11
0.0
 21
-5.000000000000004
 31
0.0
210
0.0
220
0.0
230
1.0
 40
0.0909090909090907
 41
3.141592653589792
 42
6.283185307179588
  0
LINE
  5
9653
330
A
100
AcDbEntity
  8
0
  6
Continuous
 62
     7
370
     0
100
AcDbLine
 10
-35.58267856854153
 20
-52.12467092138161
 30
0.0
 11
-35.57999999999991
 21
-52.16167127487182
 31
0.0
  0
LINE
  5
9654
330
A
100
AcDbEntity
  8
0
  6
Continuous
 62
     7
370
     0
100
AcDbLine
 10
-35.57999999999991
 20
-57.83832872512812
 30
0.0
 11
-35.57999999999991
 21
-52.16167127487182
 31
0.0
  0
LINE
  5
9655
330
A
100
AcDbEntity
  8
0
  6
Continuous
 62
     7
370
     0
100
AcDbLine
 10
-35.57999999999991
 20
-57.83832872512812
 30
0.0
 11
-35.58267856854153
 21
-57.87532907861842
 31
0.0
  0
ELLIPSE
  5
9656
330
A
100
AcDbEntity
  8
0
  6
Continuous
 62
     7
370
     0
100
AcDbEllipse
 10
-35.95454545454541
 20
5.000000000000085
 30
0.0
 11
0.0
 21
-5.000000000000004
 31
0.0
210
0.0
220
0.0
230
1.0
 40
0.0909090909090907
 41
2.183480921351045
 42
3.141592653589792
  0
ELLIPSE
  5
9657
330
A
100
AcDbEntity
  8
0
  6
Continuous
 62
     7
370
     0
100
AcDbEllipse
 10
-35.95454545454541
 20
5.000000000000085
 30
0.0
 11
0.0
 21
-5.000000000000004
 31
0.0
210
0.0
220
0.0
230
1.0
 40
0.0909090909090907
 41
3.141592653589792
 42
6.283185307179588
  0
LINE
  5
9658
330
A
100
AcDbEntity
  8
0
  6
Continuous
 62
     7
370
     0
100
AcDbLine
 10
-35.58267856854153
 20
7.875329078618392
 30
0.0
 11
-35.58000000000002
 21
7.838328725128178
 31
0.0
  0
LINE
  5
9659
330
A
100
AcDbEntity
  8
0
  6
Continuous
 62
     7
370
     0
100
AcDbLine
 10
-35.57999999999991
 20
7.838328725128178
 30
0.0
 11
-35.58000000000002
 21
2.161671274871906
 31
0.0
  0
LINE
  5
965A
330
A
100
AcDbEntity
  8
0
  6
Continuous
 62
     7
370
     0
100
AcDbLine
 10
-35.58000000000002
 20
2.161671274871906
 30
0.0
 11
-35.58267856854153
 21
2.124670921381692
 31
0.0
  0
LINE
  5
965B
330
A
100
AcDbEntity
  8
0
  6
Continuous
 62
     7
370
     0
100
AcDbLine
 10
-35.57999999999991
 20
-42.25
 30
0.0
 11
-35.57999999999991
 21
-52.16167127487182
 31
0.0
  0
LINE
  5
965C
330
A
100
AcDbEntity
  8
0
  6
Continuous
 62
     7
370
     0
100
AcDbLine
 10
-35.57999999999991
 20
-7.75
 30
0.0
 11
-35.58000000000002
 21
2.161671274871906
 31
0.0
  0
LINE
  5
9694
330
A
100
AcDbEntity
  8
0
  6
Continuous
 62
     9
370
     0
100
AcDbLine
 10
-34.58678536207381
 20
-8.749976979165722
 30
0.0
 11
-34.58678536207381
 21
-41.25002302083422
 31
0.0
  0
LINE
  5
96CA
330
A
100
AcDbEntity
  8
0
  6
Continuous
 62
     7
370
     0
100
AcDbLine
 10
-35.58000000000002
 20
7.838328725128178
 30
0.0
 11
-35.57999999999991
 21
15.00000000000008
 31
0.0
  0
LINE
  5
96CB
330
A
100
AcDbEntity
  8
0
  6
Continuous
 62
     7
370
     0
100
AcDbLine
 10
-35.57999999999991
 20
15.00000000000008
 30
0.0
 11
-35.58267856854153
 21
15.00000000000008
 31
0.0
  0
LINE
  5
96CC
330
A
100
AcDbEntity
  8
0
  6
Continuous
 62
     7
370
     0
100
AcDbLine
 10
-35.57999999999991
 20
-57.83832872512812
 30
0.0
 11
-35.57999999999991
 21
-65.0
 31
0.0
  0
LINE
  5
96CD
330
A
100
AcDbEntity
  8
0
  6
Continuous
 62
     7
370
     0
100
AcDbLine
 10
-35.57999999999991
 20
-65.0
 30
0.0
 11
-35.58267856854153
 21
-65.0
 31
0.0
  0
LINE
  5
96CE
330
A
100
AcDbEntity
  8
0
  6
Continuous
 62
     9
370
     0
100
AcDbLine
 10
-24.66227766016832
 20
-8.75
 30
0.0
 11
-24.66227766016832
 21
-41.25
 31
0.0
  0
LINE
  5
96CF
330
A
100
AcDbEntity
  8
0
  6
Continuous
 62
     9
370
     0
100
AcDbLine
 10
-23.79983829830421
 20
-8.75
 30
0.0
 11
-23.79983829830421
 21
-41.25
 31
0.0
  0
LINE
  5
96D0
330
A
100
AcDbEntity
  8
0
  6
Continuous
 62
     7
370
     0
100
AcDbLine
 10
-23.79983829830421
 20
-8.75
 30
0.0
 11
-24.66227766016832
 21
-8.75
 31
0.0
  0
LINE
  5
96D1
330
A
100
AcDbEntity
  8
0
  6
Continuous
 62
     7
370
     0
100
AcDbLine
 10
-23.79983829830421
 20
-41.25
 30
0.0
 11
-24.66227766016832
 21
-41.25
 31
0.0
  0
LINE
  5
96D2
330
A
100
AcDbEntity
  8
0
  6
Continuous
 62
     7
370
     0
100
AcDbLine
 10
-24.66227766016832
 20
-8.75
 30
0.0
 11
-34.57999999999991
 21
-8.75
 31
0.0
  0
LINE
  5
96D3
330
A
100
AcDbEntity
  8
0
  6
Continuous
 62
     7
370
     0
100
AcDbLine
 10
-24.66227766016832
 20
-41.25
 30
0.0
 11
-34.57999999999991
 21
-41.25
 31
0.0
  0
ARC
  5
96D4
330
A
100
AcDbEntity
  8
0
  6
Continuous
 62
     7
370
     0
100
AcDbCircle
 10
-34.57999999999991
 20
-7.75
 30
0.0
 40
1.0
100
AcDbArc
 50
269.6112244073809
 51
270.0
  0
ARC
  5
96D5
330
A
100
AcDbEntity
  8
0
  6
Continuous
 62
     7
370
     0
100
AcDbCircle
 10
-34.57999999999991
 20
-42.25
 30
0.0
 40
1.000000000000005
100
AcDbArc
 50
90.0
 51
90.3887755926191
  0
LINE
  5
96D6
330
A
100
AcDbEntity
  8
0
  6
Continuous
 62
     9
370
     0
100
AcDbLine
 10
-19.45093191355993
 20
-8.75
 30
0.0
 11
-19.45093191355993
 21
-41.25
 31
0.0
  0
LINE
  5
96D7
330
A
100
AcDbEntity
  8
0
  6
Continuous
 62
     9
370
     0
100
AcDbLine
 10
-18.31903765737391
 20
-8.75
 30
0.0
 11
-18.31903765737391
 21
-41.25
 31
0.0
  0
LINE
  5
96D8
330
A
100
AcDbEntity
  8
0
  6
Continuous
 62
     7
370
     0
100
AcDbLine
 10
-18.31903765737391
 20
-8.75
 30
0.0
 11
-19.45093191355993
 21
-8.75
 31
0.0
  0
LINE
  5
96D9
330
A
100
AcDbEntity
  8
0
  6
Continuous
 62
     7
370
     0
100
AcDbLine
 10
-18.31903765737391
 20
-41.25
 30
0.0
 11
-19.45093191355993
 21
-41.25
 31
0.0
  0
LINE
  5
96DA
330
A
100
AcDbEntity
  8
0
  6
Continuous
 62
     9
370
     0
100
AcDbLine
 10
-12.48181818181811
 20
-8.75
 30
0.0
 11
-12.48181818181811
 21
-41.25
 31
0.0
  0
LINE
  5
96DB
330
A
100
AcDbEntity
  8
0
  6
Continuous
 62
     7
370
     0
100
AcDbLine
 10
-12.48181818181811
 20
-8.75
 30
0.0
 11
-18.31903765737391
 21
-8.75
 31
0.0
  0
LINE
  5
96DC
330
A
100
AcDbEntity
  8
0
  6
Continuous
 62
     7
370
     0
100
AcDbLine
 10
-12.48181818181811
 20
-41.25
 30
0.0
 11
-18.31903765737391
 21
-41.25
 31
0.0
  0
LINE
  5
96DD
330
A
100
AcDbEntity
  8
0
  6
Continuous
 62
     7
370
     0
100
AcDbLine
 10
-23.79983829830421
 20
-8.75
 30
0.0
 11
-19.45093191355993
 21
-8.75
 31
0.0
  0
LINE
  5
96DE
330
A
100
AcDbEntity
  8
0
  6
Continuous
 62
     7
370
     0
100
AcDbLine
 10
-23.79983829830421
 20
-41.25
 30
0.0
 11
-19.45093191355993
 21
-41.25
 31
0.0
  0
LINE
  5
96DF
330
A
100
AcDbEntity
  8
0
  6
Continuous
 62
     7
370
     0
100
AcDbLine
 10
-12.31818181818183
 20
-41.25
 30
0.0
 11
-12.48181818181811
 21
-41.25
 31
0.0
  0
LINE
  5
96E0
330
A
100
AcDbEntity
  8
0
  6
Continuous
 62
     7
370
     0
100
AcDbLine
 10
-12.31818181818183
 20
-8.75
 30
0.0
 11
-12.48181818181811
 21
-8.75
 31
0.0
  0
LINE
  5
96E1
330
A
100
AcDbEntity
  8
0
  6
Continuous
 62
     7
370
     0
100
AcDbLine
 10
-23.99999999999991
 20
-7.424999999999982
 30
0.0
 11
-23.99999999999991
 21
-7.5499999999993
 31
0.0
  0
LINE
  5
96E2
330
A
100
AcDbEntity
  8
0
  6
Continuous
 62
     7
370
     0
100
AcDbLine
 10
-23.99999999999991
 20
-42.45000000000001
 30
0.0
 11
-23.99999999999991
 21
-42.57500000000002
 31
0.0
  0
LINE
  5
96E3
330
A
100
AcDbEntity
  8
0
  6
Continuous
 62
     7
370
     0
100
AcDbLine
 10
-18.99999999999991
 20
-42.57500000000002
 30
0.0
 11
-18.99999999999991
 21
-42.45000000000001
 31
0.0
  0
LINE
  5
96E4
330
A
100
AcDbEntity
  8
0
  6
Continuous
 62
     7
370
     0
100
AcDbLine
 10
-18.99999999999991
 20
-7.5499999999993
 30
0.0
 11
-18.99999999999991
 21
-7.424999999999982
 31
0.0
  0
LINE
  5
96E5
330
A
100
AcDbEntity
  8
0
  6
Continuous
 62
     7
370
     0
100
AcDbLine
 10
-15.74999999999991
 20
-8.749999999999317
 30
0.0
 11
-15.74999999999991
 21
-8.52985192118092
 31
0.0
  0
LINE
  5
96E6
330
A
100
AcDbEntity
  8
0
  6
Continuous
 62
     7
370
     0
100
AcDbLine
 10
-27.24999999999992
 20
-8.52985192118092
 30
0.0
 11
-27.24999999999992
 21
-8.749999999999317
 31
0.0
  0
ARC
  5
96E7
330
A
100
AcDbEntity
  8
0
  6
Continuous
 62
     7
370
     0
100
AcDbCircle
 10
-26.44999999999992
 20
-8.52985192118092
 30
0.0
 40
0.7999999999999985
100
AcDbArc
 50
100.0000000000001
 51
180.0
  0
ARC
  5
96E8
330
A
100
AcDbEntity
  8
0
  6
Continuous
 62
     7
370
     0
100
AcDbCircle
 10
-16.54999999999991
 20
-8.52985192118092
 30
0.0
 40
0.7999999999999952
100
AcDbArc
 50
0.0
 51
79.9999999999998
  0
LINE
  5
96E9
330
A
100
AcDbEntity
  8
0
  6
Continuous
 62
     7
370
     0
100
AcDbLine
 10
-16.41108145786641
 20
-7.742005718771309
 30
0.0
 11
-17.50000000000001
 21
-7.5499999999993
 31
0.0
  0
LINE
  5
96EA
330
A
100
AcDbEntity
  8
0
  6
Continuous
 62
     7
370
     0
100
AcDbLine
 10
-25.50000000000002
 20
-7.5499999999993
 30
0.0
 11
-26.58891854213351
 21
-7.742005718771309
 31
0.0
  0
ARC
  5
96EB
330
A
100
AcDbEntity
  8
0
  6
Continuous
 62
     7
370
     0
100
AcDbCircle
 10
-16.54999999999991
 20
-41.4701480788184
 30
0.0
 40
0.7999999999999985
100
AcDbArc
 50
280.0000000000002
 51
0.0
  0
ARC
  5
96EC
330
A
100
AcDbEntity
  8
0
  6
Continuous
 62
     7
370
     0
100
AcDbCircle
 10
-26.44999999999992
 20
-41.4701480788184
 30
0.0
 40
0.7999999999999952
100
AcDbArc
 50
180.0
 51
259.9999999999998
  0
LINE
  5
96ED
330
A
100
AcDbEntity
  8
0
  6
Continuous
 62
     7
370
     0
100
AcDbLine
 10
-27.24999999999992
 20
-41.25
 30
0.0
 11
-27.24999999999992
 21
-41.4701480788184
 31
0.0
  0
LINE
  5
96EE
330
A
100
AcDbEntity
  8
0
  6
Continuous
 62
     7
370
     0
100
AcDbLine
 10
-15.74999999999991
 20
-41.4701480788184
 30
0.0
 11
-15.74999999999991
 21
-41.25
 31
0.0
  0
LINE
  5
96EF
330
A
100
AcDbEntity
  8
0
  6
Continuous
 62
     7
370
     0
100
AcDbLine
 10
-26.58891854213351
 20
-42.25799428122809
 30
0.0
 11
-25.49999999999992
 21
-42.45000000000001
 31
0.0
  0
LINE
  5
96F0
330
A
100
AcDbEntity
  8
0
  6
Continuous
 62
     7
370
     0
100
AcDbLine
 10
-17.49999999999991
 20
-42.45000000000001
 30
0.0
 11
-16.41108145786641
 21
-42.25799428122809
 31
0.0
  0
LINE
  5
96F1
330
A
100
AcDbEntity
  8
0
  6
Continuous
 62
     7
370
     0
100
AcDbLine
 10
-12.31818181818171
 20
-41.25
 30
0.0
 11
-12.31818181818183
 21
-8.75
 31
0.0
  0
TEXT
  5
B27C
330
A
100
AcDbEntity
  8
0
  6
Continuous
 62
     7
370
     0
100
AcDbText
 10
39.2881357295706
 20
65.00732064421666
 30
0.0
 40
10.0
  1
8500
100
AcDbText
  0
LINE
  5
B27D
330
A
100
AcDbEntity
  8
0
  6
Continuous
 62
     7
370
     0
100
AcDbLine
 10
80.6569807831471
 20
-133.819580064415
 30
0.0
 11
80.6823708750961
 21
-133.7994266378348
 31
0.0
  0
LINE
  5
B27E
330
A
100
AcDbEntity
  8
0
  6
Continuous
 62
     7
370
     0
100
AcDbLine
 10
80.6823708750961
 20
-133.7994266378348
 30
0.0
 11
80.71376073348099
 21
-133.7760735669405
 31
0.0
  0
LINE
  5
B27F
330
A
100
AcDbEntity
  8
0
  6
Continuous
 62
     7
370
     0
100
AcDbLine
 10
80.71376073348099
 20
-133.7760735669405
 30
0.0
 11
80.7443922547767
 21
-133.7548977187352
 31
0.0
  0
LINE
  5
B280
330
A
100
AcDbEntity
  8
0
  6
Continuous
 62
     7
370
     0
100
AcDbLine
 10
80.7443922547767
 20
-133.7548977187352
 30
0.0
 11
80.77887367615648
 21
-133.7329105901291
 31
0.0
  0
LINE
  5
B281
330
A
100
AcDbEntity
  8
0
  6
Continuous
 62
     7
370
     0
100
AcDbLine
 10
80.77887367615648
 20
-133.7329105901291
 30
0.0
 11
80.81436980429547
 21
-133.7122734749075
 31
0.0
  0
LINE
  5
B282
330
A
100
AcDbEntity
  8
0
  6
Continuous
 62
     7
370
     0
100
AcDbLine
 10
80.81436980429547
 20
-133.7122734749075
 30
0.0
 11
80.85062818695865
 21
-133.6932426693197
 31
0.0
  0
LINE
  5
B283
330
A
100
AcDbEntity
  8
0
  6
Continuous
 62
     7
370
     0
100
AcDbLine
 10
80.85062818695865
 20
-133.6932426693197
 30
0.0
 11
80.87538472660625
 21
-133.6814249973974
 31
0.0
  0
LINE
  5
B284
330
A
100
AcDbEntity
  8
0
  6
Continuous
 62
     7
370
     0
100
AcDbLine
 10
80.87538472660625
 20
-133.6814249973974
 30
0.0
 11
80.90044638092487
 21
-133.6704259272163
 31
0.0
  0
LINE
  5
B285
330
A
100
AcDbEntity
  8
0
  6
Continuous
 62
     7
370
     0
100
AcDbLine
 10
80.90044638092487
 20
-133.6704259272163
 30
0.0
 11
80.92577209141788
 21
-133.6602939052413
 31
0.0
  0
LINE
  5
B286
330
A
100
AcDbEntity
  8
0
  6
Continuous
 62
     7
370
     0
100
AcDbLine
 10
80.92577209141788
 20
-133.6602939052413
 30
0.0
 11
80.94501705871099
 21
-133.6532562295995
 31
0.0
  0
LINE
  5
B287
330
A
100
AcDbEntity
  8
0
  6
Continuous
 62
     7
370
     0
100
AcDbLine
 10
80.94501705871099
 20
-133.6532562295995
 30
0.0
 11
80.96438779313876
 21
-133.6467504111105
 31
0.0
  0
LINE
  5
B288
330
A
100
AcDbEntity
  8
0
  6
Continuous
 62
     7
370
     0
100
AcDbLine
 10
80.96438779313876
 20
-133.6467504111105
 30
0.0
 11
80.98846775868139
 21
-133.6394753881515
 31
0.0
  0
LINE
  5
B289
330
A
100
AcDbEntity
  8
0
  6
Continuous
 62
     7
370
     0
100
AcDbLine
 10
80.98846775868139
 20
-133.6394753881515
 30
0.0
 11
81.01268693994901
 21
-133.6330726523146
 31
0.0
  0
LINE
  5
B28A
330
A
100
AcDbEntity
  8
0
  6
Continuous
 62
     7
370
     0
100
AcDbLine
 10
81.01268693994901
 20
-133.6330726523146
 30
0.0
 11
81.03717305172807
 21
-133.6275423455264
 31
0.0
  0
LINE
  5
B28B
330
A
100
AcDbEntity
  8
0
  6
Continuous
 62
     7
370
     0
100
AcDbLine
 10
81.03717305172807
 20
-133.6275423455264
 30
0.0
 11
81.0617293126187
 21
-133.6229606847433
 31
0.0
  0
LINE
  5
B28C
330
A
100
AcDbEntity
  8
0
  6
Continuous
 62
     7
370
     0
100
AcDbLine
 10
81.0617293126187
 20
-133.6229606847433
 30
0.0
 11
81.08652281626788
 21
-133.6193324716584
 31
0.0
  0
LINE
  5
B28D
330
A
100
AcDbEntity
  8
0
  6
Continuous
 62
     7
370
     0
100
AcDbLine
 10
81.08652281626788
 20
-133.6193324716584
 30
0.0
 11
81.11130250670468
 21
-133.6167272902047
 31
0.0
  0
LINE
  5
B28E
330
A
100
AcDbEntity
  8
0
  6
Continuous
 62
     7
370
     0
100
AcDbLine
 10
81.11130250670468
 20
-133.6167272902047
 30
0.0
 11
81.1362023998237
 21
-133.6151636987584
 31
0.0
  0
LINE
  5
B28F
330
A
100
AcDbEntity
  8
0
  6
Continuous
 62
     7
370
     0
100
AcDbLine
 10
81.1362023998237
 20
-133.6151636987584
 30
0.0
 11
81.16099026572049
 21
-133.6146844585139
 31
0.0
  0
LINE
  5
B290
330
A
100
AcDbEntity
  8
0
  6
Continuous
 62
     7
370
     0
100
AcDbLine
 10
81.16099026572049
 20
-133.6146844585139
 30
0.0
 11
81.18621502172288
 21
-133.615337020484
 31
0.0
  0
LINE
  5
B291
330
A
100
AcDbEntity
  8
0
  6
Continuous
 62
     7
370
     0
100
AcDbLine
 10
81.18621502172288
 20
-133.615337020484
 30
0.0
 11
81.2112099577474
 21
-133.6171572578346
 31
0.0
  0
LINE
  5
B292
330
A
100
AcDbEntity
  8
0
  6
Continuous
 62
     7
370
     0
100
AcDbLine
 10
81.2112099577474
 20
-133.6171572578346
 30
0.0
 11
81.23603098562957
 21
-133.6201697932926
 31
0.0
  0
LINE
  5
B293
330
A
100
AcDbEntity
  8
0
  6
Continuous
 62
     7
370
     0
100
AcDbLine
 10
81.23603098562957
 20
-133.6201697932926
 30
0.0
 11
81.2605032479062
 21
-133.6243663345201
 31
0.0
  0
LINE
  5
B294
330
A
100
AcDbEntity
  8
0
  6
Continuous
 62
     7
370
     0
100
AcDbLine
 10
81.07111131630588
 20
-109.0387157116207
 30
0.0
 11
81.07441624009551
 21
-109.043879473358
 31
0.0
  0
LINE
  5
B295
330
A
100
AcDbEntity
  8
0
  6
Continuous
 62
     7
370
     0
100
AcDbLine
 10
81.07441624009551
 20
-109.043879473358
 30
0.0
 11
81.09157517133557
 21
-109.0693312840783
 31
0.0
  0
LINE
  5
B296
330
A
100
AcDbEntity
  8
0
  6
Continuous
 62
     7
370
     0
100
AcDbLine
 10
81.09157517133557
 20
-109.0693312840783
 30
0.0
 11
81.11001108033496
 21
-109.0944260818448
 31
0.0
  0
LINE
  5
B297
330
A
100
AcDbEntity
  8
0
  6
Continuous
 62
     7
370
     0
100
AcDbLine
 10
81.11001108033496
 20
-109.0944260818448
 30
0.0
 11
81.12950770796278
 21
-109.1188564711218
 31
0.0
  0
LINE
  5
B298
330
A
100
AcDbEntity
  8
0
  6
Continuous
 62
     7
370
     0
100
AcDbLine
 10
81.12950770796278
 20
-109.1188564711218
 30
0.0
 11
81.15397248859208
 21
-109.1469427783488
 31
0.0
  0
LINE
  5
B299
330
A
100
AcDbEntity
  8
0
  6
Continuous
 62
     7
370
     0
100
AcDbLine
 10
81.15397248859208
 20
-109.1469427783488
 30
0.0
 11
81.17961152558317
 21
-109.1737894036431
 31
0.0
  0
LINE
  5
B29A
330
A
100
AcDbEntity
  8
0
  6
Continuous
 62
     7
370
     0
100
AcDbLine
 10
81.17961152558317
 20
-109.1737894036431
 30
0.0
 11
81.20653276983578
 21
-109.1995599857634
 31
0.0
  0
LINE
  5
B29B
330
A
100
AcDbEntity
  8
0
  6
Continuous
 62
     7
370
     0
100
AcDbLine
 10
81.20653276983578
 20
-109.1995599857634
 30
0.0
 11
81.23408483877112
 21
-109.2237175883372
 31
0.0
  0
LINE
  5
B29C
330
A
100
AcDbEntity
  8
0
  6
Continuous
 62
     7
370
     0
100
AcDbLine
 10
81.23408483877112
 20
-109.2237175883372
 30
0.0
 11
81.26273512366807
 21
-109.2467578643554
 31
0.0
  0
LINE
  5
B29D
330
A
100
AcDbEntity
  8
0
  6
Continuous
 62
     7
370
     0
100
AcDbLine
 10
81.26273512366807
 20
-109.2467578643554
 30
0.0
 11
81.29192792192808
 21
-109.2682968902179
 31
0.0
  0
LINE
  5
B29E
330
A
100
AcDbEntity
  8
0
  6
Continuous
 62
     7
370
     0
100
AcDbLine
 10
81.29192792192808
 20
-109.2682968902179
 30
0.0
 11
81.32205558251142
 21
-109.2886872818283
 31
0.0
  0
LINE
  5
B29F
330
A
100
AcDbEntity
  8
0
  6
Continuous
 62
     7
370
     0
100
AcDbLine
 10
81.32205558251142
 20
-109.2886872818283
 30
0.0
 11
81.35119922504319
 21
-109.3067965103529
 31
0.0
  0
LINE
  5
B2A0
330
A
100
AcDbEntity
  8
0
  6
Continuous
 62
     7
370
     0
100
AcDbLine
 10
81.35119922504319
 20
-109.3067965103529
 30
0.0
 11
81.38106106631576
 21
-109.3238414095256
 31
0.0
  0
LINE
  5
B2A1
330
A
100
AcDbEntity
  8
0
  6
Continuous
 62
     7
370
     0
100
AcDbLine
 10
81.38106106631576
 20
-109.3238414095256
 30
0.0
 11
81.41173344977117
 21
-109.3398737039745
 31
0.0
  0
LINE
  5
B2A2
330
A
100
AcDbEntity
  8
0
  6
Continuous
 62
     7
370
     0
100
AcDbLine
 10
81.41173344977117
 20
-109.3398737039745
 30
0.0
 11
81.44302403859615
 21
-109.3547936494397
 31
0.0
  0
LINE
  5
B2A3
330
A
100
AcDbEntity
  8
0
  6
Continuous
 62
     7
370
     0
100
AcDbLine
 10
81.44302403859615
 20
-109.3547936494397
 30
0.0
 11
81.47504882904852
 21
-109.3686536642061
 31
0.0
  0
LINE
  5
B2A4
330
A
100
AcDbEntity
  8
0
  6
Continuous
 62
     7
370
     0
100
AcDbLine
 10
81.47504882904852
 20
-109.3686536642061
 30
0.0
 11
81.50759111371659
 21
-109.3813586344132
 31
0.0
  0
LINE
  5
B2A5
330
A
100
AcDbEntity
  8
0
  6
Continuous
 62
     7
370
     0
100
AcDbLine
 10
81.50759111371659
 20
-109.3813586344132
 30
0.0
 11
81.54075029360816
 21
-109.3929449786694
 31
0.0
  0
LINE
  5
B2A6
330
A
100
AcDbEntity
  8
0
  6
Continuous
 62
     7
370
     0
100
AcDbLine
 10
81.54075029360816
 20
-109.3929449786694
 30
0.0
 11
81.5743245209992
 21
-109.4033411210411
 31
0.0
  0
LINE
  5
B2A7
330
A
100
AcDbEntity
  8
0
  6
Continuous
 62
     7
370
     0
100
AcDbLine
 10
81.5743245209992
 20
-109.4033411210411
 30
0.0
 11
81.6125059461827
 21
-109.4135948087056
 31
0.0
  0
LINE
  5
B2A8
330
A
100
AcDbEntity
  8
0
  6
Continuous
 62
     7
370
     0
100
AcDbLine
 10
81.6125059461827
 20
-109.4135948087056
 30
0.0
 11
81.6510882881772
 21
-109.4223236854929
 31
0.0
  0
LINE
  5
B2A9
330
A
100
AcDbEntity
  8
0
  6
Continuous
 62
     7
370
     0
100
AcDbLine
 10
81.6510882881772
 20
-109.4223236854929
 30
0.0
 11
81.6899608685774
 21
-109.4295096502924
 31
0.0
  0
LINE
  5
B2AA
330
A
100
AcDbEntity
  8
0
  6
Continuous
 62
     7
370
     0
100
AcDbLine
 10
81.6899608685774
 20
-109.4295096502924
 30
0.0
 11
81.72940314900978
 21
-109.4351868890768
 31
0.0
  0
LINE
  5
B2AB
330
A
100
AcDbEntity
  8
0
  6
Continuous
 62
     7
370
     0
100
AcDbLine
 10
81.72940314900978
 20
-109.4351868890768
 30
0.0
 11
81.76902763685319
 21
-109.4392867470576
 31
0.0
  0
LINE
  5
B2AC
330
A
100
AcDbEntity
  8
0
  6
Continuous
 62
     7
370
     0
100
AcDbLine
 10
81.76902763685319
 20
-109.4392867470576
 30
0.0
 11
81.80872238573599
 21
-109.4418011252269
 31
0.0
  0
LINE
  5
B2AD
330
A
100
AcDbEntity
  8
0
  6
Continuous
 62
     7
370
     0
100
AcDbLine
 10
81.80872238573599
 20
-109.4418011252269
 30
0.0
 11
81.81483930584297
 21
-109.4420471957572
 31
0.0
  0
ARC
  5
B2AE
330
A
100
AcDbEntity
  8
0
  6
Continuous
 62
     7
370
     0
100
AcDbCircle
 10
81.76406610643992
 20
-107.6930231824345
 30
0.0
 40
2.25364466982403
100
AcDbArc
 50
231.1899145479242
 51
257.0886169665226
  0
LINE
  5
B2AF
330
A
100
AcDbEntity
  8
0
  6
Continuous
 62
     7
370
     0
100
AcDbLine
 10
80.35161462823728
 20
-109.4491254344545
 30
0.0
 11
80.27431518366768
 21
-109.3706404573777
 31
0.0
  0
LINE
  5
B2B0
330
A
100
AcDbEntity
  8
0
  6
Continuous
 62
     7
370
     0
100
AcDbLine
 10
80.27431518366768
 20
-109.3706404573777
 30
0.0
 11
80.23370242739147
 21
-109.2761922588362
 31
0.0
  0
LINE
  5
B2B1
330
A
100
AcDbEntity
  8
0
  6
Continuous
 62
     7
370
     0
100
AcDbLine
 10
80.23370242739147
 20
-109.2761922588362
 30
0.0
 11
80.23365303258401
 21
-109.2724868950027
 31
0.0
  0
LINE
  5
B2B2
330
A
100
AcDbEntity
  8
0
  6
Continuous
 62
     7
370
     0
100
AcDbLine
 10
80.23365303258401
 20
-134.4677245402403
 30
0.0
 11
80.25706968059228
 21
-134.3658988971986
 31
0.0
  0
ARC
  5
B2B3
330
A
100
AcDbEntity
  8
0
  6
Continuous
 62
     7
370
     0
100
AcDbCircle
 10
81.54899813259939
 20
-134.8920750710989
 30
0.0
 40
1.394969709737738
100
AcDbArc
 50
129.751031613034
 51
157.8399321668948
  0
LINE
  5
B2B4
330
A
100
AcDbEntity
  8
0
  6
Continuous
 62
     7
370
     0
100
AcDbLine
 10
-34.58678536207381
 20
-114.0
 30
0.0
 11
-34.61987645681491
 21
-114.0005481063432
 31
0.0
  0
LINE
  5
B2B5
330
A
100
AcDbEntity
  8
0
  6
Continuous
 62
     7
370
     0
100
AcDbLine
 10
-34.61987645681491
 20
-114.0005481063432
 30
0.0
 11
-34.65288801185382
 21
-114.0021871720147
 31
0.0
  0
LINE
  5
B2B6
330
A
100
AcDbEntity
  8
0
  6
Continuous
 62
     7
370
     0
100
AcDbLine
 10
-34.65288801185382
 20
-114.0021871720147
 30
0.0
 11
-34.68601676215383
 21
-114.0049360521577
 31
0.0
  0
LINE
  5
B2B7
330
A
100
AcDbEntity
  8
0
  6
Continuous
 62
     7
370
     0
100
AcDbLine
 10
-34.68601676215383
 20
-114.0049360521577
 30
0.0
 11
-34.71892220432511
 21
-114.0087685159762
 31
0.0
  0
LINE
  5
B2B8
330
A
100
AcDbEntity
  8
0
  6
Continuous
 62
     7
370
     0
100
AcDbLine
 10
-34.71892220432511
 20
-114.0087685159762
 30
0.0
 11
-34.75185002164542
 21
-114.0137176614185
 31
0.0
  0
LINE
  5
B2B9
330
A
100
AcDbEntity
  8
0
  6
Continuous
 62
     7
370
     0
100
AcDbLine
 10
-34.75185002164542
 20
-114.0137176614185
 30
0.0
 11
-34.78441694751293
 21
-114.0197236326235
 31
0.0
  0
LINE
  5
B2BA
330
A
100
AcDbEntity
  8
0
  6
Continuous
 62
     7
370
     0
100
AcDbLine
 10
-34.78441694751293
 20
-114.0197236326235
 30
0.0
 11
-34.81681358132622
 21
-114.0268164037873
 31
0.0
  0
LINE
  5
B2BB
330
A
100
AcDbEntity
  8
0
  6
Continuous
 62
     7
370
     0
100
AcDbLine
 10
-34.81681358132622
 20
-114.0268164037873
 30
0.0
 11
-34.84872693968541
 21
-114.0349162679237
 31
0.0
  0
LINE
  5
B2BC
330
A
100
AcDbEntity
  8
0
  6
Continuous
 62
     7
370
     0
100
AcDbLine
 10
-34.84872693968541
 20
-114.0349162679237
 30
0.0
 11
-34.86912933855221
 21
-114.0406868218393
 31
0.0
  0
LINE
  5
B2BD
330
A
100
AcDbEntity
  8
0
  6
Continuous
 62
     7
370
     0
100
AcDbLine
 10
-34.86912933855221
 20
-114.0406868218393
 30
0.0
 11
-34.88929517609591
 21
-114.0468537297873
 31
0.0
  0
LINE
  5
B2BE
330
A
100
AcDbEntity
  8
0
  6
Continuous
 62
     7
370
     0
100
AcDbLine
 10
-34.88929517609591
 20
-114.0468537297873
 30
0.0
 11
-34.91594174354991
 21
-114.0557251429767
 31
0.0
  0
LINE
  5
B2BF
330
A
100
AcDbEntity
  8
0
  6
Continuous
 62
     7
370
     0
100
AcDbLine
 10
-34.91594174354991
 20
-114.0557251429767
 30
0.0
 11
-34.94212746737451
 21
-114.0652642541985
 31
0.0
  0
LINE
  5
B2C0
330
A
100
AcDbEntity
  8
0
  6
Continuous
 62
     7
370
     0
100
AcDbLine
 10
-34.94212746737451
 20
-114.0652642541985
 30
0.0
 11
-34.96781520115731
 21
-114.0754372591717
 31
0.0
  0
LINE
  5
B2C1
330
A
100
AcDbEntity
  8
0
  6
Continuous
 62
     7
370
     0
100
AcDbLine
 10
-34.96781520115731
 20
-114.0754372591717
 30
0.0
 11
-35.00565381602441
 21
-114.0919536059885
 31
0.0
  0
LINE
  5
B2C2
330
A
100
AcDbEntity
  8
0
  6
Continuous
 62
     7
370
     0
100
AcDbLine
 10
-35.00565381602441
 20
-114.0919536059885
 30
0.0
 11
-35.04228524898822
 21
-114.109764158764
 31
0.0
  0
LINE
  5
B2C3
330
A
100
AcDbEntity
  8
0
  6
Continuous
 62
     7
370
     0
100
AcDbLine
 10
-35.04228524898822
 20
-114.109764158764
 30
0.0
 11
-35.07781201267551
 21
-114.128855449194
 31
0.0
  0
LINE
  5
B2C4
330
A
100
AcDbEntity
  8
0
  6
Continuous
 62
     7
370
     0
100
AcDbLine
 10
-35.07781201267551
 20
-114.128855449194
 30
0.0
 11
-35.11345539902591
 21
-114.1499305473465
 31
0.0
  0
LINE
  5
B2C5
330
A
100
AcDbEntity
  8
0
  6
Continuous
 62
     7
370
     0
100
AcDbLine
 10
-35.11345539902591
 20
-114.1499305473465
 30
0.0
 11
-35.14769528473663
 21
-114.172123162144
 31
0.0
  0
LINE
  5
B2C6
330
A
100
AcDbEntity
  8
0
  6
Continuous
 62
     7
370
     0
100
AcDbLine
 10
-35.14769528473663
 20
-114.172123162144
 30
0.0
 11
-35.18074640490322
 21
-114.1955064278944
 31
0.0
  0
LINE
  5
B2C7
330
A
100
AcDbEntity
  8
0
  6
Continuous
 62
     7
370
     0
100
AcDbLine
 10
-35.18074640490322
 20
-114.1955064278944
 30
0.0
 11
-35.21236734131621
 21
-114.2198415627276
 31
0.0
  0
LINE
  5
B2C8
330
A
100
AcDbEntity
  8
0
  6
Continuous
 62
     7
370
     0
100
AcDbLine
 10
-35.21236734131621
 20
-114.2198415627276
 30
0.0
 11
-35.24278963711521
 21
-114.2452429759073
 31
0.0
  0
LINE
  5
B2C9
330
A
100
AcDbEntity
  8
0
  6
Continuous
 62
     7
370
     0
100
AcDbLine
 10
-35.24278963711521
 20
-114.2452429759073
 30
0.0
 11
-35.27177782193982
 21
-114.2714498439183
 31
0.0
  0
LINE
  5
B2CA
330
A
100
AcDbEntity
  8
0
  6
Continuous
 62
     7
370
     0
100
AcDbLine
 10
-35.27177782193982
 20
-114.2714498439183
 30
0.0
 11
-35.29950502376351
 21
-114.2985511089662
 31
0.0
  0
LINE
  5
B2CB
330
A
100
AcDbEntity
  8
0
  6
Continuous
 62
     7
370
     0
100
AcDbLine
 10
-35.29950502376351
 20
-114.2985511089662
 30
0.0
 11
-35.32581419607291
 21
-114.3263262046672
 31
0.0
  0
LINE
  5
B2CC
330
A
100
AcDbEntity
  8
0
  6
Continuous
 62
     7
370
     0
100
AcDbLine
 10
-35.32581419607291
 20
-114.3263262046672
 30
0.0
 11
-35.3593125444237
 21
-114.3650185394159
 31
0.0
  0
LINE
  5
B2CD
330
A
100
AcDbEntity
  8
0
  6
Continuous
 62
     7
370
     0
100
AcDbLine
 10
-35.3593125444237
 20
-114.3650185394159
 30
0.0
 11
-35.39028292771713
 21
-114.4046919604059
 31
0.0
  0
LINE
  5
B2CE
330
A
100
AcDbEntity
  8
0
  6
Continuous
 62
     7
370
     0
100
AcDbLine
 10
-35.39028292771713
 20
-114.4046919604059
 30
0.0
 11
-35.41896426981181
 21
-114.4454930543424
 31
0.0
  0
LINE
  5
B2CF
330
A
100
AcDbEntity
  8
0
  6
Continuous
 62
     7
370
     0
100
AcDbLine
 10
-35.41896426981181
 20
-114.4454930543424
 30
0.0
 11
-35.44518817199583
 21
-114.4870237667122
 31
0.0
  0
LINE
  5
B2D0
330
A
100
AcDbEntity
  8
0
  6
Continuous
 62
     7
370
     0
100
AcDbLine
 10
-35.44518817199583
 20
-114.4870237667122
 30
0.0
 11
-35.46917659563731
 21
-114.5294842052102
 31
0.0
  0
LINE
  5
B2D1
330
A
100
AcDbEntity
  8
0
  6
Continuous
 62
     7
370
     0
100
AcDbLine
 10
-35.46917659563731
 20
-114.5294842052102
 30
0.0
 11
-35.4907685768282
 21
-114.5724320551745
 31
0.0
  0
LINE
  5
B2D2
330
A
100
AcDbEntity
  8
0
  6
Continuous
 62
     7
370
     0
100
AcDbLine
 10
-35.4907685768282
 20
-114.5724320551745
 30
0.0
 11
-35.51011555441032
 21
-114.6159950195236
 31
0.0
  0
LINE
  5
B2D3
330
A
100
AcDbEntity
  8
0
  6
Continuous
 62
     7
370
     0
100
AcDbLine
 10
-35.51011555441032
 20
-114.6159950195236
 30
0.0
 11
-35.52712056340772
 21
-114.6597505192769
 31
0.0
  0
LINE
  5
B2D4
330
A
100
AcDbEntity
  8
0
  6
Continuous
 62
     7
370
     0
100
AcDbLine
 10
-35.52712056340772
 20
-114.6597505192769
 30
0.0
 11
-35.540544357298
 21
-114.6994275810573
 31
0.0
  0
LINE
  5
B2D5
330
A
100
AcDbEntity
  8
0
  6
Continuous
 62
     7
370
     0
100
AcDbLine
 10
-35.540544357298
 20
-114.6994275810573
 30
0.0
 11
-35.55210628556262
 21
-114.7389453302277
 31
0.0
  0
LINE
  5
B2D6
330
A
100
AcDbEntity
  8
0
  6
Continuous
 62
     7
370
     0
100
AcDbLine
 10
-35.55210628556262
 20
-114.7389453302277
 30
0.0
 11
-35.56179155557862
 21
-114.7778223174409
 31
0.0
  0
LINE
  5
B2D7
330
A
100
AcDbEntity
  8
0
  6
Continuous
 62
     7
370
     0
100
AcDbLine
 10
-35.56179155557862
 20
-114.7778223174409
 30
0.0
 11
-35.5660628764099
 21
-114.7974802849401
 31
0.0
  0
LINE
  5
B2D8
330
A
100
AcDbEntity
  8
0
  6
Continuous
 62
     7
370
     0
100
AcDbLine
 10
-35.5660628764099
 20
-114.7974802849401
 30
0.0
 11
-35.56982620923682
 21
-114.8166132698122
 31
0.0
  0
LINE
  5
B2D9
330
A
100
AcDbEntity
  8
0
  6
Continuous
 62
     7
370
     0
100
AcDbLine
 10
-35.56982620923682
 20
-114.8166132698122
 30
0.0
 11
-35.57295409054332
 21
-114.8342639867488
 31
0.0
  0
LINE
  5
B2DA
330
A
100
AcDbEntity
  8
0
  6
Continuous
 62
     7
370
     0
100
AcDbLine
 10
-35.57295409054332
 20
-114.8342639867488
 30
0.0
 11
-35.57558468981181
 21
-114.8507489046434
 31
0.0
  0
LINE
  5
B2DB
330
A
100
AcDbEntity
  8
0
  6
Continuous
 62
     7
370
     0
100
AcDbLine
 10
-35.57558468981181
 20
-114.8507489046434
 30
0.0
 11
-35.5766816946699
 21
-114.8582080269449
 31
0.0
  0
LINE
  5
B2DC
330
A
100
AcDbEntity
  8
0
  6
Continuous
 62
     7
370
     0
100
AcDbLine
 10
-35.5766816946699
 20
-114.8582080269449
 30
0.0
 11
-35.57764433309151
 21
-114.8650981855059
 31
0.0
  0
LINE
  5
B2DD
330
A
100
AcDbEntity
  8
0
  6
Continuous
 62
     7
370
     0
100
AcDbLine
 10
-35.57764433309151
 20
-114.8650981855059
 30
0.0
 11
-35.57802678818483
 21
-114.8679378048852
 31
0.0
  0
LINE
  5
B2DE
330
A
100
AcDbEntity
  8
0
  6
Continuous
 62
     7
370
     0
100
AcDbLine
 10
-35.57802678818483
 20
-114.8679378048852
 30
0.0
 11
-35.57837976358822
 21
-114.8706147501242
 31
0.0
  0
LINE
  5
B2DF
330
A
100
AcDbEntity
  8
0
  6
Continuous
 62
     7
370
     0
100
AcDbLine
 10
-35.57837976358822
 20
-114.8706147501242
 30
0.0
 11
-35.57879882559152
 21
-114.873868266456
 31
0.0
  0
LINE
  5
B2E0
330
A
100
AcDbEntity
  8
0
  6
Continuous
 62
     7
370
     0
100
AcDbLine
 10
-35.57879882559152
 20
-114.873868266456
 30
0.0
 11
-35.57916135288781
 21
-114.8767529523084
 31
0.0
  0
LINE
  5
B2E1
330
A
100
AcDbEntity
  8
0
  6
Continuous
 62
     7
370
     0
100
AcDbLine
 10
-35.57916135288781
 20
-114.8767529523084
 30
0.0
 11
-35.57946338756572
 21
-114.879209529738
 31
0.0
  0
LINE
  5
B2E2
330
A
100
AcDbEntity
  8
0
  6
Continuous
 62
     7
370
     0
100
AcDbLine
 10
-35.57946338756572
 20
-114.879209529738
 30
0.0
 11
-35.57964724552551
 21
-114.8807301753699
 31
0.0
  0
LINE
  5
B2E3
330
A
100
AcDbEntity
  8
0
  6
Continuous
 62
     7
370
     0
100
AcDbLine
 10
-35.57964724552551
 20
-114.8807301753699
 30
0.0
 11
-35.57979401481552
 21
-114.8819584158857
 31
0.0
  0
LINE
  5
B2E4
330
A
100
AcDbEntity
  8
0
  6
Continuous
 62
     7
370
     0
100
AcDbLine
 10
-35.57979401481552
 20
-114.8819584158857
 30
0.0
 11
-35.57988335757833
 21
-114.8827124031125
 31
0.0
  0
LINE
  5
B2E5
330
A
100
AcDbEntity
  8
0
  6
Continuous
 62
     7
370
     0
100
AcDbLine
 10
-35.57988335757833
 20
-114.8827124031125
 30
0.0
 11
-35.57994775339331
 21
-114.883258985489
 31
0.0
  0
LINE
  5
B2E6
330
A
100
AcDbEntity
  8
0
  6
Continuous
 62
     7
370
     0
100
AcDbLine
 10
-35.57994775339331
 20
-114.883258985489
 30
0.0
 11
-35.57998690140983
 21
-114.8835924638574
 31
0.0
  0
LINE
  5
B2E7
330
A
100
AcDbEntity
  8
0
  6
Continuous
 62
     7
370
     0
100
AcDbLine
 10
-35.57998690140983
 20
-114.8835924638574
 30
0.0
 11
-35.57999999999991
 21
-114.8837043293613
 31
0.0
  0
LINE
  5
B2E8
330
A
100
AcDbEntity
  8
0
  6
Continuous
 62
     7
370
     0
100
AcDbLine
 10
-35.57999999999991
 20
-95.1162956706387
 30
0.0
 11
-35.57997455111252
 21
-95.11651644114383
 31
0.0
  0
LINE
  5
B2E9
330
A
100
AcDbEntity
  8
0
  6
Continuous
 62
     7
370
     0
100
AcDbLine
 10
-35.57997455111252
 20
-95.11651644114383
 30
0.0
 11
-35.57989947339242
 21
-95.11716031565702
 31
0.0
  0
LINE
  5
B2EA
330
A
100
AcDbEntity
  8
0
  6
Continuous
 62
     7
370
     0
100
AcDbLine
 10
-35.57989947339242
 20
-95.11716031565702
 30
0.0
 11
-35.57977667025291
 21
-95.11819963867493
 31
0.0
  0
LINE
  5
B2EB
330
A
100
AcDbEntity
  8
0
  6
Continuous
 62
     7
370
     0
100
AcDbLine
 10
-35.57977667025291
 20
-95.11819963867493
 30
0.0
 11
-35.57960804510732
 21
-95.11960675469442
 31
0.0
  0
LINE
  5
B2EC
330
A
100
AcDbEntity
  8
0
  6
Continuous
 62
     7
370
     0
100
AcDbLine
 10
-35.57960804510732
 20
-95.11960675469442
 30
0.0
 11
-35.57939550136882
 21
-95.1213540082122
 31
0.0
  0
LINE
  5
B2ED
330
A
100
AcDbEntity
  8
0
  6
Continuous
 62
     7
370
     0
100
AcDbLine
 10
-35.57939550136882
 20
-95.1213540082122
 30
0.0
 11
-35.57914094245082
 21
-95.12341374372491
 31
0.0
  0
LINE
  5
B2EE
330
A
100
AcDbEntity
  8
0
  6
Continuous
 62
     7
370
     0
100
AcDbLine
 10
-35.57914094245082
 20
-95.12341374372491
 30
0.0
 11
-35.57884627176662
 21
-95.12575830572941
 31
0.0
  0
LINE
  5
B2EF
330
A
100
AcDbEntity
  8
0
  6
Continuous
 62
     7
370
     0
100
AcDbLine
 10
-35.57884627176662
 20
-95.12575830572941
 30
0.0
 11
-35.57835968769742
 21
-95.12953686196402
 31
0.0
  0
LINE
  5
B2F0
330
A
100
AcDbEntity
  8
0
  6
Continuous
 62
     7
370
     0
100
AcDbLine
 10
-35.57835968769742
 20
-95.12953686196402
 30
0.0
 11
-35.57779967533782
 21
-95.13375188973112
 31
0.0
  0
LINE
  5
B2F1
330
A
100
AcDbEntity
  8
0
  6
Continuous
 62
     7
370
     0
100
AcDbLine
 10
-35.57779967533782
 20
-95.13375188973112
 30
0.0
 11
-35.57717063291652
 21
-95.13833430553832
 31
0.0
  0
LINE
  5
B2F2
330
A
100
AcDbEntity
  8
0
  6
Continuous
 62
     7
370
     0
100
AcDbLine
 10
-35.57717063291652
 20
-95.13833430553832
 30
0.0
 11
-35.57647695866261
 21
-95.14321502589302
 31
0.0
  0
LINE
  5
B2F3
330
A
100
AcDbEntity
  8
0
  6
Continuous
 62
     7
370
     0
100
AcDbLine
 10
-35.57647695866261
 20
-95.14321502589302
 30
0.0
 11
-35.57467355526042
 21
-95.15515378972411
 31
0.0
  0
LINE
  5
B2F4
330
A
100
AcDbEntity
  8
0
  6
Continuous
 62
     7
370
     0
100
AcDbLine
 10
-35.57467355526042
 20
-95.15515378972411
 30
0.0
 11
-35.57256796859001
 21
-95.16801273838913
 31
0.0
  0
LINE
  5
B2F5
330
A
100
AcDbEntity
  8
0
  6
Continuous
 62
     7
370
     0
100
AcDbLine
 10
-35.57256796859001
 20
-95.16801273838913
 30
0.0
 11
-35.57017603053251
 21
-95.18150149638211
 31
0.0
  0
LINE
  5
B2F6
330
A
100
AcDbEntity
  8
0
  6
Continuous
 62
     7
370
     0
100
AcDbLine
 10
-35.57017603053251
 20
-95.18150149638211
 30
0.0
 11
-35.56626765081671
 21
-95.20153026085202
 31
0.0
  0
LINE
  5
B2F7
330
A
100
AcDbEntity
  8
0
  6
Continuous
 62
     7
370
     0
100
AcDbLine
 10
-35.56626765081671
 20
-95.20153026085202
 30
0.0
 11
-35.55938751216783
 21
-95.23246664164501
 31
0.0
  0
LINE
  5
B2F8
330
A
100
AcDbEntity
  8
0
  6
Continuous
 62
     7
370
     0
100
AcDbLine
 10
-35.55938751216783
 20
-95.23246664164501
 30
0.0
 11
-35.55127227087143
 21
-95.26413065471162
 31
0.0
  0
LINE
  5
B2F9
330
A
100
AcDbEntity
  8
0
  6
Continuous
 62
     7
370
     0
100
AcDbLine
 10
-35.55127227087143
 20
-95.26413065471162
 30
0.0
 11
-35.53805190791471
 21
-95.3083626820325
 31
0.0
  0
LINE
  5
B2FA
330
A
100
AcDbEntity
  8
0
  6
Continuous
 62
     7
370
     0
100
AcDbLine
 10
-35.53805190791471
 20
-95.3083626820325
 30
0.0
 11
-35.52246742367741
 21
-95.35284427102233
 31
0.0
  0
LINE
  5
B2FB
330
A
100
AcDbEntity
  8
0
  6
Continuous
 62
     7
370
     0
100
AcDbLine
 10
-35.52246742367741
 20
-95.35284427102233
 30
0.0
 11
-35.50284033241891
 21
-95.4010503944332
 31
0.0
  0
LINE
  5
B2FC
330
A
100
AcDbEntity
  8
0
  6
Continuous
 62
     7
370
     0
100
AcDbLine
 10
-35.50284033241891
 20
-95.4010503944332
 30
0.0
 11
-35.48034645066001
 21
-95.4489416231145
 31
0.0
  0
LINE
  5
B2FD
330
A
100
AcDbEntity
  8
0
  6
Continuous
 62
     7
370
     0
100
AcDbLine
 10
-35.48034645066001
 20
-95.4489416231145
 30
0.0
 11
-35.45364095505721
 21
-95.49855930531281
 31
0.0
  0
LINE
  5
B2FE
330
A
100
AcDbEntity
  8
0
  6
Continuous
 62
     7
370
     0
100
AcDbLine
 10
-35.45364095505721
 20
-95.49855930531281
 30
0.0
 11
-35.43090110561732
 21
-95.53616078397011
 31
0.0
  0
LINE
  5
B2FF
330
A
100
AcDbEntity
  8
0
  6
Continuous
 62
     7
370
     0
100
AcDbLine
 10
-35.43090110561732
 20
-95.53616078397011
 30
0.0
 11
-35.40618949170451
 21
-95.57321625268661
 31
0.0
  0
LINE
  5
B300
330
A
100
AcDbEntity
  8
0
  6
Continuous
 62
     7
370
     0
100
AcDbLine
 10
-35.40618949170451
 20
-95.57321625268661
 30
0.0
 11
-35.38029703114621
 21
-95.60855490032421
 31
0.0
  0
LINE
  5
B301
330
A
100
AcDbEntity
  8
0
  6
Continuous
 62
     7
370
     0
100
AcDbLine
 10
-35.38029703114621
 20
-95.60855490032421
 30
0.0
 11
-35.35247840618421
 21
-95.64320615839791
 31
0.0
  0
LINE
  5
B302
330
A
100
AcDbEntity
  8
0
  6
Continuous
 62
     7
370
     0
100
AcDbLine
 10
-35.35247840618421
 20
-95.64320615839791
 30
0.0
 11
-35.32446597275032
 21
-95.67514971646041
 31
0.0
  0
LINE
  5
B303
330
A
100
AcDbEntity
  8
0
  6
Continuous
 62
     7
370
     0
100
AcDbLine
 10
-35.32446597275032
 20
-95.67514971646041
 30
0.0
 11
-35.29468196192292
 21
-95.70631607933149
 31
0.0
  0
LINE
  5
B304
330
A
100
AcDbEntity
  8
0
  6
Continuous
 62
     7
370
     0
100
AcDbLine
 10
-35.29468196192292
 20
-95.70631607933149
 30
0.0
 11
-35.26514049932233
 21
-95.73473401638841
 31
0.0
  0
LINE
  5
B305
330
A
100
AcDbEntity
  8
0
  6
Continuous
 62
     7
370
     0
100
AcDbLine
 10
-35.26514049932233
 20
-95.73473401638841
 30
0.0
 11
-35.23399889037693
 21
-95.76230876210461
 31
0.0
  0
LINE
  5
B306
330
A
100
AcDbEntity
  8
0
  6
Continuous
 62
     7
370
     0
100
AcDbLine
 10
-35.23399889037693
 20
-95.76230876210461
 30
0.0
 11
-35.20218142478443
 21
-95.78821804470612
 31
0.0
  0
LINE
  5
B307
330
A
100
AcDbEntity
  8
0
  6
Continuous
 62
     7
370
     0
100
AcDbLine
 10
-35.20218142478443
 20
-95.78821804470612
 30
0.0
 11
-35.16701540629501
 21
-95.81445263569042
 31
0.0
  0
LINE
  5
B308
330
A
100
AcDbEntity
  8
0
  6
Continuous
 62
     7
370
     0
100
AcDbLine
 10
-35.16701540629501
 20
-95.81445263569042
 30
0.0
 11
-35.12998004749801
 21
-95.83960629894631
 31
0.0
  0
LINE
  5
B309
330
A
100
AcDbEntity
  8
0
  6
Continuous
 62
     7
370
     0
100
AcDbLine
 10
-35.12998004749801
 20
-95.83960629894631
 30
0.0
 11
-35.09122339907631
 21
-95.86344789467871
 31
0.0
  0
LINE
  5
B30A
330
A
100
AcDbEntity
  8
0
  6
Continuous
 62
     7
370
     0
100
AcDbLine
 10
-35.09122339907631
 20
-95.86344789467871
 30
0.0
 11
-35.06425656759011
 21
-95.878646775201
 31
0.0
  0
LINE
  5
B30B
330
A
100
AcDbEntity
  8
0
  6
Continuous
 62
     7
370
     0
100
AcDbLine
 10
-35.06425656759011
 20
-95.878646775201
 30
0.0
 11
-35.0365217532615
 21
-95.89316073309742
 31
0.0
  0
LINE
  5
B30C
330
A
100
AcDbEntity
  8
0
  6
Continuous
 62
     7
370
     0
100
AcDbLine
 10
-35.0365217532615
 20
-95.89316073309742
 30
0.0
 11
-35.00805014555742
 21
-95.90693769477102
 31
0.0
  0
LINE
  5
B30D
330
A
100
AcDbEntity
  8
0
  6
Continuous
 62
     7
370
     0
100
AcDbLine
 10
-35.00805014555742
 20
-95.90693769477102
 30
0.0
 11
-34.98609597674441
 21
-95.91681563462501
 31
0.0
  0
LINE
  5
B30E
330
A
100
AcDbEntity
  8
0
  6
Continuous
 62
     7
370
     0
100
AcDbLine
 10
-34.98609597674441
 20
-95.91681563462501
 30
0.0
 11
-34.96373597115951
 21
-95.92623336061162
 31
0.0
  0
LINE
  5
B30F
330
A
100
AcDbEntity
  8
0
  6
Continuous
 62
     7
370
     0
100
AcDbLine
 10
-34.96373597115951
 20
-95.92623336061162
 30
0.0
 11
-34.93552215864692
 21
-95.93722050427592
 31
0.0
  0
LINE
  5
B310
330
A
100
AcDbEntity
  8
0
  6
Continuous
 62
     7
370
     0
100
AcDbLine
 10
-34.93552215864692
 20
-95.93722050427592
 30
0.0
 11
-34.90672788408162
 21
-95.94743695442561
 31
0.0
  0
LINE
  5
B311
330
A
100
AcDbEntity
  8
0
  6
Continuous
 62
     7
370
     0
100
AcDbLine
 10
-34.90672788408162
 20
-95.94743695442561
 30
0.0
 11
-34.87721345141191
 21
-95.95689656786062
 31
0.0
  0
LINE
  5
B312
330
A
100
AcDbEntity
  8
0
  6
Continuous
 62
     7
370
     0
100
AcDbLine
 10
-34.87721345141191
 20
-95.95689656786062
 30
0.0
 11
-34.84717480502943
 21
-95.96550367062862
 31
0.0
  0
LINE
  5
B313
330
A
100
AcDbEntity
  8
0
  6
Continuous
 62
     7
370
     0
100
AcDbLine
 10
-34.84717480502943
 20
-95.96550367062862
 30
0.0
 11
-34.81643236326751
 21
-95.97327367529162
 31
0.0
  0
LINE
  5
B314
330
A
100
AcDbEntity
  8
0
  6
Continuous
 62
     7
370
     0
100
AcDbLine
 10
-34.81643236326751
 20
-95.97327367529162
 30
0.0
 11
-34.78524240187612
 21
-95.98010958742012
 31
0.0
  0
LINE
  5
B315
330
A
100
AcDbEntity
  8
0
  6
Continuous
 62
     7
370
     0
100
AcDbLine
 10
-34.78524240187612
 20
-95.98010958742012
 30
0.0
 11
-34.75345169961871
 21
-95.9860129819264
 31
0.0
  0
LINE
  5
B316
330
A
100
AcDbEntity
  8
0
  6
Continuous
 62
     7
370
     0
100
AcDbLine
 10
-34.75345169961871
 20
-95.9860129819264
 30
0.0
 11
-34.72131384606333
 21
-95.99090972696583
 31
0.0
  0
LINE
  5
B317
330
A
100
AcDbEntity
  8
0
  6
Continuous
 62
     7
370
     0
100
AcDbLine
 10
-34.72131384606333
 20
-95.99090972696583
 30
0.0
 11
-34.68803477149122
 21
-95.99486061763132
 31
0.0
  0
LINE
  5
B318
330
A
100
AcDbEntity
  8
0
  6
Continuous
 62
     7
370
     0
100
AcDbLine
 10
-34.68803477149122
 20
-95.99486061763132
 30
0.0
 11
-34.65452275660633
 21
-95.99770318501141
 31
0.0
  0
LINE
  5
B319
330
A
100
AcDbEntity
  8
0
  6
Continuous
 62
     7
370
     0
100
AcDbLine
 10
-34.65452275660633
 20
-95.99770318501141
 30
0.0
 11
-34.62069675489782
 21
-95.9994243514876
 31
0.0
  0
LINE
  5
B31A
330
A
100
AcDbEntity
  8
0
  6
Continuous
 62
     7
370
     0
100
AcDbLine
 10
-34.62069675489782
 20
-95.9994243514876
 30
0.0
 11
-34.58678536207391
 21
-96.00000000000031
 31
0.0
  0
LINE
  5
B31B
330
A
100
AcDbEntity
  8
0
  6
Continuous
 62
     7
370
     0
100
AcDbLine
 10
-34.58678536207381
 20
58.50000000000003
 30
0.0
 11
-34.61987645681491
 21
58.49945189365675
 31
0.0
  0
LINE
  5
B31C
330
A
100
AcDbEntity
  8
0
  6
Continuous
 62
     7
370
     0
100
AcDbLine
 10
-34.61987645681491
 20
58.49945189365675
 30
0.0
 11
-34.65288801185382
 21
58.49781282798526
 31
0.0
  0
LINE
  5
B31D
330
A
100
AcDbEntity
  8
0
  6
Continuous
 62
     7
370
     0
100
AcDbLine
 10
-34.65288801185382
 20
58.49781282798526
 30
0.0
 11
-34.68601676215383
 21
58.49506394784228
 31
0.0
  0
LINE
  5
B31E
330
A
100
AcDbEntity
  8
0
  6
Continuous
 62
     7
370
     0
100
AcDbLine
 10
-34.68601676215383
 20
58.49506394784228
 30
0.0
 11
-34.71892220432511
 21
58.49123148402381
 31
0.0
  0
LINE
  5
B31F
330
A
100
AcDbEntity
  8
0
  6
Continuous
 62
     7
370
     0
100
AcDbLine
 10
-34.71892220432511
 20
58.49123148402381
 30
0.0
 11
-34.75185002164542
 21
58.4862823385815
 31
0.0
  0
LINE
  5
B320
330
A
100
AcDbEntity
  8
0
  6
Continuous
 62
     7
370
     0
100
AcDbLine
 10
-34.75185002164542
 20
58.4862823385815
 30
0.0
 11
-34.78441694751293
 21
58.48027636737644
 31
0.0
  0
LINE
  5
B321
330
A
100
AcDbEntity
  8
0
  6
Continuous
 62
     7
370
     0
100
AcDbLine
 10
-34.78441694751293
 20
58.48027636737644
 30
0.0
 11
-34.81681358132622
 21
58.47318359621263
 31
0.0
  0
LINE
  5
B322
330
A
100
AcDbEntity
  8
0
  6
Continuous
 62
     7
370
     0
100
AcDbLine
 10
-34.81681358132622
 20
58.47318359621263
 30
0.0
 11
-34.84872693968541
 21
58.4650837320763
 31
0.0
  0
LINE
  5
B323
330
A
100
AcDbEntity
  8
0
  6
Continuous
 62
     7
370
     0
100
AcDbLine
 10
-34.84872693968541
 20
58.4650837320763
 30
0.0
 11
-34.86912933855221
 21
58.45931317816067
 31
0.0
  0
LINE
  5
B324
330
A
100
AcDbEntity
  8
0
  6
Continuous
 62
     7
370
     0
100
AcDbLine
 10
-34.86912933855221
 20
58.45931317816067
 30
0.0
 11
-34.88929517609591
 21
58.45314627021261
 31
0.0
  0
LINE
  5
B325
330
A
100
AcDbEntity
  8
0
  6
Continuous
 62
     7
370
     0
100
AcDbLine
 10
-34.88929517609591
 20
58.45314627021261
 30
0.0
 11
-34.91594174354991
 21
58.44427485702325
 31
0.0
  0
LINE
  5
B326
330
A
100
AcDbEntity
  8
0
  6
Continuous
 62
     7
370
     0
100
AcDbLine
 10
-34.91594174354991
 20
58.44427485702325
 30
0.0
 11
-34.94212746737451
 21
58.43473574580148
 31
0.0
  0
LINE
  5
B327
330
A
100
AcDbEntity
  8
0
  6
Continuous
 62
     7
370
     0
100
AcDbLine
 10
-34.94212746737451
 20
58.43473574580148
 30
0.0
 11
-34.96781520115731
 21
58.42456274082841
 31
0.0
  0
LINE
  5
B328
330
A
100
AcDbEntity
  8
0
  6
Continuous
 62
     7
370
     0
100
AcDbLine
 10
-34.96781520115731
 20
58.42456274082841
 30
0.0
 11
-35.00565381602441
 21
58.40804639401151
 31
0.0
  0
LINE
  5
B329
330
A
100
AcDbEntity
  8
0
  6
Continuous
 62
     7
370
     0
100
AcDbLine
 10
-35.00565381602441
 20
58.40804639401151
 30
0.0
 11
-35.04228524898822
 21
58.39023584123592
 31
0.0
  0
LINE
  5
B32A
330
A
100
AcDbEntity
  8
0
  6
Continuous
 62
     7
370
     0
100
AcDbLine
 10
-35.04228524898822
 20
58.39023584123592
 30
0.0
 11
-35.07781201267551
 21
58.37114455080595
 31
0.0
  0
LINE
  5
B32B
330
A
100
AcDbEntity
  8
0
  6
Continuous
 62
     7
370
     0
100
AcDbLine
 10
-35.07781201267551
 20
58.37114455080595
 30
0.0
 11
-35.11345539902591
 21
58.35006945265345
 31
0.0
  0
LINE
  5
B32C
330
A
100
AcDbEntity
  8
0
  6
Continuous
 62
     7
370
     0
100
AcDbLine
 10
-35.11345539902591
 20
58.35006945265345
 30
0.0
 11
-35.14769528473663
 21
58.327876837856
 31
0.0
  0
LINE
  5
B32D
330
A
100
AcDbEntity
  8
0
  6
Continuous
 62
     7
370
     0
100
AcDbLine
 10
-35.14769528473663
 20
58.327876837856
 30
0.0
 11
-35.18074640490312
 21
58.30449357210554
 31
0.0
  0
LINE
  5
B32E
330
A
100
AcDbEntity
  8
0
  6
Continuous
 62
     7
370
     0
100
AcDbLine
 10
-35.18074640490312
 20
58.30449357210554
 30
0.0
 11
-35.21236734131621
 21
58.28015843727226
 31
0.0
  0
LINE
  5
B32F
330
A
100
AcDbEntity
  8
0
  6
Continuous
 62
     7
370
     0
100
AcDbLine
 10
-35.21236734131621
 20
58.28015843727226
 30
0.0
 11
-35.24278963711521
 21
58.2547570240927
 31
0.0
  0
LINE
  5
B330
330
A
100
AcDbEntity
  8
0
  6
Continuous
 62
     7
370
     0
100
AcDbLine
 10
-35.24278963711521
 20
58.2547570240927
 30
0.0
 11
-35.27177782193982
 21
58.22855015608181
 31
0.0
  0
LINE
  5
B331
330
A
100
AcDbEntity
  8
0
  6
Continuous
 62
     7
370
     0
100
AcDbLine
 10
-35.27177782193982
 20
58.22855015608181
 30
0.0
 11
-35.29950502376351
 21
58.20144889103378
 31
0.0
  0
LINE
  5
B332
330
A
100
AcDbEntity
  8
0
  6
Continuous
 62
     7
370
     0
100
AcDbLine
 10
-35.29950502376351
 20
58.20144889103378
 30
0.0
 11
-35.32581419607291
 21
58.17367379533269
 31
0.0
  0
LINE
  5
B333
330
A
100
AcDbEntity
  8
0
  6
Continuous
 62
     7
370
     0
100
AcDbLine
 10
-35.32581419607291
 20
58.17367379533269
 30
0.0
 11
-35.3593125444237
 21
58.1349814605841
 31
0.0
  0
LINE
  5
B334
330
A
100
AcDbEntity
  8
0
  6
Continuous
 62
     7
370
     0
100
AcDbLine
 10
-35.3593125444237
 20
58.1349814605841
 30
0.0
 11
-35.39028292771713
 21
58.09530803959408
 31
0.0
  0
LINE
  5
B335
330
A
100
AcDbEntity
  8
0
  6
Continuous
 62
     7
370
     0
100
AcDbLine
 10
-35.39028292771713
 20
58.09530803959408
 30
0.0
 11
-35.41896426981181
 21
58.0545069456576
 31
0.0
  0
LINE
  5
B336
330
A
100
AcDbEntity
  8
0
  6
Continuous
 62
     7
370
     0
100
AcDbLine
 10
-35.41896426981181
 20
58.0545069456576
 30
0.0
 11
-35.44518817199583
 21
58.01297623328778
 31
0.0
  0
LINE
  5
B337
330
A
100
AcDbEntity
  8
0
  6
Continuous
 62
     7
370
     0
100
AcDbLine
 10
-35.44518817199583
 20
58.01297623328778
 30
0.0
 11
-35.46917659563731
 21
57.9705157947898
 31
0.0
  0
LINE
  5
B338
330
A
100
AcDbEntity
  8
0
  6
Continuous
 62
     7
370
     0
100
AcDbLine
 10
-35.46917659563731
 20
57.9705157947898
 30
0.0
 11
-35.4907685768282
 21
57.92756794482548
 31
0.0
  0
LINE
  5
B339
330
A
100
AcDbEntity
  8
0
  6
Continuous
 62
     7
370
     0
100
AcDbLine
 10
-35.4907685768282
 20
57.92756794482548
 30
0.0
 11
-35.51011555441032
 21
57.88400498047636
 31
0.0
  0
LINE
  5
B33A
330
A
100
AcDbEntity
  8
0
  6
Continuous
 62
     7
370
     0
100
AcDbLine
 10
-35.51011555441032
 20
57.88400498047636
 30
0.0
 11
-35.52712056340772
 21
57.84024948072314
 31
0.0
  0
LINE
  5
B33B
330
A
100
AcDbEntity
  8
0
  6
Continuous
 62
     7
370
     0
100
AcDbLine
 10
-35.52712056340772
 20
57.84024948072314
 30
0.0
 11
-35.540544357298
 21
57.80057241894266
 31
0.0
  0
LINE
  5
B33C
330
A
100
AcDbEntity
  8
0
  6
Continuous
 62
     7
370
     0
100
AcDbLine
 10
-35.540544357298
 20
57.80057241894266
 30
0.0
 11
-35.5521062855625
 21
57.76105466977227
 31
0.0
  0
LINE
  5
B33D
330
A
100
AcDbEntity
  8
0
  6
Continuous
 62
     7
370
     0
100
AcDbLine
 10
-35.5521062855625
 20
57.76105466977227
 30
0.0
 11
-35.56179155557862
 21
57.72217768255908
 31
0.0
  0
LINE
  5
B33E
330
A
100
AcDbEntity
  8
0
  6
Continuous
 62
     7
370
     0
100
AcDbLine
 10
-35.56179155557862
 20
57.72217768255908
 30
0.0
 11
-35.5660628764099
 21
57.70251971505999
 31
0.0
  0
LINE
  5
B33F
330
A
100
AcDbEntity
  8
0
  6
Continuous
 62
     7
370
     0
100
AcDbLine
 10
-35.5660628764099
 20
57.70251971505999
 30
0.0
 11
-35.56982620923682
 21
57.68338673018778
 31
0.0
  0
LINE
  5
B340
330
A
100
AcDbEntity
  8
0
  6
Continuous
 62
     7
370
     0
100
AcDbLine
 10
-35.56982620923682
 20
57.68338673018778
 30
0.0
 11
-35.57295409054332
 21
57.66573601325129
 31
0.0
  0
LINE
  5
B341
330
A
100
AcDbEntity
  8
0
  6
Continuous
 62
     7
370
     0
100
AcDbLine
 10
-35.57295409054332
 20
57.66573601325129
 30
0.0
 11
-35.57558468981181
 21
57.64925109535656
 31
0.0
  0
LINE
  5
B342
330
A
100
AcDbEntity
  8
0
  6
Continuous
 62
     7
370
     0
100
AcDbLine
 10
-35.57558468981181
 20
57.64925109535656
 30
0.0
 11
-35.5766816946699
 21
57.64179197305506
 31
0.0
  0
LINE
  5
B343
330
A
100
AcDbEntity
  8
0
  6
Continuous
 62
     7
370
     0
100
AcDbLine
 10
-35.5766816946699
 20
57.64179197305506
 30
0.0
 11
-35.57764433309151
 21
57.6349018144941
 31
0.0
  0
LINE
  5
B344
330
A
100
AcDbEntity
  8
0
  6
Continuous
 62
     7
370
     0
100
AcDbLine
 10
-35.57764433309151
 20
57.6349018144941
 30
0.0
 11
-35.57802678818483
 21
57.63206219511474
 31
0.0
  0
LINE
  5
B345
330
A
100
AcDbEntity
  8
0
  6
Continuous
 62
     7
370
     0
100
AcDbLine
 10
-35.57802678818483
 20
57.63206219511474
 30
0.0
 11
-35.57837976358822
 21
57.62938524987575
 31
0.0
  0
LINE
  5
B346
330
A
100
AcDbEntity
  8
0
  6
Continuous
 62
     7
370
     0
100
AcDbLine
 10
-35.57837976358822
 20
57.62938524987575
 30
0.0
 11
-35.57879882559152
 21
57.62613173354399
 31
0.0
  0
LINE
  5
B347
330
A
100
AcDbEntity
  8
0
  6
Continuous
 62
     7
370
     0
100
AcDbLine
 10
-35.57879882559152
 20
57.62613173354399
 30
0.0
 11
-35.57916135288781
 21
57.6232470476917
 31
0.0
  0
LINE
  5
B348
330
A
100
AcDbEntity
  8
0
  6
Continuous
 62
     7
370
     0
100
AcDbLine
 10
-35.57916135288781
 20
57.6232470476917
 30
0.0
 11
-35.57946338756572
 21
57.62079047026199
 31
0.0
  0
LINE
  5
B349
330
A
100
AcDbEntity
  8
0
  6
Continuous
 62
     7
370
     0
100
AcDbLine
 10
-35.57946338756572
 20
57.62079047026199
 30
0.0
 11
-35.57964724552551
 21
57.61926982462998
 31
0.0
  0
LINE
  5
B34A
330
A
100
AcDbEntity
  8
0
  6
Continuous
 62
     7
370
     0
100
AcDbLine
 10
-35.57964724552551
 20
57.61926982462998
 30
0.0
 11
-35.57979401481552
 21
57.61804158411425
 31
0.0
  0
LINE
  5
B34B
330
A
100
AcDbEntity
  8
0
  6
Continuous
 62
     7
370
     0
100
AcDbLine
 10
-35.57979401481552
 20
57.61804158411425
 30
0.0
 11
-35.57988335757833
 21
57.6172875968875
 31
0.0
  0
LINE
  5
B34C
330
A
100
AcDbEntity
  8
0
  6
Continuous
 62
     7
370
     0
100
AcDbLine
 10
-35.57988335757833
 20
57.6172875968875
 30
0.0
 11
-35.57994775339331
 21
57.61674101451106
 31
0.0
  0
LINE
  5
B34D
330
A
100
AcDbEntity
  8
0
  6
Continuous
 62
     7
370
     0
100
AcDbLine
 10
-35.57994775339331
 20
57.61674101451106
 30
0.0
 11
-35.57998690140983
 21
57.61640753614248
 31
0.0
  0
LINE
  5
B34E
330
A
100
AcDbEntity
  8
0
  6
Continuous
 62
     7
370
     0
100
AcDbLine
 10
-35.57998690140983
 20
57.61640753614248
 30
0.0
 11
-35.57999999999991
 21
57.61629567063867
 31
0.0
  0
LINE
  5
B34F
330
A
100
AcDbEntity
  8
0
  6
Continuous
 62
     7
370
     0
100
AcDbLine
 10
-35.57999999999991
 20
77.38370432936128
 30
0.0
 11
-35.5799815859725
 21
77.38354637694548
 31
0.0
  0
LINE
  5
B350
330
A
100
AcDbEntity
  8
0
  6
Continuous
 62
     7
370
     0
100
AcDbLine
 10
-35.5799815859725
 20
77.38354637694548
 30
0.0
 11
-35.57992687032413
 21
77.38308009056223
 31
0.0
  0
LINE
  5
B351
330
A
100
AcDbEntity
  8
0
  6
Continuous
 62
     7
370
     0
100
AcDbLine
 10
-35.57992687032413
 20
77.38308009056223
 30
0.0
 11
-35.57983664270542
 21
77.3823168265076
 31
0.0
  0
LINE
  5
B352
330
A
100
AcDbEntity
  8
0
  6
Continuous
 62
     7
370
     0
100
AcDbLine
 10
-35.57983664270542
 20
77.3823168265076
 30
0.0
 11
-35.57971169276721
 21
77.3812679410781
 31
0.0
  0
LINE
  5
B353
330
A
100
AcDbEntity
  8
0
  6
Continuous
 62
     7
370
     0
100
AcDbLine
 10
-35.57971169276721
 20
77.3812679410781
 30
0.0
 11
-35.57954629536713
 21
77.37989275711041
 31
0.0
  0
LINE
  5
B354
330
A
100
AcDbEntity
  8
0
  6
Continuous
 62
     7
370
     0
100
AcDbLine
 10
-35.57954629536713
 20
77.37989275711041
 30
0.0
 11
-35.57934584081112
 21
77.37824731515175
 31
0.0
  0
LINE
  5
B355
330
A
100
AcDbEntity
  8
0
  6
Continuous
 62
     7
370
     0
100
AcDbLine
 10
-35.57934584081112
 20
77.37824731515175
 30
0.0
 11
-35.579111956983
 21
77.37635562445442
 31
0.0
  0
LINE
  5
B356
330
A
100
AcDbEntity
  8
0
  6
Continuous
 62
     7
370
     0
100
AcDbLine
 10
-35.579111956983
 20
77.37635562445442
 30
0.0
 11
-35.57884627176662
 21
77.37424169427058
 31
0.0
  0
LINE
  5
B357
330
A
100
AcDbEntity
  8
0
  6
Continuous
 62
     7
370
     0
100
AcDbLine
 10
-35.57884627176662
 20
77.37424169427058
 30
0.0
 11
-35.5782593032379
 21
77.3696968195529
 31
0.0
  0
LINE
  5
B358
330
A
100
AcDbEntity
  8
0
  6
Continuous
 62
     7
370
     0
100
AcDbLine
 10
-35.5782593032379
 20
77.3696968195529
 30
0.0
 11
-35.57756984136533
 21
77.36455419243421
 31
0.0
  0
LINE
  5
B359
330
A
100
AcDbEntity
  8
0
  6
Continuous
 62
     7
370
     0
100
AcDbLine
 10
-35.57756984136533
 20
77.36455419243421
 30
0.0
 11
-35.57678558440581
 21
77.35893420052097
 31
0.0
  0
LINE
  5
B35A
330
A
100
AcDbEntity
  8
0
  6
Continuous
 62
     7
370
     0
100
AcDbLine
 10
-35.57678558440581
 20
77.35893420052097
 30
0.0
 11
-35.57492064822921
 21
77.34643218865821
 31
0.0
  0
LINE
  5
B35B
330
A
100
AcDbEntity
  8
0
  6
Continuous
 62
     7
370
     0
100
AcDbLine
 10
-35.57492064822921
 20
77.34643218865821
 30
0.0
 11
-35.57271072956901
 21
77.33283134928339
 31
0.0
  0
LINE
  5
B35C
330
A
100
AcDbEntity
  8
0
  6
Continuous
 62
     7
370
     0
100
AcDbLine
 10
-35.57271072956901
 20
77.33283134928339
 30
0.0
 11
-35.57017603053262
 21
77.31849850361792
 31
0.0
  0
LINE
  5
B35D
330
A
100
AcDbEntity
  8
0
  6
Continuous
 62
     7
370
     0
100
AcDbLine
 10
-35.57017603053262
 20
77.31849850361792
 30
0.0
 11
-35.56258172921632
 21
77.28134948578954
 31
0.0
  0
LINE
  5
B35E
330
A
100
AcDbEntity
  8
0
  6
Continuous
 62
     7
370
     0
100
AcDbLine
 10
-35.56258172921632
 20
77.28134948578954
 30
0.0
 11
-35.55311686523372
 21
77.24269973571527
 31
0.0
  0
LINE
  5
B35F
330
A
100
AcDbEntity
  8
0
  6
Continuous
 62
     7
370
     0
100
AcDbLine
 10
-35.55311686523372
 20
77.24269973571527
 30
0.0
 11
-35.54012861975872
 21
77.19811993100321
 31
0.0
  0
LINE
  5
B360
330
A
100
AcDbEntity
  8
0
  6
Continuous
 62
     7
370
     0
100
AcDbLine
 10
-35.54012861975872
 20
77.19811993100321
 30
0.0
 11
-35.52473433040501
 21
77.15322668383143
 31
0.0
  0
LINE
  5
B361
330
A
100
AcDbEntity
  8
0
  6
Continuous
 62
     7
370
     0
100
AcDbLine
 10
-35.52473433040501
 20
77.15322668383143
 30
0.0
 11
-35.50456578677583
 21
77.10291466446037
 31
0.0
  0
LINE
  5
B362
330
A
100
AcDbEntity
  8
0
  6
Continuous
 62
     7
370
     0
100
AcDbLine
 10
-35.50456578677583
 20
77.10291466446037
 30
0.0
 11
-35.48128146666662
 21
77.05292425824208
 31
0.0
  0
LINE
  5
B363
330
A
100
AcDbEntity
  8
0
  6
Continuous
 62
     7
370
     0
100
AcDbLine
 10
-35.48128146666662
 20
77.05292425824208
 30
0.0
 11
-35.45364095505732
 21
77.00144069468726
 31
0.0
  0
LINE
  5
B364
330
A
100
AcDbEntity
  8
0
  6
Continuous
 62
     7
370
     0
100
AcDbLine
 10
-35.45364095505732
 20
77.00144069468726
 30
0.0
 11
-35.43052266412113
 21
76.96324388599592
 31
0.0
  0
LINE
  5
B365
330
A
100
AcDbEntity
  8
0
  6
Continuous
 62
     7
370
     0
100
AcDbLine
 10
-35.43052266412113
 20
76.96324388599592
 30
0.0
 11
-35.40536863322683
 21
76.9256121274012
 31
0.0
  0
LINE
  5
B366
330
A
100
AcDbEntity
  8
0
  6
Continuous
 62
     7
370
     0
100
AcDbLine
 10
-35.40536863322683
 20
76.9256121274012
 30
0.0
 11
-35.37891249037271
 21
76.88964400947421
 31
0.0
  0
LINE
  5
B367
330
A
100
AcDbEntity
  8
0
  6
Continuous
 62
     7
370
     0
100
AcDbLine
 10
-35.37891249037271
 20
76.88964400947421
 30
0.0
 11
-35.35045598025133
 21
76.85439393827792
 31
0.0
  0
LINE
  5
B368
330
A
100
AcDbEntity
  8
0
  6
Continuous
 62
     7
370
     0
100
AcDbLine
 10
-35.35045598025133
 20
76.85439393827792
 30
0.0
 11
-35.32212529366622
 21
76.82230168969173
 31
0.0
  0
LINE
  5
B369
330
A
100
AcDbEntity
  8
0
  6
Continuous
 62
     7
370
     0
100
AcDbLine
 10
-35.32212529366622
 20
76.82230168969173
 30
0.0
 11
-35.29199775031442
 21
76.79100388754799
 31
0.0
  0
LINE
  5
B36A
330
A
100
AcDbEntity
  8
0
  6
Continuous
 62
     7
370
     0
100
AcDbLine
 10
-35.29199775031442
 20
76.79100388754799
 30
0.0
 11
-35.26307003155692
 21
76.76335976802974
 31
0.0
  0
LINE
  5
B36B
330
A
100
AcDbEntity
  8
0
  6
Continuous
 62
     7
370
     0
100
AcDbLine
 10
-35.26307003155692
 20
76.76335976802974
 30
0.0
 11
-35.23261994069001
 21
76.73652262832238
 31
0.0
  0
LINE
  5
B36C
330
A
100
AcDbEntity
  8
0
  6
Continuous
 62
     7
370
     0
100
AcDbLine
 10
-35.23261994069001
 20
76.73652262832238
 30
0.0
 11
-35.20218142478461
 21
76.71178195529407
 31
0.0
  0
LINE
  5
B36D
330
A
100
AcDbEntity
  8
0
  6
Continuous
 62
     7
370
     0
100
AcDbLine
 10
-35.20218142478461
 20
76.71178195529407
 30
0.0
 11
-35.16708476170463
 21
76.68559677874648
 31
0.0
  0
LINE
  5
B36E
330
A
100
AcDbEntity
  8
0
  6
Continuous
 62
     7
370
     0
100
AcDbLine
 10
-35.16708476170463
 20
76.68559677874648
 30
0.0
 11
-35.13005477743661
 21
76.66044205296159
 31
0.0
  0
LINE
  5
B36F
330
A
100
AcDbEntity
  8
0
  6
Continuous
 62
     7
370
     0
100
AcDbLine
 10
-35.13005477743661
 20
76.66044205296159
 30
0.0
 11
-35.09130367063983
 21
76.63659900606856
 31
0.0
  0
LINE
  5
B370
330
A
100
AcDbEntity
  8
0
  6
Continuous
 62
     7
370
     0
100
AcDbLine
 10
-35.09130367063983
 20
76.63659900606856
 30
0.0
 11
-35.06431292912892
 21
76.62138385716585
 31
0.0
  0
LINE
  5
B371
330
A
100
AcDbEntity
  8
0
  6
Continuous
 62
     7
370
     0
100
AcDbLine
 10
-35.06431292912892
 20
76.62138385716585
 30
0.0
 11
-35.03655270383472
 21
76.60685485439799
 31
0.0
  0
LINE
  5
B372
330
A
100
AcDbEntity
  8
0
  6
Continuous
 62
     7
370
     0
100
AcDbLine
 10
-35.03655270383472
 20
76.60685485439799
 30
0.0
 11
-35.00805426523552
 21
76.59306421879538
 31
0.0
  0
LINE
  5
B373
330
A
100
AcDbEntity
  8
0
  6
Continuous
 62
     7
370
     0
100
AcDbLine
 10
-35.00805426523552
 20
76.59306421879538
 30
0.0
 11
-34.98609807546092
 21
76.58318527947958
 31
0.0
  0
LINE
  5
B374
330
A
100
AcDbEntity
  8
0
  6
Continuous
 62
     7
370
     0
100
AcDbLine
 10
-34.98609807546092
 20
76.58318527947958
 30
0.0
 11
-34.96373597115981
 21
76.57376663938848
 31
0.0
  0
LINE
  5
B375
330
A
100
AcDbEntity
  8
0
  6
Continuous
 62
     7
370
     0
100
AcDbLine
 10
-34.96373597115981
 20
76.57376663938848
 30
0.0
 11
-34.93556820184041
 21
76.56279662821575
 31
0.0
  0
LINE
  5
B376
330
A
100
AcDbEntity
  8
0
  6
Continuous
 62
     7
370
     0
100
AcDbLine
 10
-34.93556820184041
 20
76.56279662821575
 30
0.0
 11
-34.90682179864251
 21
76.55259476501939
 31
0.0
  0
LINE
  5
B377
330
A
100
AcDbEntity
  8
0
  6
Continuous
 62
     7
370
     0
100
AcDbLine
 10
-34.90682179864251
 20
76.55259476501939
 30
0.0
 11
-34.87732947320201
 21
76.54313865284698
 31
0.0
  0
LINE
  5
B378
330
A
100
AcDbEntity
  8
0
  6
Continuous
 62
     7
370
     0
100
AcDbLine
 10
-34.87732947320201
 20
76.54313865284698
 30
0.0
 11
-34.84731350809273
 21
76.53453374728477
 31
0.0
  0
LINE
  5
B379
330
A
100
AcDbEntity
  8
0
  6
Continuous
 62
     7
370
     0
100
AcDbLine
 10
-34.84731350809273
 20
76.53453374728477
 30
0.0
 11
-34.81655300719811
 21
76.52675479962389
 31
0.0
  0
LINE
  5
B37A
330
A
100
AcDbEntity
  8
0
  6
Continuous
 62
     7
370
     0
100
AcDbLine
 10
-34.81655300719811
 20
76.52675479962389
 30
0.0
 11
-34.78534421954201
 21
76.51991103458872
 31
0.0
  0
LINE
  5
B37B
330
A
100
AcDbEntity
  8
0
  6
Continuous
 62
     7
370
     0
100
AcDbLine
 10
-34.78534421954201
 20
76.51991103458872
 30
0.0
 11
-34.75350321367641
 21
76.51399572926172
 31
0.0
  0
LINE
  5
B37C
330
A
100
AcDbEntity
  8
0
  6
Continuous
 62
     7
370
     0
100
AcDbLine
 10
-34.75350321367641
 20
76.51399572926172
 30
0.0
 11
-34.72131384606362
 21
76.50909027303422
 31
0.0
  0
LINE
  5
B37D
330
A
100
AcDbEntity
  8
0
  6
Continuous
 62
     7
370
     0
100
AcDbLine
 10
-34.72131384606362
 20
76.50909027303422
 30
0.0
 11
-34.68803653356801
 21
76.50513956160378
 31
0.0
  0
LINE
  5
B37E
330
A
100
AcDbEntity
  8
0
  6
Continuous
 62
     7
370
     0
100
AcDbLine
 10
-34.68803653356801
 20
76.50513956160378
 30
0.0
 11
-34.6545263015074
 21
76.50229705567008
 31
0.0
  0
LINE
  5
B37F
330
A
100
AcDbEntity
  8
0
  6
Continuous
 62
     7
370
     0
100
AcDbLine
 10
-34.6545263015074
 20
76.50229705567008
 30
0.0
 11
-34.62069853384341
 21
76.50057570897806
 31
0.0
  0
LINE
  5
B380
330
A
100
AcDbEntity
  8
0
  6
Continuous
 62
     7
370
     0
100
AcDbLine
 10
-34.62069853384341
 20
76.50057570897806
 30
0.0
 11
-34.58678536207391
 21
76.49999999999969
 31
0.0
  0
LINE
  5
B381
330
A
100
AcDbEntity
  8
0
  6
Continuous
 62
     7
370
     0
100
AcDbLine
 10
-35.57999999999991
 20
-42.25
 30
0.0
 11
-35.5799815859725
 21
-42.24396305200073
 31
0.0
  0
LINE
  5
B382
330
A
100
AcDbEntity
  8
0
  6
Continuous
 62
     7
370
     0
100
AcDbLine
 10
-35.5799815859725
 20
-42.24396305200073
 30
0.0
 11
-35.57992687032413
 21
-42.23793457023671
 31
0.0
  0
LINE
  5
B383
330
A
100
AcDbEntity
  8
0
  6
Continuous
 62
     7
370
     0
100
AcDbLine
 10
-35.57992687032413
 20
-42.23793457023671
 30
0.0
 11
-35.57983664270542
 21
-42.23193603657321
 31
0.0
  0
LINE
  5
B384
330
A
100
AcDbEntity
  8
0
  6
Continuous
 62
     7
370
     0
100
AcDbLine
 10
-35.57983664270542
 20
-42.23193603657321
 30
0.0
 11
-35.57971169276721
 21
-42.22598893287522
 31
0.0
  0
LINE
  5
B385
330
A
100
AcDbEntity
  8
0
  6
Continuous
 62
     7
370
     0
100
AcDbLine
 10
-35.57971169276721
 20
-42.22598893287522
 30
0.0
 11
-35.57954629536713
 21
-42.21988288585243
 31
0.0
  0
LINE
  5
B386
330
A
100
AcDbEntity
  8
0
  6
Continuous
 62
     7
370
     0
100
AcDbLine
 10
-35.57954629536713
 20
-42.21988288585243
 30
0.0
 11
-35.57934584081112
 21
-42.21383921160691
 31
0.0
  0
LINE
  5
B387
330
A
100
AcDbEntity
  8
0
  6
Continuous
 62
     7
370
     0
100
AcDbLine
 10
-35.57934584081112
 20
-42.21383921160691
 30
0.0
 11
-35.579111956983
 21
-42.20786763121441
 31
0.0
  0
LINE
  5
B388
330
A
100
AcDbEntity
  8
0
  6
Continuous
 62
     7
370
     0
100
AcDbLine
 10
-35.579111956983
 20
-42.20786763121441
 30
0.0
 11
-35.57884627176662
 21
-42.20197786575051
 31
0.0
  0
LINE
  5
B389
330
A
100
AcDbEntity
  8
0
  6
Continuous
 62
     7
370
     0
100
AcDbLine
 10
-35.57884627176662
 20
-42.20197786575051
 30
0.0
 11
-35.5782593032379
 21
-42.19102100560649
 31
0.0
  0
LINE
  5
B38A
330
A
100
AcDbEntity
  8
0
  6
Continuous
 62
     7
370
     0
100
AcDbLine
 10
-35.5782593032379
 20
-42.19102100560649
 30
0.0
 11
-35.57756984136533
 21
-42.1803252677885
 31
0.0
  0
LINE
  5
B38B
330
A
100
AcDbEntity
  8
0
  6
Continuous
 62
     7
370
     0
100
AcDbLine
 10
-35.57756984136533
 20
-42.1803252677885
 30
0.0
 11
-35.57678558440581
 21
-42.16988446642091
 31
0.0
  0
LINE
  5
B38C
330
A
100
AcDbEntity
  8
0
  6
Continuous
 62
     7
370
     0
100
AcDbLine
 10
-35.57678558440581
 20
-42.16988446642091
 30
0.0
 11
-35.57492064822921
 21
-42.14931607176573
 31
0.0
  0
LINE
  5
B38D
330
A
100
AcDbEntity
  8
0
  6
Continuous
 62
     7
370
     0
100
AcDbLine
 10
-35.57492064822921
 20
-42.14931607176573
 30
0.0
 11
-35.57271072956901
 21
-42.12946083387882
 31
0.0
  0
LINE
  5
B38E
330
A
100
AcDbEntity
  8
0
  6
Continuous
 62
     7
370
     0
100
AcDbLine
 10
-35.57271072956901
 20
-42.12946083387882
 30
0.0
 11
-35.57017603053262
 21
-42.1101735770365
 31
0.0
  0
LINE
  5
B38F
330
A
100
AcDbEntity
  8
0
  6
Continuous
 62
     7
370
     0
100
AcDbLine
 10
-35.57017603053262
 20
-42.1101735770365
 30
0.0
 11
-35.56258172921632
 21
-42.06413676449
 31
0.0
  0
LINE
  5
B390
330
A
100
AcDbEntity
  8
0
  6
Continuous
 62
     7
370
     0
100
AcDbLine
 10
-35.56258172921632
 20
-42.06413676449
 30
0.0
 11
-35.55311686523372
 21
-42.0196881101684
 31
0.0
  0
LINE
  5
B391
330
A
100
AcDbEntity
  8
0
  6
Continuous
 62
     7
370
     0
100
AcDbLine
 10
-35.55311686523372
 20
-42.0196881101684
 30
0.0
 11
-35.54012861975872
 21
-41.97043271736402
 31
0.0
  0
LINE
  5
B392
330
A
100
AcDbEntity
  8
0
  6
Continuous
 62
     7
370
     0
100
AcDbLine
 10
-35.54012861975872
 20
-41.97043271736402
 30
0.0
 11
-35.52473433040501
 21
-41.9221630817706
 31
0.0
  0
LINE
  5
B393
330
A
100
AcDbEntity
  8
0
  6
Continuous
 62
     7
370
     0
100
AcDbLine
 10
-35.52473433040501
 20
-41.9221630817706
 30
0.0
 11
-35.50456578677583
 21
-41.86897449291092
 31
0.0
  0
LINE
  5
B394
330
A
100
AcDbEntity
  8
0
  6
Continuous
 62
     7
370
     0
100
AcDbLine
 10
-35.50456578677583
 20
-41.86897449291092
 30
0.0
 11
-35.48128146666662
 21
-41.81676597797121
 31
0.0
  0
LINE
  5
B395
330
A
100
AcDbEntity
  8
0
  6
Continuous
 62
     7
370
     0
100
AcDbLine
 10
-35.48128146666662
 20
-41.81676597797121
 30
0.0
 11
-35.45364095505732
 21
-41.76342885243122
 31
0.0
  0
LINE
  5
B396
330
A
100
AcDbEntity
  8
0
  6
Continuous
 62
     7
370
     0
100
AcDbLine
 10
-35.45364095505732
 20
-41.76342885243122
 30
0.0
 11
-35.43052266412113
 21
-41.72406140731422
 31
0.0
  0
LINE
  5
B397
330
A
100
AcDbEntity
  8
0
  6
Continuous
 62
     7
370
     0
100
AcDbLine
 10
-35.43052266412113
 20
-41.72406140731422
 30
0.0
 11
-35.40536863322683
 21
-41.68540579237361
 31
0.0
  0
LINE
  5
B398
330
A
100
AcDbEntity
  8
0
  6
Continuous
 62
     7
370
     0
100
AcDbLine
 10
-35.40536863322683
 20
-41.68540579237361
 30
0.0
 11
-35.37891249037271
 21
-41.64855268843061
 31
0.0
  0
LINE
  5
B399
330
A
100
AcDbEntity
  8
0
  6
Continuous
 62
     7
370
     0
100
AcDbLine
 10
-35.37891249037271
 20
-41.64855268843061
 30
0.0
 11
-35.35045598025133
 21
-41.61250679807949
 31
0.0
  0
LINE
  5
B39A
330
A
100
AcDbEntity
  8
0
  6
Continuous
 62
     7
370
     0
100
AcDbLine
 10
-35.35045598025133
 20
-41.61250679807949
 30
0.0
 11
-35.32212529366622
 21
-41.57973889079471
 31
0.0
  0
LINE
  5
B39B
330
A
100
AcDbEntity
  8
0
  6
Continuous
 62
     7
370
     0
100
AcDbLine
 10
-35.32212529366622
 20
-41.57973889079471
 30
0.0
 11
-35.29199775031442
 21
-41.54781825461831
 31
0.0
  0
LINE
  5
B39C
330
A
100
AcDbEntity
  8
0
  6
Continuous
 62
     7
370
     0
100
AcDbLine
 10
-35.29199775031442
 20
-41.54781825461831
 30
0.0
 11
-35.26307003155692
 21
-41.5196472401418
 31
0.0
  0
LINE
  5
B39D
330
A
100
AcDbEntity
  8
0
  6
Continuous
 62
     7
370
     0
100
AcDbLine
 10
-35.26307003155692
 20
-41.5196472401418
 30
0.0
 11
-35.23261994069001
 21
-41.49231456856182
 31
0.0
  0
LINE
  5
B39E
330
A
100
AcDbEntity
  8
0
  6
Continuous
 62
     7
370
     0
100
AcDbLine
 10
-35.23261994069001
 20
-41.49231456856182
 30
0.0
 11
-35.20218142478461
 21
-41.46712691025109
 31
0.0
  0
LINE
  5
B39F
330
A
100
AcDbEntity
  8
0
  6
Continuous
 62
     7
370
     0
100
AcDbLine
 10
-35.20218142478461
 20
-41.46712691025109
 30
0.0
 11
-35.16708476170463
 21
-41.44047453247341
 31
0.0
  0
LINE
  5
B3A0
330
A
100
AcDbEntity
  8
0
  6
Continuous
 62
     7
370
     0
100
AcDbLine
 10
-35.16708476170463
 20
-41.44047453247341
 30
0.0
 11
-35.13005477743661
 21
-41.41487189211193
 31
0.0
  0
LINE
  5
B3A1
330
A
100
AcDbEntity
  8
0
  6
Continuous
 62
     7
370
     0
100
AcDbLine
 10
-35.13005477743661
 20
-41.41487189211193
 30
0.0
 11
-35.09130367063983
 21
-41.3905998857399
 31
0.0
  0
LINE
  5
B3A2
330
A
100
AcDbEntity
  8
0
  6
Continuous
 62
     7
370
     0
100
AcDbLine
 10
-35.09130367063983
 20
-41.3905998857399
 30
0.0
 11
-35.06431292912892
 21
-41.37510578327621
 31
0.0
  0
LINE
  5
B3A3
330
A
100
AcDbEntity
  8
0
  6
Continuous
 62
     7
370
     0
100
AcDbLine
 10
-35.06431292912892
 20
-41.37510578327621
 30
0.0
 11
-35.03655270383472
 21
-41.36030424220033
 31
0.0
  0
LINE
  5
B3A4
330
A
100
AcDbEntity
  8
0
  6
Continuous
 62
     7
370
     0
100
AcDbLine
 10
-35.03655270383472
 20
-41.36030424220033
 30
0.0
 11
-35.00805426523552
 21
-41.34624696624922
 31
0.0
  0
LINE
  5
B3A5
330
A
100
AcDbEntity
  8
0
  6
Continuous
 62
     7
370
     0
100
AcDbLine
 10
-35.00805426523552
 20
-41.34624696624922
 30
0.0
 11
-34.98609807546092
 21
-41.336170569767
 31
0.0
  0
LINE
  5
B3A6
330
A
100
AcDbEntity
  8
0
  6
Continuous
 62
     7
370
     0
100
AcDbLine
 10
-34.98609807546092
 20
-41.336170569767
 30
0.0
 11
-34.96373597115981
 21
-41.32655714608972
 31
0.0
  0
LINE
  5
B3A7
330
A
100
AcDbEntity
  8
0
  6
Continuous
 62
     7
370
     0
100
AcDbLine
 10
-34.96373597115981
 20
-41.32655714608972
 30
0.0
 11
-34.93556820184041
 21
-41.31534986124242
 31
0.0
  0
LINE
  5
B3A8
330
A
100
AcDbEntity
  8
0
  6
Continuous
 62
     7
370
     0
100
AcDbLine
 10
-34.93556820184041
 20
-41.31534986124242
 30
0.0
 11
-34.90682179864251
 21
-41.3049140187623
 31
0.0
  0
LINE
  5
B3A9
330
A
100
AcDbEntity
  8
0
  6
Continuous
 62
     7
370
     0
100
AcDbLine
 10
-34.90682179864251
 20
-41.3049140187623
 30
0.0
 11
-34.87732947320201
 21
-41.29522531409858
 31
0.0
  0
LINE
  5
B3AA
330
A
100
AcDbEntity
  8
0
  6
Continuous
 62
     7
370
     0
100
AcDbLine
 10
-34.87732947320201
 20
-41.29522531409858
 30
0.0
 11
-34.84731350809273
 21
-41.28639038589733
 31
0.0
  0
LINE
  5
B3AB
330
A
100
AcDbEntity
  8
0
  6
Continuous
 62
     7
370
     0
100
AcDbLine
 10
-34.84731350809273
 20
-41.28639038589733
 30
0.0
 11
-34.81655300719811
 21
-41.27838172940761
 31
0.0
  0
LINE
  5
B3AC
330
A
100
AcDbEntity
  8
0
  6
Continuous
 62
     7
370
     0
100
AcDbLine
 10
-34.81655300719811
 20
-41.27838172940761
 30
0.0
 11
-34.78534421954201
 21
-41.271310186269
 31
0.0
  0
LINE
  5
B3AD
330
A
100
AcDbEntity
  8
0
  6
Continuous
 62
     7
370
     0
100
AcDbLine
 10
-34.78534421954201
 20
-41.271310186269
 30
0.0
 11
-34.75350321367641
 21
-41.265167071462
 31
0.0
  0
LINE
  5
B3AE
330
A
100
AcDbEntity
  8
0
  6
Continuous
 62
     7
370
     0
100
AcDbLine
 10
-34.75350321367641
 20
-41.265167071462
 30
0.0
 11
-34.72131384606362
 21
-41.26003515369951
 31
0.0
  0
LINE
  5
B3AF
330
A
100
AcDbEntity
  8
0
  6
Continuous
 62
     7
370
     0
100
AcDbLine
 10
-34.72131384606362
 20
-41.26003515369951
 30
0.0
 11
-34.68803653356801
 21
-41.25585353305061
 31
0.0
  0
LINE
  5
B3B0
330
A
100
AcDbEntity
  8
0
  6
Continuous
 62
     7
370
     0
100
AcDbLine
 10
-34.68803653356801
 20
-41.25585353305061
 30
0.0
 11
-34.6545263015074
 21
-41.25278095165424
 31
0.0
  0
LINE
  5
B3B1
330
A
100
AcDbEntity
  8
0
  6
Continuous
 62
     7
370
     0
100
AcDbLine
 10
-34.6545263015074
 20
-41.25278095165424
 30
0.0
 11
-34.62069853384341
 21
-41.25082902086242
 31
0.0
  0
LINE
  5
B3B2
330
A
100
AcDbEntity
  8
0
  6
Continuous
 62
     7
370
     0
100
AcDbLine
 10
-34.62069853384341
 20
-41.25082902086242
 30
0.0
 11
-34.58678536207391
 21
-41.25002302083394
 31
0.0
  0
LINE
  5
B3B3
330
A
100
AcDbEntity
  8
0
  6
Continuous
 62
     7
370
     0
100
AcDbLine
 10
-34.58678536207381
 20
-8.749976979165722
 30
0.0
 11
-34.61983955509692
 21
-8.749205645326497
 31
0.0
  0
LINE
  5
B3B4
330
A
100
AcDbEntity
  8
0
  6
Continuous
 62
     7
370
     0
100
AcDbLine
 10
-34.61983955509692
 20
-8.749205645326497
 30
0.0
 11
-34.6528144652039
 21
-8.747345503653093
 31
0.0
  0
LINE
  5
B3B5
330
A
100
AcDbEntity
  8
0
  6
Continuous
 62
     7
370
     0
100
AcDbLine
 10
-34.6528144652039
 20
-8.747345503653093
 30
0.0
 11
-34.68592814709983
 21
-8.74437334992308
 31
0.0
  0
LINE
  5
B3B6
330
A
100
AcDbEntity
  8
0
  6
Continuous
 62
     7
370
     0
100
AcDbLine
 10
-34.68592814709983
 20
-8.74437334992308
 30
0.0
 11
-34.71881891432082
 21
-8.740317781839081
 31
0.0
  0
LINE
  5
B3B7
330
A
100
AcDbEntity
  8
0
  6
Continuous
 62
     7
370
     0
100
AcDbLine
 10
-34.71881891432082
 20
-8.740317781839081
 30
0.0
 11
-34.75176251679493
 21
-8.735137973911918
 31
0.0
  0
LINE
  5
B3B8
330
A
100
AcDbEntity
  8
0
  6
Continuous
 62
     7
370
     0
100
AcDbLine
 10
-34.75176251679493
 20
-8.735137973911918
 30
0.0
 11
-34.7843450705394
 21
-8.728898918247523
 31
0.0
  0
LINE
  5
B3B9
330
A
100
AcDbEntity
  8
0
  6
Continuous
 62
     7
370
     0
100
AcDbLine
 10
-34.7843450705394
 20
-8.728898918247523
 30
0.0
 11
-34.81677814508051
 21
-8.721563378410905
 31
0.0
  0
LINE
  5
B3BA
330
A
100
AcDbEntity
  8
0
  6
Continuous
 62
     7
370
     0
100
AcDbLine
 10
-34.81677814508051
 20
-8.721563378410905
 30
0.0
 11
-34.84872693968541
 21
-8.71321639930349
 31
0.0
  0
LINE
  5
B3BB
330
A
100
AcDbEntity
  8
0
  6
Continuous
 62
     7
370
     0
100
AcDbLine
 10
-34.84872693968541
 20
-8.71321639930349
 30
0.0
 11
-34.86910224597583
 21
-8.707298170060596
 31
0.0
  0
LINE
  5
B3BC
330
A
100
AcDbEntity
  8
0
  6
Continuous
 62
     7
370
     0
100
AcDbLine
 10
-34.86910224597583
 20
-8.707298170060596
 30
0.0
 11
-34.88924163747562
 21
-8.700983495993114
 31
0.0
  0
LINE
  5
B3BD
330
A
100
AcDbEntity
  8
0
  6
Continuous
 62
     7
370
     0
100
AcDbLine
 10
-34.88924163747562
 20
-8.700983495993114
 30
0.0
 11
-34.91589069558801
 21
-8.691900400918001
 31
0.0
  0
LINE
  5
B3BE
330
A
100
AcDbEntity
  8
0
  6
Continuous
 62
     7
370
     0
100
AcDbLine
 10
-34.91589069558801
 20
-8.691900400918001
 30
0.0
 11
-34.94207890011201
 21
-8.682146872518615
 31
0.0
  0
LINE
  5
B3BF
330
A
100
AcDbEntity
  8
0
  6
Continuous
 62
     7
370
     0
100
AcDbLine
 10
-34.94207890011201
 20
-8.682146872518615
 30
0.0
 11
-34.96776908991342
 21
-8.671756547526314
 31
0.0
  0
LINE
  5
B3C0
330
A
100
AcDbEntity
  8
0
  6
Continuous
 62
     7
370
     0
100
AcDbLine
 10
-34.96776908991342
 20
-8.671756547526314
 30
0.0
 11
-35.00563390785361
 21
-8.654894914788428
 31
0.0
  0
LINE
  5
B3C1
330
A
100
AcDbEntity
  8
0
  6
Continuous
 62
     7
370
     0
100
AcDbLine
 10
-35.00563390785361
 20
-8.654894914788428
 30
0.0
 11
-35.04228996315651
 21
-8.636728814218088
 31
0.0
  0
LINE
  5
B3C2
330
A
100
AcDbEntity
  8
0
  6
Continuous
 62
     7
370
     0
100
AcDbLine
 10
-35.04228996315651
 20
-8.636728814218088
 30
0.0
 11
-35.07781201267551
 21
-8.617284958958606
 31
0.0
  0
LINE
  5
B3C3
330
A
100
AcDbEntity
  8
0
  6
Continuous
 62
     7
370
     0
100
AcDbLine
 10
-35.07781201267551
 20
-8.617284958958606
 30
0.0
 11
-35.11342369056241
 21
-8.595847844415317
 31
0.0
  0
LINE
  5
B3C4
330
A
100
AcDbEntity
  8
0
  6
Continuous
 62
     7
370
     0
100
AcDbLine
 10
-35.11342369056241
 20
-8.595847844415317
 30
0.0
 11
-35.1476344208092
 21
-8.573280732382613
 31
0.0
  0
LINE
  5
B3C5
330
A
100
AcDbEntity
  8
0
  6
Continuous
 62
     7
370
     0
100
AcDbLine
 10
-35.1476344208092
 20
-8.573280732382613
 30
0.0
 11
-35.18067598291211
 21
-8.549492342546216
 31
0.0
  0
LINE
  5
B3C6
330
A
100
AcDbEntity
  8
0
  6
Continuous
 62
     7
370
     0
100
AcDbLine
 10
-35.18067598291211
 20
-8.549492342546216
 30
0.0
 11
-35.21228842576272
 21
-8.524733080903615
 31
0.0
  0
LINE
  5
B3C7
330
A
100
AcDbEntity
  8
0
  6
Continuous
 62
     7
370
     0
100
AcDbLine
 10
-35.21228842576272
 20
-8.524733080903615
 30
0.0
 11
-35.24272538031301
 21
-8.49886238427311
 31
0.0
  0
LINE
  5
B3C8
330
A
100
AcDbEntity
  8
0
  6
Continuous
 62
     7
370
     0
100
AcDbLine
 10
-35.24272538031301
 20
-8.49886238427311
 30
0.0
 11
-35.27172713244133
 21
-8.472158967433301
 31
0.0
  0
LINE
  5
B3C9
330
A
100
AcDbEntity
  8
0
  6
Continuous
 62
     7
370
     0
100
AcDbLine
 10
-35.27172713244133
 20
-8.472158967433301
 30
0.0
 11
-35.29948095098561
 21
-8.444512108422799
 31
0.0
  0
LINE
  5
B3CA
330
A
100
AcDbEntity
  8
0
  6
Continuous
 62
     7
370
     0
100
AcDbLine
 10
-35.29948095098561
 20
-8.444512108422799
 30
0.0
 11
-35.32581419607291
 21
-8.416154024934314
 31
0.0
  0
LINE
  5
B3CB
330
A
100
AcDbEntity
  8
0
  6
Continuous
 62
     7
370
     0
100
AcDbLine
 10
-35.32581419607291
 20
-8.416154024934314
 30
0.0
 11
-35.35928346865392
 21
-8.376671564194708
 31
0.0
  0
LINE
  5
B3CC
330
A
100
AcDbEntity
  8
0
  6
Continuous
 62
     7
370
     0
100
AcDbLine
 10
-35.35928346865392
 20
-8.376671564194708
 30
0.0
 11
-35.39022928710791
 21
-8.336113045676825
 31
0.0
  0
LINE
  5
B3CD
330
A
100
AcDbEntity
  8
0
  6
Continuous
 62
     7
370
     0
100
AcDbLine
 10
-35.39022928710791
 20
-8.336113045676825
 30
0.0
 11
-35.41890481888612
 21
-8.294278365046238
 31
0.0
  0
LINE
  5
B3CE
330
A
100
AcDbEntity
  8
0
  6
Continuous
 62
     7
370
     0
100
AcDbLine
 10
-35.41890481888612
 20
-8.294278365046238
 30
0.0
 11
-35.44512463633971
 21
-8.251556939537124
 31
0.0
  0
LINE
  5
B3CF
330
A
100
AcDbEntity
  8
0
  6
Continuous
 62
     7
370
     0
100
AcDbLine
 10
-35.44512463633971
 20
-8.251556939537124
 30
0.0
 11
-35.46912754922433
 21
-8.207660144829105
 31
0.0
  0
LINE
  5
B3D0
330
A
100
AcDbEntity
  8
0
  6
Continuous
 62
     7
370
     0
100
AcDbLine
 10
-35.46912754922433
 20
-8.207660144829105
 30
0.0
 11
-35.49073215613181
 21
-8.162997505788212
 31
0.0
  0
LINE
  5
B3D1
330
A
100
AcDbEntity
  8
0
  6
Continuous
 62
     7
370
     0
100
AcDbLine
 10
-35.49073215613181
 20
-8.162997505788212
 30
0.0
 11
-35.51009943861001
 21
-8.117309901906423
 31
0.0
  0
LINE
  5
B3D2
330
A
100
AcDbEntity
  8
0
  6
Continuous
 62
     7
370
     0
100
AcDbLine
 10
-35.51009943861001
 20
-8.117309901906423
 30
0.0
 11
-35.52712056340772
 21
-8.070877918171618
 31
0.0
  0
LINE
  5
B3D3
330
A
100
AcDbEntity
  8
0
  6
Continuous
 62
     7
370
     0
100
AcDbLine
 10
-35.52712056340772
 20
-8.070877918171618
 30
0.0
 11
-35.54054892272181
 21
-8.028111069642818
 31
0.0
  0
LINE
  5
B3D4
330
A
100
AcDbEntity
  8
0
  6
Continuous
 62
     7
370
     0
100
AcDbLine
 10
-35.54054892272181
 20
-8.028111069642818
 30
0.0
 11
-35.55210822496412
 21
-7.984544609300115
 31
0.0
  0
LINE
  5
B3D5
330
A
100
AcDbEntity
  8
0
  6
Continuous
 62
     7
370
     0
100
AcDbLine
 10
-35.55210822496412
 20
-7.984544609300115
 30
0.0
 11
-35.56179155557862
 21
-7.939961420805303
 31
0.0
  0
LINE
  5
B3D6
330
A
100
AcDbEntity
  8
0
  6
Continuous
 62
     7
370
     0
100
AcDbLine
 10
-35.56179155557862
 20
-7.939961420805303
 30
0.0
 11
-35.56612777714001
 21
-7.915991744638006
 31
0.0
  0
LINE
  5
B3D7
330
A
100
AcDbEntity
  8
0
  6
Continuous
 62
     7
370
     0
100
AcDbLine
 10
-35.56612777714001
 20
-7.915991744638006
 30
0.0
 11
-35.56993930863631
 21
-7.891492633082606
 31
0.0
  0
LINE
  5
B3D8
330
A
100
AcDbEntity
  8
0
  6
Continuous
 62
     7
370
     0
100
AcDbLine
 10
-35.56993930863631
 20
-7.891492633082606
 30
0.0
 11
-35.57303266788982
 21
-7.867848720005724
 31
0.0
  0
LINE
  5
B3D9
330
A
100
AcDbEntity
  8
0
  6
Continuous
 62
     7
370
     0
100
AcDbLine
 10
-35.57303266788982
 20
-7.867848720005724
 30
0.0
 11
-35.57563434775182
 21
-7.843339410630704
 31
0.0
  0
LINE
  5
B3DA
330
A
100
AcDbEntity
  8
0
  6
Continuous
 62
     7
370
     0
100
AcDbLine
 10
-35.57563434775182
 20
-7.843339410630704
 30
0.0
 11
-35.57670375253193
 21
-7.83112822678791
 31
0.0
  0
LINE
  5
B3DB
330
A
100
AcDbEntity
  8
0
  6
Continuous
 62
     7
370
     0
100
AcDbLine
 10
-35.57670375253193
 20
-7.83112822678791
 30
0.0
 11
-35.57764433309151
 21
-7.818598721928822
 31
0.0
  0
LINE
  5
B3DC
330
A
100
AcDbEntity
  8
0
  6
Continuous
 62
     7
370
     0
100
AcDbLine
 10
-35.57764433309151
 20
-7.818598721928822
 30
0.0
 11
-35.57803240567873
 21
-7.812700245945421
 31
0.0
  0
LINE
  5
B3DD
330
A
100
AcDbEntity
  8
0
  6
Continuous
 62
     7
370
     0
100
AcDbLine
 10
-35.57803240567873
 20
-7.812700245945421
 30
0.0
 11
-35.57839007236241
 21
-7.806720925663825
 31
0.0
  0
LINE
  5
B3DE
330
A
100
AcDbEntity
  8
0
  6
Continuous
 62
     7
370
     0
100
AcDbLine
 10
-35.57839007236241
 20
-7.806720925663825
 30
0.0
 11
-35.57880790697323
 21
-7.798812358356741
 31
0.0
  0
LINE
  5
B3DF
330
A
100
AcDbEntity
  8
0
  6
Continuous
 62
     7
370
     0
100
AcDbLine
 10
-35.57880790697323
 20
-7.798812358356741
 30
0.0
 11
-35.57916911564672
 21
-7.790754859919729
 31
0.0
  0
LINE
  5
B3E0
330
A
100
AcDbEntity
  8
0
  6
Continuous
 62
     7
370
     0
100
AcDbLine
 10
-35.57916911564672
 20
-7.790754859919729
 30
0.0
 11
-35.57946973178132
 21
-7.782561560971316
 31
0.0
  0
LINE
  5
B3E1
330
A
100
AcDbEntity
  8
0
  6
Continuous
 62
     7
370
     0
100
AcDbLine
 10
-35.57946973178132
 20
-7.782561560971316
 30
0.0
 11
-35.57964984958251
 21
-7.776460288733233
 31
0.0
  0
LINE
  5
B3E2
330
A
100
AcDbEntity
  8
0
  6
Continuous
 62
     7
370
     0
100
AcDbLine
 10
-35.57964984958251
 20
-7.776460288733233
 30
0.0
 11
-35.57979401481552
 21
-7.770296007957512
 31
0.0
  0
LINE
  5
B3E3
330
A
100
AcDbEntity
  8
0
  6
Continuous
 62
     7
370
     0
100
AcDbLine
 10
-35.57979401481552
 20
-7.770296007957512
 30
0.0
 11
-35.57988335757833
 21
-7.76527256412092
 31
0.0
  0
LINE
  5
B3E4
330
A
100
AcDbEntity
  8
0
  6
Continuous
 62
     7
370
     0
100
AcDbLine
 10
-35.57988335757833
 20
-7.76527256412092
 30
0.0
 11
-35.57994775339331
 21
-7.760222058676703
 31
0.0
  0
LINE
  5
B3E5
330
A
100
AcDbEntity
  8
0
  6
Continuous
 62
     7
370
     0
100
AcDbLine
 10
-35.57994775339331
 20
-7.760222058676703
 30
0.0
 11
-35.57998690140983
 21
-7.755115904872013
 31
0.0
  0
LINE
  5
B3E6
330
A
100
AcDbEntity
  8
0
  6
Continuous
 62
     7
370
     0
100
AcDbLine
 10
-35.57998690140983
 20
-7.755115904872013
 30
0.0
 11
-35.57999999999991
 21
-7.75
 31
0.0
  0
LINE
  5
B8AA
330
A
100
AcDbEntity
  8
0
  6
CENTER
 62
     1
100
AcDbLine
 10
8.500000000000085
 20
0.0000000000000426
 30
0.0
 11
8.500000000000085
 21
-49.99999999999996
 31
0.0
  0
ARC
  5
B8AB
330
A
100
AcDbEntity
  8
0
  6
CENTER
 62
     1
100
AcDbCircle
 10
0.5000000000000853
 20
-49.99999999999996
 30
0.0
 40
8.0
100
AcDbArc
 50
202.6198650000005
 51
0.0
  0
ARC
  5
B8AC
330
A
100
AcDbEntity
  8
0
  6
CENTER
 62
     1
100
AcDbCircle
 10
-11.49999999999991
 20
-54.99999999999996
 30
0.0
 40
5.0
100
AcDbArc
 50
22.61986500000055
 51
90.0
  0
LINE
  5
B8AD
330
A
100
AcDbEntity
  8
0
  6
CENTER
 62
     1
100
AcDbLine
 10
-11.49999999999991
 20
-49.99999999999996
 30
0.0
 11
-32.49999999999992
 21
-49.99999999999996
 31
0.0
  0
LINE
  5
B8B0
330
A
100
AcDbEntity
  8
0
  6
CENTER
 62
     1
100
AcDbLine
 10
-32.49999999999992
 20
0.0000000000000426
 30
0.0
 11
-11.49999999999991
 21
0.0000000000000426
 31
0.0
  0
ARC
  5
B8B1
330
A
100
AcDbEntity
  8
0
  6
CENTER
 62
     1
100
AcDbCircle
 10
-11.49999999999991
 20
5.000000000000042
 30
0.0
 40
5.0
100
AcDbArc
 50
270.0
 51
337.3801349999994
  0
ARC
  5
B8B2
330
A
100
AcDbEntity
  8
0
  6
CENTER
 62
     1
100
AcDbCircle
 10
0.5000000000000853
 20
0.0000000000000426
 30
0.0
 40
8.0
100
AcDbArc
 50
0.0
 51
157.3801349999994
  0
CIRCLE
  5
BB7C
330
A
100
AcDbEntity
  8
0
  6
Continuous
 62
     7
370
     0
100
AcDbCircle
 10
92.50000000000012
 20
-54.99999999999992
 30
0.0
 40
2.649999999999984
  0
LINE
  5
BB7D
330
A
100
AcDbEntity
  8
0
  6
Continuous
 62
     7
370
     0
100
AcDbLine
 10
58.50000000000012
 20
-65.0
 30
0.0
 11
98.50000000000012
 21
-65.0
 31
0.0
  0
LINE
  5
BB7E
330
A
100
AcDbEntity
  8
0
  6
Continuous
 62
     7
370
     0
100
AcDbLine
 10
58.50000000000012
 20
15.00000000000008
 30
0.0
 11
58.50000000000012
 21
-65.0
 31
0.0
  0
CIRCLE
  5
BB7F
330
A
100
AcDbEntity
  8
0
  6
Continuous
 62
     7
370
     0
100
AcDbCircle
 10
64.50000000000011
 20
5.000000000000085
 30
0.0
 40
2.649999999999984
  0
LINE
  5
BB80
330
A
100
AcDbEntity
  8
0
  6
Continuous
 62
     7
370
     0
100
AcDbLine
 10
98.50000000000012
 20
15.00000000000008
 30
0.0
 11
98.50000000000012
 21
-65.0
 31
0.0
  0
CIRCLE
  5
BB81
330
A
100
AcDbEntity
  8
0
  6
Continuous
 62
     7
370
     0
100
AcDbCircle
 10
92.50000000000012
 20
5.000000000000085
 30
0.0
 40
2.649999999999984
  0
LINE
  5
BB82
330
A
100
AcDbEntity
  8
0
  6
Continuous
 62
     7
370
     0
100
AcDbLine
 10
58.50000000000012
 20
15.00000000000008
 30
0.0
 11
98.50000000000012
 21
15.00000000000008
 31
0.0
  0
CIRCLE
  5
BB83
330
A
100
AcDbEntity
  8
0
  6
Continuous
 62
     7
370
     0
100
AcDbCircle
 10
64.50000000000011
 20
-54.99999999999992
 30
0.0
 40
2.649999999999984
  0
LINE
  5
BC31
330
A
100
AcDbEntity
  8
0
  6
CENTER
 62
     1
100
AcDbLine
 10
59.85000000000013
 20
-54.99999999999992
 30
0.0
 11
69.15000000000009
 21
-54.99999999999992
 31
0.0
  0
LINE
  5
BC32
330
A
100
AcDbEntity
  8
0
  6
CENTER
 62
     1
100
AcDbLine
 10
64.50000000000011
 20
-59.64999999999992
 30
0.0
 11
64.50000000000011
 21
-50.35000000000002
 31
0.0
  0
LINE
  5
BC33
330
A
100
AcDbEntity
  8
0
  6
CENTER
 62
     1
100
AcDbLine
 10
59.85000000000013
 20
5.000000000000085
 30
0.0
 11
69.15000000000009
 21
5.000000000000085
 31
0.0
  0
LINE
  5
BC34
330
A
100
AcDbEntity
  8
0
  6
CENTER
 62
     1
100
AcDbLine
 10
64.50000000000011
 20
0.3500000000000796
 30
0.0
 11
64.50000000000011
 21
9.65000000000009
 31
0.0
  0
LINE
  5
BC35
330
A
100
AcDbEntity
  8
0
  6
CENTER
 62
     1
100
AcDbLine
 10
87.85000000000014
 20
-54.99999999999992
 30
0.0
 11
97.1500000000001
 21
-54.99999999999992
 31
0.0
  0
LINE
  5
BC36
330
A
100
AcDbEntity
  8
0
  6
CENTER
 62
     1
100
AcDbLine
 10
92.50000000000012
 20
-59.64999999999992
 30
0.0
 11
92.50000000000012
 21
-50.35000000000002
 31
0.0
  0
LINE
  5
BC37
330
A
100
AcDbEntity
  8
0
  6
CENTER
 62
     1
100
AcDbLine
 10
87.85000000000014
 20
5.000000000000085
 30
0.0
 11
97.1500000000001
 21
5.000000000000085
 31
0.0
  0
LINE
  5
BC38
330
A
100
AcDbEntity
  8
0
  6
CENTER
 62
     1
100
AcDbLine
 10
92.50000000000012
 20
0.3500000000000796
 30
0.0
 11
92.50000000000012
 21
9.65000000000009
 31
0.0
  0
ENDSEC
  0
SECTION
  2
OBJECTS
  0
DICTIONARY
  5
19
330
0
100
AcDbDictionary
281
     1
  3
ACAD_COLOR
350
5829
  3
ACAD_GROUP
350
1A
  3
ACAD_LAYOUT
350
1E
  3
ACAD_MATERIAL
350
57FF
  3
ACAD_MLEADERSTYLE
350
584E
  3
ACAD_MLINESTYLE
350
1B
  3
ACAD_PLOTSETTINGS
350
22
  3
ACAD_PLOTSTYLENAME
350
1F
  3
ACAD_SCALELIST
350
582C
  3
ACAD_TABLESTYLE
350
582A
  3
ACAD_VISUALSTYLE
350
5818
  3
ACAD_WIPEOUT_VARS
350
23
  3
ACDB_RECOMPOSE_DATA
350
AB90
  3
AcDbVariableDictionary
350
AB91
  3
ASE_INDEX_DICTIONARY
350
B929
  3
DWGPROPS
350
BD0C
  0
DICTIONARY
  5
5858
330
14
100
AcDbDictionary
280
     1
281
     1
  3
ADSK_XREC_LAYER_RECONCILED
360
5859
  0
DICTIONARY
  5
5864
330
A
100
AcDbDictionary
280
     1
281
     1
  3
ACAD_SORTENTS
360
5865
  0
DICTIONARY
  5
5829
102
{ACAD_REACTORS
330
19
102
}
330
19
100
AcDbDictionary
281
     1
  0
DICTIONARY
  5
1A
102
{ACAD_REACTORS
330
19
102
}
330
19
100
AcDbDictionary
281
     1
  0
DICTIONARY
  5
1E
102
{ACAD_REACTORS
330
19
102
}
330
19
100
AcDbDictionary
281
     1
  3
Layout1
350
21
  3
Model
350
20
  0
DICTIONARY
  5
57FF
102
{ACAD_REACTORS
330
19
102
}
330
19
100
AcDbDictionary
281
     1
  3
ByBlock
350
5808
  3
ByLayer
350
5800
  3
Global
350
5810
  0
DICTIONARY
  5
584E
102
{ACAD_REACTORS
330
19
102
}
330
19
100
AcDbDictionary
281
     1
  3
Standard
350
584F
  0
DICTIONARY
  5
1B
102
{ACAD_REACTORS
330
19
102
}
330
19
100
AcDbDictionary
281
     1
  3
Standard
350
1C
  0
DICTIONARY
  5
22
102
{ACAD_REACTORS
330
19
102
}
330
19
100
AcDbDictionary
281
     1
  0
ACDBDICTIONARYWDFLT
  5
1F
102
{ACAD_REACTORS
330
19
102
}
330
19
100
AcDbDictionary
281
     1
  3
Normal
350
1D
100
AcDbDictionaryWithDefault
340
1D
  0
DICTIONARY
  5
582C
102
{ACAD_REACTORS
330
19
102
}
330
19
100
AcDbDictionary
281
     1
  3
A0
350
582D
  3
A1
350
582E
  3
A2
350
582F
  3
A3
350
5830
  3
A4
350
5831
  3
A5
350
5832
  3
A6
350
5833
  3
A7
350
5834
  3
A8
350
5835
  3
A9
350
5836
  3
B0
350
5837
  3
B1
350
5838
  3
B2
350
5839
  3
B3
350
583A
  3
B4
350
583B
  3
B5
350
583C
  3
B6
350
583D
  3
B7
350
583E
  3
B8
350
583F
  3
B9
350
5840
  3
C0
350
5841
  3
C1
350
5842
  3
C2
350
5843
  3
C3
350
5844
  3
C4
350
5845
  3
C5
350
5846
  3
C6
350
5847
  3
C7
350
5848
  3
C8
350
5849
  3
C9
350
584A
  3
D0
350
584B
  3
D1
350
584C
  3
D2
350
584D
  0
DICTIONARY
  5
582A
102
{ACAD_REACTORS
330
19
102
}
330
19
100
AcDbDictionary
281
     1
  3
Standard
350
582B
  0
DICTIONARY
  5
5818
102
{ACAD_REACTORS
330
19
102
}
330
19
100
AcDbDictionary
281
     1
  3
2dWireframe
350
581E
  3
3D Hidden
350
5820
  3
3dWireframe
350
581F
  3
Basic
350
581D
  3
Brighten
350
5824
  3
ColorChange
350
5828
  3
Conceptual
350
5821
  3
Dim
350
5823
  3
Facepattern
350
5827
  3
Flat
350
5819
  3
FlatWithEdges
350
581A
  3
Gouraud
350
581B
  3
GouraudWithEdges
350
581C
  3
Linepattern
350
5826
  3
Realistic
350
5822
  3
Thicken
350
5825
  0
WIPEOUTVARIABLES
  5
23
330
19
100
AcDbWipeoutVariables
 70
     1
  0
XRECORD
  5
AB90
102
{ACAD_REACTORS
330
19
102
}
330
19
100
AcDbXrecord
280
     1
 90
        1
330
582B
  0
DICTIONARY
  5
AB91
102
{ACAD_REACTORS
330
19
102
}
330
19
100
AcDbDictionary
281
     1
  3
CANNOSCALE
350
AB95
  3
CMLEADERSTYLE
350
AB93
  3
CTABLESTYLE
350
AB92
  3
DIMASSOC
350
B616
  3
INDEXCTL
350
B615
  3
LIGHTINGUNITS
350
AB96
  3
MSLTSCALE
350
AB94
  3
SORTENTS
350
B614
  0
DICTIONARY
  5
B929
102
{ACAD_REACTORS
330
19
102
}
330
19
100
AcDbDictionary
281
     1
  3
ASEBlockHierarchyIndexRecord
350
B92A
1001
DCO15
1040
1684841593.825
  0
XRECORD
  5
BD0C
102
{ACAD_REACTORS
330
19
102
}
330
19
100
AcDbXrecord
280
     1
  1
DWGPROPS COOKIE
  2

  3

  4

  6

  7

  8
renzo.ceresoli
  9

300
=
301
=
302
=
303
=
304
=
305
=
306
=
307
=
308
=
309
=
 40
0.1754611342592593
 41
2455301.802361111
 42
2455303.693261863
  1

 90
        0
  0
XRECORD
  5
5859
102
{ACAD_REACTORS
330
5858
102
}
330
5858
100
AcDbXrecord
280
     1
290
     1
  0
SORTENTSTABLE
  5
5865
102
{ACAD_REACTORS
330
5864
102
}
330
5864
100
AcDbSortentsTable
330
A
331
9348
  5
6C87
331
9317
  5
6C56
331
B383
  5
B383
331
B35A
  5
B35A
331
96E4
  5
6AB6
331
9653
  5
6A8F
331
B27D
  5
B27D
331
9422
  5
6C07
331
93F9
  5
6BDE
331
9516
  5
6B96
331
92F4
  5
6C33
331
B32F
  5
B32F
331
B306
  5
B306
331
9630
  5
6A6C
331
B3B8
  5
B3B8
331
1A3F
  5
6CEC
331
B2DB
  5
B2DB
331
B2AA
  5
B2AA
331
94E8
  5
6B68
331
94B7
  5
6B37
331
9574
  5
6AEB
331
9352
  5
6C91
331
B38D
  5
B38D
331
B364
  5
B364
331
96EE
  5
6AC0
331
1A45
  5
6CF2
331
B2B0
  5
B2B0
331
B287
  5
B287
331
94BD
  5
6B3D
331
942C
  5
6C11
331
9551
  5
6AC8
331
9520
  5
6BA0
331
9327
  5
6C66
331
92FE
  5
6C3D
331
B36A
  5
B36A
331
B339
  5
B339
331
963A
  5
6A76
331
9409
  5
6BEE
331
93D8
  5
6CD8
331
94F5
  5
6B75
331
B30E
  5
B30E
331
B2E5
  5
B2E5
331
960F
  5
6B1C
331
957E
  5
6AF5
331
935C
  5
6C9B
331
B3C8
  5
B3C8
331
B397
  5
B397
331
B2BA
  5
B2BA
331
94C7
  5
6B47
331
955B
  5
6AD2
331
952A
  5
6BAA
331
9331
  5
6C70
331
9362
  5
6CA1
331
B374
  5
B374
331
B343
  5
B343
331
96CD
  5
6A9F
331
9413
  5
6BF8
331
9530
  5
6BB0
331
94FF
  5
6B7F
331
9306
  5
6C45
331
B349
  5
B349
331
B318
  5
B318
331
B2EF
  5
B2EF
331
9642
  5
6A7E
331
9619
  5
6B26
331
93E8
  5
6BCD
331
B3D2
  5
B3D2
331
B2F5
  5
B2F5
331
B2C4
  5
B2C4
331
94D1
  5
6B51
331
958E
  5
6B05
331
9565
  5
6ADC
331
936C
  5
6CAB
331
933B
  5
6C7A
331
B3A7
  5
B3A7
331
B37E
  5
B37E
331
96D7
  5
6AA9
331
B299
  5
B299
331
94A6
  5
6C20
331
953A
  5
6BBA
331
9509
  5
6B89
331
9341
  5
6C80
331
9310
  5
6C4F
331
B353
  5
B353
331
B322
  5
B322
331
964C
  5
6A88
331
9623
  5
6A5F
331
941B
  5
6C00
331
93F2
  5
6BD7
331
92ED
  5
6C2C
331
B3DC
  5
B3DC
331
B328
  5
B328
331
B2FF
  5
B2FF
331
B2CE
  5
B2CE
331
9629
  5
6A65
331
9598
  5
6B0F
331
9376
  5
6CB5
331
B3E2
  5
B3E2
331
B3B1
  5
B3B1
331
1A38
  5
6CE5
331
B2D4
  5
B2D4
331
B2A3
  5
B2A3
331
94E1
  5
6B61
331
94B0
  5
6B30
331
956D
  5
6AE4
331
9544
  5
6BC4
331
934B
  5
6C8A
331
931A
  5
6C59
331
B386
  5
B386
331
B35D
  5
B35D
331
96E7
  5
6AB9
331
9656
  5
6A92
331
B280
  5
B280
331
9425
  5
6C0A
331
93FC
  5
6BE1
331
9519
  5
6B99
331
9320
  5
6C5F
331
92F7
  5
6C36
331
B332
  5
B332
331
9633
  5
6A6F
331
9402
  5
6BE7
331
93D1
  5
6CD1
331
B3BB
  5
B3BB
331
B2DE
  5
B2DE
331
B2AD
  5
B2AD
331
94EB
  5
6B6B
331
9577
  5
6AEE
331
954E
  5
6AC5
331
937E
  5
6CB9
331
9355
  5
6C94
331
B3C1
  5
B3C1
331
B390
  5
B390
331
B367
  5
B367
331
96F1
  5
6AC3
331
B2B3
  5
B2B3
331
B28A
  5
B28A
331
94C0
  5
6B40
331
942F
  5
6C14
331
9554
  5
6ACB
331
9523
  5
6BA3
331
932A
  5
6C69
331
B36D
  5
B36D
331
B33C
  5
B33C
331
963D
  5
6A79
331
940C
  5
6BF1
331
93DB
  5
6CDB
331
94F8
  5
6B78
331
B311
  5
B311
331
B2E8
  5
B2E8
331
9612
  5
6B1F
331
9581
  5
6AF8
331
93E1
  5
6BC6
331
9388
  5
6CBD
331
935F
  5
6C9E
331
B3CB
  5
B3CB
331
B39A
  5
B39A
331
B2BD
  5
B2BD
331
94CA
  5
6B4A
331
955E
  5
6AD5
331
952D
  5
6BAD
331
9365
  5
6CA4
331
9334
  5
6C73
331
B3A0
  5
B3A0
331
B377
  5
B377
331
B346
  5
B346
331
96D0
  5
6AA2
331
B292
  5
B292
331
9416
  5
6BFB
331
9533
  5
6BB3
331
9502
  5
6B82
331
9309
  5
6C48
331
B34C
  5
B34C
331
B31B
  5
B31B
331
9645
  5
6A81
331
961C
  5
6A58
331
93EB
  5
6BD0
331
93AA
  5
6CC3
331
B3D5
  5
B3D5
331
B2F8
  5
B2F8
331
B2C7
  5
B2C7
331
94D4
  5
6B54
331
9591
  5
6B08
331
93B0
  5
6CC9
331
936F
  5
6CAE
331
933E
  5
6C7D
331
B3AA
  5
B3AA
331
96DA
  5
6AAC
331
B29C
  5
B29C
331
94DA
  5
6B5A
331
94A9
  5
6C23
331
950C
  5
6B8C
331
953D
  5
6BBD
331
9344
  5
6C83
331
9313
  5
6C52
331
B356
  5
B356
331
B325
  5
B325
331
96E0
  5
6AB2
331
964F
  5
6A8B
331
9626
  5
6A62
331
941E
  5
6C03
331
93F5
  5
6BDA
331
9512
  5
6B92
331
92F0
  5
6C2F
331
B3DF
  5
B3DF
331
B32B
  5
B32B
331
B302
  5
B302
331
962C
  5
6A68
331
959B
  5
6B12
331
B3E5
  5
B3E5
331
B3B4
  5
B3B4
331
1A3B
  5
6CE8
331
B2D7
  5
B2D7
331
B2A6
  5
B2A6
331
94E4
  5
6B64
331
94B3
  5
6B33
331
9570
  5
6AE7
331
934E
  5
6C8D
331
931D
  5
6C5C
331
B389
  5
B389
331
B360
  5
B360
331
96EA
  5
6ABC
331
9659
  5
6A95
331
1A41
  5
6CEE
331
B283
  5
B283
331
94B9
  5
6B39
331
9428
  5
6C0D
331
93FF
  5
6BE4
331
951C
  5
6B9C
331
9323
  5
6C62
331
92FA
  5
6C39
331
B335
  5
B335
331
9636
  5
6A72
331
95D5
  5
6B18
331
9405
  5
6BEA
331
93D4
  5
6CD4
331
94F1
  5
6B71
331
B3BE
  5
B3BE
331
B30A
  5
B30A
331
B2E1
  5
B2E1
331
94EE
  5
6B6E
331
957A
  5
6AF1
331
9358
  5
6C97
331
B3C4
  5
B3C4
331
B393
  5
B393
331
B2B6
  5
B2B6
331
B28D
  5
B28D
331
94C3
  5
6B43
331
9557
  5
6ACE
331
9526
  5
6BA6
331
932D
  5
6C6C
331
B370
  5
B370
331
B33F
  5
B33F
331
9468
  5
6C18
331
940F
  5
6BF4
331
93DE
  5
6CDE
331
94FB
  5
6B7B
331
9302
  5
6C41
331
B314
  5
B314
331
B2EB
  5
B2EB
331
9615
  5
6B22
331
9584
  5
6AFB
331
93E4
  5
6BC9
331
938B
  5
6CC0
331
B3CE
  5
B3CE
331
B39D
  5
B39D
331
B2F1
  5
B2F1
331
B2C0
  5
B2C0
331
94CD
  5
6B4D
331
9561
  5
6AD8
331
958A
  5
6B01
331
9368
  5
6CA7
331
9337
  5
6C76
331
B3A3
  5
B3A3
331
B37A
  5
B37A
331
96D3
  5
6AA5
331
B295
  5
B295
331
94A2
  5
6C1C
331
9536
  5
6BB6
331
9505
  5
6B85
331
930C
  5
6C4B
331
B34F
  5
B34F
331
B31E
  5
B31E
331
961F
  5
6A5B
331
9648
  5
6A84
331
93EE
  5
6BD3
331
93AD
  5
6CC6
331
B3D8
  5
B3D8
331
B2FB
  5
B2FB
331
B2CA
  5
B2CA
331
94D7
  5
6B57
331
9594
  5
6B0B
331
93B3
  5
6CCC
331
9372
  5
6CB1
331
B3AD
  5
B3AD
331
96DD
  5
6AAF
331
1A34
  5
6CE1
331
B2D0
  5
B2D0
331
B29F
  5
B29F
331
94DD
  5
6B5D
331
94AC
  5
6C26
331
9569
  5
6AE0
331
9540
  5
6BC0
331
950F
  5
6B8F
331
9347
  5
6C86
331
9316
  5
6C55
331
B382
  5
B382
331
B359
  5
B359
331
96E3
  5
6AB5
331
9652
  5
6A8E
331
B27C
  5
B27C
331
9421
  5
6C06
331
93F8
  5
6BDD
331
9515
  5
6B95
331
92F3
  5
6C32
331
B32E
  5
B32E
331
B305
  5
B305
331
962F
  5
6A6B
331
B3B7
  5
B3B7
331
1A3E
  5
6CEB
331
B2DA
  5
B2DA
331
B2A9
  5
B2A9
331
94E7
  5
6B67
331
94B6
  5
6B36
331
9573
  5
6AEA
331
9351
  5
6C90
331
B38C
  5
B38C
331
B363
  5
B363
331
96ED
  5
6ABF
331
965C
  5
6A98
331
1A44
  5
6CF1
331
B286
  5
B286
331
94BC
  5
6B3C
331
942B
  5
6C10
331
9550
  5
6AC7
331
951F
  5
6B9F
331
9326
  5
6C65
331
92FD
  5
6C3C
331
B369
  5
B369
331
B338
  5
B338
331
9639
  5
6A75
331
9408
  5
6BED
331
93D7
  5
6CD7
331
94F4
  5
6B74
331
B30D
  5
B30D
331
B2E4
  5
B2E4
331
960E
  5
6B1B
331
957D
  5
6AF4
331
935B
  5
6C9A
331
B3C7
  5
B3C7
331
B396
  5
B396
331
B2B9
  5
B2B9
331
94C6
  5
6B46
331
955A
  5
6AD1
331
9529
  5
6BA9
331
9361
  5
6CA0
331
9330
  5
6C6F
331
B373
  5
B373
331
B342
  5
B342
331
96CC
  5
6A9E
331
9412
  5
6BF7
331
94FE
  5
6B7E
331
9305
  5
6C44
331
B348
  5
B348
331
B317
  5
B317
331
B2EE
  5
B2EE
331
9641
  5
6A7D
331
9618
  5
6B25
331
9587
  5
6AFE
331
93E7
  5
6BCC
331
B3D1
  5
B3D1
331
B2F4
  5
B2F4
331
B2C3
  5
B2C3
331
94D0
  5
6B50
331
958D
  5
6B04
331
9564
  5
6ADB
331
936B
  5
6CAA
331
933A
  5
6C79
331
B3A6
  5
B3A6
331
B37D
  5
B37D
331
96D6
  5
6AA8
331
B298
  5
B298
331
94A5
  5
6C1F
331
9539
  5
6BB9
331
9508
  5
6B88
331
930F
  5
6C4E
331
9340
  5
6C7F
331
B352
  5
B352
331
B321
  5
B321
331
964B
  5
6A87
331
9622
  5
6A5E
331
941A
  5
6BFF
331
93F1
  5
6BD6
331
92EC
  5
6C2B
331
B3DB
  5
B3DB
331
B2FE
  5
B2FE
331
B2CD
  5
B2CD
331
9628
  5
6A64
331
9597
  5
6B0E
331
9375
  5
6CB4
331
B3E1
  5
B3E1
331
B3B0
  5
B3B0
331
1A37
  5
6CE4
331
B2D3
  5
B2D3
331
B2A2
  5
B2A2
331
94E0
  5
6B60
331
94AF
  5
6C29
331
956C
  5
6AE3
331
9543
  5
6BC3
331
934A
  5
6C89
331
9319
  5
6C58
331
B385
  5
B385
331
B35C
  5
B35C
331
96E6
  5
6AB8
331
9655
  5
6A91
331
B27F
  5
B27F
331
93FB
  5
6BE0
331
9424
  5
6C09
331
9518
  5
6B98
331
92F6
  5
6C35
331
B331
  5
B331
331
9632
  5
6A6E
331
9401
  5
6BE6
331
93D0
  5
6CD0
331
B3BA
  5
B3BA
331
B2DD
  5
B2DD
331
B2AC
  5
B2AC
331
94EA
  5
6B6A
331
9576
  5
6AED
331
954D
  5
6AC4
331
937D
  5
6CB8
331
9354
  5
6C93
331
B3C0
  5
B3C0
331
B38F
  5
B38F
331
B366
  5
B366
331
96F0
  5
6AC2
331
B2B2
  5
B2B2
331
B289
  5
B289
331
94BF
  5
6B3F
331
942E
  5
6C13
331
9553
  5
6ACA
331
9522
  5
6BA2
331
9329
  5
6C68
331
B36C
  5
B36C
331
B33B
  5
B33B
331
963C
  5
6A78
331
940B
  5
6BF0
331
93DA
  5
6CDA
331
94F7
  5
6B77
331
B310
  5
B310
331
B2E7
  5
B2E7
331
9611
  5
6B1E
331
9580
  5
6AF7
331
93E0
  5
6BC5
331
9387
  5
6CBC
331
935E
  5
6C9D
331
B3CA
  5
B3CA
331
B399
  5
B399
331
B2BC
  5
B2BC
331
94C9
  5
6B49
331
955D
  5
6AD4
331
952C
  5
6BAC
331
9364
  5
6CA3
331
9333
  5
6C72
331
B376
  5
B376
331
B345
  5
B345
331
96CF
  5
6AA1
331
B291
  5
B291
331
9415
  5
6BFA
331
9532
  5
6BB2
331
9501
  5
6B81
331
9308
  5
6C47
331
B34B
  5
B34B
331
B31A
  5
B31A
331
9644
  5
6A80
331
961B
  5
6A57
331
93EA
  5
6BCF
331
B3D4
  5
B3D4
331
B2F7
  5
B2F7
331
B2C6
  5
B2C6
331
94D3
  5
6B53
331
9590
  5
6B07
331
9567
  5
6ADE
331
936E
  5
6CAD
331
933D
  5
6C7C
331
B3A9
  5
B3A9
331
96D9
  5
6AAB
331
B29B
  5
B29B
331
94A8
  5
6C22
331
94D9
  5
6B59
331
953C
  5
6BBC
331
950B
  5
6B8B
331
9343
  5
6C82
331
9312
  5
6C51
331
B355
  5
B355
331
B324
  5
B324
331
964E
  5
6A8A
331
9625
  5
6A61
331
941D
  5
6C02
331
93F4
  5
6BD9
331
9511
  5
6B91
331
92EF
  5
6C2E
331
B3DE
  5
B3DE
331
B32A
  5
B32A
331
B301
  5
B301
331
962B
  5
6A67
331
959A
  5
6B11
331
B3E4
  5
B3E4
331
B3B3
  5
B3B3
331
1A3A
  5
6CE7
331
B2D6
  5
B2D6
331
B2A5
  5
B2A5
331
94E3
  5
6B63
331
94B2
  5
6B32
331
956F
  5
6AE6
331
934D
  5
6C8C
331
931C
  5
6C5B
331
B388
  5
B388
331
B35F
  5
B35F
331
96E9
  5
6ABB
331
9658
  5
6A94
331
1A40
  5
6CED
331
B282
  5
B282
331
94B8
  5
6B38
331
9427
  5
6C0C
331
93FE
  5
6BE3
331
951B
  5
6B9B
331
9322
  5
6C61
331
92F9
  5
6C38
331
B334
  5
B334
331
9635
  5
6A71
331
95D4
  5
6B17
331
9404
  5
6BE9
331
93D3
  5
6CD3
331
94F0
  5
6B70
331
B3BD
  5
B3BD
331
B309
  5
B309
331
B2E0
  5
B2E0
331
B2AF
  5
B2AF
331
94ED
  5
6B6D
331
9579
  5
6AF0
331
9357
  5
6C96
331
B3C3
  5
B3C3
331
B392
  5
B392
331
B2B5
  5
B2B5
331
B28C
  5
B28C
331
94C2
  5
6B42
331
9431
  5
6C16
331
9556
  5
6ACD
331
9525
  5
6BA5
331
932C
  5
6C6B
331
B36F
  5
B36F
331
B33E
  5
B33E
331
963F
  5
6A7B
331
940E
  5
6BF3
331
93DD
  5
6CDD
331
94FA
  5
6B7A
331
9301
  5
6C40
331
B313
  5
B313
331
B2EA
  5
B2EA
331
9614
  5
6B21
331
9583
  5
6AFA
331
93E3
  5
6BC8
331
938A
  5
6CBF
331
B3CD
  5
B3CD
331
B39C
  5
B39C
331
B2F0
  5
B2F0
331
B2BF
  5
B2BF
331
94CC
  5
6B4C
331
9589
  5
6B00
331
9560
  5
6AD7
331
952F
  5
6BAF
331
9367
  5
6CA6
331
9336
  5
6C75
331
B3A2
  5
B3A2
331
B379
  5
B379
331
96D2
  5
6AA4
331
B294
  5
B294
331
9535
  5
6BB5
331
9504
  5
6B84
331
930B
  5
6C4A
331
B34E
  5
B34E
331
B31D
  5
B31D
331
9647
  5
6A83
331
961E
  5
6A5A
331
93ED
  5
6BD2
331
93AC
  5
6CC5
331
B3D7
  5
B3D7
331
B2FA
  5
B2FA
331
B2C9
  5
B2C9
331
94D6
  5
6B56
331
9593
  5
6B0A
331
93B2
  5
6CCB
331
9371
  5
6CB0
331
B3AC
  5
B3AC
331
96DC
  5
6AAE
331
1A33
  5
6CE0
331
B29E
  5
B29E
331
94DC
  5
6B5C
331
94AB
  5
6C25
331
953F
  5
6BBF
331
950E
  5
6B8E
331
9568
  5
6ADF
331
9346
  5
6C85
331
9315
  5
6C54
331
B381
  5
B381
331
B358
  5
B358
331
B327
  5
B327
331
96E2
  5
6AB4
331
9651
  5
6A8D
331
9420
  5
6C05
331
93F7
  5
6BDC
331
9514
  5
6B94
331
92F2
  5
6C31
331
B32D
  5
B32D
331
B304
  5
B304
331
959D
  5
6B14
331
962E
  5
6A6A
331
B3B6
  5
B3B6
331
1A3D
  5
6CEA
331
B2D9
  5
B2D9
331
B2A8
  5
B2A8
331
94E6
  5
6B66
331
94B5
  5
6B35
331
9572
  5
6AE9
331
9350
  5
6C8F
331
931F
  5
6C5E
331
B38B
  5
B38B
331
B362
  5
B362
331
965B
  5
6A97
331
96EC
  5
6ABE
331
1A43
  5
6CF0
331
B285
  5
B285
331
94BB
  5
6B3B
331
942A
  5
6C0F
331
951E
  5
6B9E
331
9325
  5
6C64
331
92FC
  5
6C3B
331
B368
  5
B368
331
B337
  5
B337
331
9638
  5
6A74
331
9407
  5
6BEC
331
93D6
  5
6CD6
331
94F3
  5
6B73
331
B30C
  5
B30C
331
B2E3
  5
B2E3
331
960D
  5
6B1A
331
957C
  5
6AF3
331
935A
  5
6C99
331
B3C6
  5
B3C6
331
B395
  5
B395
331
B2B8
  5
B2B8
331
B28F
  5
B28F
331
94C5
  5
6B45
331
9559
  5
6AD0
331
9528
  5
6BA8
331
9360
  5
6C9F
331
932F
  5
6C6E
331
B372
  5
B372
331
B341
  5
B341
331
96CB
  5
6A9D
331
946A
  5
6C1A
331
9411
  5
6BF6
331
94FD
  5
6B7D
331
9304
  5
6C43
331
B316
  5
B316
331
B2ED
  5
B2ED
331
9640
  5
6A7C
331
9617
  5
6B24
331
9586
  5
6AFD
331
93E6
  5
6BCB
331
B3D0
  5
B3D0
331
B39F
  5
B39F
331
B2F3
  5
B2F3
331
B2C2
  5
B2C2
331
94CF
  5
6B4F
331
958C
  5
6B03
331
9563
  5
6ADA
331
936A
  5
6CA9
331
9339
  5
6C78
331
B3A5
  5
B3A5
331
B37C
  5
B37C
331
96D5
  5
6AA7
331
B297
  5
B297
331
94A4
  5
6C1E
331
9538
  5
6BB8
331
9507
  5
6B87
331
930E
  5
6C4D
331
B351
  5
B351
331
B320
  5
B320
331
964A
  5
6A86
331
9621
  5
6A5D
331
9419
  5
6BFE
331
93F0
  5
6BD5
331
93AF
  5
6CC8
331
92EB
  5
6C2A
331
B3DA
  5
B3DA
331
B2FD
  5
B2FD
331
B2CC
  5
B2CC
331
9596
  5
6B0D
331
9374
  5
6CB3
331
B3E0
  5
B3E0
331
B3AF
  5
B3AF
331
96DF
  5
6AB1
331
1A36
  5
6CE3
331
B2D2
  5
B2D2
331
B2A1
  5
B2A1
331
94DF
  5
6B5F
331
94AE
  5
6C28
331
956B
  5
6AE2
331
9542
  5
6BC2
331
9349
  5
6C88
331
9318
  5
6C57
331
B384
  5
B384
331
B35B
  5
B35B
331
96E5
  5
6AB7
331
9654
  5
6A90
331
B27E
  5
B27E
331
9423
  5
6C08
331
93FA
  5
6BDF
331
9517
  5
6B97
331
92F5
  5
6C34
331
B330
  5
B330
331
B307
  5
B307
331
9631
  5
6A6D
331
9400
  5
6BE5
331
93CF
  5
6CCF
331
B3B9
  5
B3B9
331
B2DC
  5
B2DC
331
B2AB
  5
B2AB
331
94E9
  5
6B69
331
9575
  5
6AEC
331
9353
  5
6C92
331
B38E
  5
B38E
331
B365
  5
B365
331
96EF
  5
6AC1
331
1A46
  5
6CF3
331
B2B1
  5
B2B1
331
B288
  5
B288
331
94BE
  5
6B3E
331
942D
  5
6C12
331
9552
  5
6AC9
331
9521
  5
6BA1
331
9328
  5
6C67
331
92FF
  5
6C3E
331
B36B
  5
B36B
331
B33A
  5
B33A
331
9694
  5
6A9A
331
963B
  5
6A77
331
93D9
  5
6CD9
331
940A
  5
6BEF
331
94F6
  5
6B76
331
B30F
  5
B30F
331
B2E6
  5
B2E6
331
9610
  5
6B1D
331
957F
  5
6AF6
331
9386
  5
6CBB
331
935D
  5
6C9C
331
B3C9
  5
B3C9
331
B398
  5
B398
331
B2BB
  5
B2BB
331
94C8
  5
6B48
331
955C
  5
6AD3
331
952B
  5
6BAB
331
9363
  5
6CA2
331
9332
  5
6C71
331
B375
  5
B375
331
B344
  5
B344
331
96CE
  5
6AA0
331
B290
  5
B290
331
9414
  5
6BF9
331
9531
  5
6BB1
331
9500
  5
6B80
331
9307
  5
6C46
331
B34A
  5
B34A
331
B319
  5
B319
331
9643
  5
6A7F
331
961A
  5
6B27
331
93E9
  5
6BCE
331
B3D3
  5
B3D3
331
B2F6
  5
B2F6
331
B2C5
  5
B2C5
331
94D2
  5
6B52
331
958F
  5
6B06
331
9566
  5
6ADD
331
936D
  5
6CAC
331
933C
  5
6C7B
331
B3A8
  5
B3A8
331
B37F
  5
B37F
331
96D8
  5
6AAA
331
B29A
  5
B29A
331
94D8
  5
6B58
331
94A7
  5
6C21
331
953B
  5
6BBB
331
950A
  5
6B8A
331
9342
  5
6C81
331
9311
  5
6C50
331
B354
  5
B354
331
B323
  5
B323
331
964D
  5
6A89
331
9624
  5
6A60
331
941C
  5
6C01
331
93F3
  5
6BD8
331
9510
  5
6B90
331
92EE
  5
6C2D
331
B3DD
  5
B3DD
331
B329
  5
B329
331
B300
  5
B300
331
B2CF
  5
B2CF
331
962A
  5
6A66
331
9599
  5
6B10
331
9377
  5
6CB6
331
B3E3
  5
B3E3
331
B3B2
  5
B3B2
331
1A39
  5
6CE6
331
B2D5
  5
B2D5
331
B2A4
  5
B2A4
331
94E2
  5
6B62
331
94B1
  5
6B31
331
956E
  5
6AE5
331
934C
  5
6C8B
331
931B
  5
6C5A
331
B387
  5
B387
331
B35E
  5
B35E
331
96E8
  5
6ABA
331
9657
  5
6A93
331
B281
  5
B281
331
9426
  5
6C0B
331
93FD
  5
6BE2
331
951A
  5
6B9A
331
9321
  5
6C60
331
92F8
  5
6C37
331
B333
  5
B333
331
9634
  5
6A70
331
95D3
  5
6B16
331
9403
  5
6BE8
331
93D2
  5
6CD2
331
B3BC
  5
B3BC
331
B308
  5
B308
331
B2DF
  5
B2DF
331
B2AE
  5
B2AE
331
94EC
  5
6B6C
331
9578
  5
6AEF
331
954F
  5
6AC6
331
9356
  5
6C95
331
B3C2
  5
B3C2
331
B391
  5
B391
331
B2B4
  5
B2B4
331
B28B
  5
B28B
331
94C1
  5
6B41
331
9430
  5
6C15
331
9555
  5
6ACC
331
9524
  5
6BA4
331
932B
  5
6C6A
331
B36E
  5
B36E
331
B33D
  5
B33D
331
963E
  5
6A7A
331
940D
  5
6BF2
331
93DC
  5
6CDC
331
94F9
  5
6B79
331
9300
  5
6C3F
331
B312
  5
B312
331
B2E9
  5
B2E9
331
9613
  5
6B20
331
9582
  5
6AF9
331
93E2
  5
6BC7
331
9389
  5
6CBE
331
B3CC
  5
B3CC
331
B39B
  5
B39B
331
B2BE
  5
B2BE
331
94CB
  5
6B4B
331
9588
  5
6AFF
331
952E
  5
6BAE
331
955F
  5
6AD6
331
9366
  5
6CA5
331
9335
  5
6C74
331
B3A1
  5
B3A1
331
B378
  5
B378
331
B347
  5
B347
331
96D1
  5
6AA3
331
B293
  5
B293
331
9417
  5
6BFC
331
9534
  5
6BB4
331
9503
  5
6B83
331
930A
  5
6C49
331
B34D
  5
B34D
331
B31C
  5
B31C
331
9646
  5
6A82
331
961D
  5
6A59
331
93EC
  5
6BD1
331
93AB
  5
6CC4
331
B3D6
  5
B3D6
331
B2F9
  5
B2F9
331
B2C8
  5
B2C8
331
94D5
  5
6B55
331
9592
  5
6B09
331
93B1
  5
6CCA
331
9370
  5
6CAF
331
933F
  5
6C7E
331
B3AB
  5
B3AB
331
96DB
  5
6AAD
331
B29D
  5
B29D
331
94DB
  5
6B5B
331
94AA
  5
6C24
331
953E
  5
6BBE
331
950D
  5
6B8D
331
9345
  5
6C84
331
9314
  5
6C53
331
B380
  5
B380
331
B357
  5
B357
331
B326
  5
B326
331
96E1
  5
6AB3
331
9650
  5
6A8C
331
9627
  5
6A63
331
941F
  5
6C04
331
93F6
  5
6BDB
331
9513
  5
6B93
331
92F1
  5
6C30
331
B32C
  5
B32C
331
B303
  5
B303
331
962D
  5
6A69
331
959C
  5
6B13
331
B3E6
  5
B3E6
331
B3B5
  5
B3B5
331
1A3C
  5
6CE9
331
B2D8
  5
B2D8
331
B2A7
  5
B2A7
331
94E5
  5
6B65
331
94B4
  5
6B34
331
9571
  5
6AE8
331
934F
  5
6C8E
331
931E
  5
6C5D
331
B38A
  5
B38A
331
B361
  5
B361
331
96EB
  5
6ABD
331
965A
  5
6A96
331
1A42
  5
6CEF
331
B284
  5
B284
331
94BA
  5
6B3A
331
9429
  5
6C0E
331
951D
  5
6B9D
331
9324
  5
6C63
331
92FB
  5
6C3A
331
B336
  5
B336
331
9637
  5
6A73
331
9406
  5
6BEB
331
93D5
  5
6CD5
331
94F2
  5
6B72
331
B3BF
  5
B3BF
331
B30B
  5
B30B
331
B2E2
  5
B2E2
331
94EF
  5
6B6F
331
957B
  5
6AF2
331
9359
  5
6C98
331
B3C5
  5
B3C5
331
B394
  5
B394
331
B2B7
  5
B2B7
331
B28E
  5
B28E
331
94C4
  5
6B44
331
9558
  5
6ACF
331
9527
  5
6BA7
331
932E
  5
6C6D
331
B371
  5
B371
331
B340
  5
B340
331
96CA
  5
6A9C
331
9469
  5
6C19
331
9410
  5
6BF5
331
93DF
  5
6CDF
331
94FC
  5
6B7C
331
9303
  5
6C42
331
B315
  5
B315
331
B2EC
  5
B2EC
331
9616
  5
6B23
331
9585
  5
6AFC
331
93E5
  5
6BCA
331
938C
  5
6CC1
331
B3CF
  5
B3CF
331
B39E
  5
B39E
331
B2F2
  5
B2F2
331
B2C1
  5
B2C1
331
94CE
  5
6B4E
331
958B
  5
6B02
331
9562
  5
6AD9
331
9369
  5
6CA8
331
9338
  5
6C77
331
B3A4
  5
B3A4
331
B37B
  5
B37B
331
96D4
  5
6AA6
331
B296
  5
B296
331
94A3
  5
6C1D
331
9537
  5
6BB7
331
9506
  5
6B86
331
930D
  5
6C4C
331
B350
  5
B350
331
B31F
  5
B31F
331
9649
  5
6A85
331
9620
  5
6A5C
331
9418
  5
6BFD
331
93EF
  5
6BD4
331
93AE
  5
6CC7
331
B3D9
  5
B3D9
331
B2FC
  5
B2FC
331
B2CB
  5
B2CB
331
9595
  5
6B0C
331
93B4
  5
6CCD
331
9373
  5
6CB2
331
B3AE
  5
B3AE
331
96DE
  5
6AB0
331
1A35
  5
6CE2
331
B2D1
  5
B2D1
331
B2A0
  5
B2A0
331
94DE
  5
6B5E
331
94AD
  5
6C27
331
956A
  5
6AE1
331
9541
  5
6BC1
  0
LAYOUT
  5
21
102
{ACAD_XDICTIONARY
360
BD0F
102
}
102
{ACAD_REACTORS
330
1E
102
}
330
1E
100
AcDbPlotSettings
  1

  2

  4

  6

 40
0.0
 41
0.0
 42
0.0
 43
0.0
 44
0.0
 45
0.0
 46
0.0
 47
0.0
 48
0.0
 49
0.0
140
0.0
141
0.0
142
1.0
143
1.0
 70
     0
 72
     0
 73
     0
 74
     0
  7

 75
     0
147
1.0
148
0.0
149
0.0
100
AcDbLayout
  1
Layout1
 70
     0
 71
     1
 10
0.0
 20
0.0
 11
12.0
 21
9.0
 12
0.0
 22
0.0
 32
0.0
 14
1.000000000000000E+20
 24
1.000000000000000E+20
 34
1.000000000000000E+20
 15
-1.000000000000000E+20
 25
-1.000000000000000E+20
 35
-1.000000000000000E+20
146
0.0
 13
0.0
 23
0.0
 33
0.0
 16
1.0
 26
0.0
 36
0.0
 17
0.0
 27
1.0
 37
0.0
 76
     0
330
B
  0
LAYOUT
  5
20
102
{ACAD_XDICTIONARY
360
BD0D
102
}
102
{ACAD_REACTORS
330
1E
102
}
330
1E
100
AcDbPlotSettings
  1

  2

  4

  6

 40
0.0
 41
0.0
 42
0.0
 43
0.0
 44
0.0
 45
0.0
 46
0.0
 47
0.0
 48
0.0
 49
0.0
140
0.0
141
0.0
142
1.0
143
1.0
 70
  1024
 72
     0
 73
     0
 74
     0
  7

 75
     0
147
1.0
148
0.0
149
0.0
100
AcDbLayout
  1
Model
 70
     0
 71
     0
 10
0.0
 20
0.0
 11
0.0
 21
0.0
 12
0.0
 22
0.0
 32
0.0
 14
0.0
 24
0.0
 34
0.0
 15
0.0
 25
0.0
 35
0.0
146
0.0
 13
0.0
 23
0.0
 33
0.0
 16
0.0
 26
0.0
 36
0.0
 17
0.0
 27
0.0
 37
0.0
 76
     0
330
A
331
15
  0
MATERIAL
  5
5808
102
{ACAD_XDICTIONARY
360
5809
102
}
102
{ACAD_REACTORS
330
57FF
102
}
330
57FF
100
AcDbMaterial
  1
ByBlock
 72
     0
 43
0.0208333333333333
 43
0.0
 43
0.0
 43
0.0
 43
0.0
 43
0.0208333333333333
 43
0.0
 43
0.0
 43
0.0
 43
0.0
 43
1.0
 43
0.0
 43
0.0
 43
0.0
 43
0.0
 43
1.0
 77
     0
 47
0.0208333333333333
 47
0.0
 47
0.0
 47
0.0
 47
0.0
 47
0.0208333333333333
 47
0.0
 47
0.0
 47
0.0
 47
0.0
 47
1.0
 47
0.0
 47
0.0
 47
0.0
 47
0.0
 47
1.0
171
     0
 49
0.0208333333333333
 49
0.0
 49
0.0
 49
0.0
 49
0.0
 49
0.0208333333333333
 49
0.0
 49
0.0
 49
0.0
 49
0.0
 49
1.0
 49
0.0
 49
0.0
 49
0.0
 49
0.0
 49
1.0
175
     0
142
0.0208333333333333
142
0.0
142
0.0
142
0.0
142
0.0
142
0.0208333333333333
142
0.0
142
0.0
142
0.0
142
0.0
142
1.0
142
0.0
142
0.0
142
0.0
142
0.0
142
1.0
179
     0
144
0.0208333333333333
144
0.0
144
0.0
144
0.0
144
0.0
144
0.0208333333333333
144
0.0
144
0.0
144
0.0
144
0.0
144
1.0
144
0.0
144
0.0
144
0.0
144
0.0
144
1.0
147
0.0208333333333333
147
0.0
147
0.0
147
0.0
147
0.0
147
0.0208333333333333
147
0.0
147
0.0
147
0.0
147
0.0
147
1.0
147
0.0
147
0.0
147
0.0
147
0.0
147
1.0
  0
MATERIAL
  5
5800
102
{ACAD_XDICTIONARY
360
5801
102
}
102
{ACAD_REACTORS
330
57FF
102
}
330
57FF
100
AcDbMaterial
  1
ByLayer
 72
     0
 43
0.0208333333333333
 43
0.0
 43
0.0
 43
0.0
 43
0.0
 43
0.0208333333333333
 43
0.0
 43
0.0
 43
0.0
 43
0.0
 43
1.0
 43
0.0
 43
0.0
 43
0.0
 43
0.0
 43
1.0
 77
     0
 47
0.0208333333333333
 47
0.0
 47
0.0
 47
0.0
 47
0.0
 47
0.0208333333333333
 47
0.0
 47
0.0
 47
0.0
 47
0.0
 47
1.0
 47
0.0
 47
0.0
 47
0.0
 47
0.0
 47
1.0
171
     0
 49
0.0208333333333333
 49
0.0
 49
0.0
 49
0.0
 49
0.0
 49
0.0208333333333333
 49
0.0
 49
0.0
 49
0.0
 49
0.0
 49
1.0
 49
0.0
 49
0.0
 49
0.0
 49
0.0
 49
1.0
175
     0
142
0.0208333333333333
142
0.0
142
0.0
142
0.0
142
0.0
142
0.0208333333333333
142
0.0
142
0.0
142
0.0
142
0.0
142
1.0
142
0.0
142
0.0
142
0.0
142
0.0
142
1.0
179
     0
144
0.0208333333333333
144
0.0
144
0.0
144
0.0
144
0.0
144
0.0208333333333333
144
0.0
144
0.0
144
0.0
144
0.0
144
1.0
144
0.0
144
0.0
144
0.0
144
0.0
144
1.0
147
0.0208333333333333
147
0.0
147
0.0
147
0.0
147
0.0
147
0.0208333333333333
147
0.0
147
0.0
147
0.0
147
0.0
147
1.0
147
0.0
147
0.0
147
0.0
147
0.0
147
1.0
  0
MATERIAL
  5
5810
102
{ACAD_XDICTIONARY
360
5811
102
}
102
{ACAD_REACTORS
330
57FF
102
}
330
57FF
100
AcDbMaterial
  1
Global
 72
     0
 43
0.0208333333333333
 43
0.0
 43
0.0
 43
0.0
 43
0.0
 43
0.0208333333333333
 43
0.0
 43
0.0
 43
0.0
 43
0.0
 43
1.0
 43
0.0
 43
0.0
 43
0.0
 43
0.0
 43
1.0
 77
     0
 47
0.0208333333333333
 47
0.0
 47
0.0
 47
0.0
 47
0.0
 47
0.0208333333333333
 47
0.0
 47
0.0
 47
0.0
 47
0.0
 47
1.0
 47
0.0
 47
0.0
 47
0.0
 47
0.0
 47
1.0
171
     0
 49
0.0208333333333333
 49
0.0
 49
0.0
 49
0.0
 49
0.0
 49
0.0208333333333333
 49
0.0
 49
0.0
 49
0.0
 49
0.0
 49
1.0
 49
0.0
 49
0.0
 49
0.0
 49
0.0
 49
1.0
175
     0
142
0.0208333333333333
142
0.0
142
0.0
142
0.0
142
0.0
142
0.0208333333333333
142
0.0
142
0.0
142
0.0
142
0.0
142
1.0
142
0.0
142
0.0
142
0.0
142
0.0
142
1.0
179
     0
144
0.0208333333333333
144
0.0
144
0.0
144
0.0
144
0.0
144
0.0208333333333333
144
0.0
144
0.0
144
0.0
144
0.0
144
1.0
144
0.0
144
0.0
144
0.0
144
0.0
144
1.0
147
0.0208333333333333
147
0.0
147
0.0
147
0.0
147
0.0
147
0.0208333333333333
147
0.0
147
0.0
147
0.0
147
0.0
147
1.0
147
0.0
147
0.0
147
0.0
147
0.0
147
1.0
  0
MLEADERSTYLE
  5
584F
102
{ACAD_REACTORS
330
584E
102
}
330
584E
100
AcDbMLeaderStyle
170
     2
171
     1
172
     0
 90
        2
 40
0.0
 41
0.0
173
     1
 91
-1056964608
340
11
 92
       -2
290
     1
 42
2.0
291
     1
 43
0.36
  3
Standard
 44
4.0
300

342
17
174
     1
178
     6
175
     1
176
     0
 93
-1056964608
 45
4.0
292
     0
297
     0
 46
4.0
 94
-1056964608
 47
1.0
 49
1.0
140
1.0
293
     1
141
0.0
294
     1
177
     0
142
1.0
295
     0
296
     0
143
0.125
1001
ACAD_MLEADERVER
1070
     2
  0
MLINESTYLE
  5
1C
102
{ACAD_REACTORS
330
1B
102
}
330
1B
100
AcDbMlineStyle
  2
STANDARD
 70
     0
  3

 62
     0
 51
90.0
 52
90.0
 71
     2
 49
0.5
 62
   256
  6
BYLAYER
 49
-0.5
 62
   256
  6
BYLAYER
  0
ACDBPLACEHOLDER
  5
1D
102
{ACAD_REACTORS
330
1F
102
}
330
1F
  0
SCALE
  5
582D
102
{ACAD_REACTORS
330
582C
102
}
330
582C
100
AcDbScale
 70
     0
300
1:1
140
1.0
141
1.0
290
     1
  0
SCALE
  5
582E
102
{ACAD_REACTORS
330
582C
102
}
330
582C
100
AcDbScale
 70
     0
300
1:2
140
1.0
141
2.0
290
     0
  0
SCALE
  5
582F
102
{ACAD_REACTORS
330
582C
102
}
330
582C
100
AcDbScale
 70
     0
300
1:4
140
1.0
141
4.0
290
     0
  0
SCALE
  5
5830
102
{ACAD_REACTORS
330
582C
102
}
330
582C
100
AcDbScale
 70
     0
300
1:5
140
1.0
141
5.0
290
     0
  0
SCALE
  5
5831
102
{ACAD_REACTORS
330
582C
102
}
330
582C
100
AcDbScale
 70
     0
300
1:8
140
1.0
141
8.0
290
     0
  0
SCALE
  5
5832
102
{ACAD_REACTORS
330
582C
102
}
330
582C
100
AcDbScale
 70
     0
300
1:10
140
1.0
141
10.0
290
     0
  0
SCALE
  5
5833
102
{ACAD_REACTORS
330
582C
102
}
330
582C
100
AcDbScale
 70
     0
300
1:16
140
1.0
141
16.0
290
     0
  0
SCALE
  5
5834
102
{ACAD_REACTORS
330
582C
102
}
330
582C
100
AcDbScale
 70
     0
300
1:20
140
1.0
141
20.0
290
     0
  0
SCALE
  5
5835
102
{ACAD_REACTORS
330
582C
102
}
330
582C
100
AcDbScale
 70
     0
300
1:30
140
1.0
141
30.0
290
     0
  0
SCALE
  5
5836
102
{ACAD_REACTORS
330
582C
102
}
330
582C
100
AcDbScale
 70
     0
300
1:40
140
1.0
141
40.0
290
     0
  0
SCALE
  5
5837
102
{ACAD_REACTORS
330
582C
102
}
330
582C
100
AcDbScale
 70
     0
300
1:50
140
1.0
141
50.0
290
     0
  0
SCALE
  5
5838
102
{ACAD_REACTORS
330
582C
102
}
330
582C
100
AcDbScale
 70
     0
300
1:100
140
1.0
141
100.0
290
     0
  0
SCALE
  5
5839
102
{ACAD_REACTORS
330
582C
102
}
330
582C
100
AcDbScale
 70
     0
300
2:1
140
2.0
141
1.0
290
     0
  0
SCALE
  5
583A
102
{ACAD_REACTORS
330
582C
102
}
330
582C
100
AcDbScale
 70
     0
300
4:1
140
4.0
141
1.0
290
     0
  0
SCALE
  5
583B
102
{ACAD_REACTORS
330
582C
102
}
330
582C
100
AcDbScale
 70
     0
300
8:1
140
8.0
141
1.0
290
     0
  0
SCALE
  5
583C
102
{ACAD_REACTORS
330
582C
102
}
330
582C
100
AcDbScale
 70
     0
300
10:1
140
10.0
141
1.0
290
     0
  0
SCALE
  5
583D
102
{ACAD_REACTORS
330
582C
102
}
330
582C
100
AcDbScale
 70
     0
300
100:1
140
100.0
141
1.0
290
     0
  0
SCALE
  5
583E
102
{ACAD_REACTORS
330
582C
102
}
330
582C
100
AcDbScale
 70
     0
300
1/128" = 1'-0"
140
0.0078125
141
12.0
290
     0
  0
SCALE
  5
583F
102
{ACAD_REACTORS
330
582C
102
}
330
582C
100
AcDbScale
 70
     0
300
1/64" = 1'-0"
140
0.015625
141
12.0
290
     0
  0
SCALE
  5
5840
102
{ACAD_REACTORS
330
582C
102
}
330
582C
100
AcDbScale
 70
     0
300
1/32" = 1'-0"
140
0.03125
141
12.0
290
     0
  0
SCALE
  5
5841
102
{ACAD_REACTORS
330
582C
102
}
330
582C
100
AcDbScale
 70
     0
300
1/16" = 1'-0"
140
0.0625
141
12.0
290
     0
  0
SCALE
  5
5842
102
{ACAD_REACTORS
330
582C
102
}
330
582C
100
AcDbScale
 70
     0
300
3/32" = 1'-0"
140
0.09375
141
12.0
290
     0
  0
SCALE
  5
5843
102
{ACAD_REACTORS
330
582C
102
}
330
582C
100
AcDbScale
 70
     0
300
1/8" = 1'-0"
140
0.125
141
12.0
290
     0
  0
SCALE
  5
5844
102
{ACAD_REACTORS
330
582C
102
}
330
582C
100
AcDbScale
 70
     0
300
3/16" = 1'-0"
140
0.1875
141
12.0
290
     0
  0
SCALE
  5
5845
102
{ACAD_REACTORS
330
582C
102
}
330
582C
100
AcDbScale
 70
     0
300
1/4" = 1'-0"
140
0.25
141
12.0
290
     0
  0
SCALE
  5
5846
102
{ACAD_REACTORS
330
582C
102
}
330
582C
100
AcDbScale
 70
     0
300
3/8" = 1'-0"
140
0.375
141
12.0
290
     0
  0
SCALE
  5
5847
102
{ACAD_REACTORS
330
582C
102
}
330
582C
100
AcDbScale
 70
     0
300
1/2" = 1'-0"
140
0.5
141
12.0
290
     0
  0
SCALE
  5
5848
102
{ACAD_REACTORS
330
582C
102
}
330
582C
100
AcDbScale
 70
     0
300
3/4" = 1'-0"
140
0.75
141
12.0
290
     0
  0
SCALE
  5
5849
102
{ACAD_REACTORS
330
582C
102
}
330
582C
100
AcDbScale
 70
     0
300
1" = 1'-0"
140
1.0
141
12.0
290
     0
  0
SCALE
  5
584A
102
{ACAD_REACTORS
330
582C
102
}
330
582C
100
AcDbScale
 70
     0
300
1-1/2" = 1'-0"
140
1.5
141
12.0
290
     0
  0
SCALE
  5
584B
102
{ACAD_REACTORS
330
582C
102
}
330
582C
100
AcDbScale
 70
     0
300
3" = 1'-0"
140
3.0
141
12.0
290
     0
  0
SCALE
  5
584C
102
{ACAD_REACTORS
330
582C
102
}
330
582C
100
AcDbScale
 70
     0
300
6" = 1'-0"
140
6.0
141
12.0
290
     0
  0
SCALE
  5
584D
102
{ACAD_REACTORS
330
582C
102
}
330
582C
100
AcDbScale
 70
     0
300
1'-0" = 1'-0"
140
12.0
141
12.0
290
     0
  0
TABLESTYLE
  5
582B
102
{ACAD_XDICTIONARY
360
AB8E
102
}
102
{ACAD_REACTORS
330
582A
102
}
330
582A
100
AcDbTableStyle
  3
Standard
 70
     0
 71
     0
 40
1.5
 41
1.5
280
     0
281
     0
  7
Standard
140
4.5
170
     2
 62
     0
 63
     7
283
     0
274
    -2
284
     1
 64
     0
275
    -2
285
     1
 65
     0
276
    -2
286
     1
 66
     0
277
    -2
287
     1
 67
     0
278
    -2
288
     1
 68
     0
279
    -2
289
     1
 69
     0
  7
Standard
140
6.0
170
     5
 62
     0
 63
     7
283
     0
274
    -2
284
     1
 64
     0
275
    -2
285
     1
 65
     0
276
    -2
286
     1
 66
     0
277
    -2
287
     1
 67
     0
278
    -2
288
     1
 68
     0
279
    -2
289
     1
 69
     0
  7
Standard
140
4.5
170
     5
 62
     0
 63
     7
283
     0
274
    -2
284
     1
 64
     0
275
    -2
285
     1
 65
     0
276
    -2
286
     1
 66
     0
277
    -2
287
     1
 67
     0
278
    -2
288
     1
 68
     0
279
    -2
289
     1
 69
     0
  0
VISUALSTYLE
  5
581E
102
{ACAD_REACTORS
330
5818
102
}
330
5818
100
AcDbVisualStyle
  2
2dWireframe
 70
     4
 71
     0
 72
     2
 73
     0
 90
        0
 40
-0.6
 41
-30.0
 62
     5
 63
     7
 74
     1
 91
        4
 64
     7
 65
   257
 75
     1
175
     1
 42
1.0
 92
        0
 66
   257
 43
1.0
 76
     1
 77
     6
 78
     2
 67
     7
 79
     5
170
     0
171
     0
290
     0
174
     0
 93
        1
 44
0.0
173
     0
291
     0
 45
0.0
1001
ACAD
1000
AcDbSavedByObjectVersion
1070
     0
1000
AcDbSavedByObjectVersion
1070
     0
1000
AcDbSavedByObjectVersion
1070
     0
  0
VISUALSTYLE
  5
5820
102
{ACAD_REACTORS
330
5818
102
}
330
5818
100
AcDbVisualStyle
  2
3D Hidden
 70
     6
 71
     1
 72
     2
 73
     2
 90
        0
 40
-0.6
 41
-30.0
 62
     5
 63
     7
 74
     2
 91
        2
 64
     7
 65
   257
 75
     2
175
     1
 42
40.0
 92
        0
 66
   257
 43
1.0
 76
     1
 77
     6
 78
     2
 67
     7
 79
     3
170
     0
171
     0
290
     0
174
     0
 93
        1
 44
0.0
173
     0
291
     0
 45
0.0
1001
ACAD
1000
AcDbSavedByObjectVersion
1070
     0
1000
AcDbSavedByObjectVersion
1070
     0
1000
AcDbSavedByObjectVersion
1070
     0
  0
VISUALSTYLE
  5
581F
102
{ACAD_REACTORS
330
5818
102
}
330
5818
100
AcDbVisualStyle
  2
3dWireframe
 70
     5
 71
     0
 72
     2
 73
     0
 90
        0
 40
-0.6
 41
-30.0
 62
     5
 63
     7
 74
     1
 91
        4
 64
     7
 65
   257
 75
     1
175
     1
 42
1.0
 92
        0
 66
   257
 43
1.0
 76
     1
 77
     6
 78
     2
 67
     7
 79
     5
170
     0
171
     0
290
     0
174
     0
 93
        1
 44
0.0
173
     0
291
     0
 45
0.0
1001
ACAD
1000
AcDbSavedByObjectVersion
1070
     0
1000
AcDbSavedByObjectVersion
1070
     0
1000
AcDbSavedByObjectVersion
1070
     0
  0
VISUALSTYLE
  5
581D
102
{ACAD_REACTORS
330
5818
102
}
330
5818
100
AcDbVisualStyle
  2
Basic
 70
     7
 71
     1
 72
     0
 73
     1
 90
        0
 40
-0.6
 41
-30.0
 62
     5
 63
     7
 74
     0
 91
        4
 64
     7
 65
   257
 75
     1
175
     1
 42
1.0
 92
        8
 66
     7
 43
1.0
 76
     1
 77
     6
 78
     2
 67
     7
 79
     5
170
     0
171
     0
290
     0
174
     0
 93
        1
 44
0.0
173
     0
291
     1
 45
0.0
1001
ACAD
1000
AcDbSavedByObjectVersion
1070
     0
1000
AcDbSavedByObjectVersion
1070
     0
1000
AcDbSavedByObjectVersion
1070
     0
  0
VISUALSTYLE
  5
5824
102
{ACAD_REACTORS
330
5818
102
}
330
5818
100
AcDbVisualStyle
  2
Brighten
 70
    12
 71
     2
 72
     2
 73
     0
 90
        0
 40
-0.6
 41
-30.0
 62
     5
 63
     7
 74
     1
 91
        4
 64
     7
 65
   257
 75
     1
175
     1
 42
1.0
 92
        8
 66
     7
 43
1.0
 76
     1
 77
     6
 78
     2
 67
     7
 79
     5
170
     0
171
     0
290
     0
174
     0
 93
        1
 44
50.0
173
     0
291
     1
 45
0.0
1001
ACAD
1000
AcDbSavedByObjectVersion
1070
     0
1000
AcDbSavedByObjectVersion
1070
     0
1000
AcDbSavedByObjectVersion
1070
     0
  0
VISUALSTYLE
  5
5828
102
{ACAD_REACTORS
330
5818
102
}
330
5818
100
AcDbVisualStyle
  2
ColorChange
 70
    16
 71
     2
 72
     2
 73
     3
 90
        0
 40
-0.6
 41
-30.0
 62
     5
 63
     8
 74
     1
 91
        4
 64
     7
 65
   257
 75
     1
175
     1
 42
1.0
 92
        8
 66
     8
 43
1.0
 76
     1
 77
     6
 78
     2
 67
     7
 79
     5
170
     0
171
     0
290
     0
174
     0
 93
        1
 44
0.0
173
     0
291
     1
 45
0.0
1001
ACAD
1000
AcDbSavedByObjectVersion
1070
     0
1000
AcDbSavedByObjectVersion
1070
     0
1000
AcDbSavedByObjectVersion
1070
     0
  0
VISUALSTYLE
  5
5821
102
{ACAD_REACTORS
330
5818
102
}
330
5818
100
AcDbVisualStyle
  2
Conceptual
 70
     9
 71
     3
 72
     2
 73
     0
 90
        0
 40
-0.6
 41
-30.0
 62
     5
 63
     7
 74
     2
 91
        2
 64
     7
 65
   257
 75
     1
175
     1
 42
40.0
 92
        8
 66
     7
 43
1.0
 76
     1
 77
     6
 78
     2
 67
     7
 79
     3
170
     0
171
     0
290
     0
174
     0
 93
        1
 44
0.0
173
     0
291
     0
 45
0.0
1001
ACAD
1000
AcDbSavedByObjectVersion
1070
     0
1000
AcDbSavedByObjectVersion
1070
     0
1000
AcDbSavedByObjectVersion
1070
     0
  0
VISUALSTYLE
  5
5823
102
{ACAD_REACTORS
330
5818
102
}
330
5818
100
AcDbVisualStyle
  2
Dim
 70
    11
 71
     2
 72
     2
 73
     0
 90
        0
 40
-0.6
 41
-30.0
 62
     5
 63
     7
 74
     1
 91
        4
 64
     7
 65
   257
 75
     1
175
     1
 42
1.0
 92
        8
 66
     7
 43
1.0
 76
     1
 77
     6
 78
     2
 67
     7
 79
     5
170
     0
171
     0
290
     0
174
     0
 93
        1
 44
-50.0
173
     0
291
     1
 45
0.0
1001
ACAD
1000
AcDbSavedByObjectVersion
1070
     0
1000
AcDbSavedByObjectVersion
1070
     0
1000
AcDbSavedByObjectVersion
1070
     0
  0
VISUALSTYLE
  5
5827
102
{ACAD_REACTORS
330
5818
102
}
330
5818
100
AcDbVisualStyle
  2
Facepattern
 70
    15
 71
     2
 72
     2
 73
     0
 90
        0
 40
-0.6
 41
-30.0
 62
     5
 63
     7
 74
     1
 91
        4
 64
     7
 65
   257
 75
     1
175
     1
 42
1.0
 92
        8
 66
     7
 43
1.0
 76
     1
 77
     6
 78
     2
 67
     7
 79
     5
170
     0
171
     0
290
     0
174
     0
 93
        1
 44
0.0
173
     0
291
     1
 45
0.0
1001
ACAD
1000
AcDbSavedByObjectVersion
1070
     0
1000
AcDbSavedByObjectVersion
1070
     0
1000
AcDbSavedByObjectVersion
1070
     0
  0
VISUALSTYLE
  5
5819
102
{ACAD_REACTORS
330
5818
102
}
330
5818
100
AcDbVisualStyle
  2
Flat
 70
     0
 71
     2
 72
     1
 73
     1
 90
        2
 40
-0.6
 41
30.0
 62
     5
 63
     7
 74
     0
 91
        4
 64
     7
 65
   257
 75
     1
175
     1
 42
1.0
 92
        8
 66
     7
 43
1.0
 76
     1
 77
     6
 78
     2
 67
     7
 79
     5
170
     0
171
     0
290
     0
174
     0
 93
       13
 44
0.0
173
     0
291
     1
 45
0.0
1001
ACAD
1000
AcDbSavedByObjectVersion
1070
     0
1000
AcDbSavedByObjectVersion
1070
     0
1000
AcDbSavedByObjectVersion
1070
     0
  0
VISUALSTYLE
  5
581A
102
{ACAD_REACTORS
330
5818
102
}
330
5818
100
AcDbVisualStyle
  2
FlatWithEdges
 70
     1
 71
     2
 72
     1
 73
     1
 90
        2
 40
-0.6
 41
30.0
 62
     5
 63
     7
 74
     1
 91
        4
 64
     7
 65
   257
 75
     1
175
     1
 42
1.0
 92
        0
 66
   257
 43
1.0
 76
     1
 77
     6
 78
     2
 67
     7
 79
     5
170
     0
171
     0
290
     0
174
     0
 93
       13
 44
0.0
173
     0
291
     1
 45
0.0
1001
ACAD
1000
AcDbSavedByObjectVersion
1070
     0
1000
AcDbSavedByObjectVersion
1070
     0
1000
AcDbSavedByObjectVersion
1070
     0
  0
VISUALSTYLE
  5
581B
102
{ACAD_REACTORS
330
5818
102
}
330
5818
100
AcDbVisualStyle
  2
Gouraud
 70
     2
 71
     2
 72
     2
 73
     1
 90
        2
 40
-0.6
 41
30.0
 62
     5
 63
     7
 74
     0
 91
        4
 64
     7
 65
   257
 75
     1
175
     1
 42
1.0
 92
        0
 66
     7
 43
1.0
 76
     1
 77
     6
 78
     2
 67
     7
 79
     5
170
     0
171
     0
290
     0
174
     0
 93
       13
 44
0.0
173
     0
291
     1
 45
0.0
1001
ACAD
1000
AcDbSavedByObjectVersion
1070
     0
1000
AcDbSavedByObjectVersion
1070
     0
1000
AcDbSavedByObjectVersion
1070
     0
  0
VISUALSTYLE
  5
581C
102
{ACAD_REACTORS
330
5818
102
}
330
5818
100
AcDbVisualStyle
  2
GouraudWithEdges
 70
     3
 71
     2
 72
     2
 73
     1
 90
        2
 40
-0.6
 41
30.0
 62
     5
 63
     7
 74
     1
 91
        4
 64
     7
 65
   257
 75
     1
175
     1
 42
1.0
 92
        0
 66
   257
 43
1.0
 76
     1
 77
     6
 78
     2
 67
     7
 79
     5
170
     0
171
     0
290
     0
174
     0
 93
       13
 44
0.0
173
     0
291
     1
 45
0.0
1001
ACAD
1000
AcDbSavedByObjectVersion
1070
     0
1000
AcDbSavedByObjectVersion
1070
     0
1000
AcDbSavedByObjectVersion
1070
     0
  0
VISUALSTYLE
  5
5826
102
{ACAD_REACTORS
330
5818
102
}
330
5818
100
AcDbVisualStyle
  2
Linepattern
 70
    14
 71
     2
 72
     2
 73
     0
 90
        0
 40
-0.6
 41
-30.0
 62
     5
 63
     7
 74
     1
 91
        4
 64
     7
 65
   257
 75
     7
175
     7
 42
1.0
 92
        8
 66
     7
 43
1.0
 76
     1
 77
     6
 78
     2
 67
     7
 79
     5
170
     0
171
     0
290
     0
174
     0
 93
        1
 44
0.0
173
     0
291
     1
 45
0.0
1001
ACAD
1000
AcDbSavedByObjectVersion
1070
     0
1000
AcDbSavedByObjectVersion
1070
     0
1000
AcDbSavedByObjectVersion
1070
     0
  0
VISUALSTYLE
  5
5822
102
{ACAD_REACTORS
330
5818
102
}
330
5818
100
AcDbVisualStyle
  2
Realistic
 70
     8
 71
     2
 72
     2
 73
     0
 90
        0
 40
-0.6
 41
-30.0
 62
     5
 63
     7
 74
     1
 91
        0
 64
     7
 65
   257
 75
     1
175
     1
 42
1.0
 92
        8
 66
     8
 43
1.0
 76
     1
 77
     6
 78
     2
 67
     7
 79
     5
170
     0
171
     0
290
     0
174
     0
 93
       13
 44
0.0
173
     0
291
     0
 45
0.0
1001
ACAD
1000
AcDbSavedByObjectVersion
1070
     0
1000
AcDbSavedByObjectVersion
1070
     0
1000
AcDbSavedByObjectVersion
1070
     0
  0
VISUALSTYLE
  5
5825
102
{ACAD_REACTORS
330
5818
102
}
330
5818
100
AcDbVisualStyle
  2
Thicken
 70
    13
 71
     2
 72
     2
 73
     0
 90
        0
 40
-0.6
 41
-30.0
 62
     5
 63
     7
 74
     1
 91
        4
 64
     7
 65
   257
 75
     1
175
     1
 42
1.0
 92
       12
 66
     7
 43
1.0
 76
     1
 77
     6
 78
     2
 67
     7
 79
     5
170
     0
171
     0
290
     0
174
     0
 93
        1
 44
0.0
173
     0
291
     1
 45
0.0
1001
ACAD
1000
AcDbSavedByObjectVersion
1070
     0
1000
AcDbSavedByObjectVersion
1070
     0
1000
AcDbSavedByObjectVersion
1070
     0
  0
DICTIONARYVAR
  5
AB95
102
{ACAD_REACTORS
330
AB91
102
}
330
AB91
100
DictionaryVariables
280
     0
  1
1:1
  0
DICTIONARYVAR
  5
AB93
102
{ACAD_REACTORS
330
AB91
102
}
330
AB91
100
DictionaryVariables
280
     0
  1
STANDARD
  0
DICTIONARYVAR
  5
AB92
102
{ACAD_REACTORS
330
AB91
102
}
330
AB91
100
DictionaryVariables
280
     0
  1
STANDARD
  0
DICTIONARYVAR
  5
B616
102
{ACAD_REACTORS
330
AB91
102
}
330
AB91
100
DictionaryVariables
280
     0
  1
1
  0
DICTIONARYVAR
  5
B615
102
{ACAD_REACTORS
330
AB91
102
}
330
AB91
100
DictionaryVariables
280
     0
  1
0
  0
DICTIONARYVAR
  5
AB96
102
{ACAD_REACTORS
330
AB91
102
}
330
AB91
100
DictionaryVariables
280
     0
  1
0
  0
DICTIONARYVAR
  5
AB94
102
{ACAD_REACTORS
330
AB91
102
}
330
AB91
100
DictionaryVariables
280
     0
  1
0
  0
DICTIONARYVAR
  5
B614
102
{ACAD_REACTORS
330
AB91
102
}
330
AB91
100
DictionaryVariables
280
     0
  1
127
  0
XRECORD
  5
B92A
102
{ACAD_REACTORS
330
B929
102
}
330
B929
100
AcDbXrecord
280
     1
  0
DICTIONARY
  5
BD0F
330
21
100
AcDbDictionary
280
     1
281
     1
  3
ACAD_XREC_ROUNDTRIP
360
BD10
  0
DICTIONARY
  5
BD0D
330
20
100
AcDbDictionary
280
     1
281
     1
  3
ACAD_XREC_ROUNDTRIP
360
BD0E
  0
DICTIONARY
  5
5809
330
5808
100
AcDbDictionary
280
     1
281
     1
  3
ACAD_XREC_ROUNDTRIP
360
B61E
  3
BUMPTILE
360
580B
  3
DIFFUSETILE
360
580A
  3
OPACITYTILE
360
580E
  3
REFLECTIONTILE
360
580D
  3
REFRACTIONTILE
360
580F
  3
SPECULARTILE
360
580C
  0
DICTIONARY
  5
5801
330
5800
100
AcDbDictionary
280
     1
281
     1
  3
ACAD_XREC_ROUNDTRIP
360
B61D
  3
BUMPTILE
360
5803
  3
DIFFUSETILE
360
5802
  3
OPACITYTILE
360
5806
  3
REFLECTIONTILE
360
5805
  3
REFRACTIONTILE
360
5807
  3
SPECULARTILE
360
5804
  0
DICTIONARY
  5
5811
330
5810
100
AcDbDictionary
280
     1
281
     1
  3
ACAD_XREC_ROUNDTRIP
360
B61F
  3
BUMPTILE
360
5813
  3
DIFFUSETILE
360
5812
  3
OPACITYTILE
360
5816
  3
REFLECTIONTILE
360
5815
  3
REFRACTIONTILE
360
5817
  3
SPECULARTILE
360
5814
  0
DICTIONARY
  5
AB8E
330
582B
100
AcDbDictionary
280
     1
281
     1
  3
ACAD_ROUNDTRIP_2008_TABLESTYLE_CELLSTYLEMAP
360
BD0B
  3
ACAD_XREC_ROUNDTRIP
360
BD11
  0
XRECORD
  5
BD10
102
{ACAD_REACTORS
330
BD0F
102
}
330
BD0F
100
AcDbXrecord
280
     1
102
SHADEPLOT
 70
     0
102
SHADEPLOTRESLEVEL
 70
     2
102
SHADEPLOTCUSTOMDPI
 70
   300
  0
XRECORD
  5
BD0E
102
{ACAD_REACTORS
330
BD0D
102
}
330
BD0D
100
AcDbXrecord
280
     1
102
SHADEPLOT
 70
     0
102
SHADEPLOTRESLEVEL
 70
     2
102
SHADEPLOTCUSTOMDPI
 70
   300
  0
XRECORD
  5
B61E
102
{ACAD_REACTORS
330
5809
102
}
330
5809
100
AcDbXrecord
280
     1
102
MATERIAL
148
0.0
149
0.0
149
0.0
 93
        0
 94
      127
282
     0
 72
     0
 77
     0
171
     0
175
     0
179
     0
273
     0
  0
XRECORD
  5
580B
102
{ACAD_REACTORS
330
5809
102
}
330
5809
100
AcDbXrecord
280
     1
270
     1
271
     1
  0
XRECORD
  5
580A
102
{ACAD_REACTORS
330
5809
102
}
330
5809
100
AcDbXrecord
280
     1
270
     1
271
     1
  0
XRECORD
  5
580E
102
{ACAD_REACTORS
330
5809
102
}
330
5809
100
AcDbXrecord
280
     1
270
     1
271
     1
  0
XRECORD
  5
580D
102
{ACAD_REACTORS
330
5809
102
}
330
5809
100
AcDbXrecord
280
     1
270
     1
271
     1
  0
XRECORD
  5
580F
102
{ACAD_REACTORS
330
5809
102
}
330
5809
100
AcDbXrecord
280
     1
270
     1
271
     1
  0
XRECORD
  5
580C
102
{ACAD_REACTORS
330
5809
102
}
330
5809
100
AcDbXrecord
280
     1
270
     1
271
     1
  0
XRECORD
  5
B61D
102
{ACAD_REACTORS
330
5801
102
}
330
5801
100
AcDbXrecord
280
     1
102
MATERIAL
148
0.0
149
0.0
149
0.0
 93
        0
 94
      127
282
     0
 72
     0
 77
     0
171
     0
175
     0
179
     0
273
     0
  0
XRECORD
  5
5803
102
{ACAD_REACTORS
330
5801
102
}
330
5801
100
AcDbXrecord
280
     1
270
     1
271
     1
  0
XRECORD
  5
5802
102
{ACAD_REACTORS
330
5801
102
}
330
5801
100
AcDbXrecord
280
     1
270
     1
271
     1
  0
XRECORD
  5
5806
102
{ACAD_REACTORS
330
5801
102
}
330
5801
100
AcDbXrecord
280
     1
270
     1
271
     1
  0
XRECORD
  5
5805
102
{ACAD_REACTORS
330
5801
102
}
330
5801
100
AcDbXrecord
280
     1
270
     1
271
     1
  0
XRECORD
  5
5807
102
{ACAD_REACTORS
330
5801
102
}
330
5801
100
AcDbXrecord
280
     1
270
     1
271
     1
  0
XRECORD
  5
5804
102
{ACAD_REACTORS
330
5801
102
}
330
5801
100
AcDbXrecord
280
     1
270
     1
271
     1
  0
XRECORD
  5
B61F
102
{ACAD_REACTORS
330
5811
102
}
330
5811
100
AcDbXrecord
280
     1
102
MATERIAL
148
0.0
149
0.0
149
0.0
 93
        0
 94
      127
282
     0
 72
     0
 77
     0
171
     0
175
     0
179
     0
273
     0
  0
XRECORD
  5
5813
102
{ACAD_REACTORS
330
5811
102
}
330
5811
100
AcDbXrecord
280
     1
270
     1
271
     1
  0
XRECORD
  5
5812
102
{ACAD_REACTORS
330
5811
102
}
330
5811
100
AcDbXrecord
280
     1
270
     1
271
     1
  0
XRECORD
  5
5816
102
{ACAD_REACTORS
330
5811
102
}
330
5811
100
AcDbXrecord
280
     1
270
     1
271
     1
  0
XRECORD
  5
5815
102
{ACAD_REACTORS
330
5811
102
}
330
5811
100
AcDbXrecord
280
     1
270
     1
271
     1
  0
XRECORD
  5
5817
102
{ACAD_REACTORS
330
5811
102
}
330
5811
100
AcDbXrecord
280
     1
270
     1
271
     1
  0
XRECORD
  5
5814
102
{ACAD_REACTORS
330
5811
102
}
330
5811
100
AcDbXrecord
280
     1
270
     1
271
     1
  0
CELLSTYLEMAP
  5
BD0B
102
{ACAD_REACTORS
330
AB8E
102
}
330
AB8E
100
AcDbCellStyleMap
 90
        3
300
CELLSTYLE
  1
TABLEFORMAT_BEGIN
 90
        5
170
     1
 91
        0
 92
    32768
 62
   257
 93
        1
300
CONTENTFORMAT
  1
CONTENTFORMAT_BEGIN
 90
        0
 91
        0
 92
      512
 93
        0
300

 40
0.0
140
1.0
 94
        5
 62
     0
340
17
144
6.0
309
CONTENTFORMAT_END
171
     1
301
MARGIN
  1
CELLMARGIN_BEGIN
 40
1.5
 40
1.5
 40
1.5
 40
1.5
 40
0.18
 40
0.18
309
CELLMARGIN_END
 94
        6
 95
        1
302
GRIDFORMAT
  1
GRIDFORMAT_BEGIN
 90
        0
 91
        1
 62
     0
 92
       -2
340
0
 93
        0
 40
1.125
309
GRIDFORMAT_END
 95
        2
302
GRIDFORMAT
  1
GRIDFORMAT_BEGIN
 90
        0
 91
        1
 62
     0
 92
       -2
340
0
 93
        0
 40
1.125
309
GRIDFORMAT_END
 95
        4
302
GRIDFORMAT
  1
GRIDFORMAT_BEGIN
 90
        0
 91
        1
 62
     0
 92
       -2
340
0
 93
        0
 40
1.125
309
GRIDFORMAT_END
 95
        8
302
GRIDFORMAT
  1
GRIDFORMAT_BEGIN
 90
        0
 91
        1
 62
     0
 92
       -2
340
0
 93
        0
 40
1.125
309
GRIDFORMAT_END
 95
       16
302
GRIDFORMAT
  1
GRIDFORMAT_BEGIN
 90
        0
 91
        1
 62
     0
 92
       -2
340
0
 93
        0
 40
1.125
309
GRIDFORMAT_END
 95
       32
302
GRIDFORMAT
  1
GRIDFORMAT_BEGIN
 90
        0
 91
        1
 62
     0
 92
       -2
340
0
 93
        0
 40
1.125
309
GRIDFORMAT_END
309
TABLEFORMAT_END
  1
CELLSTYLE_BEGIN
 90
        1
 91
        1
300
_TITLE
309
CELLSTYLE_END
300
CELLSTYLE
  1
TABLEFORMAT_BEGIN
 90
        5
170
     1
 91
        0
 92
        0
 62
   257
 93
        1
300
CONTENTFORMAT
  1
CONTENTFORMAT_BEGIN
 90
        0
 91
        0
 92
      512
 93
        0
300

 40
0.0
140
1.0
 94
        5
 62
     0
340
17
144
4.5
309
CONTENTFORMAT_END
171
     1
301
MARGIN
  1
CELLMARGIN_BEGIN
 40
1.5
 40
1.5
 40
1.5
 40
1.5
 40
0.18
 40
0.18
309
CELLMARGIN_END
 94
        6
 95
        1
302
GRIDFORMAT
  1
GRIDFORMAT_BEGIN
 90
        0
 91
        1
 62
     0
 92
       -2
340
0
 93
        0
 40
1.125
309
GRIDFORMAT_END
 95
        2
302
GRIDFORMAT
  1
GRIDFORMAT_BEGIN
 90
        0
 91
        1
 62
     0
 92
       -2
340
0
 93
        0
 40
1.125
309
GRIDFORMAT_END
 95
        4
302
GRIDFORMAT
  1
GRIDFORMAT_BEGIN
 90
        0
 91
        1
 62
     0
 92
       -2
340
0
 93
        0
 40
1.125
309
GRIDFORMAT_END
 95
        8
302
GRIDFORMAT
  1
GRIDFORMAT_BEGIN
 90
        0
 91
        1
 62
     0
 92
       -2
340
0
 93
        0
 40
1.125
309
GRIDFORMAT_END
 95
       16
302
GRIDFORMAT
  1
GRIDFORMAT_BEGIN
 90
        0
 91
        1
 62
     0
 92
       -2
340
0
 93
        0
 40
1.125
309
GRIDFORMAT_END
 95
       32
302
GRIDFORMAT
  1
GRIDFORMAT_BEGIN
 90
        0
 91
        1
 62
     0
 92
       -2
340
0
 93
        0
 40
1.125
309
GRIDFORMAT_END
309
TABLEFORMAT_END
  1
CELLSTYLE_BEGIN
 90
        2
 91
        1
300
_HEADER
309
CELLSTYLE_END
300
CELLSTYLE
  1
TABLEFORMAT_BEGIN
 90
        5
170
     1
 91
        0
 92
        0
 62
   257
 93
        1
300
CONTENTFORMAT
  1
CONTENTFORMAT_BEGIN
 90
        0
 91
        0
 92
      512
 93
        0
300

 40
0.0
140
1.0
 94
        2
 62
     0
340
17
144
4.5
309
CONTENTFORMAT_END
171
     1
301
MARGIN
  1
CELLMARGIN_BEGIN
 40
1.5
 40
1.5
 40
1.5
 40
1.5
 40
0.18
 40
0.18
309
CELLMARGIN_END
 94
        6
 95
        1
302
GRIDFORMAT
  1
GRIDFORMAT_BEGIN
 90
        0
 91
        1
 62
     0
 92
       -2
340
0
 93
        0
 40
1.125
309
GRIDFORMAT_END
 95
        2
302
GRIDFORMAT
  1
GRIDFORMAT_BEGIN
 90
        0
 91
        1
 62
     0
 92
       -2
340
0
 93
        0
 40
1.125
309
GRIDFORMAT_END
 95
        4
302
GRIDFORMAT
  1
GRIDFORMAT_BEGIN
 90
        0
 91
        1
 62
     0
 92
       -2
340
0
 93
        0
 40
1.125
309
GRIDFORMAT_END
 95
        8
302
GRIDFORMAT
  1
GRIDFORMAT_BEGIN
 90
        0
 91
        1
 62
     0
 92
       -2
340
0
 93
        0
 40
1.125
309
GRIDFORMAT_END
 95
       16
302
GRIDFORMAT
  1
GRIDFORMAT_BEGIN
 90
        0
 91
        1
 62
     0
 92
       -2
340
0
 93
        0
 40
1.125
309
GRIDFORMAT_END
 95
       32
302
GRIDFORMAT
  1
GRIDFORMAT_BEGIN
 90
        0
 91
        1
 62
     0
 92
       -2
340
0
 93
        0
 40
1.125
309
GRIDFORMAT_END
309
TABLEFORMAT_END
  1
CELLSTYLE_BEGIN
 90
        3
 91
        2
300
_DATA
309
CELLSTYLE_END
  0
XRECORD
  5
BD11
102
{ACAD_REACTORS
330
AB8E
102
}
330
AB8E
100
AcDbXrecord
280
     1
102
ACAD_ROUNDTRIP_PRE2007_TABLESTYLE
 90
      512
 91
        0
  1

 92
      512
 93
        0
  2

 94
      512
 95
        0
  3

  0
ENDSEC
  0
EOF
