  0
SECTION
  2
HEADER
  9
$ACADVER
  1
AC1015
  9
$ACADMAINTVER
 70
     6
  9
$DWGCODEPAGE
  3
ANSI_1252
  9
$INSBASE
 10
0.0
 20
0.0
 30
0.0
  9
$EXTMIN
 10
35.8686130936
 20
188.0915472784
 30
0.0
  9
$EXTMAX
 10
771.2020596362051
 20
583.7865265035
 30
0.0
  9
$LIMMIN
 10
0.0
 20
0.0
  9
$LIMMAX
 10
840.0
 20
594.0
  9
$ORTHOMODE
 70
     1
  9
$REGENMODE
 70
     1
  9
$FILLMODE
 70
     1
  9
$QTEXTMODE
 70
     0
  9
$MIRRTEXT
 70
     1
  9
$LTSCALE
 40
1.0
  9
$ATTMODE
 70
     1
  9
$TEXTSIZE
 40
2.8
  9
$TRACEWID
 40
1.0
  9
$TEXTSTYLE
  7
Standard
  9
$CLAYER
  8
0
  9
$CELTYPE
  6
ByLayer
  9
$CECOLOR
 62
   256
  9
$CELTSCALE
 40
1.0
  9
$DISPSILH
 70
     0
  9
$DIMSCALE
 40
1.0
  9
$DIMASZ
 40
3.2
  9
$DIMEXO
 40
0.1
  9
$DIMDLI
 40
3.75
  9
$DIMRND
 40
0.0
  9
$DIMDLE
 40
0.0
  9
$DIMEXE
 40
1.0
  9
$DIMTP
 40
0.0
  9
$DIMTM
 40
0.0
  9
$DIMTXT
 40
3.2
  9
$DIMCEN
 40
2.5
  9
$DIMTSZ
 40
0.0
  9
$DIMTOL
 70
     0
  9
$DIMLIM
 70
     0
  9
$DIMTIH
 70
     1
  9
$DIMTOH
 70
     1
  9
$DIMSE1
 70
     0
  9
$DIMSE2
 70
     0
  9
$DIMTAD
 70
     1
  9
$DIMZIN
 70
     0
  9
$DIMBLK
  1

  9
$DIMASO
 70
     1
  9
$DIMSHO
 70
     1
  9
$DIMPOST
  1

  9
$DIMAPOST
  1

  9
$DIMALT
 70
     0
  9
$DIMALTD
 70
     3
  9
$DIMALTF
 40
0.0393700787
  9
$DIMLFAC
 40
1.0
  9
$DIMTOFL
 70
     1
  9
$DIMTVP
 40
0.0
  9
$DIMTIX
 70
     0
  9
$DIMSOXD
 70
     0
  9
$DIMSAH
 70
     0
  9
$DIMBLK1
  1

  9
$DIMBLK2
  1

  9
$DIMSTYLE
  2
ISO-25
  9
$DIMCLRD
 70
     0
  9
$DIMCLRE
 70
     0
  9
$DIMCLRT
 70
     0
  9
$DIMTFAC
 40
1.0
  9
$DIMGAP
 40
2.0
  9
$DIMJUST
 70
     0
  9
$DIMSD1
 70
     0
  9
$DIMSD2
 70
     0
  9
$DIMTOLJ
 70
     0
  9
$DIMTZIN
 70
     0
  9
$DIMALTZ
 70
     0
  9
$DIMALTTZ
 70
     0
  9
$DIMUPT
 70
     0
  9
$DIMDEC
 70
     2
  9
$DIMTDEC
 70
     2
  9
$DIMALTU
 70
     2
  9
$DIMALTTD
 70
     3
  9
$DIMTXSTY
  7
Standard
  9
$DIMAUNIT
 70
     0
  9
$DIMADEC
 70
     2
  9
$DIMALTRND
 40
0.0
  9
$DIMAZIN
 70
     0
  9
$DIMDSEP
 70
    44
  9
$DIMATFIT
 70
     3
  9
$DIMFRAC
 70
     0
  9
$DIMLDRBLK
  1

  9
$DIMLUNIT
 70
     2
  9
$DIMLWD
 70
    -2
  9
$DIMLWE
 70
    -2
  9
$DIMTMOVE
 70
     0
  9
$LUNITS
 70
     2
  9
$LUPREC
 70
     2
  9
$SKETCHINC
 40
1.0
  9
$FILLETRAD
 40
10.0
  9
$AUNITS
 70
     0
  9
$AUPREC
 70
     2
  9
$MENU
  1
.
  9
$ELEVATION
 40
0.0
  9
$PELEVATION
 40
0.0
  9
$THICKNESS
 40
0.0
  9
$LIMCHECK
 70
     0
  9
$CHAMFERA
 40
0.0
  9
$CHAMFERB
 40
0.0
  9
$CHAMFERC
 40
0.0
  9
$CHAMFERD
 40
0.0
  9
$SKPOLY
 70
     0
  9
$TDCREATE
 40
2457966.620075012
  9
$TDUCREATE
 40
2457966.536741678
  9
$TDUPDATE
 40
2458029.596155104
  9
$TDUUPDATE
 40
2458029.512821771
  9
$TDINDWG
 40
0.0006546412
  9
$TDUSRTIMER
 40
2458029.512365636
  9
$USRTIMER
 70
     1
  9
$ANGBASE
 50
0.0
  9
$ANGDIR
 70
     0
  9
$PDMODE
 70
     0
  9
$PDSIZE
 40
-1.0
  9
$PLINEWID
 40
0.0
  9
$SPLFRAME
 70
     0
  9
$SPLINETYPE
 70
     6
  9
$SPLINESEGS
 70
     8
  9
$HANDSEED
  5
608
  9
$SURFTAB1
 70
     6
  9
$SURFTAB2
 70
     6
  9
$SURFTYPE
 70
     6
  9
$SURFU
 70
     6
  9
$SURFV
 70
     6
  9
$UCSBASE
  2

  9
$UCSNAME
  2

  9
$UCSORG
 10
0.0
 20
0.0
 30
0.0
  9
$UCSXDIR
 10
1.0
 20
0.0
 30
0.0
  9
$UCSYDIR
 10
0.0
 20
1.0
 30
0.0
  9
$UCSORTHOREF
  2

  9
$UCSORTHOVIEW
 70
     0
  9
$UCSORGTOP
 10
0.0
 20
0.0
 30
0.0
  9
$UCSORGBOTTOM
 10
0.0
 20
0.0
 30
0.0
  9
$UCSORGLEFT
 10
0.0
 20
0.0
 30
0.0
  9
$UCSORGRIGHT
 10
0.0
 20
0.0
 30
0.0
  9
$UCSORGFRONT
 10
0.0
 20
0.0
 30
0.0
  9
$UCSORGBACK
 10
0.0
 20
0.0
 30
0.0
  9
$PUCSBASE
  2

  9
$PUCSNAME
  2

  9
$PUCSORG
 10
0.0
 20
0.0
 30
0.0
  9
$PUCSXDIR
 10
1.0
 20
0.0
 30
0.0
  9
$PUCSYDIR
 10
0.0
 20
1.0
 30
0.0
  9
$PUCSORTHOREF
  2

  9
$PUCSORTHOVIEW
 70
     0
  9
$PUCSORGTOP
 10
0.0
 20
0.0
 30
0.0
  9
$PUCSORGBOTTOM
 10
0.0
 20
0.0
 30
0.0
  9
$PUCSORGLEFT
 10
0.0
 20
0.0
 30
0.0
  9
$PUCSORGRIGHT
 10
0.0
 20
0.0
 30
0.0
  9
$PUCSORGFRONT
 10
0.0
 20
0.0
 30
0.0
  9
$PUCSORGBACK
 10
0.0
 20
0.0
 30
0.0
  9
$USERI1
 70
     0
  9
$USERI2
 70
     0
  9
$USERI3
 70
     0
  9
$USERI4
 70
     0
  9
$USERI5
 70
     0
  9
$USERR1
 40
0.0
  9
$USERR2
 40
0.0
  9
$USERR3
 40
0.0
  9
$USERR4
 40
0.0
  9
$USERR5
 40
0.0
  9
$WORLDVIEW
 70
     1
  9
$SHADEDGE
 70
     3
  9
$SHADEDIF
 70
    70
  9
$TILEMODE
 70
     1
  9
$MAXACTVP
 70
    64
  9
$PINSBASE
 10
0.0
 20
0.0
 30
0.0
  9
$PLIMCHECK
 70
     0
  9
$PEXTMIN
 10
1.000000000000000E+20
 20
1.000000000000000E+20
 30
1.000000000000000E+20
  9
$PEXTMAX
 10
-1.000000000000000E+20
 20
-1.000000000000000E+20
 30
-1.000000000000000E+20
  9
$PLIMMIN
 10
0.0
 20
0.0
  9
$PLIMMAX
 10
0.0
 20
0.0
  9
$UNITMODE
 70
     0
  9
$VISRETAIN
 70
     1
  9
$PLINEGEN
 70
     0
  9
$PSLTSCALE
 70
     1
  9
$TREEDEPTH
 70
  3020
  9
$CMLSTYLE
  2
Standard
  9
$CMLJUST
 70
     0
  9
$CMLSCALE
 40
20.0
  9
$PROXYGRAPHICS
 70
     1
  9
$MEASUREMENT
 70
     1
  9
$CELWEIGHT
370
    -1
  9
$ENDCAPS
280
     0
  9
$JOINSTYLE
280
     0
  9
$LWDISPLAY
290
     1
  9
$INSUNITS
 70
     4
  9
$HYPERLINKBASE
  1

  9
$STYLESHEET
  1

  9
$XEDIT
290
     1
  9
$CEPSNTYPE
380
     0
  9
$PSTYLEMODE
290
     1
  9
$FINGERPRINTGUID
  2
{67B90F68-CE98-440F-8011-4CFA2647A4C1}
  9
$VERSIONGUID
  2
{FAEB1C32-E019-11D5-929B-00C0DF256EC4}
  9
$EXTNAMES
290
     1
  9
$PSVPSCALE
 40
0.0
  9
$OLESTARTUP
290
     0
  0
ENDSEC
  0
SECTION
  2
CLASSES
  0
CLASS
  1
ACDBDICTIONARYWDFLT
  2
AcDbDictionaryWithDefault
  3
ObjectDBX Classes
 90
        0
280
     0
281
     0
  0
CLASS
  1
VISUALSTYLE
  2
AcDbVisualStyle
  3
ObjectDBX Classes
 90
     4095
280
     0
281
     0
  0
CLASS
  1
MATERIAL
  2
AcDbMaterial
  3
ObjectDBX Classes
 90
     1153
280
     0
281
     0
  0
CLASS
  1
SCALE
  2
AcDbScale
  3
ObjectDBX Classes
 90
     1153
280
     0
281
     0
  0
CLASS
  1
TABLESTYLE
  2
AcDbTableStyle
  3
ObjectDBX Classes
 90
     4095
280
     0
281
     0
  0
CLASS
  1
MLEADERSTYLE
  2
AcDbMLeaderStyle
  3
ACDB_MLEADERSTYLE_CLASS
 90
     4095
280
     0
281
     0
  0
CLASS
  1
SUN
  2
AcDbSun
  3
SCENEOE
 90
     1153
280
     0
281
     0
  0
CLASS
  1
ACDBPLACEHOLDER
  2
AcDbPlaceHolder
  3
ObjectDBX Classes
 90
        0
280
     0
281
     0
  0
CLASS
  1
LAYOUT
  2
AcDbLayout
  3
ObjectDBX Classes
 90
        0
280
     0
281
     0
  0
CLASS
  1
RASTERVARIABLES
  2
AcDbRasterVariables
  3
ISM
 90
        0
280
     0
281
     0
  0
CLASS
  1
DICTIONARYVAR
  2
AcDbDictionaryVar
  3
ObjectDBX Classes
 90
        0
280
     0
281
     0
  0
ENDSEC
  0
SECTION
  2
TABLES
  0
TABLE
  2
VPORT
  5
8
330
0
100
AcDbSymbolTable
 70
     1
  0
VPORT
  5
29
330
8
100
AcDbSymbolTableRecord
100
AcDbViewportTableRecord
  2
*Active
 70
     0
 10
0.0
 20
0.0
 11
1.0
 21
1.0
 12
329.2224624748633
 22
339.7898177563798
 13
0.0
 23
0.0
 14
10.0
 24
10.0
 15
10.0
 25
10.0
 16
0.0
 26
0.0
 36
1.0
 17
0.0
 27
0.0
 37
0.0
 40
403.6088788096021
 41
2.216255442670537
 42
50.0
 43
0.0
 44
0.0
 50
0.0
 51
0.0
 71
    16
 72
  2000
 73
     1
 74
     3
 75
     0
 76
     0
 77
     0
 78
     0
281
     0
 65
     1
110
0.0
120
0.0
130
0.0
111
1.0
121
0.0
131
0.0
112
0.0
122
1.0
132
0.0
 79
     0
146
0.0
  0
ENDTAB
  0
TABLE
  2
LTYPE
  5
5
330
0
100
AcDbSymbolTable
 70
     6
  0
LTYPE
  5
14
330
5
100
AcDbSymbolTableRecord
100
AcDbLinetypeTableRecord
  2
ByBlock
 70
     0
  3

 72
    65
 73
     0
 40
0.0
  0
LTYPE
  5
15
330
5
100
AcDbSymbolTableRecord
100
AcDbLinetypeTableRecord
  2
ByLayer
 70
     0
  3

 72
    65
 73
     0
 40
0.0
  0
LTYPE
  5
16
330
5
100
AcDbSymbolTableRecord
100
AcDbLinetypeTableRecord
  2
Continuous
 70
     0
  3
Solid line
 72
    65
 73
     0
 40
0.0
  0
LTYPE
  5
6E
330
5
100
AcDbSymbolTableRecord
100
AcDbLinetypeTableRecord
  2
HIDDEN
 70
     0
  3
Hidden __ __ __ __ __ __ __ __ __ __ __ __ __ __
 72
    65
 73
     2
 40
1.905
 49
1.27
 74
     0
 49
-0.635
 74
     0
  0
LTYPE
  5
6F
330
5
100
AcDbSymbolTableRecord
100
AcDbLinetypeTableRecord
  2
PHANTOM
 70
     0
  3
Phantom ______  __  __  ______  __  __  ______
 72
    65
 73
     6
 40
12.7
 49
6.35
 74
     0
 49
-1.27
 74
     0
 49
1.27
 74
     0
 49
-1.27
 74
     0
 49
1.27
 74
     0
 49
-1.27
 74
     0
  0
LTYPE
  5
70
330
5
100
AcDbSymbolTableRecord
100
AcDbLinetypeTableRecord
  2
CENTER
 70
     0
  3
Center ____ _ ____ _ ____ _ ____ _ ____ _ ____
 72
    65
 73
     4
 40
10.16
 49
6.35
 74
     0
 49
-1.27
 74
     0
 49
1.27
 74
     0
 49
-1.27
 74
     0
  0
LTYPE
  5
71
330
5
100
AcDbSymbolTableRecord
100
AcDbLinetypeTableRecord
  2
CENTERX2
 70
     0
  3
Center (2x) ________  __  ________  __  _____
 72
    65
 73
     4
 40
20.32
 49
12.7
 74
     0
 49
-2.54
 74
     0
 49
2.54
 74
     0
 49
-2.54
 74
     0
  0
LTYPE
  5
72
330
5
100
AcDbSymbolTableRecord
100
AcDbLinetypeTableRecord
  2
DOT2
 70
     0
  3
Dot (.5x) ........................................
 72
    65
 73
     2
 40
0.635
 49
0.0
 74
     0
 49
-0.635
 74
     0
  0
ENDTAB
  0
TABLE
  2
LAYER
  5
2
330
0
100
AcDbSymbolTable
 70
     4
  0
LAYER
  5
10
330
2
100
AcDbSymbolTableRecord
100
AcDbLayerTableRecord
  2
0
 70
     0
 62
     7
  6
Continuous
370
    -3
390
F
  0
LAYER
  5
73
330
2
100
AcDbSymbolTableRecord
100
AcDbLayerTableRecord
  2
QUOTE
 70
     0
 62
     3
  6
Continuous
370
    -3
390
F
  0
LAYER
  5
74
330
2
100
AcDbSymbolTableRecord
100
AcDbLayerTableRecord
  2
ASSI
 70
     0
 62
     1
  6
CENTERX2
370
    -3
390
F
  0
LAYER
  5
75
330
2
100
AcDbSymbolTableRecord
100
AcDbLayerTableRecord
  2
TRATTEGGIO
 70
     0
 62
     4
  6
Continuous
370
    -3
390
F
  0
ENDTAB
  0
TABLE
  2
STYLE
  5
3
330
0
100
AcDbSymbolTable
 70
     6
  0
STYLE
  5
11
330
3
100
AcDbSymbolTableRecord
100
AcDbTextStyleTableRecord
  2
Standard
 70
     0
 40
0.0
 41
1.0
 50
0.0
 71
     0
 42
2.8
  3
txt
  4

  0
STYLE
  5
D0
330
3
100
AcDbSymbolTableRecord
100
AcDbTextStyleTableRecord
  2
SLDTEXTSTYLE0
 70
     0
 40
0.0
 41
0.75
 50
0.0
 71
     0
 42
2.8
  3
TXT
  4

  0
STYLE
  5
D2
330
3
100
AcDbSymbolTableRecord
100
AcDbTextStyleTableRecord
  2
SLDTEXTSTYLE1
 70
     0
 40
0.0
 41
0.605
 50
0.0
 71
     0
 42
2.8
  3
TXT
  4

  0
STYLE
  5
F0
330
3
100
AcDbSymbolTableRecord
100
AcDbTextStyleTableRecord
  2
SLDTEXTSTYLE2
 70
     0
 40
0.0
 41
0.6090909091
 50
0.0
 71
     0
 42
2.8
  3
TXT
  4

  0
STYLE
  5
FB
330
3
100
AcDbSymbolTableRecord
100
AcDbTextStyleTableRecord
  2
SLDTEXTSTYLE3
 70
     0
 40
0.0
 41
0.7
 50
0.0
 71
     0
 42
2.8
  3
TXT
  4

  0
STYLE
  5
FF
330
3
100
AcDbSymbolTableRecord
100
AcDbTextStyleTableRecord
  2
SLDTEXTSTYLE4
 70
     0
 40
0.0
 41
0.57
 50
0.0
 71
     0
 42
2.8
  3
TXT
  4

  0
ENDTAB
  0
TABLE
  2
VIEW
  5
6
330
0
100
AcDbSymbolTable
 70
     0
  0
ENDTAB
  0
TABLE
  2
UCS
  5
7
330
0
100
AcDbSymbolTable
 70
     0
  0
ENDTAB
  0
TABLE
  2
APPID
  5
9
330
0
100
AcDbSymbolTable
 70
     1
  0
APPID
  5
12
330
9
100
AcDbSymbolTableRecord
100
AcDbRegAppTableRecord
  2
ACAD
 70
     0
  0
ENDTAB
  0
TABLE
  2
DIMSTYLE
  5
A
330
0
100
AcDbSymbolTable
 70
     2
100
AcDbDimStyleTable
  0
DIMSTYLE
105
27
330
A
100
AcDbSymbolTableRecord
100
AcDbDimStyleTableRecord
  2
ISO-25
 70
     0
 41
2.5
 42
0.625
 43
3.75
 44
1.25
 73
     0
 74
     0
 77
     1
 78
     8
140
2.5
141
2.5
143
0.0393700787
147
0.625
171
     3
172
     1
178
     0
271
     2
272
     2
274
     3
278
    44
283
     0
284
     8
340
11
  0
DIMSTYLE
105
1A0
102
{ACAD_REACTORS
330
5D6
102
}
330
A
100
AcDbSymbolTableRecord
100
AcDbDimStyleTableRecord
  2
SLDDIMSTYLE0
 70
     0
 41
3.2
 44
0.0
 45
0.000000001
146
3.2
147
0.0
173
     1
178
     0
271
     0
272
     0
276
     2
340
11
  0
ENDTAB
  0
TABLE
  2
BLOCK_RECORD
  5
1
330
0
100
AcDbSymbolTable
 70
    12
  0
BLOCK_RECORD
  5
1F
330
1
100
AcDbSymbolTableRecord
100
AcDbBlockTableRecord
  2
*Model_Space
340
22
  0
BLOCK_RECORD
  5
1B
330
1
100
AcDbSymbolTableRecord
100
AcDbBlockTableRecord
  2
*Paper_Space
340
1E
  0
BLOCK_RECORD
  5
23
330
1
100
AcDbSymbolTableRecord
100
AcDbBlockTableRecord
  2
*Paper_Space0
340
26
  0
BLOCK_RECORD
  5
DE
330
1
100
AcDbSymbolTableRecord
100
AcDbBlockTableRecord
  2
SW_NOTE_0
340
0
  0
BLOCK_RECORD
  5
E7
330
1
100
AcDbSymbolTableRecord
100
AcDbBlockTableRecord
  2
SW_NOTE_1
340
0
  0
BLOCK_RECORD
  5
F3
330
1
100
AcDbSymbolTableRecord
100
AcDbBlockTableRecord
  2
SW_NOTE_2
340
0
  0
BLOCK_RECORD
  5
111
330
1
100
AcDbSymbolTableRecord
100
AcDbBlockTableRecord
  2
SW_NOTE_3
340
0
  0
BLOCK_RECORD
  5
11F
330
1
100
AcDbSymbolTableRecord
100
AcDbBlockTableRecord
  2
SW_NOTE_4
340
0
  0
BLOCK_RECORD
  5
199
330
1
100
AcDbSymbolTableRecord
100
AcDbBlockTableRecord
  2
SW_NOTE_5
340
0
102
{BLKREFS
331
0
331
0
102
}
  0
BLOCK_RECORD
  5
1F7
330
1
100
AcDbSymbolTableRecord
100
AcDbBlockTableRecord
  2
SW_NOTE_6
340
0
102
{BLKREFS
331
1FD
102
}
  0
BLOCK_RECORD
  5
275
330
1
100
AcDbSymbolTableRecord
100
AcDbBlockTableRecord
  2
SW_NOTE_7
340
0
102
{BLKREFS
331
27C
102
}
  0
BLOCK_RECORD
  5
37E
330
1
100
AcDbSymbolTableRecord
100
AcDbBlockTableRecord
  2
SW_NOTE_8
340
0
102
{BLKREFS
331
384
102
}
  0
BLOCK_RECORD
  5
3FB
330
1
100
AcDbSymbolTableRecord
100
AcDbBlockTableRecord
  2
SW_NOTE_9
340
0
102
{BLKREFS
331
402
102
}
  0
BLOCK_RECORD
  5
51D
330
1
100
AcDbSymbolTableRecord
100
AcDbBlockTableRecord
  2
A$C27155
340
0
  0
ENDTAB
  0
ENDSEC
  0
SECTION
  2
BLOCKS
  0
BLOCK
  5
20
330
1F
100
AcDbEntity
  8
0
100
AcDbBlockBegin
  2
*Model_Space
 70
     0
 10
0.0
 20
0.0
 30
0.0
  3
*Model_Space
  1

  0
ENDBLK
  5
21
330
1F
100
AcDbEntity
  8
0
100
AcDbBlockEnd
  0
BLOCK
  5
1C
330
1B
100
AcDbEntity
 67
     1
  8
0
100
AcDbBlockBegin
  2
*Paper_Space
 70
     0
 10
0.0
 20
0.0
 30
0.0
  3
*Paper_Space
  1

  0
ENDBLK
  5
1D
330
1B
100
AcDbEntity
 67
     1
  8
0
100
AcDbBlockEnd
  0
BLOCK
  5
24
330
23
100
AcDbEntity
  8
0
100
AcDbBlockBegin
  2
*Paper_Space0
 70
     0
 10
0.0
 20
0.0
 30
0.0
  3
*Paper_Space0
  1

  0
ENDBLK
  5
25
330
23
100
AcDbEntity
  8
0
100
AcDbBlockEnd
  0
BLOCK
  5
DF
330
DE
100
AcDbEntity
  8
0
100
AcDbBlockBegin
  2
SW_NOTE_0
 70
     0
 10
0.0
 20
0.0
 30
0.0
  3
SW_NOTE_0
  1

  0
MTEXT
  5
E1
330
DE
100
AcDbEntity
  8
0
  6
Continuous
 62
     0
370
     0
100
AcDbMText
 10
0.0
 20
2.4492287056
 30
0.0
 40
1.9
 41
0.0
 71
     1
 72
     1
  1
Dimensioni in mm   -
  7
SLDTEXTSTYLE1
 73
     1
 44
1.0
  0
MTEXT
  5
E2
330
DE
100
AcDbEntity
  8
0
  6
Continuous
 62
     0
370
     0
100
AcDbMText
 10
25.9666666389
 20
2.4492287056
 30
0.0
 40
1.9
 41
0.0
 71
     1
 72
     1
  1
NB
  7
SLDTEXTSTYLE1
 73
     1
 44
1.0
  0
MTEXT
  5
E3
330
DE
100
AcDbEntity
  8
0
  6
Continuous
 62
     0
370
     0
100
AcDbMText
 10
29.7350008041
 20
2.4492287056
 30
0.0
 40
1.9
 41
0.0
 71
     1
 72
     1
  1
:  LE QUOTE INDICATE A DISEGNO SI RIFERISCONO ALLA LAVORAZIONE MECCANICA. - PRIMA DEI TRATTAMENTI SUPERFICIALI
  7
SLDTEXTSTYLE1
 73
     1
 44
1.0
  0
ENDBLK
  5
E0
330
DE
100
AcDbEntity
  8
0
100
AcDbBlockEnd
  0
BLOCK
  5
E8
330
E7
100
AcDbEntity
  8
0
100
AcDbBlockBegin
  2
SW_NOTE_1
 70
     0
 10
0.0
 20
0.0
 30
0.0
  3
SW_NOTE_1
  1

  0
MTEXT
  5
EA
330
E7
100
AcDbEntity
  8
0
  6
Continuous
 62
     0
370
     0
100
AcDbMText
 10
0.0
 20
2.3874608764
 30
0.0
 40
1.8520833333
 41
0.0
 71
     1
 72
     1
  1
FINITURA
  7
SLDTEXTSTYLE1
 73
     1
 44
1.0
  0
MTEXT
  5
EB
330
E7
100
AcDbEntity
  8
0
  6
Continuous
 62
     0
370
     0
100
AcDbMText
 10
0.0
 20
-0.0819835382
 30
0.0
 40
1.8520833333
 41
0.0
 71
     1
 72
     1
  1
SPECIFICA:
  7
SLDTEXTSTYLE1
 73
     1
 44
1.0
  0
ENDBLK
  5
E9
330
E7
100
AcDbEntity
  8
0
100
AcDbBlockEnd
  0
BLOCK
  5
F4
330
F3
100
AcDbEntity
  8
0
100
AcDbBlockBegin
  2
SW_NOTE_2
 70
     0
 10
0.0
 20
0.0
 30
0.0
  3
SW_NOTE_2
  1

  0
MTEXT
  5
F6
330
F3
100
AcDbEntity
  8
0
  6
Continuous
 62
     0
370
     0
100
AcDbMText
 10
0.0
 20
2.3874608764
 30
0.0
 40
1.8520833333
 41
0.0
 71
     1
 72
     1
  1
CROMATURA
  7
SLDTEXTSTYLE1
 73
     1
 44
1.0
  0
MTEXT
  5
F7
330
F3
100
AcDbEntity
  8
0
  6
Continuous
 62
     0
370
     0
100
AcDbMText
 10
0.0
 20
-0.0819835382
 30
0.0
 40
1.8520833333
 41
0.0
 71
     1
 72
     1
  1
A KANBAN
  7
SLDTEXTSTYLE1
 73
     1
 44
1.0
  0
ENDBLK
  5
F5
330
F3
100
AcDbEntity
  8
0
100
AcDbBlockEnd
  0
BLOCK
  5
112
330
111
100
AcDbEntity
  8
0
100
AcDbBlockBegin
  2
SW_NOTE_3
 70
     0
 10
0.0
 20
0.0
 30
0.0
  3
SW_NOTE_3
  1

  0
LINE
  5
114
330
111
100
AcDbEntity
  8
0
  6
Continuous
 62
     0
370
     0
100
AcDbLine
 10
-5.3695997858
 20
-15.150103739
 30
0.0
 11
-5.3695997858
 21
3.7863424348
 31
0.0
  0
LINE
  5
115
330
111
100
AcDbEntity
  8
0
  6
Continuous
 62
     0
370
     0
100
AcDbLine
 10
-5.3695997858
 20
3.7863424348
 30
0.0
 11
27.8340318614
 21
3.7863424348
 31
0.0
  0
LINE
  5
116
330
111
100
AcDbEntity
  8
0
  6
Continuous
 62
     0
370
     0
100
AcDbLine
 10
27.8340318614
 20
3.7863424348
 30
0.0
 11
27.8340318614
 21
-15.150103739
 31
0.0
  0
LINE
  5
117
330
111
100
AcDbEntity
  8
0
  6
Continuous
 62
     0
370
     0
100
AcDbLine
 10
27.8340318614
 20
-15.150103739
 30
0.0
 11
-5.3695997858
 21
-15.150103739
 31
0.0
  0
MTEXT
  5
118
330
111
100
AcDbEntity
  8
0
  6
Continuous
 62
     0
370
     0
100
AcDbMText
 10
10.54375
 20
3.6093896714
 30
0.0
 40
2.8
 41
0.0
 71
     2
 72
     1
  1
VALIDO PER
  7
SLDTEXTSTYLE0
 73
     1
 44
1.0
  0
MTEXT
  5
119
330
111
100
AcDbEntity
  8
0
  6
Continuous
 62
     0
370
     0
100
AcDbMText
 10
11.1902774185
 20
-0.1906105673
 30
0.0
 40
2.8
 41
0.0
 71
     2
 72
     1
  1
PRODUZIONE
  7
SLDTEXTSTYLE0
 73
     1
 44
1.0
  0
MTEXT
  5
11A
330
111
100
AcDbEntity
  8
0
  6
Continuous
 62
     0
370
     0
100
AcDbMText
 10
10.9744454324
 20
-3.9906106314
 30
0.0
 40
2.8
 41
0.0
 71
     2
 72
     1
  1
05/06/2017
  7
SLDTEXTSTYLE0
 73
     1
 44
1.0
  0
ENDBLK
  5
113
330
111
100
AcDbEntity
  8
0
100
AcDbBlockEnd
  0
BLOCK
  5
120
330
11F
100
AcDbEntity
  8
0
100
AcDbBlockBegin
  2
SW_NOTE_4
 70
     0
 10
0.0
 20
0.0
 30
0.0
  3
SW_NOTE_4
  1

  0
MTEXT
  5
122
330
11F
100
AcDbEntity
  8
0
  6
Continuous
 62
     0
370
     0
100
AcDbMText
 10
0.0
 20
2.7285267159
 30
0.0
 40
2.1166666667
 41
0.0
 71
     1
 72
     1
  1
Approvato:
  7
SLDTEXTSTYLE1
 73
     1
 44
1.0
  0
MTEXT
  5
123
330
11F
100
AcDbEntity
  8
0
  6
Continuous
 62
     0
370
     0
100
AcDbMText
 10
15.8456019804
 20
2.7285267159
 30
0.0
 40
2.1166666667
 41
0.0
 71
     1
 72
     1
  1
A. Biasotti
  7
SLDTEXTSTYLE1
 73
     1
 44
1.0
  0
ENDBLK
  5
121
330
11F
100
AcDbEntity
  8
0
100
AcDbBlockEnd
  0
BLOCK
  5
19A
330
199
100
AcDbEntity
  8
0
100
AcDbBlockBegin
  2
SW_NOTE_5
 70
     0
 10
0.0
 20
0.0
 30
0.0
  3
SW_NOTE_5
  1

  0
LINE
  5
19C
330
199
100
AcDbEntity
  8
0
  6
Continuous
 62
     0
370
     0
100
AcDbLine
 10
145.0873444555
 20
0.0
 30
0.0
 11
0.0
 21
0.0
 31
0.0
  0
MTEXT
  5
19D
330
199
100
AcDbEntity
  8
0
  6
Continuous
 62
     0
370
     0
100
AcDbMText
 10
0.4861704574
 20
25.4016110292
 30
0.0
 40
9.2604166667
 41
0.0
 71
     1
 72
     1
  1
BASE A TERRA OPTIONAL
  7
SLDTEXTSTYLE0
 73
     1
 44
1.0
  0
MTEXT
  5
19E
330
199
100
AcDbEntity
  8
0
  6
Continuous
 62
     0
370
     0
100
AcDbMText
 10
0.486170457399993
 20
12.05438855950001
 30
0.0
 40
9.2604166667
 41
0.0
 71
     1
 72
     1
  1
{COD A845EE10}
  7
SLDTEXTSTYLE0
 73
     1
 44
1.0
1001
ACAD
1000
ACAD_MTEXT_DEFINED_HEIGHT_BEGIN
1070
    46
1040
9.2604166667
1000
ACAD_MTEXT_DEFINED_HEIGHT_END
  0
ENDBLK
  5
19B
330
199
100
AcDbEntity
  8
0
100
AcDbBlockEnd
  0
BLOCK
  5
1F8
330
1F7
100
AcDbEntity
  8
0
100
AcDbBlockBegin
  2
SW_NOTE_6
 70
     0
 10
0.0
 20
0.0
 30
0.0
  3
SW_NOTE_6
  1

  0
LINE
  5
1FA
330
1F7
100
AcDbEntity
  8
0
  6
Continuous
 62
     0
370
     0
100
AcDbLine
 10
-111.2547015073
 20
0.0
 30
0.0
 11
0.0
 21
0.0
 31
0.0
  0
MTEXT
  5
1FB
330
1F7
100
AcDbEntity
  8
0
  6
Continuous
 62
     0
370
     0
100
AcDbMText
 10
-111.6837537834
 20
25.3586791531
 30
0.0
 40
9.2604166667
 41
0.0
 71
     1
 72
     1
  1
FORI DI FISSAGGIO
  7
SLDTEXTSTYLE0
 73
     1
 44
1.0
  0
MTEXT
  5
1FC
330
1F7
100
AcDbEntity
  8
0
  6
Continuous
 62
     0
370
     0
100
AcDbMText
 10
-111.6837537834
 20
12.0114566834
 30
0.0
 40
9.2604166667
 41
0.0
 71
     1
 72
     1
  1
A FRAME
  7
SLDTEXTSTYLE0
 73
     1
 44
1.0
  0
ENDBLK
  5
1F9
330
1F7
100
AcDbEntity
  8
0
100
AcDbBlockEnd
  0
BLOCK
  5
276
330
275
100
AcDbEntity
  8
0
100
AcDbBlockBegin
  2
SW_NOTE_7
 70
     0
 10
0.0
 20
0.0
 30
0.0
  3
SW_NOTE_7
  1

  0
LINE
  5
278
330
275
100
AcDbEntity
  8
0
  6
Continuous
 62
     0
370
     0
100
AcDbLine
 10
58.8454360841
 20
0.0
 30
0.0
 11
0.0
 21
0.0
 31
0.0
  0
MTEXT
  5
279
330
275
100
AcDbEntity
  8
0
  6
Continuous
 62
     0
370
     0
100
AcDbMText
 10
0.3824792285
 20
38.6502932068
 30
0.0
 40
9.2604166667
 41
0.0
 71
     1
 72
     1
  1
UGELLO
  7
SLDTEXTSTYLE0
 73
     1
 44
1.0
  0
MTEXT
  5
27A
330
275
100
AcDbEntity
  8
0
  6
Continuous
 62
     0
370
     0
100
AcDbMText
 10
0.3824792285
 20
25.303070737
 30
0.0
 40
9.2604166667
 41
0.0
 71
     1
 72
     1
  1
REG
  7
SLDTEXTSTYLE0
 73
     1
 44
1.0
  0
MTEXT
  5
27B
330
275
100
AcDbEntity
  8
0
  6
Continuous
 62
     0
370
     0
100
AcDbMText
 10
0.3824792285
 20
11.9558482673
 30
0.0
 40
9.2604166667
 41
0.0
 71
     1
 72
     1
  1
VELOCITA
  7
SLDTEXTSTYLE0
 73
     1
 44
1.0
  0
ENDBLK
  5
277
330
275
100
AcDbEntity
  8
0
100
AcDbBlockEnd
  0
BLOCK
  5
37F
330
37E
100
AcDbEntity
  8
0
100
AcDbBlockBegin
  2
SW_NOTE_8
 70
     0
 10
0.0
 20
0.0
 30
0.0
  3
SW_NOTE_8
  1

  0
LINE
  5
381
330
37E
100
AcDbEntity
  8
0
  6
Continuous
 62
     0
370
     0
100
AcDbLine
 10
110.9952981351
 20
0.0
 30
0.0
 11
0.0
 21
0.0
 31
0.0
  0
MTEXT
  5
382
330
37E
100
AcDbEntity
  8
0
  6
Continuous
 62
     0
370
     0
100
AcDbMText
 10
0.4788907906
 20
25.3721227542
 30
0.0
 40
9.2604166667
 41
0.0
 71
     1
 72
     1
  1
FORI DI FISSAGGIO
  7
SLDTEXTSTYLE0
 73
     1
 44
1.0
  0
MTEXT
  5
383
330
37E
100
AcDbEntity
  8
0
  6
Continuous
 62
     0
370
     0
100
AcDbMText
 10
0.4788907906
 20
12.0249002845
 30
0.0
 40
9.2604166667
 41
0.0
 71
     1
 72
     1
  1
A FRAME
  7
SLDTEXTSTYLE0
 73
     1
 44
1.0
  0
ENDBLK
  5
380
330
37E
100
AcDbEntity
  8
0
100
AcDbBlockEnd
  0
BLOCK
  5
3FC
330
3FB
100
AcDbEntity
  8
0
100
AcDbBlockBegin
  2
SW_NOTE_9
 70
     0
 10
0.0
 20
0.0
 30
0.0
  3
SW_NOTE_9
  1

  0
LINE
  5
3FE
330
3FB
100
AcDbEntity
  8
0
  6
Continuous
 62
     0
370
     0
100
AcDbLine
 10
-59.1048394563
 20
0.0
 30
0.0
 11
0.0
 21
0.0
 31
0.0
  0
MTEXT
  5
3FF
330
3FB
100
AcDbEntity
  8
0
  6
Continuous
 62
     0
370
     0
100
AcDbMText
 10
-59.6012606654
 20
38.6347417999
 30
0.0
 40
9.2604166667
 41
0.0
 71
     1
 72
     1
  1
UGELLO
  7
SLDTEXTSTYLE0
 73
     1
 44
1.0
  0
MTEXT
  5
400
330
3FB
100
AcDbEntity
  8
0
  6
Continuous
 62
     0
370
     0
100
AcDbMText
 10
-59.6012606654
 20
25.2875193302
 30
0.0
 40
9.2604166667
 41
0.0
 71
     1
 72
     1
  1
REG
  7
SLDTEXTSTYLE0
 73
     1
 44
1.0
  0
MTEXT
  5
401
330
3FB
100
AcDbEntity
  8
0
  6
Continuous
 62
     0
370
     0
100
AcDbMText
 10
-59.6012606654
 20
11.9402968604
 30
0.0
 40
9.2604166667
 41
0.0
 71
     1
 72
     1
  1
VELOCITA
  7
SLDTEXTSTYLE0
 73
     1
 44
1.0
  0
ENDBLK
  5
3FD
330
3FB
100
AcDbEntity
  8
0
100
AcDbBlockEnd
  0
BLOCK
  5
564
330
51D
100
AcDbEntity
  8
0
100
AcDbBlockBegin
  2
A$C27155
 70
     0
 10
0.0
 20
0.0
 30
0.0
  3
A$C27155
  1

  0
ARC
  5
53F
330
51D
100
AcDbEntity
  8
0
  6
Continuous
 62
     7
370
    25
100
AcDbCircle
 10
5.866084926500008
 20
-5.858650388200004
 30
0.0
 40
3.000000000000114
100
AcDbArc
 50
0.0
 51
19.15958191309999
  0
LINE
  5
540
330
51D
100
AcDbEntity
  8
0
  6
Continuous
 62
     7
370
    25
100
AcDbLine
 10
8.699909308200006
 20
4.874049263800032
 30
0.0
 11
8.699909308200006
 21
-4.874049263800003
 31
0.0
  0
ARC
  5
541
330
51D
100
AcDbEntity
  8
0
  6
Continuous
 62
     7
370
    25
100
AcDbCircle
 10
5.866084926500008
 20
5.858650388099989
 30
0.0
 40
3.000000000000015
100
AcDbArc
 50
340.8404180868993
 51
74.53278350810004
  0
ARC
  5
542
330
51D
100
AcDbEntity
  8
0
  6
Continuous
 62
     7
370
    25
100
AcDbCircle
 10
0.0
 20
0.0
 30
0.0
 40
10.99999999999999
100
AcDbArc
 50
52.69820970790002
 51
127.3017902921
  0
ARC
  5
543
330
51D
100
AcDbEntity
  8
0
  6
Continuous
 62
     7
370
    25
100
AcDbCircle
 10
-5.866084926599996
 20
5.858650388099989
 30
0.0
 40
2.999999999999999
100
AcDbArc
 50
105.4672164919
 51
199.1595819130997
  0
LINE
  5
544
330
51D
100
AcDbEntity
  8
0
  6
Continuous
 62
     7
370
    25
100
AcDbLine
 10
-8.699909308299993
 20
-4.874049263800003
 30
0.0
 11
-8.699909308299993
 21
4.874049263800032
 31
0.0
  0
ARC
  5
545
330
51D
100
AcDbEntity
  8
0
  6
Continuous
 62
     7
370
    25
100
AcDbCircle
 10
-5.866084926599996
 20
-5.858650388200004
 30
0.0
 40
2.999999999999969
100
AcDbArc
 50
160.8404180868996
 51
180.0
  0
LINE
  5
546
330
51D
100
AcDbEntity
  8
0
  6
Continuous
 62
     7
370
    25
100
AcDbLine
 10
-8.866084926599996
 20
-5.858650388200004
 30
0.0
 11
-8.866084926599996
 21
-7.971330797199982
 31
0.0
  0
ARC
  5
547
330
51D
100
AcDbEntity
  8
0
  6
Continuous
 62
     7
370
    25
100
AcDbCircle
 10
0.0
 20
0.0
 30
0.0
 40
11.92264973081037
100
AcDbArc
 50
318.0418836600999
 51
221.9581163399
  0
LINE
  5
548
330
51D
100
AcDbEntity
  8
0
  6
Continuous
 62
     7
370
    25
100
AcDbLine
 10
8.866084926500008
 20
-7.971330797199982
 30
0.0
 11
8.866084926500008
 21
-5.858650388200004
 31
0.0
  0
SPLINE
  5
549
330
51D
100
AcDbEntity
  8
0
  6
Continuous
 62
     7
370
    25
100
AcDbSpline
210
0.0
220
0.0
230
1.0
 70
    24
 71
     3
 72
     8
 73
     4
 74
     0
 42
0.000000001
 43
0.00000001
 40
0.0
 40
0.0
 40
0.0
 40
0.0
 40
1.0
 40
1.0
 40
1.0
 40
1.0
 10
-8.866084926612416
 20
-7.971330797229882
 30
0.0
 10
-8.866084926612416
 20
-8.255901549189502
 30
0.0
 10
-8.866084926612587
 20
-8.535618093667892
 30
0.0
 10
-8.866084926612587
 20
-8.811500330552121
 30
0.0
  0
ARC
  5
54A
330
51D
100
AcDbEntity
  8
0
  6
Continuous
 62
     7
370
    25
100
AcDbCircle
 10
0.0
 20
0.0
 30
0.0
 40
12.50000000000027
100
AcDbArc
 50
315.1769165298999
 51
224.8230834701
  0
SPLINE
  5
54B
330
51D
100
AcDbEntity
  8
0
  6
Continuous
 62
     7
370
    25
100
AcDbSpline
210
0.0
220
0.0
230
1.0
 70
    24
 71
     3
 72
     8
 73
     4
 74
     0
 42
0.000000001
 43
0.00000001
 40
0.0
 40
0.0
 40
0.0
 40
0.0
 40
1.0
 40
1.0
 40
1.0
 40
1.0
 10
8.86608492652671
 20
-8.811500330552207
 30
0.0
 10
8.86608492652671
 20
-8.535618093668006
 30
0.0
 10
8.86608492652661
 20
-8.255901549189787
 30
0.0
 10
8.86608492652661
 20
-7.971330797230195
 30
0.0
  0
LINE
  5
54C
330
51D
100
AcDbEntity
  8
0
  6
Continuous
 62
     7
370
    25
100
AcDbLine
 10
8.0
 20
3.75
 30
0.0
 11
8.0
 21
-3.75
 31
0.0
  0
ARC
  5
54D
330
51D
100
AcDbEntity
  8
0
  6
Continuous
 62
     7
370
    25
100
AcDbCircle
 10
5.866084926500008
 20
5.858650388099989
 30
0.0
 40
3.000000000000052
100
AcDbArc
 50
315.3411951425001
 51
340.8404180868995
  0
ARC
  5
54E
330
51D
100
AcDbEntity
  8
0
  6
Continuous
 62
     7
370
    25
100
AcDbCircle
 10
5.866084926500008
 20
-5.858650388200004
 30
0.0
 40
2.999999999999982
100
AcDbArc
 50
19.15958191310028
 51
44.65880485750051
  0
ARC
  5
54F
330
51D
100
AcDbEntity
  8
0
  6
Continuous
 62
     7
370
    25
100
AcDbCircle
 10
-5.866084926599996
 20
5.858650388099989
 30
0.0
 40
2.999999999999924
100
AcDbArc
 50
199.1595819131001
 51
224.6588048574995
  0
LINE
  5
550
330
51D
100
AcDbEntity
  8
0
  6
Continuous
 62
     7
370
    25
100
AcDbLine
 10
-8.0
 20
-3.75
 30
0.0
 11
-8.0
 21
3.75
 31
0.0
  0
ARC
  5
551
330
51D
100
AcDbEntity
  8
0
  6
Continuous
 62
     7
370
    25
100
AcDbCircle
 10
-5.866084926599996
 20
-5.858650388200004
 30
0.0
 40
3.000000000000039
100
AcDbArc
 50
135.3411951424999
 51
160.8404180869001
  0
ARC
  5
552
330
51D
100
AcDbEntity
  8
0
  6
Continuous
 62
     7
370
    25
100
AcDbCircle
 10
0.0
 20
0.0
 30
0.0
 40
11.00000000000013
100
AcDbArc
 50
295.5546937848
 51
307.3017902921001
  0
ARC
  5
553
330
51D
100
AcDbEntity
  8
0
  6
Continuous
 62
     7
370
    25
100
AcDbCircle
 10
0.0
 20
-11.5
 30
0.0
 40
5.00000000000008
100
AcDbArc
 50
0.4982304487000119
 51
18.37393800329982
  0
ARC
  5
554
330
51D
100
AcDbEntity
  8
0
  6
Continuous
 62
     7
370
    25
100
AcDbCircle
 10
0.0
 20
0.0
 30
0.0
 40
12.50000000000011
100
AcDbArc
 50
293.57723306
 51
315.1769165298999
  0
ARC
  5
555
330
51D
100
AcDbEntity
  8
0
  6
Continuous
 62
     7
370
    25
100
AcDbCircle
 10
5.866084926500008
 20
-5.858650388200004
 30
0.0
 40
3.000000000000121
100
AcDbArc
 50
285.4672164918999
 51
0.0
  0
ARC
  5
556
330
51D
100
AcDbEntity
  8
0
  6
Continuous
 62
     7
370
    25
100
AcDbCircle
 10
0.0
 20
-11.5
 30
0.0
 40
5.000000000000064
100
AcDbArc
 50
161.6260619967001
 51
179.5017695513
  0
ARC
  5
557
330
51D
100
AcDbEntity
  8
0
  6
Continuous
 62
     7
370
    25
100
AcDbCircle
 10
0.0
 20
0.0
 30
0.0
 40
11.00000000000004
100
AcDbArc
 50
232.6982097078999
 51
244.4453062152
  0
ARC
  5
558
330
51D
100
AcDbEntity
  8
0
  6
Continuous
 62
     7
370
    25
100
AcDbCircle
 10
0.0
 20
0.0
 30
0.0
 40
12.49999999999989
100
AcDbArc
 50
224.8230834701
 51
246.42276694
  0
ARC
  5
559
330
51D
100
AcDbEntity
  8
0
  6
Continuous
 62
     7
370
    25
100
AcDbCircle
 10
-5.866084926599996
 20
-5.858650388200004
 30
0.0
 40
3.000000000000057
100
AcDbArc
 50
180.0
 51
254.5327835080999
  0
ARC
  5
55A
330
51D
100
AcDbEntity
  8
0
  6
Continuous
 62
     7
370
    25
100
AcDbCircle
 10
0.0
 20
0.0
 30
0.0
 40
13.00000000000034
100
AcDbArc
 50
292.4949821711001
 51
247.5050178289
  0
SPLINE
  5
55B
330
51D
100
AcDbEntity
  8
0
  6
Continuous
 62
     7
370
    25
100
AcDbSpline
210
0.0
220
0.0
230
1.0
 70
     8
 71
     3
 72
    12
 73
     8
 74
     0
 42
0.000000001
 43
0.00000001
 40
0.0
 40
0.0
 40
0.0
 40
0.0
 40
0.5
 40
0.5
 40
0.75
 40
0.75
 40
1.0
 40
1.0
 40
1.0
 40
1.0
 10
4.973832756226173
 20
-12.01086956524381
 30
0.0
 10
4.988095175949539
 20
-11.8720104606237
 30
0.0
 10
4.995603809398318
 20
-11.73501814492249
 30
0.0
 10
4.999709477927894
 20
-11.57568271418108
 30
0.0
 10
4.999983713799949
 20
-11.53265882698622
 30
0.0
 10
5.000014937646654
 20
-11.47253437508539
 30
0.0
 10
4.999810960466831
 20
-11.45652173915681
 30
0.0
 10
4.999810960466831
 20
-11.45652173915681
 30
0.0
  0
SPLINE
  5
55C
330
51D
100
AcDbEntity
  8
0
  6
Continuous
 62
     7
370
    25
100
AcDbSpline
210
0.0
220
0.0
230
1.0
 70
     8
 71
     3
 72
    10
 73
     6
 74
     0
 42
0.000000001
 43
0.00000001
 40
0.0
 40
0.0
 40
0.0
 40
0.0
 40
0.5
 40
0.5
 40
1.0
 40
1.0
 40
1.0
 40
1.0
 10
-4.999810960552381
 20
-11.4565217391567
 30
0.0
 10
-4.999810960552381
 20
-11.4565217391567
 30
0.0
 10
-5.001043800739367
 20
-11.52352470994691
 30
0.0
 10
-4.995661665134875
 20
-11.73314595515259
 30
0.0
 10
-4.988075942908424
 20
-11.87219771459741
 30
0.0
 10
-4.973832756311879
 20
-12.01086956524369
 30
0.0
  0
CIRCLE
  5
55D
330
51D
100
AcDbEntity
  8
0
  6
Continuous
 62
     7
370
    25
100
AcDbCircle
 10
0.0
 20
0.0
 30
0.0
 40
17.0
  0
ARC
  5
55E
330
51D
100
AcDbEntity
  8
0
  6
Continuous
 62
     7
370
    25
100
AcDbCircle
 10
0.0
 20
-11.5
 30
0.0
 40
5.000000000000062
100
AcDbArc
 50
185.8643678569999
 51
354.1356321430001
  0
CIRCLE
  5
55F
330
51D
100
AcDbEntity
  8
0
  6
Continuous
 62
     7
370
    25
100
AcDbCircle
 10
0.0
 20
0.0
 30
0.0
 40
17.5
  0
ARC
  5
560
330
51D
100
AcDbEntity
  8
0
  6
Continuous
 62
     7
370
    25
100
AcDbCircle
 10
0.0
 20
-11.5
 30
0.0
 40
5.000000000000051
100
AcDbArc
 50
18.37393800329992
 51
161.6260619967001
  0
CIRCLE
  5
561
330
51D
100
AcDbEntity
  8
0
  6
Continuous
 62
     7
370
    25
100
AcDbCircle
 10
0.0
 20
6.0
 30
0.0
 40
5.0
  0
CIRCLE
  5
562
330
51D
100
AcDbEntity
  8
0
  6
Continuous
 62
     7
370
    25
100
AcDbCircle
 10
0.0
 20
-11.5
 30
0.0
 40
2.650000000000006
  0
CIRCLE
  5
563
330
51D
100
AcDbEntity
  8
0
  6
Continuous
 62
     7
370
    25
100
AcDbCircle
 10
0.0
 20
6.0
 30
0.0
 40
2.649999999999977
  0
ENDBLK
  5
565
330
51D
100
AcDbEntity
  8
0
100
AcDbBlockEnd
  0
ENDSEC
  0
SECTION
  2
ENTITIES
  0
MTEXT
  5
D1
330
1F
100
AcDbEntity
  8
0
  6
Continuous
 62
     7
370
     0
100
AcDbMText
 10
218.2146234437
 20
573.4417895025
 30
0.0
 40
9.525
 41
0.0
 71
     1
 72
     1
  1
845E10L
  7
SLDTEXTSTYLE0
 73
     1
 44
1.0
  0
LINE
  5
125
330
1F
100
AcDbEntity
  8
0
100
AcDbLine
 10
179.8933489597
 20
299.7459563345
 30
0.0
 11
179.8933489597
 21
305.7459535927
 31
0.0
  0
ARC
  5
126
330
1F
100
AcDbEntity
  8
0
100
AcDbCircle
 10
176.8933481997
 20
306.245953543
 30
0.0
 40
0.5
100
AcDbArc
 50
180.0
 51
270.0
  0
ARC
  5
127
330
1F
100
AcDbEntity
  8
0
100
AcDbCircle
 10
150.8933481997
 20
306.245953543
 30
0.0
 40
0.5
100
AcDbArc
 50
270.0
 51
0.0
  0
LINE
  5
128
330
1F
100
AcDbEntity
  8
0
100
AcDbLine
 10
151.3933480134
 20
309.7459542483
 30
0.0
 11
151.3933480134
 21
306.245954606
 31
0.0
  0
LINE
  5
129
330
1F
100
AcDbEntity
  8
0
100
AcDbLine
 10
176.393348386
 20
306.245954606
 30
0.0
 11
176.393348386
 21
309.7459542483
 31
0.0
  0
LINE
  5
12A
330
1F
100
AcDbEntity
  8
0
100
AcDbLine
 10
176.393348386
 20
309.7459542483
 30
0.0
 11
175.8159982389
 21
310.7459562749
 31
0.0
  0
LINE
  5
12B
330
1F
100
AcDbEntity
  8
0
100
AcDbLine
 10
151.9706981605
 20
310.7459562749
 30
0.0
 11
151.3933480134
 21
309.7459542483
 31
0.0
  0
LINE
  5
12C
330
1F
100
AcDbEntity
  8
0
100
AcDbLine
 10
176.2433486408
 20
318.0184903473
 30
0.0
 11
175.7433485588
 21
318.5184913606
 31
0.0
  0
LINE
  5
12D
330
1F
100
AcDbEntity
  8
0
100
AcDbLine
 10
152.0433478406
 20
318.5184913606
 30
0.0
 11
151.5433477586
 21
318.0184903473
 31
0.0
  0
LINE
  5
12E
330
1F
100
AcDbEntity
  8
0
100
AcDbLine
 10
176.2433486408
 20
311.3184961409
 30
0.0
 11
176.2433486408
 21
318.0184903473
 31
0.0
  0
LINE
  5
12F
330
1F
100
AcDbEntity
  8
0
100
AcDbLine
 10
151.5433477586
 20
318.0184903473
 30
0.0
 11
151.5433477586
 21
311.3184961409
 31
0.0
  0
LINE
  5
130
330
1F
100
AcDbEntity
  8
0
100
AcDbLine
 10
175.3933482221
 20
320.8184930414
 30
0.0
 11
174.8933481401
 21
321.3184940547
 31
0.0
  0
LINE
  5
131
330
1F
100
AcDbEntity
  8
0
100
AcDbLine
 10
152.8933482593
 20
321.3184940547
 30
0.0
 11
152.3933481774
 21
320.8184930414
 31
0.0
  0
LINE
  5
132
330
1F
100
AcDbEntity
  8
0
100
AcDbLine
 10
175.3933482221
 20
318.5184913606
 30
0.0
 11
175.3933482221
 21
320.8184930414
 31
0.0
  0
LINE
  5
133
330
1F
100
AcDbEntity
  8
0
100
AcDbLine
 10
152.3933481774
 20
320.8184930414
 30
0.0
 11
152.3933481774
 21
318.5184913606
 31
0.0
  0
ARC
  5
134
330
1F
100
AcDbEntity
  8
0
100
AcDbCircle
 10
163.8933481997
 20
474.0205193895
 30
0.0
 40
34.16666666666675
100
AcDbArc
 50
95.6459490965
 51
111.4601277494
  0
ARC
  5
135
330
1F
100
AcDbEntity
  8
0
100
AcDbCircle
 10
163.8933481997
 20
474.0205193895
 30
0.0
 40
34.16666666666675
100
AcDbArc
 50
68.53987225059998
 51
84.35405090349998
  0
LINE
  5
136
330
1F
100
AcDbEntity
  8
0
100
AcDbLine
 10
151.3933480134
 20
505.8184954256
 30
0.0
 11
151.3933480134
 21
503.8184913725
 31
0.0
  0
LINE
  5
137
330
1F
100
AcDbEntity
  8
0
100
AcDbLine
 10
176.393348386
 20
503.8184913725
 30
0.0
 11
176.393348386
 21
505.8184954256
 31
0.0
  0
LINE
  5
138
330
1F
100
AcDbEntity
  8
0
100
AcDbLine
 10
176.393348386
 20
321.3184940547
 30
0.0
 11
176.393348386
 21
392.8184936673
 31
0.0
  0
LINE
  5
139
330
1F
100
AcDbEntity
  8
0
100
AcDbLine
 10
151.3933480134
 20
392.8184936673
 30
0.0
 11
151.3933480134
 21
321.3184940547
 31
0.0
  0
LINE
  5
13A
330
1F
100
AcDbEntity
  8
0
100
AcDbLine
 10
142.8933484828
 20
299.7459563345
 30
0.0
 11
143.8933486467
 21
299.7459563345
 31
0.0
  0
LINE
  5
13B
330
1F
100
AcDbEntity
  8
0
100
AcDbLine
 10
142.8933484828
 20
305.7459535927
 30
0.0
 11
142.8933484828
 21
299.7459563345
 31
0.0
  0
LINE
  5
13C
330
1F
100
AcDbEntity
  8
0
100
AcDbLine
 10
143.8933486467
 20
305.7459535927
 30
0.0
 11
142.8933484828
 21
305.7459535927
 31
0.0
  0
LINE
  5
13D
330
1F
100
AcDbEntity
  8
0
100
AcDbLine
 10
171.6393149806
 20
305.7459535927
 30
0.0
 11
171.6393149806
 21
299.7459563345
 31
0.0
  0
LINE
  5
13E
330
1F
100
AcDbEntity
  8
0
100
AcDbLine
 10
171.6393149806
 20
305.7459535927
 30
0.0
 11
143.8933486467
 21
305.7459535927
 31
0.0
  0
LINE
  5
13F
330
1F
100
AcDbEntity
  8
0
100
AcDbLine
 10
171.6393149806
 20
299.7459563345
 30
0.0
 11
143.8933486467
 21
299.7459563345
 31
0.0
  0
LINE
  5
140
330
1F
100
AcDbEntity
  8
0
100
AcDbLine
 10
179.8933489597
 20
305.7459535927
 30
0.0
 11
171.6393149806
 21
305.7459535927
 31
0.0
  0
LINE
  5
141
330
1F
100
AcDbEntity
  8
0
100
AcDbLine
 10
179.8933489597
 20
299.7459563345
 30
0.0
 11
171.6393149806
 21
299.7459563345
 31
0.0
  0
LINE
  5
142
330
1F
100
AcDbEntity
  8
0
100
AcDbLine
 10
172.7594329393
 20
309.7459542483
 30
0.0
 11
176.393348386
 21
309.7459542483
 31
0.0
  0
LINE
  5
143
330
1F
100
AcDbEntity
  8
0
100
AcDbLine
 10
151.3933480134
 20
309.7459542483
 30
0.0
 11
155.0272634601
 21
309.7459542483
 31
0.0
  0
LINE
  5
144
330
1F
100
AcDbEntity
  8
0
100
AcDbLine
 10
155.0272634601
 20
309.7459542483
 30
0.0
 11
155.0272634601
 21
306.7459556193
 31
0.0
  0
LINE
  5
145
330
1F
100
AcDbEntity
  8
0
100
AcDbLine
 10
172.7594329393
 20
306.7459556193
 30
0.0
 11
172.7594329393
 21
309.7459542483
 31
0.0
  0
LINE
  5
146
330
1F
100
AcDbEntity
  8
0
100
AcDbLine
 10
172.7594329393
 20
306.7459556193
 30
0.0
 11
155.0272634601
 21
306.7459556193
 31
0.0
  0
LINE
  5
147
330
1F
100
AcDbEntity
  8
0
100
AcDbLine
 10
172.7594329393
 20
310.7459562749
 30
0.0
 11
172.7594329393
 21
309.7459542483
 31
0.0
  0
LINE
  5
148
330
1F
100
AcDbEntity
  8
0
100
AcDbLine
 10
155.0272634601
 20
310.7459562749
 30
0.0
 11
151.9706981605
 21
310.7459562749
 31
0.0
  0
LINE
  5
149
330
1F
100
AcDbEntity
  8
0
100
AcDbLine
 10
175.8159982389
 20
310.7459562749
 30
0.0
 11
172.7594329393
 21
310.7459562749
 31
0.0
  0
LINE
  5
14A
330
1F
100
AcDbEntity
  8
0
100
AcDbLine
 10
155.0272634601
 20
309.7459542483
 30
0.0
 11
155.0272634601
 21
310.7459562749
 31
0.0
  0
LINE
  5
14B
330
1F
100
AcDbEntity
  8
0
100
AcDbLine
 10
155.0272634601
 20
310.7459562749
 30
0.0
 11
155.1934393471
 21
310.7459562749
 31
0.0
  0
LINE
  5
14C
330
1F
100
AcDbEntity
  8
0
100
AcDbLine
 10
172.5932570523
 20
310.7459562749
 30
0.0
 11
172.7594329393
 21
310.7459562749
 31
0.0
  0
LINE
  5
14D
330
1F
100
AcDbEntity
  8
0
100
AcDbLine
 10
163.8933481997
 20
318.5184913606
 30
0.0
 11
152.0433478406
 21
318.5184913606
 31
0.0
  0
LINE
  5
14E
330
1F
100
AcDbEntity
  8
0
100
AcDbLine
 10
175.7433485588
 20
318.5184913606
 30
0.0
 11
163.8933481997
 21
318.5184913606
 31
0.0
  0
LINE
  5
14F
330
1F
100
AcDbEntity
  8
0
100
AcDbLine
 10
176.2433486408
 20
318.0184903473
 30
0.0
 11
151.5433477586
 21
318.0184903473
 31
0.0
  0
SPLINE
  5
150
330
1F
100
AcDbEntity
  8
0
100
AcDbSpline
210
0.0
220
0.0
230
1.0
 70
    11
 71
     3
 72
    26
 73
    22
 74
     0
 42
0.000000001
 43
0.00000001
 40
0.0
 40
0.0
 40
0.0
 40
0.0
 40
0.0529356704022647
 40
0.1058449334711931
 40
0.1594405355450975
 40
0.2135056211935032
 40
0.2668359399214283
 40
0.3193951305976968
 40
0.3723005863507167
 40
0.426148583738769
 40
0.4801054108390185
 40
0.5331149076915485
 40
0.5856118375333602
 40
0.6388138179016701
 40
0.6928476155748545
 40
0.746555788248446
 40
0.7993094235813045
 40
0.8519462291530286
 40
0.9054574024544221
 40
0.9595348103112886
 40
1.0
 40
1.0
 40
1.0
 40
1.0
 10
161.3933482555853
 20
314.8684891790544
 30
0.0
 10
161.4204074997857
 20
314.5905978423825
 30
0.0
 10
161.4745124894912
 20
314.0349537970963
 30
0.0
 10
161.8955813271548
 20
313.2932516784017
 30
0.0
 10
162.5202291008962
 20
312.7216340773364
 30
0.0
 10
163.3091644680489
 20
312.3883006237517
 30
0.0
 10
164.1595707493129
 20
312.3356145725783
 30
0.0
 10
164.9727561912242
 20
312.5625237926171
 30
0.0
 10
165.6674646914394
 20
313.0410341536505
 30
0.0
 10
166.17154800282
 20
313.7270044170847
 30
0.0
 10
166.4206105936449
 20
314.5454920593434
 30
0.0
 10
166.3848722732366
 20
315.3943296994344
 30
0.0
 10
166.0767282471155
 20
316.1783985726351
 30
0.0
 10
165.5285185677527
 20
316.8218512625688
 30
0.0
 10
164.7918636228067
 20
317.2531118856091
 30
0.0
 10
163.9525428558938
 20
317.415197110695
 30
0.0
 10
163.1147176271519
 20
317.2926510218535
 30
0.0
 10
162.3651954289077
 20
316.9060267366526
 30
0.0
 10
161.7835829618797
 20
316.2926626679833
 30
0.0
 10
161.4465162947401
 20
315.5755976061797
 30
0.0
 10
161.4092840385046
 20
315.0804271510801
 30
0.0
 10
161.3933482555853
 20
314.8684891790544
 30
0.0
  0
LINE
  5
151
330
1F
100
AcDbEntity
  8
0
100
AcDbLine
 10
176.2433486408
 20
311.3184961409
 30
0.0
 11
151.5433477586
 21
311.3184961409
 31
0.0
  0
LINE
  5
152
330
1F
100
AcDbEntity
  8
0
100
AcDbLine
 10
163.8933481997
 20
320.8184930414
 30
0.0
 11
152.3933481774
 21
320.8184930414
 31
0.0
  0
LINE
  5
153
330
1F
100
AcDbEntity
  8
0
100
AcDbLine
 10
175.3933482221
 20
320.8184930414
 30
0.0
 11
163.8933481997
 21
320.8184930414
 31
0.0
  0
LWPOLYLINE
  5
154
330
1F
100
AcDbEntity
  8
0
100
AcDbPolyline
 90
        8
 70
   128
 43
0.0
 10
155.5433931178
 20
306.7459556193
 10
155.4610688588
 20
307.6869266957
 10
155.3651286638
 20
308.7835329503
 10
155.2858870825
 20
309.6892627806
 10
155.2237892872
 20
310.3990423412
 10
155.1791835925
 20
310.908893022
 10
155.1523195928
 20
311.2159463495
 10
155.1433481625
 20
311.3184961409
  0
LWPOLYLINE
  5
155
330
1F
100
AcDbEntity
  8
0
100
AcDbPolyline
 90
        8
 70
   128
 43
0.0
 10
172.2433032816
 20
306.7459556193
 10
172.3256275406
 20
307.6869266957
 10
172.4215677357
 20
308.7835329503
 10
172.5008093169
 20
309.6892627806
 10
172.5629071122
 20
310.3990423412
 10
172.6075128069
 20
310.908893022
 10
172.6343768066
 20
311.2159463495
 10
172.643348237
 20
311.3184961409
  0
LINE
  5
156
330
1F
100
AcDbEntity
  8
0
100
AcDbLine
 10
164.9532542912
 20
313.172439012
 30
0.0
 11
165.0857424945
 21
312.9604327411
 31
0.0
  0
ARC
  5
157
330
1F
100
AcDbEntity
  8
0
100
AcDbCircle
 10
163.8933481997
 20
314.8684927701
 30
0.0
 40
2.000000000000032
100
AcDbArc
 50
302.0022809781
 51
282.0022809781
  0
LINE
  5
158
330
1F
100
AcDbEntity
  8
0
100
AcDbLine
 10
164.3092494748
 20
312.9122125835
 30
0.0
 11
164.3612371233
 21
312.6676770777
 31
0.0
  0
ARC
  5
159
330
1F
100
AcDbEntity
  8
0
100
AcDbCircle
 10
163.8933481997
 20
314.8684927701
 30
0.0
 40
2.250000000000019
100
AcDbArc
 50
302.0022809781
 51
282.0022809781
  0
LWPOLYLINE
  5
15A
330
1F
100
AcDbEntity
  8
0
100
AcDbPolyline
 90
        3
 70
   128
 43
0.0
 10
161.4068142487
 20
314.6093654365
 10
161.4078745594
 20
315.1376041502
 10
161.4548700279
 20
315.4196980328
  0
LINE
  5
15B
330
1F
100
AcDbEntity
  8
0
100
AcDbLine
 10
165.0857424945
 20
312.9604327411
 30
0.0
 11
165.2182308141
 21
312.7484264702
 31
0.0
  0
LINE
  5
15C
330
1F
100
AcDbEntity
  8
0
100
AcDbLine
 10
164.3612371233
 20
312.6676770777
 30
0.0
 11
164.4132248009
 21
312.4231415719
 31
0.0
  0
LINE
  5
15D
330
1F
100
AcDbEntity
  8
0
100
AcDbLine
 10
151.4933478436
 20
390.3184923262
 30
0.0
 11
176.2933485558
 21
390.3184923262
 31
0.0
  0
LINE
  5
15E
330
1F
100
AcDbEntity
  8
0
100
AcDbLine
 10
158.2552135339
 20
505.8184954256
 30
0.0
 11
176.393348386
 21
505.8184954256
 31
0.0
  0
LINE
  5
15F
330
1F
100
AcDbEntity
  8
0
100
AcDbLine
 10
151.3933480134
 20
505.8184954256
 30
0.0
 11
158.2552135339
 21
505.8184954256
 31
0.0
  0
ARC
  5
160
330
1F
100
AcDbEntity
  8
0
100
AcDbCircle
 10
166.570768888
 20
501.1133215326
 30
0.0
 40
6.941890162820756
100
AcDbArc
 50
84.3459224838
 51
96.46116092560001
  0
ARC
  5
161
330
1F
100
AcDbEntity
  8
0
100
AcDbCircle
 10
166.4042591577
 20
497.8373611598
 30
0.0
 40
10.21786279645388
100
AcDbArc
 50
89.488629061
 51
94.66061166660002
  0
ARC
  5
162
330
1F
100
AcDbEntity
  8
0
100
AcDbCircle
 10
163.7264902507
 20
474.1271529595
 30
0.0
 40
33.92807433983334
100
AcDbArc
 50
89.71821881149998
 51
92.5572968367
  0
ARC
  5
163
330
1F
100
AcDbEntity
  8
0
100
AcDbCircle
 10
161.2163289293
 20
501.1050050983
 30
0.0
 40
6.950215643859523
100
AcDbArc
 50
89.38241633689998
 51
96.45794894449999
  0
ARC
  5
164
330
1F
100
AcDbEntity
  8
0
100
AcDbCircle
 10
161.3827365333
 20
497.8405886135
 30
0.0
 40
10.21462863134354
100
AcDbArc
 50
84.67411617480002
 51
95.3258838252
  0
ARC
  5
165
330
1F
100
AcDbEntity
  8
0
100
AcDbCircle
 10
164.060231368
 20
474.1317459981
 30
0.0
 40
33.92348234867109
100
AcDbArc
 50
87.0778794386
 51
92.9221205614
  0
LINE
  5
166
330
1F
100
AcDbEntity
  8
0
100
AcDbLine
 10
151.4035608968
 20
321.3184940547
 30
0.0
 11
151.3933480134
 21
321.3184940547
 31
0.0
  0
LINE
  5
167
330
1F
100
AcDbEntity
  8
0
100
AcDbLine
 10
176.393348386
 20
321.3184940547
 30
0.0
 11
151.4035608968
 21
321.3184940547
 31
0.0
  0
LINE
  5
168
330
1F
100
AcDbEntity
  8
0
100
AcDbLine
 10
176.393348386
 20
392.8184936673
 30
0.0
 11
151.3933480134
 21
392.8184936673
 31
0.0
  0
LINE
  5
169
330
1F
100
AcDbEntity
  8
0
100
AcDbLine
 10
151.3933480134
 20
503.8184913725
 30
0.0
 11
176.393348386
 21
503.8184913725
 31
0.0
  0
LINE
  5
16A
330
1F
100
AcDbEntity
  8
0
100
AcDbLine
 10
151.3933480134
 20
503.8184913725
 30
0.0
 11
151.3933480134
 21
392.8184936673
 31
0.0
  0
LINE
  5
16B
330
1F
100
AcDbEntity
  8
0
100
AcDbLine
 10
176.393348386
 20
503.8184913725
 30
0.0
 11
176.393348386
 21
392.8184936673
 31
0.0
  0
LINE
  5
16C
330
1F
100
AcDbEntity
  8
0
  6
Continuous
 62
     8
370
    18
100
AcDbLine
 10
143.8933486467
 20
299.7459563345
 30
0.0
 11
143.8933486467
 21
305.7459535927
 31
0.0
  0
LINE
  5
16D
330
1F
100
AcDbEntity
  8
0
  6
Continuous
 62
     8
370
    18
100
AcDbLine
 10
152.308514004
 20
306.245954606
 30
0.0
 11
151.3933480134
 21
306.245954606
 31
0.0
  0
LINE
  5
16E
330
1F
100
AcDbEntity
  8
0
  6
Continuous
 62
     8
370
    18
100
AcDbLine
 10
176.393348386
 20
306.245954606
 30
0.0
 11
153.706644324
 21
306.245954606
 31
0.0
  0
ARC
  5
16F
330
1F
100
AcDbEntity
  8
0
  6
Continuous
 62
     8
370
    18
100
AcDbCircle
 10
151.8260967518
 20
306.2283181312
 30
0.0
 40
0.482739526562153
100
AcDbArc
 50
272.2584893221
 51
2.093718128
  0
ARC
  5
170
330
1F
100
AcDbEntity
  8
0
  6
Continuous
 62
     8
370
    18
100
AcDbCircle
 10
153.2476593145
 20
306.2039669688
 30
0.0
 40
0.4609015086219997
100
AcDbArc
 50
276.4175485777
 51
5.226831227499999
  0
SPLINE
  5
171
330
1F
100
AcDbEntity
  8
0
  6
Continuous
 62
     8
370
    18
100
AcDbSpline
210
0.0
220
0.0
230
1.0
 70
     8
 71
     3
 72
    10
 73
     6
 74
     0
 42
0.000000001
 43
0.00000001
 40
0.0
 40
0.0
 40
0.0
 40
0.0
 40
0.106431183111251
 40
0.5474406928479918
 40
1.0
 40
1.0
 40
1.0
 40
1.0
 10
153.706644324045
 20
306.2459546059762
 30
0.0
 10
153.6473203266624
 20
306.2418686948457
 30
0.0
 10
153.3421807117458
 20
306.2208523540058
 30
0.0
 10
152.8365017673503
 20
306.0662327721599
 30
0.0
 10
152.4860199725094
 20
306.1855333227867
 30
0.0
 10
152.3085140040324
 20
306.2459546059762
 30
0.0
  0
LINE
  5
172
330
1F
100
AcDbEntity
  8
0
  6
Continuous
 62
     8
370
    18
100
AcDbLine
 10
171.7202715924
 20
311.3184961409
 30
0.0
 11
171.7202715924
 21
306.7459556193
 31
0.0
  0
LINE
  5
173
330
1F
100
AcDbEntity
  8
0
  6
Continuous
 62
     8
370
    18
100
AcDbLine
 10
156.066424807
 20
311.3184961409
 30
0.0
 11
156.066424807
 21
306.7459556193
 31
0.0
  0
ARC
  5
181
330
1F
100
AcDbEntity
  8
0
100
AcDbCircle
 10
173.5933481997
 20
237.6840292402
 30
0.0
 40
1.400000000000003
100
AcDbArc
 50
163.0763287801
 51
106.9236712199
  0
CIRCLE
  5
182
330
1F
100
AcDbEntity
  8
0
100
AcDbCircle
 10
173.5933481997
 20
237.6840292402
 30
0.0
 40
1.190500000000002
  0
CIRCLE
  5
183
330
1F
100
AcDbEntity
  8
0
100
AcDbCircle
 10
163.8933481997
 20
247.3840292402
 30
0.0
 40
12.5
  0
LWPOLYLINE
  5
184
330
1F
100
AcDbEntity
  8
0
100
AcDbPolyline
 90
        9
 70
   128
 43
0.0
 10
165.7896002405
 20
244.4850246281
 10
165.9848002134
 20
244.871268547
 10
166.1800950648
 20
245.2577001275
 10
166.3754532462
 20
245.64425732
 10
166.5708430926
 20
246.0308769111
 10
166.7662329389
 20
246.4174966187
 10
166.9615911203
 20
246.8040536366
 10
167.1568859717
 20
247.1904854062
 10
167.3520858282
 20
247.5767293251
  0
LWPOLYLINE
  5
185
330
1F
100
AcDbEntity
  8
0
100
AcDbPolyline
 90
        9
 70
   128
 43
0.0
 10
167.3520858282
 20
247.5767293251
 10
167.1151887974
 20
247.938899414
 10
166.8781765154
 20
248.3012455957
 10
166.6410873993
 20
248.6637092986
 10
166.4039598661
 20
249.0262316166
 10
166.1668323329
 20
249.3887541675
 10
165.9297432168
 20
249.7512176958
 10
165.6927309347
 20
250.1135638774
 10
165.4558339039
 20
250.4757340391
  0
LWPOLYLINE
  5
186
330
1F
100
AcDbEntity
  8
0
100
AcDbPolyline
 90
        9
 70
   128
 43
0.0
 10
165.4558339039
 20
250.4757340391
 10
165.0237369001
 20
250.4516602819
 10
164.5914297085
 20
250.4275746503
 10
164.158982411
 20
250.4034813353
 10
163.7264650314
 20
250.3793840622
 10
163.2939476519
 20
250.355286789
 10
162.8615004126
 20
250.3311932412
 10
162.4291931627
 20
250.3071078424
 10
161.997096159
 20
250.2830338524
  0
LWPOLYLINE
  5
187
330
1F
100
AcDbEntity
  8
0
100
AcDbPolyline
 90
        9
 70
   128
 43
0.0
 10
161.997096159
 20
250.2830338524
 10
161.801896186
 20
249.8967899335
 10
161.6066013346
 20
249.510358353
 10
161.4112431532
 20
249.1238011605
 10
161.2158533069
 20
248.7371815694
 10
161.0204634605
 20
248.3505618618
 10
160.8251052791
 20
247.9640048439
 10
160.6298104277
 20
247.5775730743
 10
160.4346105712
 20
247.1913291554
  0
LWPOLYLINE
  5
188
330
1F
100
AcDbEntity
  8
0
100
AcDbPolyline
 90
        9
 70
   128
 43
0.0
 10
160.4346105712
 20
247.1913291554
 10
160.671507602
 20
246.8291590664
 10
160.908519884
 20
246.4668128848
 10
161.1456090002
 20
246.1043491819
 10
161.3827365333
 20
245.7418268639
 10
161.6198640665
 20
245.379304313
 10
161.8569531826
 20
245.0168407847
 10
162.0939654647
 20
244.6544946031
 10
162.3308624955
 20
244.2923244414
  0
LWPOLYLINE
  5
189
330
1F
100
AcDbEntity
  8
0
100
AcDbPolyline
 90
        9
 70
   128
 43
0.0
 10
162.3308624955
 20
244.2923244414
 10
162.7629594993
 20
244.3163981986
 10
163.195266691
 20
244.3404838302
 10
163.6277139885
 20
244.3645771452
 10
164.060231368
 20
244.3886744183
 10
164.4927487475
 20
244.4127716915
 10
164.9251959868
 20
244.4368652393
 10
165.3575032367
 20
244.4609506381
 10
165.7896002405
 20
244.4850246281
  0
ARC
  5
18A
330
1F
100
AcDbEntity
  8
0
100
AcDbCircle
 10
163.8933481997
 20
247.3840292402
 30
0.0
 40
3.000000000000022
100
AcDbArc
 50
33.18887978219999
 51
93.18887978220002
  0
ARC
  5
18B
330
1F
100
AcDbEntity
  8
0
100
AcDbCircle
 10
163.8933481997
 20
247.3840292402
 30
0.0
 40
3.000000000000022
100
AcDbArc
 50
93.18887978220002
 51
153.1888797822
  0
ARC
  5
18C
330
1F
100
AcDbEntity
  8
0
100
AcDbCircle
 10
163.8933481997
 20
247.3840292402
 30
0.0
 40
2.999999999999998
100
AcDbArc
 50
213.1888797822
 51
273.1888797822
  0
ARC
  5
18D
330
1F
100
AcDbEntity
  8
0
100
AcDbCircle
 10
163.8933481997
 20
247.3840292402
 30
0.0
 40
2.999999999999992
100
AcDbArc
 50
273.1888797822
 51
333.1888797822
  0
ARC
  5
18E
330
1F
100
AcDbEntity
  8
0
100
AcDbCircle
 10
163.8933481997
 20
247.3840292402
 30
0.0
 40
2.999999999999998
100
AcDbArc
 50
333.1888797822
 51
33.18887978219999
  0
ARC
  5
18F
330
1F
100
AcDbEntity
  8
0
100
AcDbCircle
 10
163.8933481997
 20
247.3840292402
 30
0.0
 40
3.000000000000018
100
AcDbArc
 50
153.1888797822
 51
213.1888797822
  0
LINE
  5
190
330
1F
100
AcDbEntity
  8
0
100
AcDbLine
 10
151.3933480134
 20
234.884029054
 30
0.0
 11
176.393348386
 21
234.884029054
 31
0.0
  0
LINE
  5
191
330
1F
100
AcDbEntity
  8
0
100
AcDbLine
 10
151.3933480134
 20
259.8840294265
 30
0.0
 11
176.393348386
 21
259.8840294265
 31
0.0
  0
LINE
  5
192
330
1F
100
AcDbEntity
  8
0
100
AcDbLine
 10
176.393348386
 20
259.8840294265
 30
0.0
 11
176.393348386
 21
234.884029054
 31
0.0
  0
CIRCLE
  5
193
330
1F
100
AcDbEntity
  8
0
100
AcDbCircle
 10
173.5933481997
 20
237.6840292402
 30
0.0
 40
1.0
  0
LINE
  5
194
330
1F
100
AcDbEntity
  8
0
100
AcDbLine
 10
151.3933480134
 20
259.8840294265
 30
0.0
 11
151.3933480134
 21
234.884029054
 31
0.0
  0
ARC
  5
195
330
1F
100
AcDbEntity
  8
0
  6
Continuous
 62
     8
370
    18
100
AcDbCircle
 10
163.8933481997
 20
247.3840292402
 30
0.0
 40
13.0
100
AcDbArc
 50
254.0576313944
 51
285.9423686055999
  0
ARC
  5
196
330
1F
100
AcDbEntity
  8
0
  6
Continuous
 62
     8
370
    18
100
AcDbCircle
 10
163.8933481997
 20
247.3840292402
 30
0.0
 40
12.99999999999998
100
AcDbArc
 50
344.0576313944001
 51
15.9423686056
  0
ARC
  5
197
330
1F
100
AcDbEntity
  8
0
  6
Continuous
 62
     8
370
    18
100
AcDbCircle
 10
163.8933481997
 20
247.3840292402
 30
0.0
 40
13.00000000000003
100
AcDbArc
 50
74.05763139439999
 51
105.9423686056
  0
ARC
  5
198
330
1F
100
AcDbEntity
  8
0
  6
Continuous
 62
     8
370
    18
100
AcDbCircle
 10
163.8933481997
 20
247.3840292402
 30
0.0
 40
13.00000000000003
100
AcDbArc
 50
164.0576313944
 51
195.9423686056
  0
LEADER
  5
1A1
330
1F
100
AcDbEntity
  8
0
  6
Continuous
 62
     7
370
     0
100
AcDbLeader
  3
SLDDIMSTYLE0
 76
     2
 10
169.5270956063844
 20
233.3840292402
 30
0.0
 10
181.4242791835844
 20
188.0915472784
 30
0.0
  0
ARC
  5
1A2
330
1F
100
AcDbEntity
  8
0
100
AcDbCircle
 10
241.364141966
 20
306.245953543
 30
0.0
 40
0.5
100
AcDbArc
 50
180.0
 51
270.0
  0
ARC
  5
1A3
330
1F
100
AcDbEntity
  8
0
100
AcDbCircle
 10
215.364141966
 20
306.245953543
 30
0.0
 40
0.5
100
AcDbArc
 50
270.0
 51
0.0
  0
LINE
  5
1A4
330
1F
100
AcDbEntity
  8
0
100
AcDbLine
 10
216.4414919268
 20
310.7459562749
 30
0.0
 11
215.8641417797
 21
309.7459542483
 31
0.0
  0
LINE
  5
1A5
330
1F
100
AcDbEntity
  8
0
100
AcDbLine
 10
215.8641417797
 20
309.7459542483
 30
0.0
 11
215.8641417797
 21
306.245954606
 31
0.0
  0
LINE
  5
1A6
330
1F
100
AcDbEntity
  8
0
100
AcDbLine
 10
240.8641421522
 20
306.245954606
 30
0.0
 11
240.8641421522
 21
306.7459556193
 31
0.0
  0
LINE
  5
1A7
330
1F
100
AcDbEntity
  8
0
100
AcDbLine
 10
240.7141424071
 20
318.0184903473
 30
0.0
 11
240.2141423251
 21
318.5184913606
 31
0.0
  0
LINE
  5
1A8
330
1F
100
AcDbEntity
  8
0
100
AcDbLine
 10
216.5141416069
 20
318.5184913606
 30
0.0
 11
216.2141421165
 21
318.2184937328
 31
0.0
  0
LINE
  5
1A9
330
1F
100
AcDbEntity
  8
0
100
AcDbLine
 10
240.7141424071
 20
317.3601719469
 30
0.0
 11
240.7141424071
 21
318.0184903473
 31
0.0
  0
LINE
  5
1AA
330
1F
100
AcDbEntity
  8
0
100
AcDbLine
 10
240.7141424071
 20
311.3184961409
 30
0.0
 11
240.7141424071
 21
312.3989644379
 31
0.0
  0
LINE
  5
1AB
330
1F
100
AcDbEntity
  8
0
100
AcDbLine
 10
239.8641419883
 20
320.8184930414
 30
0.0
 11
239.3641419064
 21
321.3184940547
 31
0.0
  0
LINE
  5
1AC
330
1F
100
AcDbEntity
  8
0
100
AcDbLine
 10
217.3641420256
 20
321.3184940547
 30
0.0
 11
216.8641419436
 21
320.8184930414
 31
0.0
  0
LINE
  5
1AD
330
1F
100
AcDbEntity
  8
0
100
AcDbLine
 10
239.8641419883
 20
318.5184913606
 30
0.0
 11
239.8641419883
 21
320.8184930414
 31
0.0
  0
LINE
  5
1AE
330
1F
100
AcDbEntity
  8
0
100
AcDbLine
 10
216.8641419436
 20
320.8184930414
 30
0.0
 11
216.8641419436
 21
318.5184913606
 31
0.0
  0
LINE
  5
1AF
330
1F
100
AcDbEntity
  8
0
100
AcDbLine
 10
217.3641420256
 20
311.3184961409
 30
0.0
 11
217.3641420256
 21
310.7459562749
 31
0.0
  0
LINE
  5
1B0
330
1F
100
AcDbEntity
  8
0
100
AcDbLine
 10
239.3641419064
 20
306.7459556193
 30
0.0
 11
239.3641419064
 21
311.3184961409
 31
0.0
  0
LINE
  5
1B1
330
1F
100
AcDbEntity
  8
0
100
AcDbLine
 10
215.8641417797
 20
505.8184954256
 30
0.0
 11
215.8641417797
 21
503.8184913725
 31
0.0
  0
LINE
  5
1B2
330
1F
100
AcDbEntity
  8
0
100
AcDbLine
 10
240.8641421522
 20
503.8184913725
 30
0.0
 11
240.8641421522
 21
505.8184954256
 31
0.0
  0
ARC
  5
1B3
330
1F
100
AcDbEntity
  8
0
100
AcDbCircle
 10
228.364141966
 20
474.0205193895
 30
0.0
 40
34.16666666666674
100
AcDbArc
 50
95.0451680982
 51
111.4601277494
  0
ARC
  5
1B4
330
1F
100
AcDbEntity
  8
0
100
AcDbCircle
 10
228.364141966
 20
474.0205193895
 30
0.0
 40
34.16666666666673
100
AcDbArc
 50
68.53987225059998
 51
84.9548319018
  0
LINE
  5
1B5
330
1F
100
AcDbEntity
  8
0
100
AcDbLine
 10
240.8641421522
 20
321.3184940547
 30
0.0
 11
240.8641421522
 21
392.8184936673
 31
0.0
  0
LINE
  5
1B6
330
1F
100
AcDbEntity
  8
0
100
AcDbLine
 10
215.8641417797
 20
392.8184936673
 30
0.0
 11
215.8641417797
 21
321.3184940547
 31
0.0
  0
LINE
  5
1B7
330
1F
100
AcDbEntity
  8
0
100
AcDbLine
 10
212.364141206
 20
299.7459563345
 30
0.0
 11
213.3641423013
 21
299.7459563345
 31
0.0
  0
LINE
  5
1B8
330
1F
100
AcDbEntity
  8
0
100
AcDbLine
 10
212.364141206
 20
305.7459535927
 30
0.0
 11
212.364141206
 21
299.7459563345
 31
0.0
  0
LINE
  5
1B9
330
1F
100
AcDbEntity
  8
0
100
AcDbLine
 10
213.3641423013
 20
305.7459535927
 30
0.0
 11
212.364141206
 21
305.7459535927
 31
0.0
  0
LINE
  5
1BA
330
1F
100
AcDbEntity
  8
0
100
AcDbLine
 10
241.3641422342
 20
299.7459563345
 30
0.0
 11
213.3641423013
 21
299.7459563345
 31
0.0
  0
LINE
  5
1BB
330
1F
100
AcDbEntity
  8
0
100
AcDbLine
 10
241.3641422342
 20
305.7459535927
 30
0.0
 11
213.3641423013
 21
305.7459535927
 31
0.0
  0
LINE
  5
1BC
330
1F
100
AcDbEntity
  8
0
100
AcDbLine
 10
242.3641423981
 20
299.7459563345
 30
0.0
 11
242.3641423981
 21
305.7459535927
 31
0.0
  0
LINE
  5
1BD
330
1F
100
AcDbEntity
  8
0
100
AcDbLine
 10
241.3641422342
 20
299.7459563345
 30
0.0
 11
242.3641423981
 21
299.7459563345
 31
0.0
  0
LINE
  5
1BE
330
1F
100
AcDbEntity
  8
0
100
AcDbLine
 10
242.3641423981
 20
305.7459535927
 30
0.0
 11
241.3641422342
 21
305.7459535927
 31
0.0
  0
LINE
  5
1BF
330
1F
100
AcDbEntity
  8
0
100
AcDbLine
 10
215.8641417797
 20
309.7459542483
 30
0.0
 11
237.1756418894
 21
309.7459542483
 31
0.0
  0
LINE
  5
1C0
330
1F
100
AcDbEntity
  8
0
100
AcDbLine
 10
236.3354725118
 20
310.7459562749
 30
0.0
 11
216.4414919268
 21
310.7459562749
 31
0.0
  0
LINE
  5
1C1
330
1F
100
AcDbEntity
  8
0
100
AcDbLine
 10
237.1756418894
 20
309.7459542483
 30
0.0
 11
236.3354725118
 21
310.7459562749
 31
0.0
  0
LINE
  5
1C2
330
1F
100
AcDbEntity
  8
0
100
AcDbLine
 10
237.1756418894
 20
309.7459542483
 30
0.0
 11
237.1756418894
 21
306.7459556193
 31
0.0
  0
LINE
  5
1C3
330
1F
100
AcDbEntity
  8
0
100
AcDbLine
 10
240.8641421522
 20
306.7459556193
 30
0.0
 11
237.1756418894
 21
306.7459556193
 31
0.0
  0
LINE
  5
1C4
330
1F
100
AcDbEntity
  8
0
100
AcDbLine
 10
240.2141423251
 20
318.5184913606
 30
0.0
 11
216.5141416069
 21
318.5184913606
 31
0.0
  0
SPLINE
  5
1C5
330
1F
100
AcDbEntity
  8
0
100
AcDbSpline
210
0.0
220
0.0
230
1.0
 70
    24
 71
     3
 72
     9
 73
     5
 74
     0
 42
0.000000001
 43
0.00000001
 40
0.0
 40
0.0
 40
0.0
 40
0.0
 40
0.3146080521751949
 40
1.0
 40
1.0
 40
1.0
 40
1.0
 10
216.2141421164785
 20
318.1962761015092
 30
0.0
 10
216.2141421164785
 20
318.2014070739302
 30
0.0
 10
216.2141421164785
 20
318.217716168327
 30
0.0
 10
216.2141421164785
 20
318.0995087559333
 30
0.0
 10
216.2141421164785
 20
318.0184903473054
 30
0.0
  0
LINE
  5
1C6
330
1F
100
AcDbEntity
  8
0
100
AcDbLine
 10
240.7141424071
 20
318.0184903473
 30
0.0
 11
216.2141421165
 21
318.0184903473
 31
0.0
  0
SPLINE
  5
1C7
330
1F
100
AcDbEntity
  8
0
100
AcDbSpline
210
0.0
220
0.0
230
1.0
 70
     8
 71
     3
 72
    12
 73
     8
 74
     0
 42
0.000000001
 43
0.00000001
 40
0.0
 40
0.0
 40
0.0
 40
0.0
 40
0.2118295082741226
 40
0.4235533439008043
 40
0.6380236613010919
 40
0.8543726830603425
 40
1.0
 40
1.0
 40
1.0
 40
1.0
 10
240.4584589700613
 20
314.8684891790544
 30
0.0
 10
240.4641862700957
 20
314.590743147923
 30
0.0
 10
240.4756380130603
 20
314.0353896412309
 30
0.0
 10
240.5557582302862
 20
313.2914998994627
 30
0.0
 10
240.6432906201579
 20
312.728323272333
 30
0.0
 10
240.7073540993269
 20
312.4016513808689
 30
0.0
 10
240.7078368514772
 20
312.3997352997413
 30
0.0
 10
240.7080310683165
 20
312.3989644378816
 30
0.0
  0
SPLINE
  5
1C8
330
1F
100
AcDbEntity
  8
0
100
AcDbSpline
210
0.0
220
0.0
230
1.0
 70
     8
 71
     3
 72
    12
 73
     8
 74
     0
 42
0.000000001
 43
0.00000001
 40
0.0
 40
0.0
 40
0.0
 40
0.0
 40
0.1972867681433457
 40
0.4078211194271809
 40
0.6218527278251207
 40
0.8381491359865757
 40
1.0
 40
1.0
 40
1.0
 40
1.0
 10
240.7124939660941
 20
317.3601719469224
 30
0.0
 10
240.7083031078825
 20
317.3400229058453
 30
0.0
 10
240.6996399800748
 20
317.2983718383926
 30
0.0
 10
240.6246661023494
 20
316.9020839333963
 30
0.0
 10
240.5360619556482
 20
316.2937442156805
 30
0.0
 10
240.469571570337
 20
315.5754041221443
 30
0.0
 10
240.4617896925871
 20
315.0803691591053
 30
0.0
 10
240.4584589700613
 20
314.8684891790544
 30
0.0
  0
LINE
  5
1C9
330
1F
100
AcDbEntity
  8
0
100
AcDbLine
 10
216.2141421165
 20
318.0184903473
 30
0.0
 11
216.2141421165
 21
316.5002110333
 31
0.0
  0
LINE
  5
1CA
330
1F
100
AcDbEntity
  8
0
100
AcDbLine
 10
240.7141424071
 20
311.3184961409
 30
0.0
 11
216.2141421165
 21
311.3184961409
 31
0.0
  0
LINE
  5
1CB
330
1F
100
AcDbEntity
  8
0
100
AcDbLine
 10
216.2141421165
 20
313.2367747754
 30
0.0
 11
216.2141421165
 21
311.3184961409
 31
0.0
  0
SPLINE
  5
1CC
330
1F
100
AcDbEntity
  8
0
100
AcDbSpline
210
0.0
220
0.0
230
1.0
 70
     8
 71
     3
 72
    11
 73
     7
 74
     0
 42
0.000000001
 43
0.00000001
 40
0.0
 40
0.0
 40
0.0
 40
0.0
 40
0.2630182265142789
 40
0.5262147775034381
 40
0.7854155516880738
 40
0.9999999999999999
 40
0.9999999999999999
 40
0.9999999999999999
 40
0.9999999999999999
 10
216.2141421164785
 20
313.2367747754251
 30
0.0
 10
216.2452192028644
 20
313.5005059326689
 30
0.0
 10
216.3073944456783
 20
314.0281470549933
 30
0.0
 10
216.3355008373201
 20
314.958345295511
 30
0.0
 10
216.2963429424603
 20
315.8196099910639
 30
0.0
 10
216.2397664570648
 20
316.2880482879337
 30
0.0
 10
216.2141421164785
 20
316.5002110332643
 30
0.0
  0
LINE
  5
1CD
330
1F
100
AcDbEntity
  8
0
100
AcDbLine
 10
239.8641419883
 20
320.8184930414
 30
0.0
 11
216.8641419436
 21
320.8184930414
 31
0.0
  0
ELLIPSE
  5
1CE
330
1F
100
AcDbEntity
  8
0
100
AcDbEllipse
 10
222.883494194
 20
274.7423254013
 30
0.0
 11
5.684341886080801E-14
 21
36.57616736883631
 31
0.0
210
0.0
220
0.0
230
1.0
 40
0.0874886635
 41
0.0
 42
0.1771685658488206
  0
ELLIPSE
  5
1CF
330
1F
100
AcDbEntity
  8
0
100
AcDbEllipse
 10
233.8447897379
 20
274.7423254013
 30
0.0
 11
5.684341886080801E-14
 21
36.57616736883631
 31
0.0
210
0.0
220
0.0
230
1.0
 40
0.0874886635
 41
6.106016741330918
 42
6.283185307179586
  0
LINE
  5
1D0
330
1F
100
AcDbEntity
  8
0
100
AcDbLine
 10
216.2141421165
 20
313.2367747754
 30
0.0
 11
216.2141421165
 21
316.5002110333
 31
0.0
  0
CIRCLE
  5
1D1
330
1F
100
AcDbEntity
  8
0
100
AcDbCircle
 10
237.364141966
 20
417.8184927701
 30
0.0
 40
1.190500000000014
  0
CIRCLE
  5
1D2
330
1F
100
AcDbEntity
  8
0
100
AcDbCircle
 10
237.364141966
 20
417.8184927701
 30
0.0
 40
1.400000000000036
  0
CIRCLE
  5
1D3
330
1F
100
AcDbEntity
  8
0
100
AcDbCircle
 10
237.364141966
 20
417.8184927701
 30
0.0
 40
1.500000000000019
  0
CIRCLE
  5
1D4
330
1F
100
AcDbEntity
  8
0
100
AcDbCircle
 10
237.364141966
 20
417.8184927701
 30
0.0
 40
1.100000000000027
  0
LINE
  5
1D5
330
1F
100
AcDbEntity
  8
0
100
AcDbLine
 10
215.9641416098
 20
390.3184923262
 30
0.0
 11
240.7641423221
 21
390.3184923262
 31
0.0
  0
LINE
  5
1D6
330
1F
100
AcDbEntity
  8
0
100
AcDbLine
 10
239.5203703369
 20
505.8184954256
 30
0.0
 11
240.8641421522
 21
505.8184954256
 31
0.0
  0
LINE
  5
1D7
330
1F
100
AcDbEntity
  8
0
100
AcDbLine
 10
215.8641417797
 20
505.8184954256
 30
0.0
 11
239.5203703369
 21
505.8184954256
 31
0.0
  0
ARC
  5
1D8
330
1F
100
AcDbEntity
  8
0
100
AcDbCircle
 10
229.7173672119
 20
480.9401156978
 30
0.0
 40
27.11511123877131
100
AcDbArc
 50
89.6849395254
 51
92.8606305969
  0
ARC
  5
1D9
330
1F
100
AcDbEntity
  8
0
100
AcDbCircle
 10
226.7220404934
 20
484.2114031073
 30
0.0
 40
23.84382357966966
100
AcDbArc
 50
89.66412359710002
 51
93.05059188560001
  0
ARC
  5
1DA
330
1F
100
AcDbEntity
  8
0
100
AcDbCircle
 10
225.3637825937
 20
507.9156351327
 30
0.0
 40
0.1392480557574162
100
AcDbArc
 50
43.29170870720001
 51
91.7667327768
  0
ARC
  5
1DB
330
1F
100
AcDbEntity
  8
0
100
AcDbCircle
 10
227.0109897024
 20
480.9443247024
 30
0.0
 40
27.11090244491424
100
AcDbArc
 50
86.731245671
 51
93.268754329
  0
ARC
  5
1DC
330
1F
100
AcDbEntity
  8
0
100
AcDbCircle
 10
230.0063444078
 20
484.2154362389
 30
0.0
 40
23.8397900845906
100
AcDbArc
 50
86.51416294360001
 51
93.4858370564
  0
ARC
  5
1DD
330
1F
100
AcDbEntity
  8
0
100
AcDbCircle
 10
231.3603847606
 20
507.9266733763
 30
0.0
 40
0.1274524023309033
100
AcDbArc
 50
41.4960660001
 51
131.9667848015
  0
LINE
  5
1DE
330
1F
100
AcDbEntity
  8
0
100
AcDbLine
 10
228.8693204925
 20
321.3184940547
 30
0.0
 11
215.8641417797
 21
321.3184940547
 31
0.0
  0
LINE
  5
1DF
330
1F
100
AcDbEntity
  8
0
100
AcDbLine
 10
240.8641421522
 20
321.3184940547
 30
0.0
 11
228.8693204925
 21
321.3184940547
 31
0.0
  0
LINE
  5
1E0
330
1F
100
AcDbEntity
  8
0
100
AcDbLine
 10
215.8641417797
 20
503.8184913725
 30
0.0
 11
240.8641421522
 21
503.8184913725
 31
0.0
  0
LINE
  5
1E1
330
1F
100
AcDbEntity
  8
0
100
AcDbLine
 10
240.8641421522
 20
503.8184913725
 30
0.0
 11
240.8641421522
 21
392.8184936673
 31
0.0
  0
LINE
  5
1E2
330
1F
100
AcDbEntity
  8
0
100
AcDbLine
 10
240.8641421522
 20
392.8184936673
 30
0.0
 11
215.8641417797
 21
392.8184936673
 31
0.0
  0
CIRCLE
  5
1E3
330
1F
100
AcDbEntity
  8
0
100
AcDbCircle
 10
219.614141966
 20
410.3184927701
 30
0.0
 40
3.5
  0
CIRCLE
  5
1E4
330
1F
100
AcDbEntity
  8
0
100
AcDbCircle
 10
219.614141966
 20
397.3184927701
 30
0.0
 40
3.5
  0
CIRCLE
  5
1E5
330
1F
100
AcDbEntity
  8
0
100
AcDbCircle
 10
237.364141966
 20
417.8184927701
 30
0.0
 40
1.800000000000011
  0
CIRCLE
  5
1E6
330
1F
100
AcDbEntity
  8
0
100
AcDbCircle
 10
236.614141966
 20
397.3184927701
 30
0.0
 40
3.0
  0
CIRCLE
  5
1E7
330
1F
100
AcDbEntity
  8
0
100
AcDbCircle
 10
236.614141966
 20
410.3184927701
 30
0.0
 40
3.0
  0
LINE
  5
1E8
330
1F
100
AcDbEntity
  8
0
100
AcDbLine
 10
215.8641417797
 20
503.8184913725
 30
0.0
 11
215.8641417797
 21
392.8184936673
 31
0.0
  0
CIRCLE
  5
1E9
330
1F
100
AcDbEntity
  8
0
100
AcDbCircle
 10
219.614141966
 20
410.3184927701
 30
0.0
 40
2.5
  0
CIRCLE
  5
1EA
330
1F
100
AcDbEntity
  8
0
100
AcDbCircle
 10
219.614141966
 20
397.3184927701
 30
0.0
 40
2.5
  0
CIRCLE
  5
1EB
330
1F
100
AcDbEntity
  8
0
100
AcDbCircle
 10
236.614141966
 20
410.3184927701
 30
0.0
 40
2.099999999999966
  0
CIRCLE
  5
1EC
330
1F
100
AcDbEntity
  8
0
100
AcDbCircle
 10
237.364141966
 20
417.8184927701
 30
0.0
 40
1.55000000000004
  0
CIRCLE
  5
1ED
330
1F
100
AcDbEntity
  8
0
100
AcDbCircle
 10
236.614141966
 20
397.3184927701
 30
0.0
 40
2.100000000000023
  0
LINE
  5
1EE
330
1F
100
AcDbEntity
  8
0
  6
Continuous
 62
     8
370
    18
100
AcDbLine
 10
213.3641423013
 20
299.7459563345
 30
0.0
 11
213.3641423013
 21
305.7459535927
 31
0.0
  0
LINE
  5
1EF
330
1F
100
AcDbEntity
  8
0
  6
Continuous
 62
     8
370
    18
100
AcDbLine
 10
241.3641422342
 20
305.7459535927
 30
0.0
 11
241.3641422342
 21
299.7459563345
 31
0.0
  0
LINE
  5
1F0
330
1F
100
AcDbEntity
  8
0
  6
Continuous
 62
     8
370
    18
100
AcDbLine
 10
233.0589912187
 20
306.245954606
 30
0.0
 11
215.8641417797
 21
306.245954606
 31
0.0
  0
LINE
  5
1F1
330
1F
100
AcDbEntity
  8
0
  6
Continuous
 62
     8
370
    18
100
AcDbLine
 10
240.8641421522
 20
306.245954606
 30
0.0
 11
235.6085230883
 21
306.245954606
 31
0.0
  0
LWPOLYLINE
  5
1F2
330
1F
100
AcDbEntity
  8
0
  6
Continuous
 62
     8
370
    18
100
AcDbPolyline
 90
        9
 70
   128
 43
0.0
 10
233.2467854309
 20
305.7459535927
 10
233.2101485978
 20
305.7555573911
 10
233.1749199245
 20
305.7840111584
 10
233.1424526225
 20
305.8302196592
 10
233.1139951299
 20
305.8924022049
 10
233.0906403537
 20
305.968167159
 10
233.0732865545
 20
306.0546087951
 10
233.062599628
 20
306.1484116048
 10
233.0589912187
 20
306.245954606
  0
LWPOLYLINE
  5
1F3
330
1F
100
AcDbEntity
  8
0
  6
Continuous
 62
     8
370
    18
100
AcDbPolyline
 90
        9
 70
   128
 43
0.0
 10
235.6085230883
 20
306.245954606
 10
235.6140914659
 20
306.1484116048
 10
235.6305809978
 20
306.0546087951
 10
235.6573593158
 20
305.968167159
 10
235.6933963771
 20
305.8924022049
 10
235.7373082365
 20
305.8302196592
 10
235.7874064061
 20
305.7840111584
 10
235.8417663078
 20
305.7555573911
 10
235.8982985194
 20
305.7459535927
  0
SPLINE
  5
1F4
330
1F
100
AcDbEntity
  8
0
  6
Continuous
 62
     8
370
    18
100
AcDbSpline
210
0.0
220
0.0
230
1.0
 70
     8
 71
     3
 72
    10
 73
     6
 74
     0
 42
0.000000001
 43
0.00000001
 40
0.0
 40
0.0
 40
0.0
 40
0.0
 40
0.106431183111251
 40
0.5474406928479918
 40
1.0
 40
1.0
 40
1.0
 40
1.0
 10
235.6085230882678
 20
306.2459546059762
 30
0.0
 10
235.5236211495015
 20
306.2418686948457
 30
0.0
 10
235.0869185326208
 20
306.2208523540058
 30
0.0
 10
234.2550078781984
 20
306.0662327721599
 30
0.0
 10
233.4610840515278
 20
306.1855333227867
 30
0.0
 10
233.0589912186776
 20
306.2459546059762
 30
0.0
  0
LINE
  5
1F5
330
1F
100
AcDbEntity
  8
0
  6
Continuous
 62
     8
370
    18
100
AcDbLine
 10
220.6350232761
 20
311.3184961409
 30
0.0
 11
220.6350232761
 21
310.7459562749
 31
0.0
  0
LINE
  5
1F6
330
1F
100
AcDbEntity
  8
0
  6
Continuous
 62
     8
370
    18
100
AcDbLine
 10
236.0932606559
 20
311.3184961409
 30
0.0
 11
236.0932606559
 21
310.7459562749
 31
0.0
  0
INSERT
  5
1FD
330
1F
100
AcDbEntity
  8
0
  6
Continuous
 62
     7
370
     0
100
AcDbBlockReference
  2
SW_NOTE_6
 10
147.552366877
 20
477.5857107025
 30
0.0
  0
LEADER
  5
1FE
330
1F
100
AcDbEntity
  8
0
  6
Continuous
 62
     7
370
     0
100
AcDbLeader
  3
SLDDIMSTYLE0
 76
     2
 10
223.0757628554
 20
410.8353881348
 30
0.0
 10
147.552366877
 20
477.5857107025
 30
0.0
  0
LINE
  5
1FF
330
1F
100
AcDbEntity
  8
0
100
AcDbLine
 10
281.3334214684
 20
305.7459535927
 30
0.0
 11
281.3334214684
 21
299.7459563345
 31
0.0
  0
ARC
  5
200
330
1F
100
AcDbEntity
  8
0
100
AcDbCircle
 10
310.3334222283
 20
306.245953543
 30
0.0
 40
0.5
100
AcDbArc
 50
180.0
 51
270.0
  0
ARC
  5
201
330
1F
100
AcDbEntity
  8
0
100
AcDbCircle
 10
284.3334222283
 20
306.245953543
 30
0.0
 40
0.5
100
AcDbArc
 50
270.0
 51
0.0
  0
LINE
  5
202
330
1F
100
AcDbEntity
  8
0
100
AcDbLine
 10
284.833422042
 20
309.7459542483
 30
0.0
 11
284.833422042
 21
306.245954606
 31
0.0
  0
LINE
  5
203
330
1F
100
AcDbEntity
  8
0
100
AcDbLine
 10
309.8334224146
 20
306.245954606
 30
0.0
 11
309.8334224146
 21
309.7459542483
 31
0.0
  0
LINE
  5
204
330
1F
100
AcDbEntity
  8
0
100
AcDbLine
 10
309.8334224146
 20
309.7459542483
 30
0.0
 11
309.2560722675
 21
310.7459562749
 31
0.0
  0
LINE
  5
205
330
1F
100
AcDbEntity
  8
0
100
AcDbLine
 10
285.4107721891
 20
310.7459562749
 30
0.0
 11
284.833422042
 21
309.7459542483
 31
0.0
  0
LINE
  5
206
330
1F
100
AcDbEntity
  8
0
100
AcDbLine
 10
309.6834226694
 20
311.3184961409
 30
0.0
 11
309.6834226694
 21
318.0184903473
 31
0.0
  0
LINE
  5
207
330
1F
100
AcDbEntity
  8
0
100
AcDbLine
 10
284.9834217872
 20
318.0184903473
 30
0.0
 11
284.9834217872
 21
311.3184961409
 31
0.0
  0
LINE
  5
208
330
1F
100
AcDbEntity
  8
0
100
AcDbLine
 10
309.6834226694
 20
318.0184903473
 30
0.0
 11
309.1834225874
 21
318.5184913606
 31
0.0
  0
LINE
  5
209
330
1F
100
AcDbEntity
  8
0
100
AcDbLine
 10
285.4834218692
 20
318.5184913606
 30
0.0
 11
284.9834217872
 21
318.0184903473
 31
0.0
  0
LINE
  5
20A
330
1F
100
AcDbEntity
  8
0
100
AcDbLine
 10
308.8334222507
 20
318.5184913606
 30
0.0
 11
308.8334222507
 21
320.8184930414
 31
0.0
  0
LINE
  5
20B
330
1F
100
AcDbEntity
  8
0
100
AcDbLine
 10
285.833422206
 20
320.8184930414
 30
0.0
 11
285.833422206
 21
318.5184913606
 31
0.0
  0
LINE
  5
20C
330
1F
100
AcDbEntity
  8
0
100
AcDbLine
 10
308.8334222507
 20
320.8184930414
 30
0.0
 11
308.3334221687
 21
321.3184940547
 31
0.0
  0
LINE
  5
20D
330
1F
100
AcDbEntity
  8
0
100
AcDbLine
 10
286.3334222879
 20
321.3184940547
 30
0.0
 11
285.833422206
 21
320.8184930414
 31
0.0
  0
ARC
  5
20E
330
1F
100
AcDbEntity
  8
0
100
AcDbCircle
 10
297.3334222283
 20
474.0205193895
 30
0.0
 40
34.16666666666675
100
AcDbArc
 50
95.6459490965
 51
111.4601277494
  0
ARC
  5
20F
330
1F
100
AcDbEntity
  8
0
100
AcDbCircle
 10
297.3334222283
 20
474.0205193895
 30
0.0
 40
34.16666666666675
100
AcDbArc
 50
68.53987225059998
 51
84.35405090349998
  0
LINE
  5
210
330
1F
100
AcDbEntity
  8
0
100
AcDbLine
 10
284.833422042
 20
505.8184954256
 30
0.0
 11
284.833422042
 21
503.8184913725
 31
0.0
  0
LINE
  5
211
330
1F
100
AcDbEntity
  8
0
100
AcDbLine
 10
309.8334224146
 20
503.8184913725
 30
0.0
 11
309.8334224146
 21
505.8184954256
 31
0.0
  0
LINE
  5
212
330
1F
100
AcDbEntity
  8
0
100
AcDbLine
 10
309.8334224146
 20
321.3184940547
 30
0.0
 11
309.8334224146
 21
392.8184936673
 31
0.0
  0
LINE
  5
213
330
1F
100
AcDbEntity
  8
0
100
AcDbLine
 10
284.833422042
 20
392.8184936673
 30
0.0
 11
284.833422042
 21
321.3184940547
 31
0.0
  0
LINE
  5
214
330
1F
100
AcDbEntity
  8
0
100
AcDbLine
 10
297.3334222283
 20
305.7459535927
 30
0.0
 11
281.3334214684
 21
305.7459535927
 31
0.0
  0
LINE
  5
215
330
1F
100
AcDbEntity
  8
0
100
AcDbLine
 10
297.3334222283
 20
299.7459563345
 30
0.0
 11
281.3334214684
 21
299.7459563345
 31
0.0
  0
LINE
  5
216
330
1F
100
AcDbEntity
  8
0
100
AcDbLine
 10
317.3334217813
 20
305.7459535927
 30
0.0
 11
297.3334222283
 21
305.7459535927
 31
0.0
  0
LINE
  5
217
330
1F
100
AcDbEntity
  8
0
100
AcDbLine
 10
317.3334217813
 20
299.7459563345
 30
0.0
 11
297.3334222283
 21
299.7459563345
 31
0.0
  0
LINE
  5
218
330
1F
100
AcDbEntity
  8
0
100
AcDbLine
 10
318.3334219452
 20
299.7459563345
 30
0.0
 11
318.3334219452
 21
305.7459535927
 31
0.0
  0
LINE
  5
219
330
1F
100
AcDbEntity
  8
0
100
AcDbLine
 10
318.3334219452
 20
305.7459535927
 30
0.0
 11
317.3334217813
 21
305.7459535927
 31
0.0
  0
LINE
  5
21A
330
1F
100
AcDbEntity
  8
0
100
AcDbLine
 10
317.3334217813
 20
299.7459563345
 30
0.0
 11
318.3334219452
 21
299.7459563345
 31
0.0
  0
LINE
  5
21B
330
1F
100
AcDbEntity
  8
0
100
AcDbLine
 10
284.833422042
 20
309.7459542483
 30
0.0
 11
309.8334224146
 21
309.7459542483
 31
0.0
  0
LINE
  5
21C
330
1F
100
AcDbEntity
  8
0
100
AcDbLine
 10
309.2560722675
 20
310.7459562749
 30
0.0
 11
285.4107721891
 21
310.7459562749
 31
0.0
  0
LINE
  5
21D
330
1F
100
AcDbEntity
  8
0
100
AcDbLine
 10
299.5470164992
 20
318.0184903473
 30
0.0
 11
299.5470164992
 21
316.5002110333
 31
0.0
  0
LINE
  5
21E
330
1F
100
AcDbEntity
  8
0
100
AcDbLine
 10
295.1198279574
 20
318.0184903473
 30
0.0
 11
284.9834217872
 21
318.0184903473
 31
0.0
  0
LINE
  5
21F
330
1F
100
AcDbEntity
  8
0
100
AcDbLine
 10
309.6834226694
 20
318.0184903473
 30
0.0
 11
299.5470164992
 21
318.0184903473
 31
0.0
  0
LINE
  5
220
330
1F
100
AcDbEntity
  8
0
100
AcDbLine
 10
295.1198279574
 20
316.5002110333
 30
0.0
 11
295.1198279574
 21
318.0184903473
 31
0.0
  0
SPLINE
  5
221
330
1F
100
AcDbEntity
  8
0
100
AcDbSpline
210
0.0
220
0.0
230
1.0
 70
     8
 71
     3
 72
    11
 73
     7
 74
     0
 42
0.000000001
 43
0.00000001
 40
0.0
 40
0.0
 40
0.0
 40
0.0
 40
0.2630182265142789
 40
0.5262147775034381
 40
0.7854155516880738
 40
0.9999999999999999
 40
0.9999999999999999
 40
0.9999999999999999
 40
0.9999999999999999
 10
295.1198279574396
 20
316.5002110332643
 30
0.0
 10
294.9621002297687
 20
316.2364798760206
 30
0.0
 10
294.6465378361567
 20
315.7088387536962
 30
0.0
 10
294.5389741414117
 20
314.7786405131783
 30
0.0
 10
294.6967631888396
 20
313.9173758176254
 30
0.0
 10
294.9879466096405
 20
313.4489375207557
 30
0.0
 10
295.1198279574396
 20
313.2367747754251
 30
0.0
  0
LINE
  5
222
330
1F
100
AcDbEntity
  8
0
100
AcDbLine
 10
295.1198279574
 20
311.3184961409
 30
0.0
 11
295.1198279574
 21
313.2367747754
 31
0.0
  0
LINE
  5
223
330
1F
100
AcDbEntity
  8
0
100
AcDbLine
 10
295.1198279574
 20
311.3184961409
 30
0.0
 11
284.9834217872
 21
311.3184961409
 31
0.0
  0
LINE
  5
224
330
1F
100
AcDbEntity
  8
0
100
AcDbLine
 10
309.6834226694
 20
311.3184961409
 30
0.0
 11
299.5470164992
 21
311.3184961409
 31
0.0
  0
LINE
  5
225
330
1F
100
AcDbEntity
  8
0
100
AcDbLine
 10
299.5470164992
 20
313.2367747754
 30
0.0
 11
299.5470164992
 21
311.3184961409
 31
0.0
  0
SPLINE
  5
226
330
1F
100
AcDbEntity
  8
0
100
AcDbSpline
210
0.0
220
0.0
230
1.0
 70
     8
 71
     3
 72
    11
 73
     7
 74
     0
 42
0.000000001
 43
0.00000001
 40
0.0
 40
0.0
 40
0.0
 40
0.0
 40
0.2630182265142789
 40
0.5262147775034381
 40
0.7854155516880738
 40
0.9999999999999999
 40
0.9999999999999999
 40
0.9999999999999999
 40
0.9999999999999999
 10
299.5470164991798
 20
313.2367747754251
 30
0.0
 10
299.7047442268507
 20
313.5005059326689
 30
0.0
 10
300.0203066204627
 20
314.0281470549933
 30
0.0
 10
300.1278703152077
 20
314.958345295511
 30
0.0
 10
299.9700812677799
 20
315.8196099910639
 30
0.0
 10
299.6788978469789
 20
316.2880482879337
 30
0.0
 10
299.5470164991798
 20
316.5002110332643
 30
0.0
  0
LINE
  5
227
330
1F
100
AcDbEntity
  8
0
100
AcDbLine
 10
309.1834225874
 20
318.5184913606
 30
0.0
 11
285.4834218692
 21
318.5184913606
 31
0.0
  0
SPLINE
  5
228
330
1F
100
AcDbEntity
  8
0
100
AcDbSpline
210
0.0
220
0.0
230
1.0
 70
     8
 71
     3
 72
    10
 73
     6
 74
     0
 42
0.000000001
 43
0.00000001
 40
0.0
 40
0.0
 40
0.0
 40
0.0
 40
0.3264111007666478
 40
0.6573254266108701
 40
1.0
 40
1.0
 40
1.0
 40
1.0
 10
295.1198279574396
 20
318.0184903473054
 30
0.0
 10
295.5991338487881
 20
318.0882820172117
 30
0.0
 10
296.564358220042
 20
318.2288282152032
 30
0.0
 10
298.0542037630937
 20
318.2335956116403
 30
0.0
 10
299.0436539546537
 20
318.0910218380806
 30
0.0
 10
299.5470164991798
 20
318.0184903473054
 30
0.0
  0
LINE
  5
229
330
1F
100
AcDbEntity
  8
0
100
AcDbLine
 10
299.5470164992
 20
311.3184961409
 30
0.0
 11
295.1198279574
 21
311.3184961409
 31
0.0
  0
ARC
  5
22A
330
1F
100
AcDbEntity
  8
0
100
AcDbCircle
 10
297.3334222283
 20
314.8684927701
 30
0.0
 40
2.749999999999981
100
AcDbArc
 50
216.3952100685
 51
323.6047899315001
  0
ARC
  5
22B
330
1F
100
AcDbEntity
  8
0
100
AcDbCircle
 10
297.3334222283
 20
314.8684927701
 30
0.0
 40
2.750000000000015
100
AcDbArc
 50
36.3952100685
 51
143.6047899315
  0
LINE
  5
22C
330
1F
100
AcDbEntity
  8
0
100
AcDbLine
 10
308.8334222507
 20
320.8184930414
 30
0.0
 11
285.833422206
 21
320.8184930414
 31
0.0
  0
LWPOLYLINE
  5
22D
330
1F
100
AcDbEntity
  8
0
100
AcDbPolyline
 90
        3
 70
   128
 43
0.0
 10
296.8135456271
 20
312.4231415719
 10
296.4962231876
 20
312.5128391117
 10
296.0085396139
 20
312.7484264702
  0
LWPOLYLINE
  5
22E
330
1F
100
AcDbEntity
  8
0
100
AcDbPolyline
 90
        4
 70
   128
 43
0.0
 10
288.5834221911
 20
311.3184961409
 10
288.5923936214
 20
311.2159463495
 10
288.6192576211
 20
310.908893022
 10
288.6335133757
 20
310.7459562749
  0
LWPOLYLINE
  5
22F
330
1F
100
AcDbEntity
  8
0
100
AcDbPolyline
 90
        4
 70
   128
 43
0.0
 10
306.0834222656
 20
311.3184961409
 10
306.0744508352
 20
311.2159463495
 10
306.0475868355
 20
310.908893022
 10
306.0333310809
 20
310.7459562749
  0
LINE
  5
230
330
1F
100
AcDbEntity
  8
0
100
AcDbLine
 10
305.9969154369
 20
419.7052301757
 30
0.0
 11
305.7558686655
 21
419.7733685293
 31
0.0
  0
LWPOLYLINE
  5
231
330
1F
100
AcDbEntity
  8
0
100
AcDbPolyline
 90
        3
 70
   128
 43
0.0
 10
303.4466850754
 20
418.4819854714
 10
303.4156515445
 20
418.386080201
 10
303.3785467218
 20
418.2409391657
  0
LINE
  5
232
330
1F
100
AcDbEntity
  8
0
100
AcDbLine
 10
304.669929314
 20
415.9317555756
 30
0.0
 11
304.9109756198
 21
415.8636172221
 31
0.0
  0
LINE
  5
233
330
1F
100
AcDbEntity
  8
0
100
AcDbLine
 10
307.2201592099
 20
417.1550002799
 30
0.0
 11
307.2882975634
 21
417.39604612
 31
0.0
  0
CIRCLE
  5
234
330
1F
100
AcDbEntity
  8
0
100
AcDbCircle
 10
305.3334222283
 20
417.8184927701
 30
0.0
 40
2.899999999999984
  0
CIRCLE
  5
235
330
1F
100
AcDbEntity
  8
0
100
AcDbCircle
 10
305.3334222283
 20
417.8184927701
 30
0.0
 40
2.999999999999991
  0
LINE
  5
236
330
1F
100
AcDbEntity
  8
0
100
AcDbLine
 10
305.9104616936
 20
419.8598222725
 30
0.0
 11
306.4519987624
 21
418.8914731063
 31
0.0
  0
LINE
  5
237
330
1F
100
AcDbEntity
  8
0
100
AcDbLine
 10
305.9104616936
 20
419.8598222725
 30
0.0
 11
304.9421120617
 21
419.3182847381
 31
0.0
  0
ARC
  5
238
330
1F
100
AcDbEntity
  8
0
100
AcDbCircle
 10
305.3334222283
 20
417.8184927701
 30
0.0
 40
1.550000000000008
100
AcDbArc
 50
104.6230157402
 51
133.8081169443
  0
LINE
  5
239
330
1F
100
AcDbEntity
  8
0
100
AcDbLine
 10
303.2920929786
 20
418.3955317282
 30
0.0
 11
304.2604416791
 21
418.9370692626
 31
0.0
  0
LINE
  5
23A
330
1F
100
AcDbEntity
  8
0
100
AcDbLine
 10
303.2920929786
 20
418.3955317282
 30
0.0
 11
303.8336300474
 21
417.4271830276
 31
0.0
  0
ARC
  5
23B
330
1F
100
AcDbEntity
  8
0
100
AcDbCircle
 10
305.3334222283
 20
417.8184927701
 30
0.0
 40
1.550000000000008
100
AcDbArc
 50
194.6230157402
 51
223.8081169443
  0
LINE
  5
23C
330
1F
100
AcDbEntity
  8
0
100
AcDbLine
 10
304.7563830573
 20
415.7771634788
 30
0.0
 11
304.2148459885
 21
416.745512645
 31
0.0
  0
LINE
  5
23D
330
1F
100
AcDbEntity
  8
0
100
AcDbLine
 10
304.7563830573
 20
415.7771634788
 30
0.0
 11
305.7247326892
 21
416.3187005476
 31
0.0
  0
ARC
  5
23E
330
1F
100
AcDbEntity
  8
0
100
AcDbCircle
 10
305.3334222283
 20
417.8184927701
 30
0.0
 40
1.549999999999989
100
AcDbArc
 50
284.6230157402
 51
313.8081169443
  0
LINE
  5
23F
330
1F
100
AcDbEntity
  8
0
100
AcDbLine
 10
307.3747513067
 20
417.2414540232
 30
0.0
 11
306.4064030718
 21
416.6999160231
 31
0.0
  0
LINE
  5
240
330
1F
100
AcDbEntity
  8
0
100
AcDbLine
 10
307.3747513067
 20
417.2414540232
 30
0.0
 11
306.8332142379
 21
418.2098031894
 31
0.0
  0
ARC
  5
241
330
1F
100
AcDbEntity
  8
0
100
AcDbCircle
 10
305.3334222283
 20
417.8184927701
 30
0.0
 40
1.550000000000008
100
AcDbArc
 50
14.6230157402
 51
43.8081169443
  0
ARC
  5
242
330
1F
100
AcDbEntity
  8
0
100
AcDbCircle
 10
305.3334222283
 20
417.8184927701
 30
0.0
 40
1.550000000000008
100
AcDbArc
 50
133.8081169443
 51
194.6230157402
  0
ARC
  5
243
330
1F
100
AcDbEntity
  8
0
100
AcDbCircle
 10
305.3334222283
 20
417.8184927701
 30
0.0
 40
1.550000000000008
100
AcDbArc
 50
43.8081169443
 51
104.6230157402
  0
ARC
  5
244
330
1F
100
AcDbEntity
  8
0
100
AcDbCircle
 10
305.3334222283
 20
417.8184927701
 30
0.0
 40
1.550000000000008
100
AcDbArc
 50
313.8081169443
 51
14.6230157402
  0
ARC
  5
245
330
1F
100
AcDbEntity
  8
0
100
AcDbCircle
 10
305.3334222283
 20
417.8184927701
 30
0.0
 40
1.549999999999989
100
AcDbArc
 50
223.8081169443
 51
284.6230157402
  0
LINE
  5
246
330
1F
100
AcDbEntity
  8
0
100
AcDbLine
 10
296.0085396139
 20
312.7484264702
 30
0.0
 11
296.1410279335
 21
312.9604327411
 31
0.0
  0
ARC
  5
247
330
1F
100
AcDbEntity
  8
0
100
AcDbCircle
 10
297.3334222283
 20
314.8684927701
 30
0.0
 40
2.500000000000047
100
AcDbArc
 50
257.9977190219
 51
237.9977190219
  0
LINE
  5
248
330
1F
100
AcDbEntity
  8
0
100
AcDbLine
 10
296.8135456271
 20
312.4231415719
 30
0.0
 11
296.8655333047
 21
312.6676770777
 31
0.0
  0
ARC
  5
249
330
1F
100
AcDbEntity
  8
0
100
AcDbCircle
 10
297.3334222283
 20
314.8684927701
 30
0.0
 40
2.250000000000019
100
AcDbArc
 50
257.9977190219
 51
237.9977190219
  0
ARC
  5
24A
330
1F
100
AcDbEntity
  8
0
100
AcDbCircle
 10
297.3334222283
 20
314.8684927701
 30
0.0
 40
2.000000000000047
100
AcDbArc
 50
257.9977190219
 51
237.9977190219
  0
LINE
  5
24B
330
1F
100
AcDbEntity
  8
0
100
AcDbLine
 10
296.1410279335
 20
312.9604327411
 30
0.0
 11
296.2735161368
 21
313.172439012
 31
0.0
  0
LINE
  5
24C
330
1F
100
AcDbEntity
  8
0
100
AcDbLine
 10
296.8655333047
 20
312.6676770777
 30
0.0
 11
296.9175209532
 21
312.9122125835
 31
0.0
  0
LINE
  5
24D
330
1F
100
AcDbEntity
  8
0
100
AcDbLine
 10
285.4290894415
 20
390.3184923262
 30
0.0
 11
309.7334225844
 21
390.3184923262
 31
0.0
  0
LINE
  5
24E
330
1F
100
AcDbEntity
  8
0
100
AcDbLine
 10
299.504285324
 20
313.2381978363
 30
0.0
 11
299.4044829342
 21
313.0896258086
 31
0.0
  0
LINE
  5
24F
330
1F
100
AcDbEntity
  8
0
100
AcDbLine
 10
295.2318038974
 20
313.135506484
 30
0.0
 11
295.1620874178
 21
313.2394346327
 31
0.0
  0
LINE
  5
250
330
1F
100
AcDbEntity
  8
0
100
AcDbLine
 10
295.1625591326
 20
316.4987879724
 30
0.0
 11
295.2623615224
 21
316.6473600001
 31
0.0
  0
LINE
  5
251
330
1F
100
AcDbEntity
  8
0
100
AcDbLine
 10
299.4350405592
 20
316.6014793247
 30
0.0
 11
299.5047570389
 21
316.497551176
 31
0.0
  0
LINE
  5
252
330
1F
100
AcDbEntity
  8
0
100
AcDbLine
 10
284.833422042
 20
505.8184954256
 30
0.0
 11
309.8334224146
 21
505.8184954256
 31
0.0
  0
ARC
  5
253
330
1F
100
AcDbEntity
  8
0
100
AcDbCircle
 10
294.6564029579
 20
501.1050050983
 30
0.0
 40
6.950215643859522
100
AcDbArc
 50
89.38241633689998
 51
96.45794894449999
  0
ARC
  5
254
330
1F
100
AcDbEntity
  8
0
100
AcDbCircle
 10
294.8228105619
 20
497.8405886135
 30
0.0
 40
10.21462863134354
100
AcDbArc
 50
84.67411617480002
 51
95.3258838252
  0
ARC
  5
255
330
1F
100
AcDbEntity
  8
0
100
AcDbCircle
 10
297.5003053966
 20
474.1317459981
 30
0.0
 40
33.92348234867109
100
AcDbArc
 50
87.0778794386
 51
92.9221205614
  0
ARC
  5
256
330
1F
100
AcDbEntity
  8
0
100
AcDbCircle
 10
300.0108429166
 20
501.1133215326
 30
0.0
 40
6.941890162820752
100
AcDbArc
 50
84.3459224838
 51
96.46116092560001
  0
ARC
  5
257
330
1F
100
AcDbEntity
  8
0
100
AcDbCircle
 10
299.8443331863
 20
497.8373611598
 30
0.0
 40
10.21786279645388
100
AcDbArc
 50
89.488629061
 51
94.66061166660002
  0
ARC
  5
258
330
1F
100
AcDbEntity
  8
0
100
AcDbCircle
 10
297.1665643051
 20
474.1271519512
 30
0.0
 40
33.92807534834623
100
AcDbArc
 50
89.7182187642
 51
92.5572968044
  0
LINE
  5
259
330
1F
100
AcDbEntity
  8
0
100
AcDbLine
 10
309.8334224146
 20
321.3184940547
 30
0.0
 11
284.833422042
 21
321.3184940547
 31
0.0
  0
CIRCLE
  5
25A
330
1F
100
AcDbEntity
  8
0
100
AcDbCircle
 10
288.8334222283
 20
417.8184927701
 30
0.0
 40
2.424999999999955
  0
CIRCLE
  5
25B
330
1F
100
AcDbEntity
  8
0
100
AcDbCircle
 10
288.8334222283
 20
417.8184927701
 30
0.0
 40
2.675000000000011
  0
LINE
  5
25C
330
1F
100
AcDbEntity
  8
0
100
AcDbLine
 10
287.5834220271
 20
418.5401805595
 30
0.0
 11
287.5834220271
 21
417.0968047262
 31
0.0
  0
LINE
  5
25D
330
1F
100
AcDbEntity
  8
0
100
AcDbLine
 10
287.5834220271
 20
417.0968047262
 30
0.0
 11
288.8334217664
 21
416.3751172752
 31
0.0
  0
LINE
  5
25E
330
1F
100
AcDbEntity
  8
0
100
AcDbLine
 10
288.8334217664
 20
416.3751172752
 30
0.0
 11
290.0834224369
 21
417.0968047262
 31
0.0
  0
LINE
  5
25F
330
1F
100
AcDbEntity
  8
0
100
AcDbLine
 10
290.0834224369
 20
417.0968047262
 30
0.0
 11
290.0834224369
 21
418.5401805595
 31
0.0
  0
LINE
  5
260
330
1F
100
AcDbEntity
  8
0
100
AcDbLine
 10
290.0834224369
 20
418.5401805595
 30
0.0
 11
288.8334217664
 21
419.2618684762
 31
0.0
  0
LINE
  5
261
330
1F
100
AcDbEntity
  8
0
100
AcDbLine
 10
288.8334217664
 20
419.2618684762
 30
0.0
 11
287.5834220271
 21
418.5401805595
 31
0.0
  0
ARC
  5
262
330
1F
100
AcDbEntity
  8
0
100
AcDbCircle
 10
288.8334222283
 20
417.8184927701
 30
0.0
 40
1.25
100
AcDbArc
 50
120.0
 51
180.0
  0
ARC
  5
263
330
1F
100
AcDbEntity
  8
0
100
AcDbCircle
 10
288.8334222283
 20
417.8184927701
 30
0.0
 40
1.250000000000004
100
AcDbArc
 50
180.0
 51
240.0
  0
ARC
  5
264
330
1F
100
AcDbEntity
  8
0
100
AcDbCircle
 10
288.8334222283
 20
417.8184927701
 30
0.0
 40
1.250000000000004
100
AcDbArc
 50
240.0
 51
300.0
  0
ARC
  5
265
330
1F
100
AcDbEntity
  8
0
100
AcDbCircle
 10
288.8334222283
 20
417.8184927701
 30
0.0
 40
1.249999999999955
100
AcDbArc
 50
60.0
 51
120.0
  0
ARC
  5
266
330
1F
100
AcDbEntity
  8
0
100
AcDbCircle
 10
288.8334222283
 20
417.8184927701
 30
0.0
 40
1.250000000000004
100
AcDbArc
 50
300.0
 51
0.0
  0
ARC
  5
267
330
1F
100
AcDbEntity
  8
0
100
AcDbCircle
 10
288.8334222283
 20
417.8184927701
 30
0.0
 40
1.249999999999955
100
AcDbArc
 50
0.0
 51
60.0
  0
LINE
  5
268
330
1F
100
AcDbEntity
  8
0
100
AcDbLine
 10
309.8334224146
 20
503.8184913725
 30
0.0
 11
284.833422042
 21
503.8184913725
 31
0.0
  0
LINE
  5
269
330
1F
100
AcDbEntity
  8
0
100
AcDbLine
 10
309.8334224146
 20
503.8184913725
 30
0.0
 11
309.8334224146
 21
392.8184936673
 31
0.0
  0
LINE
  5
26A
330
1F
100
AcDbEntity
  8
0
100
AcDbLine
 10
284.833422042
 20
503.8184913725
 30
0.0
 11
284.833422042
 21
392.8184936673
 31
0.0
  0
CIRCLE
  5
26B
330
1F
100
AcDbEntity
  8
0
100
AcDbCircle
 10
288.8334222283
 20
417.8184927701
 30
0.0
 40
3.749999999999943
  0
CIRCLE
  5
26C
330
1F
100
AcDbEntity
  8
0
100
AcDbCircle
 10
305.3334222283
 20
417.8184927701
 30
0.0
 40
3.350000000000023
  0
LINE
  5
26D
330
1F
100
AcDbEntity
  8
0
100
AcDbLine
 10
284.833422042
 20
392.8184936673
 30
0.0
 11
309.8334224146
 21
392.8184936673
 31
0.0
  0
CIRCLE
  5
26E
330
1F
100
AcDbEntity
  8
0
100
AcDbCircle
 10
288.8334222283
 20
417.8184927701
 30
0.0
 40
2.749999999999943
  0
CIRCLE
  5
26F
330
1F
100
AcDbEntity
  8
0
100
AcDbCircle
 10
305.3334222283
 20
417.8184927701
 30
0.0
 40
3.050000000000011
  0
LINE
  5
270
330
1F
100
AcDbEntity
  8
0
  6
Continuous
 62
     8
370
    18
100
AcDbLine
 10
297.3334222283
 20
305.7459535927
 30
0.0
 11
297.3334222283
 21
299.7459563345
 31
0.0
  0
LINE
  5
271
330
1F
100
AcDbEntity
  8
0
  6
Continuous
 62
     8
370
    18
100
AcDbLine
 10
317.3334217813
 20
305.7459535927
 30
0.0
 11
317.3334217813
 21
299.7459563345
 31
0.0
  0
LINE
  5
272
330
1F
100
AcDbEntity
  8
0
  6
Continuous
 62
     8
370
    18
100
AcDbLine
 10
309.8334224146
 20
306.245954606
 30
0.0
 11
284.833422042
 21
306.245954606
 31
0.0
  0
LINE
  5
273
330
1F
100
AcDbEntity
  8
0
  6
Continuous
 62
     8
370
    18
100
AcDbLine
 10
289.5064988356
 20
311.3184961409
 30
0.0
 11
289.5064988356
 21
310.7459562749
 31
0.0
  0
LINE
  5
274
330
1F
100
AcDbEntity
  8
0
  6
Continuous
 62
     8
370
    18
100
AcDbLine
 10
305.160345621
 20
311.3184961409
 30
0.0
 11
305.160345621
 21
310.7459562749
 31
0.0
  0
INSERT
  5
27C
330
1F
100
AcDbEntity
  8
0
  6
Continuous
 62
     7
370
     0
100
AcDbBlockReference
  2
SW_NOTE_7
 10
332.0551232166
 20
437.6496435091
 30
0.0
  0
LEADER
  5
27D
330
1F
100
AcDbEntity
  8
0
  6
Continuous
 62
     7
370
     0
100
AcDbLeader
  3
SLDDIMSTYLE0
 76
     2
 10
290.7333989465
 20
421.0515390844
 30
0.0
 10
332.0551232166
 20
437.6496435091
 30
0.0
  0
LINE
  5
299
330
1F
100
AcDbEntity
  8
0
100
AcDbLine
 10
582.6726185569
 20
309.3907846216
 30
0.0
 11
582.6726185569
 21
303.3907873635
 31
0.0
  0
ARC
  5
29A
330
1F
100
AcDbEntity
  8
0
100
AcDbCircle
 10
611.6726193169
 20
309.890784572
 30
0.0
 40
0.5
100
AcDbArc
 50
180.0
 51
270.0
  0
ARC
  5
29B
330
1F
100
AcDbEntity
  8
0
100
AcDbCircle
 10
585.6726193169
 20
309.890784572
 30
0.0
 40
0.5
100
AcDbArc
 50
270.0
 51
0.0
  0
LINE
  5
29C
330
1F
100
AcDbEntity
  8
0
100
AcDbLine
 10
586.1726191306
 20
313.3907852773
 30
0.0
 11
586.1726191306
 21
309.8907856349
 31
0.0
  0
LINE
  5
29D
330
1F
100
AcDbEntity
  8
0
100
AcDbLine
 10
611.1726195031
 20
309.8907856349
 30
0.0
 11
611.1726195031
 21
313.3907852773
 31
0.0
  0
LINE
  5
29E
330
1F
100
AcDbEntity
  8
0
100
AcDbLine
 10
611.1726195031
 20
313.3907852773
 30
0.0
 11
610.5952693561
 21
314.3907873039
 31
0.0
  0
LINE
  5
29F
330
1F
100
AcDbEntity
  8
0
100
AcDbLine
 10
586.7499692777
 20
314.3907873039
 30
0.0
 11
586.1726191306
 21
313.3907852773
 31
0.0
  0
LINE
  5
2A0
330
1F
100
AcDbEntity
  8
0
100
AcDbLine
 10
611.072619673
 20
393.9633233551
 30
0.0
 11
611.072619673
 21
396.4633246962
 31
0.0
  0
LINE
  5
2A1
330
1F
100
AcDbEntity
  8
0
100
AcDbLine
 10
586.2726189607
 20
396.4633246962
 30
0.0
 11
586.2726189607
 21
393.9633233551
 31
0.0
  0
LINE
  5
2A2
330
1F
100
AcDbEntity
  8
0
100
AcDbLine
 10
611.022619758
 20
321.6633213763
 30
0.0
 11
610.522619676
 21
322.1633223895
 31
0.0
  0
LINE
  5
2A3
330
1F
100
AcDbEntity
  8
0
100
AcDbLine
 10
586.8226189578
 20
322.1633223895
 30
0.0
 11
586.3226188758
 21
321.6633213763
 31
0.0
  0
LINE
  5
2A4
330
1F
100
AcDbEntity
  8
0
100
AcDbLine
 10
611.022619758
 20
314.9633271698
 30
0.0
 11
611.022619758
 21
321.6633213763
 31
0.0
  0
LINE
  5
2A5
330
1F
100
AcDbEntity
  8
0
100
AcDbLine
 10
586.3226188758
 20
321.6633213763
 30
0.0
 11
586.3226188758
 21
314.9633271698
 31
0.0
  0
LINE
  5
2A6
330
1F
100
AcDbEntity
  8
0
100
AcDbLine
 10
610.1726193392
 20
322.1633223895
 30
0.0
 11
610.1726193392
 21
322.4633274678
 31
0.0
  0
LINE
  5
2A7
330
1F
100
AcDbEntity
  8
0
100
AcDbLine
 10
587.1726192945
 20
322.4633274678
 30
0.0
 11
587.1726192945
 21
322.1633223895
 31
0.0
  0
LINE
  5
2A8
330
1F
100
AcDbEntity
  8
0
100
AcDbLine
 10
586.1726191306
 20
509.3500254754
 30
0.0
 11
586.1726191306
 21
507.4633224015
 31
0.0
  0
LINE
  5
2A9
330
1F
100
AcDbEntity
  8
0
100
AcDbLine
 10
611.1726195031
 20
507.4633224015
 30
0.0
 11
611.1726195031
 21
509.3500254754
 31
0.0
  0
ARC
  5
2AA
330
1F
100
AcDbEntity
  8
0
100
AcDbCircle
 10
598.6726193169
 20
477.5520548963
 30
0.0
 40
34.1666666666668
100
AcDbArc
 50
95.6459490965
 51
111.4601277494
  0
ARC
  5
2AB
330
1F
100
AcDbEntity
  8
0
100
AcDbCircle
 10
598.6726193169
 20
477.5520548963
 30
0.0
 40
34.1666666666668
100
AcDbArc
 50
68.53987225059998
 51
84.35405090349998
  0
LINE
  5
2AC
330
1F
100
AcDbEntity
  8
0
100
AcDbLine
 10
611.1726195031
 20
322.4633274678
 30
0.0
 11
611.1726195031
 21
393.9633233551
 31
0.0
  0
LINE
  5
2AD
330
1F
100
AcDbEntity
  8
0
100
AcDbLine
 10
586.1726191306
 20
393.9633233551
 30
0.0
 11
586.1726191306
 21
322.4633274678
 31
0.0
  0
LINE
  5
2AE
330
1F
100
AcDbEntity
  8
0
100
AcDbLine
 10
619.6726190338
 20
309.3907846216
 30
0.0
 11
619.6726190338
 21
303.3907873635
 31
0.0
  0
LINE
  5
2AF
330
1F
100
AcDbEntity
  8
0
100
AcDbLine
 10
618.6726188698
 20
309.3907846216
 30
0.0
 11
619.6726190338
 21
309.3907846216
 31
0.0
  0
LINE
  5
2B0
330
1F
100
AcDbEntity
  8
0
100
AcDbLine
 10
619.6726190338
 20
303.3907873635
 30
0.0
 11
618.6726188698
 21
303.3907873635
 31
0.0
  0
LINE
  5
2B1
330
1F
100
AcDbEntity
  8
0
100
AcDbLine
 10
590.9266525359
 20
309.3907846216
 30
0.0
 11
590.9266525359
 21
303.3907873635
 31
0.0
  0
LINE
  5
2B2
330
1F
100
AcDbEntity
  8
0
100
AcDbLine
 10
590.9266525359
 20
309.3907846216
 30
0.0
 11
618.6726188698
 21
309.3907846216
 31
0.0
  0
LINE
  5
2B3
330
1F
100
AcDbEntity
  8
0
100
AcDbLine
 10
590.9266525359
 20
303.3907873635
 30
0.0
 11
618.6726188698
 21
303.3907873635
 31
0.0
  0
LINE
  5
2B4
330
1F
100
AcDbEntity
  8
0
100
AcDbLine
 10
582.6726185569
 20
309.3907846216
 30
0.0
 11
590.9266525359
 21
309.3907846216
 31
0.0
  0
LINE
  5
2B5
330
1F
100
AcDbEntity
  8
0
100
AcDbLine
 10
582.6726185569
 20
303.3907873635
 30
0.0
 11
590.9266525359
 21
303.3907873635
 31
0.0
  0
LINE
  5
2B6
330
1F
100
AcDbEntity
  8
0
100
AcDbLine
 10
589.8065345773
 20
310.3907866482
 30
0.0
 11
607.5387040564
 21
310.3907866482
 31
0.0
  0
LINE
  5
2B7
330
1F
100
AcDbEntity
  8
0
100
AcDbLine
 10
607.5387040564
 20
313.3907852773
 30
0.0
 11
607.5387040564
 21
310.3907866482
 31
0.0
  0
LINE
  5
2B8
330
1F
100
AcDbEntity
  8
0
100
AcDbLine
 10
589.8065345773
 20
313.3907852773
 30
0.0
 11
586.1726191306
 21
313.3907852773
 31
0.0
  0
LINE
  5
2B9
330
1F
100
AcDbEntity
  8
0
100
AcDbLine
 10
611.1726195031
 20
313.3907852773
 30
0.0
 11
607.5387040564
 21
313.3907852773
 31
0.0
  0
LINE
  5
2BA
330
1F
100
AcDbEntity
  8
0
100
AcDbLine
 10
589.8065345773
 20
310.3907866482
 30
0.0
 11
589.8065345773
 21
313.3907852773
 31
0.0
  0
LINE
  5
2BB
330
1F
100
AcDbEntity
  8
0
100
AcDbLine
 10
607.5387040564
 20
314.3907873039
 30
0.0
 11
610.5952693561
 21
314.3907873039
 31
0.0
  0
LINE
  5
2BC
330
1F
100
AcDbEntity
  8
0
100
AcDbLine
 10
586.7499692777
 20
314.3907873039
 30
0.0
 11
589.8065345773
 21
314.3907873039
 31
0.0
  0
LINE
  5
2BD
330
1F
100
AcDbEntity
  8
0
100
AcDbLine
 10
607.5387040564
 20
313.3907852773
 30
0.0
 11
607.5387040564
 21
314.3907873039
 31
0.0
  0
LINE
  5
2BE
330
1F
100
AcDbEntity
  8
0
100
AcDbLine
 10
589.8065345773
 20
314.3907873039
 30
0.0
 11
589.8065345773
 21
313.3907852773
 31
0.0
  0
LINE
  5
2BF
330
1F
100
AcDbEntity
  8
0
100
AcDbLine
 10
607.5387040564
 20
314.3907873039
 30
0.0
 11
607.3725281695
 21
314.3907873039
 31
0.0
  0
LINE
  5
2C0
330
1F
100
AcDbEntity
  8
0
100
AcDbLine
 10
589.9727104643
 20
314.3907873039
 30
0.0
 11
589.8065345773
 21
314.3907873039
 31
0.0
  0
LINE
  5
2C1
330
1F
100
AcDbEntity
  8
0
100
AcDbLine
 10
586.1726191306
 20
507.4633224015
 30
0.0
 11
586.1726191306
 21
396.4633246962
 31
0.0
  0
LINE
  5
2C2
330
1F
100
AcDbEntity
  8
0
100
AcDbLine
 10
611.1726195031
 20
507.4633224015
 30
0.0
 11
586.1726191306
 21
507.4633224015
 31
0.0
  0
LINE
  5
2C3
330
1F
100
AcDbEntity
  8
0
100
AcDbLine
 10
611.1726195031
 20
507.4633224015
 30
0.0
 11
611.1726195031
 21
396.4633246962
 31
0.0
  0
LINE
  5
2C4
330
1F
100
AcDbEntity
  8
0
100
AcDbLine
 10
586.1726191306
 20
396.4633246962
 30
0.0
 11
611.1726195031
 21
396.4633246962
 31
0.0
  0
LINE
  5
2C5
330
1F
100
AcDbEntity
  8
0
100
AcDbLine
 10
601.0219643304
 20
317.7144466047
 30
0.0
 11
601.0471987484
 21
317.9633257989
 31
0.0
  0
LINE
  5
2C6
330
1F
100
AcDbEntity
  8
0
100
AcDbLine
 10
601.0471987484
 20
319.0633220677
 30
0.0
 11
601.0265960304
 21
319.2654563193
 31
0.0
  0
LINE
  5
2C7
330
1F
100
AcDbEntity
  8
0
100
AcDbLine
 10
598.6726193169
 20
322.1633223895
 30
0.0
 11
586.8226189578
 21
322.1633223895
 31
0.0
  0
LINE
  5
2C8
330
1F
100
AcDbEntity
  8
0
100
AcDbLine
 10
610.522619676
 20
322.1633223895
 30
0.0
 11
598.6726193169
 21
322.1633223895
 31
0.0
  0
LINE
  5
2C9
330
1F
100
AcDbEntity
  8
0
100
AcDbLine
 10
611.022619758
 20
321.6633213763
 30
0.0
 11
586.3226188758
 21
321.6633213763
 31
0.0
  0
SPLINE
  5
2CA
330
1F
100
AcDbEntity
  8
0
100
AcDbSpline
210
0.0
220
0.0
230
1.0
 70
    11
 71
     3
 72
    26
 73
    22
 74
     0
 42
0.000000001
 43
0.00000001
 40
0.0
 40
0.0
 40
0.0
 40
0.0
 40
0.0529356704022647
 40
0.1058449334711931
 40
0.1594405355450975
 40
0.2135056211935032
 40
0.2668359399214283
 40
0.3193951305976968
 40
0.3723005863507167
 40
0.426148583738769
 40
0.4801054108390185
 40
0.5331149076915485
 40
0.5856118375333602
 40
0.6388138179016701
 40
0.6928476155748545
 40
0.746555788248446
 40
0.7993094235813045
 40
0.8519462291530286
 40
0.9054574024544221
 40
0.9595348103112886
 40
1.0
 40
1.0
 40
1.0
 40
1.0
 10
596.1726193727569
 20
318.5133202080014
 30
0.0
 10
596.1996786169573
 20
318.2354288713295
 30
0.0
 10
596.2537836066628
 20
317.6797848260432
 30
0.0
 10
596.6748524443263
 20
316.9380827073487
 30
0.0
 10
597.2995002180678
 20
316.3664651062833
 30
0.0
 10
598.0884355852205
 20
316.0331316526987
 30
0.0
 10
598.9388418664845
 20
315.9804456015252
 30
0.0
 10
599.7520273083958
 20
316.2073548215641
 30
0.0
 10
600.4467358086109
 20
316.6858651825975
 30
0.0
 10
600.9508191199916
 20
317.3718354460316
 30
0.0
 10
601.1998817108165
 20
318.1903230882903
 30
0.0
 10
601.1641433904082
 20
319.0391607283813
 30
0.0
 10
600.8559993642871
 20
319.823229601582
 30
0.0
 10
600.3077896849243
 20
320.4666822915158
 30
0.0
 10
599.5711347399782
 20
320.897942914556
 30
0.0
 10
598.7318139730654
 20
321.060028139642
 30
0.0
 10
597.8939887443235
 20
320.9374820508006
 30
0.0
 10
597.1444665460793
 20
320.5508577655995
 30
0.0
 10
596.5628540790512
 20
319.9374936969302
 30
0.0
 10
596.2257874119117
 20
319.2204286351267
 30
0.0
 10
596.1885551556761
 20
318.7252581800271
 30
0.0
 10
596.1726193727569
 20
318.5133202080014
 30
0.0
  0
LINE
  5
2CB
330
1F
100
AcDbEntity
  8
0
100
AcDbLine
 10
611.022619758
 20
314.9633271698
 30
0.0
 11
586.3226188758
 21
314.9633271698
 31
0.0
  0
LWPOLYLINE
  5
2CC
330
1F
100
AcDbEntity
  8
0
100
AcDbPolyline
 90
        8
 70
   128
 43
0.0
 10
607.0225743988
 20
310.3907866482
 10
607.1048986578
 20
311.3317577247
 10
607.2008388528
 20
312.4283639793
 10
607.2800804341
 20
313.3340938095
 10
607.3421782294
 20
314.0438733701
 10
607.3867839241
 20
314.5537240509
 10
607.4136479238
 20
314.8607773785
 10
607.4226193541
 20
314.9633271698
  0
LWPOLYLINE
  5
2CD
330
1F
100
AcDbEntity
  8
0
100
AcDbPolyline
 90
        8
 70
   128
 43
0.0
 10
590.3226642349
 20
310.3907866482
 10
590.240339976
 20
311.3317577247
 10
590.1443997809
 20
312.4283639793
 10
590.0651581997
 20
313.3340938095
 10
590.0030604044
 20
314.0438733701
 10
589.9584547097
 20
314.5537240509
 10
589.93159071
 20
314.8607773785
 10
589.9226192796
 20
314.9633271698
  0
LINE
  5
2CE
330
1F
100
AcDbEntity
  8
0
100
AcDbLine
 10
599.7325254084
 20
316.8172700409
 30
0.0
 11
599.8650136117
 21
316.60526377
 31
0.0
  0
ARC
  5
2CF
330
1F
100
AcDbEntity
  8
0
100
AcDbCircle
 10
598.6726193169
 20
318.513323799
 30
0.0
 40
2.000000000000016
100
AcDbArc
 50
302.0022809781
 51
282.0022809781
  0
LINE
  5
2D0
330
1F
100
AcDbEntity
  8
0
100
AcDbLine
 10
599.088520592
 20
316.5570436124
 30
0.0
 11
599.1405082405
 21
316.3125081066
 31
0.0
  0
ARC
  5
2D1
330
1F
100
AcDbEntity
  8
0
100
AcDbCircle
 10
598.6726193169
 20
318.513323799
 30
0.0
 40
2.250000000000046
100
AcDbArc
 50
302.0022809781
 51
282.0022809781
  0
LINE
  5
2D2
330
1F
100
AcDbEntity
  8
0
100
AcDbLine
 10
599.8650136117
 20
316.60526377
 30
0.0
 11
599.9975019313
 21
316.3932574991
 31
0.0
  0
LWPOLYLINE
  5
2D3
330
1F
100
AcDbEntity
  8
0
100
AcDbPolyline
 90
        3
 70
   128
 43
0.0
 10
596.1860853659
 20
318.2541964654
 10
596.1726193728
 20
318.5132233505
 10
596.2413733305
 20
319.0955979828
  0
LINE
  5
2D4
330
1F
100
AcDbEntity
  8
0
100
AcDbLine
 10
599.1405082405
 20
316.3125081066
 30
0.0
 11
599.1924959181
 21
316.0679726009
 31
0.0
  0
LINE
  5
2D5
330
1F
100
AcDbEntity
  8
0
100
AcDbLine
 10
593.0344846511
 20
509.3500254754
 30
0.0
 11
611.1726195031
 21
509.3500254754
 31
0.0
  0
LINE
  5
2D6
330
1F
100
AcDbEntity
  8
0
100
AcDbLine
 10
586.1726191306
 20
509.3500254754
 30
0.0
 11
593.0344846511
 21
509.3500254754
 31
0.0
  0
ARC
  5
2D7
330
1F
100
AcDbEntity
  8
0
100
AcDbCircle
 10
601.3500520347
 20
504.6431510908
 30
0.0
 40
6.94358861277991
100
AcDbArc
 50
84.3474097631
 51
96.4596736463
  0
ARC
  5
2D8
330
1F
100
AcDbEntity
  8
0
100
AcDbCircle
 10
601.1835038946
 20
501.3673458692
 30
0.0
 40
10.21940831076441
100
AcDbArc
 50
89.48855849100002
 51
94.6597568759
  0
ARC
  5
2D9
330
1F
100
AcDbEntity
  8
0
100
AcDbCircle
 10
598.5057135552
 20
477.6535239708
 30
0.0
 40
33.93323355142318
100
AcDbArc
 50
89.7181808054
 51
92.5568269553
  0
ARC
  5
2DA
330
1F
100
AcDbEntity
  8
0
100
AcDbCircle
 10
595.9955726016
 20
504.6358955457
 30
0.0
 40
6.950855504966288
100
AcDbArc
 50
89.3822469495
 51
96.4571242554
  0
ARC
  5
2DB
330
1F
100
AcDbEntity
  8
0
100
AcDbCircle
 10
596.1620076505
 20
501.3700184086
 30
0.0
 40
10.21672723927225
100
AcDbArc
 50
84.67521332010001
 51
95.32478667989999
  0
ARC
  5
2DC
330
1F
100
AcDbEntity
  8
0
100
AcDbCircle
 10
598.8395024852
 20
477.6562799862
 30
0.0
 40
33.9304767565312
100
AcDbArc
 50
87.07848232540002
 51
92.9215176746
  0
LINE
  5
2DD
330
1F
100
AcDbEntity
  8
0
100
AcDbLine
 10
586.182832014
 20
393.9633233551
 30
0.0
 11
586.1726191306
 21
393.9633233551
 31
0.0
  0
LINE
  5
2DE
330
1F
100
AcDbEntity
  8
0
100
AcDbLine
 10
611.1726195031
 20
393.9633233551
 30
0.0
 11
586.182832014
 21
393.9633233551
 31
0.0
  0
LINE
  5
2DF
330
1F
100
AcDbEntity
  8
0
100
AcDbLine
 10
586.182832014
 20
322.4633274678
 30
0.0
 11
586.1726191306
 21
322.4633274678
 31
0.0
  0
LINE
  5
2E0
330
1F
100
AcDbEntity
  8
0
100
AcDbLine
 10
611.1726195031
 20
322.4633274678
 30
0.0
 11
586.182832014
 21
322.4633274678
 31
0.0
  0
LINE
  5
2E1
330
1F
100
AcDbEntity
  8
0
  6
Continuous
 62
     8
370
    18
100
AcDbLine
 10
618.6726188698
 20
303.3907873635
 30
0.0
 11
618.6726188698
 21
309.3907846216
 31
0.0
  0
ARC
  5
2E2
330
1F
100
AcDbEntity
  8
0
  6
Continuous
 62
     8
370
    18
100
AcDbCircle
 10
610.7398707648
 20
309.8731491601
 30
0.0
 40
0.4827395265622109
100
AcDbArc
 50
177.906281872
 51
267.7415106779
  0
LINE
  5
2E3
330
1F
100
AcDbEntity
  8
0
  6
Continuous
 62
     8
370
    18
100
AcDbLine
 10
610.2574535126
 20
309.8907856349
 30
0.0
 11
611.1726195031
 21
309.8907856349
 31
0.0
  0
LINE
  5
2E4
330
1F
100
AcDbEntity
  8
0
  6
Continuous
 62
     8
370
    18
100
AcDbLine
 10
586.1726191306
 20
309.8907856349
 30
0.0
 11
608.8593231925
 21
309.8907856349
 31
0.0
  0
ARC
  5
2E5
330
1F
100
AcDbEntity
  8
0
  6
Continuous
 62
     8
370
    18
100
AcDbCircle
 10
609.3183082021
 20
309.8487979978
 30
0.0
 40
0.4609015086219934
100
AcDbArc
 50
174.7731687725
 51
263.5824514223
  0
SPLINE
  5
2E6
330
1F
100
AcDbEntity
  8
0
  6
Continuous
 62
     8
370
    18
100
AcDbSpline
210
0.0
220
0.0
230
1.0
 70
     8
 71
     3
 72
    10
 73
     6
 74
     0
 42
0.000000001
 43
0.00000001
 40
0.0
 40
0.0
 40
0.0
 40
0.0
 40
0.106431183111251
 40
0.5474406928479918
 40
1.0
 40
1.0
 40
1.0
 40
1.0
 10
608.8593231925385
 20
309.8907856349232
 30
0.0
 10
608.9186471899211
 20
309.8866997237926
 30
0.0
 10
609.2237868048377
 20
309.8656833829528
 30
0.0
 10
609.7294657492331
 20
309.7110638011069
 30
0.0
 10
610.079947544074
 20
309.8303643517337
 30
0.0
 10
610.257453512551
 20
309.8907856349232
 30
0.0
  0
LINE
  5
2E7
330
1F
100
AcDbEntity
  8
0
  6
Continuous
 62
     8
370
    18
100
AcDbLine
 10
606.4995427096
 20
314.9633271698
 30
0.0
 11
606.4995427096
 21
310.3907866482
 31
0.0
  0
LINE
  5
2E8
330
1F
100
AcDbEntity
  8
0
  6
Continuous
 62
     8
370
    18
100
AcDbLine
 10
590.8456959242
 20
314.9633271698
 30
0.0
 11
590.8456959242
 21
310.3907866482
 31
0.0
  0
ARC
  5
32B
330
1F
100
AcDbEntity
  8
0
100
AcDbCircle
 10
544.0079771864
 20
309.890784572
 30
0.0
 40
0.5
100
AcDbArc
 50
180.0
 51
270.0
  0
ARC
  5
32C
330
1F
100
AcDbEntity
  8
0
100
AcDbCircle
 10
518.0079771864
 20
309.890784572
 30
0.0
 40
0.4999999999999432
100
AcDbArc
 50
270.0
 51
0.0
  0
LINE
  5
32D
330
1F
100
AcDbEntity
  8
0
100
AcDbLine
 10
518.5079770002
 20
310.3907866482
 30
0.0
 11
518.5079770002
 21
309.8907856349
 31
0.0
  0
LINE
  5
32E
330
1F
100
AcDbEntity
  8
0
100
AcDbLine
 10
543.5079773727
 20
309.8907856349
 30
0.0
 11
543.5079773727
 21
313.3907852773
 31
0.0
  0
LINE
  5
32F
330
1F
100
AcDbEntity
  8
0
100
AcDbLine
 10
543.5079773727
 20
313.3907852773
 30
0.0
 11
542.9306272256
 21
314.3907873039
 31
0.0
  0
LINE
  5
330
330
1F
100
AcDbEntity
  8
0
100
AcDbLine
 10
543.4079775426
 20
393.9633233551
 30
0.0
 11
543.4079775426
 21
396.4633246962
 31
0.0
  0
LINE
  5
331
330
1F
100
AcDbEntity
  8
0
100
AcDbLine
 10
518.6079768303
 20
396.4633246962
 30
0.0
 11
518.6079768303
 21
393.9633233551
 31
0.0
  0
SPLINE
  5
332
330
1F
100
AcDbEntity
  8
0
100
AcDbSpline
210
0.0
220
0.0
230
1.0
 70
     8
 71
     3
 72
     9
 73
     5
 74
     0
 42
0.000000001
 43
0.00000001
 40
0.0
 40
0.0
 40
0.0
 40
0.0
 40
0.7514852118624464
 40
1.0
 40
1.0
 40
1.0
 40
1.0
 10
537.3926926243253
 20
321.5101076368573
 30
0.0
 10
537.4529443149228
 20
321.6756376865285
 30
0.0
 10
537.5331211296442
 20
321.8959082215415
 30
0.0
 10
537.6113341728302
 20
322.110094044994
 30
0.0
 10
537.6307712706871
 20
322.1633223895314
 30
0.0
  0
SPLINE
  5
333
330
1F
100
AcDbEntity
  8
0
100
AcDbSpline
210
0.0
220
0.0
230
1.0
 70
     8
 71
     3
 72
     9
 73
     5
 74
     0
 42
0.000000001
 43
0.00000001
 40
0.0
 40
0.0
 40
0.0
 40
0.0
 40
0.2485147885543608
 40
0.9999999999999999
 40
0.9999999999999999
 40
0.9999999999999999
 40
0.9999999999999999
 10
524.3851831021852
 20
322.1633223895313
 30
0.0
 10
524.4046202000368
 20
322.1100940450092
 30
0.0
 10
524.4828332430691
 20
321.8959082219775
 30
0.0
 10
524.5630100579006
 20
321.6756376866632
 30
0.0
 10
524.6232617485471
 20
321.5101076368573
 30
0.0
  0
LINE
  5
334
330
1F
100
AcDbEntity
  8
0
100
AcDbLine
 10
518.6579767454
 20
316.0437954668
 30
0.0
 11
518.6579767454
 21
314.9633271698
 31
0.0
  0
LINE
  5
335
330
1F
100
AcDbEntity
  8
0
100
AcDbLine
 10
518.6579767454
 20
321.6633213763
 30
0.0
 11
518.6579767454
 21
321.0050029759
 31
0.0
  0
LINE
  5
336
330
1F
100
AcDbEntity
  8
0
100
AcDbLine
 10
543.1579770359
 20
321.8633247618
 30
0.0
 11
542.8579775456
 21
322.1633223895
 31
0.0
  0
LINE
  5
337
330
1F
100
AcDbEntity
  8
0
100
AcDbLine
 10
519.1579768273
 20
322.1633223895
 30
0.0
 11
518.6579767454
 21
321.6633213763
 31
0.0
  0
LINE
  5
338
330
1F
100
AcDbEntity
  8
0
100
AcDbLine
 10
542.5079772088
 20
322.1633223895
 30
0.0
 11
542.5079772088
 21
322.4633274678
 31
0.0
  0
LINE
  5
339
330
1F
100
AcDbEntity
  8
0
100
AcDbLine
 10
519.5079771641
 20
322.4633274678
 30
0.0
 11
519.5079771641
 21
322.1633223895
 31
0.0
  0
LINE
  5
33A
330
1F
100
AcDbEntity
  8
0
100
AcDbLine
 10
542.0079771268
 20
314.3907873039
 30
0.0
 11
542.0079771268
 21
314.9633271698
 31
0.0
  0
LINE
  5
33B
330
1F
100
AcDbEntity
  8
0
100
AcDbLine
 10
520.007977246
 20
314.9633271698
 30
0.0
 11
520.007977246
 21
310.3907866482
 31
0.0
  0
LINE
  5
33C
330
1F
100
AcDbEntity
  8
0
100
AcDbLine
 10
518.5079770002
 20
509.3500254754
 30
0.0
 11
518.5079770002
 21
507.4633224015
 31
0.0
  0
LINE
  5
33D
330
1F
100
AcDbEntity
  8
0
100
AcDbLine
 10
543.5079773727
 20
507.4633224015
 30
0.0
 11
543.5079773727
 21
509.3500254754
 31
0.0
  0
ARC
  5
33E
330
1F
100
AcDbEntity
  8
0
100
AcDbCircle
 10
531.0079771864
 20
477.5520548963
 30
0.0
 40
34.1666666666668
100
AcDbArc
 50
95.0451680982
 51
111.4601277494
  0
ARC
  5
33F
330
1F
100
AcDbEntity
  8
0
100
AcDbCircle
 10
531.0079771864
 20
477.5520548963
 30
0.0
 40
34.1666666666668
100
AcDbArc
 50
68.53987225059998
 51
84.9548319018
  0
LINE
  5
340
330
1F
100
AcDbEntity
  8
0
100
AcDbLine
 10
543.5079773727
 20
322.4633274678
 30
0.0
 11
543.5079773727
 21
393.9633233551
 31
0.0
  0
LINE
  5
341
330
1F
100
AcDbEntity
  8
0
100
AcDbLine
 10
518.5079770002
 20
393.9633233551
 30
0.0
 11
518.5079770002
 21
322.4633274678
 31
0.0
  0
LINE
  5
342
330
1F
100
AcDbEntity
  8
0
100
AcDbLine
 10
547.0079779464
 20
309.3907846216
 30
0.0
 11
547.0079779464
 21
303.3907873635
 31
0.0
  0
LINE
  5
343
330
1F
100
AcDbEntity
  8
0
100
AcDbLine
 10
547.0079779464
 20
303.3907873635
 30
0.0
 11
546.0079768512
 21
303.3907873635
 31
0.0
  0
LINE
  5
344
330
1F
100
AcDbEntity
  8
0
100
AcDbLine
 10
546.0079768512
 20
309.3907846216
 30
0.0
 11
547.0079779464
 21
309.3907846216
 31
0.0
  0
LINE
  5
345
330
1F
100
AcDbEntity
  8
0
100
AcDbLine
 10
518.0079769182
 20
303.3907873635
 30
0.0
 11
546.0079768512
 21
303.3907873635
 31
0.0
  0
LINE
  5
346
330
1F
100
AcDbEntity
  8
0
100
AcDbLine
 10
518.0079769182
 20
309.3907846216
 30
0.0
 11
546.0079768512
 21
309.3907846216
 31
0.0
  0
LINE
  5
347
330
1F
100
AcDbEntity
  8
0
100
AcDbLine
 10
517.0079767543
 20
303.3907873635
 30
0.0
 11
517.0079767543
 21
309.3907846216
 31
0.0
  0
LINE
  5
348
330
1F
100
AcDbEntity
  8
0
100
AcDbLine
 10
518.0079769182
 20
303.3907873635
 30
0.0
 11
517.0079767543
 21
303.3907873635
 31
0.0
  0
LINE
  5
349
330
1F
100
AcDbEntity
  8
0
100
AcDbLine
 10
517.0079767543
 20
309.3907846216
 30
0.0
 11
518.0079769182
 21
309.3907846216
 31
0.0
  0
LINE
  5
34A
330
1F
100
AcDbEntity
  8
0
100
AcDbLine
 10
518.5079770002
 20
310.3907866482
 30
0.0
 11
522.196477263
 21
310.3907866482
 31
0.0
  0
LINE
  5
34B
330
1F
100
AcDbEntity
  8
0
100
AcDbLine
 10
522.196477263
 20
313.3907852773
 30
0.0
 11
522.196477263
 21
310.3907866482
 31
0.0
  0
LINE
  5
34C
330
1F
100
AcDbEntity
  8
0
100
AcDbLine
 10
543.5079773727
 20
313.3907852773
 30
0.0
 11
522.196477263
 21
313.3907852773
 31
0.0
  0
LINE
  5
34D
330
1F
100
AcDbEntity
  8
0
100
AcDbLine
 10
523.0366466406
 20
314.3907873039
 30
0.0
 11
542.9306272256
 21
314.3907873039
 31
0.0
  0
LINE
  5
34E
330
1F
100
AcDbEntity
  8
0
100
AcDbLine
 10
522.196477263
 20
313.3907852773
 30
0.0
 11
523.0366466406
 21
314.3907873039
 31
0.0
  0
LINE
  5
34F
330
1F
100
AcDbEntity
  8
0
100
AcDbLine
 10
518.5079770002
 20
507.4633224015
 30
0.0
 11
518.5079770002
 21
396.4633246962
 31
0.0
  0
LINE
  5
350
330
1F
100
AcDbEntity
  8
0
100
AcDbLine
 10
543.5079773727
 20
507.4633224015
 30
0.0
 11
518.5079770002
 21
507.4633224015
 31
0.0
  0
LINE
  5
351
330
1F
100
AcDbEntity
  8
0
100
AcDbLine
 10
543.5079773727
 20
507.4633224015
 30
0.0
 11
543.5079773727
 21
396.4633246962
 31
0.0
  0
LINE
  5
352
330
1F
100
AcDbEntity
  8
0
100
AcDbLine
 10
518.5079770002
 20
396.4633246962
 30
0.0
 11
543.5079773727
 21
396.4633246962
 31
0.0
  0
CIRCLE
  5
353
330
1F
100
AcDbEntity
  8
0
100
AcDbCircle
 10
539.7579771864
 20
413.963323799
 30
0.0
 40
3.5
  0
CIRCLE
  5
354
330
1F
100
AcDbEntity
  8
0
100
AcDbCircle
 10
539.7579771864
 20
400.963323799
 30
0.0
 40
3.5
  0
CIRCLE
  5
355
330
1F
100
AcDbEntity
  8
0
100
AcDbCircle
 10
522.0079771864
 20
421.463323799
 30
0.0
 40
1.799999999999955
  0
CIRCLE
  5
356
330
1F
100
AcDbEntity
  8
0
100
AcDbCircle
 10
522.7579771864
 20
400.963323799
 30
0.0
 40
3.0
  0
CIRCLE
  5
357
330
1F
100
AcDbEntity
  8
0
100
AcDbCircle
 10
522.7579771864
 20
413.963323799
 30
0.0
 40
3.0
  0
CIRCLE
  5
358
330
1F
100
AcDbEntity
  8
0
100
AcDbCircle
 10
539.7579771864
 20
413.963323799
 30
0.0
 40
2.5
  0
CIRCLE
  5
359
330
1F
100
AcDbEntity
  8
0
100
AcDbCircle
 10
539.7579771864
 20
400.963323799
 30
0.0
 40
2.5
  0
CIRCLE
  5
35A
330
1F
100
AcDbEntity
  8
0
100
AcDbCircle
 10
522.0079771864
 20
421.463323799
 30
0.0
 40
1.550000000000068
  0
CIRCLE
  5
35B
330
1F
100
AcDbEntity
  8
0
100
AcDbCircle
 10
522.7579771864
 20
413.963323799
 30
0.0
 40
2.100000000000023
  0
CIRCLE
  5
35C
330
1F
100
AcDbEntity
  8
0
100
AcDbCircle
 10
522.7579771864
 20
400.963323799
 30
0.0
 40
2.100000000000023
  0
SPLINE
  5
35D
330
1F
100
AcDbEntity
  8
0
100
AcDbSpline
210
0.0
220
0.0
230
1.0
 70
     8
 71
     3
 72
    18
 73
    14
 74
     0
 42
0.000000001
 43
0.00000001
 40
0.0
 40
0.0
 40
0.0
 40
0.0
 40
0.0338709182247899
 40
0.1389709725194566
 40
0.2447634362271804
 40
0.3524406545466534
 40
0.4603354943422873
 40
0.566336003970557
 40
0.6713115583062699
 40
0.7776969678483133
 40
0.8857457219506643
 40
0.9931433395972107
 40
1.0
 40
1.0
 40
1.0
 40
1.0
 10
518.6640880840964
 20
316.0437954668286
 30
0.0
 10
518.6623584295525
 20
316.03516219759
 30
0.0
 10
518.6552617287036
 20
315.99974025201
 30
0.0
 10
518.6997730482574
 20
316.2197176881315
 30
0.0
 10
518.7802553276599
 20
316.6824710257911
 30
0.0
 10
518.8681263250861
 20
317.3727790850788
 30
0.0
 10
518.9193283716446
 20
318.1899829381359
 30
0.0
 10
518.9115789699573
 20
319.0395847832233
 30
0.0
 10
518.8502471804827
 20
319.821872674539
 30
0.0
 10
518.759830043625
 20
320.4717973272593
 30
0.0
 10
518.6856801768644
 20
320.8785950674359
 30
0.0
 10
518.6500186997523
 20
321.053546429208
 30
0.0
 10
518.6590813178882
 20
321.0077512493002
 30
0.0
 10
518.6596251863189
 20
321.0050029758694
 30
0.0
  0
LINE
  5
35E
330
1F
100
AcDbEntity
  8
0
100
AcDbLine
 10
543.1579770359
 20
321.6633213763
 30
0.0
 11
518.6579767454
 21
321.6633213763
 31
0.0
  0
LINE
  5
35F
330
1F
100
AcDbEntity
  8
0
100
AcDbLine
 10
543.1579770359
 20
320.1450420622
 30
0.0
 11
543.1579770359
 21
321.6633213763
 31
0.0
  0
SPLINE
  5
360
330
1F
100
AcDbEntity
  8
0
100
AcDbSpline
210
0.0
220
0.0
230
1.0
 70
     8
 71
     3
 72
    11
 73
     7
 74
     0
 42
0.000000001
 43
0.00000001
 40
0.0
 40
0.0
 40
0.0
 40
0.0
 40
0.2630182265142789
 40
0.5262147775034381
 40
0.7854155516880738
 40
0.9999999999999999
 40
0.9999999999999999
 40
0.9999999999999999
 40
0.9999999999999999
 10
543.1579770359344
 20
320.1450420622113
 30
0.0
 10
543.1268999495487
 20
319.8813109049674
 30
0.0
 10
543.0647247067348
 20
319.3536697826431
 30
0.0
 10
543.0366183150929
 20
318.4234715421253
 30
0.0
 10
543.0757762099528
 20
317.5622068465725
 30
0.0
 10
543.1323526953482
 20
317.0937685497027
 30
0.0
 10
543.1579770359344
 20
316.8816058043721
 30
0.0
  0
LINE
  5
361
330
1F
100
AcDbEntity
  8
0
100
AcDbLine
 10
543.1579770359
 20
314.9633271698
 30
0.0
 11
543.1579770359
 21
316.8816058044
 31
0.0
  0
LINE
  5
362
330
1F
100
AcDbEntity
  8
0
100
AcDbLine
 10
543.1579770359
 20
314.9633271698
 30
0.0
 11
518.6579767454
 21
314.9633271698
 31
0.0
  0
LINE
  5
363
330
1F
100
AcDbEntity
  8
0
100
AcDbLine
 10
542.8579775456
 20
322.1633223895
 30
0.0
 11
519.1579768273
 21
322.1633223895
 31
0.0
  0
LINE
  5
364
330
1F
100
AcDbEntity
  8
0
100
AcDbLine
 10
543.1579770359
 20
321.6633213763
 30
0.0
 11
543.1579770359
 21
321.8002779488
 31
0.0
  0
ELLIPSE
  5
365
330
1F
100
AcDbEntity
  8
0
100
AcDbEllipse
 10
536.4886249584
 20
278.3871564302
 30
0.0
 11
-1.136868377216160E-13
 21
36.57616736883631
 31
0.0
210
0.0
220
0.0
230
1.0
 40
0.0874886635
 41
6.106016741331247
 42
6.283185307179586
  0
ELLIPSE
  5
366
330
1F
100
AcDbEntity
  8
0
100
AcDbEllipse
 10
525.5273294145
 20
278.3871564302
 30
0.0
 11
-1.136868377216160E-13
 21
36.57616736883631
 31
0.0
210
0.0
220
0.0
230
1.0
 40
0.0874886635
 41
0.0
 42
0.177168565848486
  0
LINE
  5
367
330
1F
100
AcDbEntity
  8
0
100
AcDbLine
 10
543.1579770359
 20
320.1450420622
 30
0.0
 11
543.1579770359
 21
316.8600363735
 31
0.0
  0
CIRCLE
  5
368
330
1F
100
AcDbEntity
  8
0
100
AcDbCircle
 10
522.0079771864
 20
421.463323799
 30
0.0
 40
1.499999999999948
  0
CIRCLE
  5
369
330
1F
100
AcDbEntity
  8
0
100
AcDbCircle
 10
522.0079771864
 20
421.463323799
 30
0.0
 40
1.399999999999993
  0
CIRCLE
  5
36A
330
1F
100
AcDbEntity
  8
0
100
AcDbCircle
 10
522.0079771864
 20
421.463323799
 30
0.0
 40
1.190500000000022
  0
CIRCLE
  5
36B
330
1F
100
AcDbEntity
  8
0
100
AcDbCircle
 10
522.0079771864
 20
421.463323799
 30
0.0
 40
1.100000000000076
  0
LINE
  5
36C
330
1F
100
AcDbEntity
  8
0
100
AcDbLine
 10
518.5079770002
 20
509.3500254754
 30
0.0
 11
543.5079773727
 21
509.3500254754
 31
0.0
  0
ARC
  5
36D
330
1F
100
AcDbEntity
  8
0
100
AcDbCircle
 10
529.6548249228
 20
484.4702654682
 30
0.0
 40
27.11649007583597
100
AcDbArc
 50
86.73191996280002
 51
93.2680800372
  0
ARC
  5
36E
330
1F
100
AcDbEntity
  8
0
100
AcDbCircle
 10
532.6501796283
 20
487.7420524797
 30
0.0
 40
23.84470224105345
100
AcDbArc
 50
86.5148819347
 51
93.4851180653
  0
ARC
  5
36F
330
1F
100
AcDbEntity
  8
0
100
AcDbCircle
 10
534.0042182832
 20
511.4581811469
 30
0.0
 40
0.1274733737978002
100
AcDbArc
 50
41.5055690646
 51
131.957281737
  0
ARC
  5
370
330
1F
100
AcDbEntity
  8
0
100
AcDbCircle
 10
532.3611596399
 20
484.4675259226
 30
0.0
 40
27.11923123679879
100
AcDbArc
 50
89.6848969797
 51
92.86010512180002
  0
ARC
  5
371
330
1F
100
AcDbEntity
  8
0
100
AcDbCircle
 10
529.3658355713
 20
487.7393117577
 30
0.0
 40
23.84744515216823
100
AcDbArc
 50
89.6640781573
 51
93.05003158880001
  0
ARC
  5
372
330
1F
100
AcDbEntity
  8
0
100
AcDbCircle
 10
528.0076235546
 20
511.4471627798
 30
0.0
 40
0.1392506344615357
100
AcDbArc
 50
43.2962792852
 51
91.76906311889996
  0
LINE
  5
373
330
1F
100
AcDbEntity
  8
0
100
AcDbLine
 10
543.5079773727
 20
393.9633233551
 30
0.0
 11
518.5079770002
 21
393.9633233551
 31
0.0
  0
LINE
  5
374
330
1F
100
AcDbEntity
  8
0
100
AcDbLine
 10
543.5079773727
 20
322.4633274678
 30
0.0
 11
518.5079770002
 21
322.4633274678
 31
0.0
  0
LINE
  5
375
330
1F
100
AcDbEntity
  8
0
  6
Continuous
 62
     8
370
    18
100
AcDbLine
 10
546.0079768512
 20
303.3907873635
 30
0.0
 11
546.0079768512
 21
309.3907846216
 31
0.0
  0
LINE
  5
376
330
1F
100
AcDbEntity
  8
0
  6
Continuous
 62
     8
370
    18
100
AcDbLine
 10
518.0079769182
 20
309.3907846216
 30
0.0
 11
518.0079769182
 21
303.3907873635
 31
0.0
  0
LWPOLYLINE
  5
377
330
1F
100
AcDbEntity
  8
0
  6
Continuous
 62
     8
370
    18
100
AcDbPolyline
 90
        9
 70
   128
 43
0.0
 10
526.1253337215
 20
309.3907846216
 10
526.1619705546
 20
309.40038842
 10
526.197199228
 20
309.4288421873
 10
526.2296665299
 20
309.4750506882
 10
526.2581240225
 20
309.5372332339
 10
526.2814787987
 20
309.6129981879
 10
526.2988325979
 20
309.699439824
 10
526.3095195244
 20
309.7932426337
 10
526.3131279337
 20
309.8907856349
  0
LINE
  5
378
330
1F
100
AcDbEntity
  8
0
  6
Continuous
 62
     8
370
    18
100
AcDbLine
 10
526.3131279337
 20
309.8907856349
 30
0.0
 11
543.5079773727
 21
309.8907856349
 31
0.0
  0
LINE
  5
379
330
1F
100
AcDbEntity
  8
0
  6
Continuous
 62
     8
370
    18
100
AcDbLine
 10
518.5079770002
 20
309.8907856349
 30
0.0
 11
523.7635960641
 21
309.8907856349
 31
0.0
  0
LWPOLYLINE
  5
37A
330
1F
100
AcDbEntity
  8
0
  6
Continuous
 62
     8
370
    18
100
AcDbPolyline
 90
        9
 70
   128
 43
0.0
 10
523.7635960641
 20
309.8907856349
 10
523.7580276865
 20
309.7932426337
 10
523.7415381546
 20
309.699439824
 10
523.7147598366
 20
309.6129981879
 10
523.6787227753
 20
309.5372332339
 10
523.6348109159
 20
309.4750506882
 10
523.5847127463
 20
309.4288421873
 10
523.5303528446
 20
309.40038842
 10
523.473820633
 20
309.3907846216
  0
SPLINE
  5
37B
330
1F
100
AcDbEntity
  8
0
  6
Continuous
 62
     8
370
    18
100
AcDbSpline
210
0.0
220
0.0
230
1.0
 70
     8
 71
     3
 72
    10
 73
     6
 74
     0
 42
0.000000001
 43
0.00000001
 40
0.0
 40
0.0
 40
0.0
 40
0.0
 40
0.106431183111251
 40
0.5474406928479918
 40
1.0
 40
1.0
 40
1.0
 40
1.0
 10
523.7635960641451
 20
309.8907856349232
 30
0.0
 10
523.8484980029116
 20
309.8866997237926
 30
0.0
 10
524.2852006197922
 20
309.8656833829528
 30
0.0
 10
525.1171112742147
 20
309.7110638011069
 30
0.0
 10
525.9110351008851
 20
309.8303643517337
 30
0.0
 10
526.3131279337354
 20
309.8907856349232
 30
0.0
  0
LINE
  5
37C
330
1F
100
AcDbEntity
  8
0
  6
Continuous
 62
     8
370
    18
100
AcDbLine
 10
538.7370958763
 20
314.9633271698
 30
0.0
 11
538.7370958763
 21
314.3907873039
 31
0.0
  0
LINE
  5
37D
330
1F
100
AcDbEntity
  8
0
  6
Continuous
 62
     8
370
    18
100
AcDbLine
 10
523.2788584965
 20
314.9633271698
 30
0.0
 11
523.2788584965
 21
314.3907873039
 31
0.0
  0
INSERT
  5
384
330
1F
100
AcDbEntity
  8
0
  6
Continuous
 62
     7
370
     0
100
AcDbBlockReference
  2
SW_NOTE_8
 10
634.7788586252
 20
472.9164500021
 30
0.0
  0
LEADER
  5
385
330
1F
100
AcDbEntity
  8
0
  6
Continuous
 62
     7
370
     0
100
AcDbLeader
  3
SLDDIMSTYLE0
 76
     2
 10
537.4587082801
 20
416.6021421892
 30
0.0
 10
634.7788586252
 20
472.9164500021
 30
0.0
  0
LINE
  5
386
330
1F
100
AcDbEntity
  8
0
100
AcDbLine
 10
483.1093090435
 20
303.3907873635
 30
0.0
 11
483.1093090435
 21
309.3907846216
 31
0.0
  0
ARC
  5
387
330
1F
100
AcDbEntity
  8
0
100
AcDbCircle
 10
480.1093082836
 20
309.890784572
 30
0.0
 40
0.4999999999999432
100
AcDbArc
 50
180.0
 51
270.0
  0
ARC
  5
388
330
1F
100
AcDbEntity
  8
0
100
AcDbCircle
 10
454.1093082836
 20
309.890784572
 30
0.0
 40
0.5
100
AcDbArc
 50
270.0
 51
0.0
  0
LINE
  5
389
330
1F
100
AcDbEntity
  8
0
100
AcDbLine
 10
454.6093080973
 20
313.3907852773
 30
0.0
 11
454.6093080973
 21
309.8907856349
 31
0.0
  0
LINE
  5
38A
330
1F
100
AcDbEntity
  8
0
100
AcDbLine
 10
479.6093084698
 20
309.8907856349
 30
0.0
 11
479.6093084698
 21
313.3907852773
 31
0.0
  0
LINE
  5
38B
330
1F
100
AcDbEntity
  8
0
100
AcDbLine
 10
479.6093084698
 20
313.3907852773
 30
0.0
 11
479.0319583228
 21
314.3907873039
 31
0.0
  0
LINE
  5
38C
330
1F
100
AcDbEntity
  8
0
100
AcDbLine
 10
455.1866582444
 20
314.3907873039
 30
0.0
 11
454.6093080973
 21
313.3907852773
 31
0.0
  0
LINE
  5
38D
330
1F
100
AcDbEntity
  8
0
100
AcDbLine
 10
479.5093086397
 20
393.9633233551
 30
0.0
 11
479.5093086397
 21
396.4633246962
 31
0.0
  0
LINE
  5
38E
330
1F
100
AcDbEntity
  8
0
100
AcDbLine
 10
454.7093079274
 20
396.4633246962
 30
0.0
 11
454.7093079274
 21
393.9633233551
 31
0.0
  0
LINE
  5
38F
330
1F
100
AcDbEntity
  8
0
100
AcDbLine
 10
479.4593087247
 20
314.9633271698
 30
0.0
 11
479.4593087247
 21
321.6633213763
 31
0.0
  0
LINE
  5
390
330
1F
100
AcDbEntity
  8
0
100
AcDbLine
 10
454.7593078425
 20
321.6633213763
 30
0.0
 11
454.7593078425
 21
314.9633271698
 31
0.0
  0
LINE
  5
391
330
1F
100
AcDbEntity
  8
0
100
AcDbLine
 10
479.4593087247
 20
321.6633213763
 30
0.0
 11
478.9593086427
 21
322.1633223895
 31
0.0
  0
LINE
  5
392
330
1F
100
AcDbEntity
  8
0
100
AcDbLine
 10
455.2593079245
 20
322.1633223895
 30
0.0
 11
454.7593078425
 21
321.6633213763
 31
0.0
  0
LINE
  5
393
330
1F
100
AcDbEntity
  8
0
100
AcDbLine
 10
478.6093083059
 20
322.1633223895
 30
0.0
 11
478.6093083059
 21
322.4633274678
 31
0.0
  0
LINE
  5
394
330
1F
100
AcDbEntity
  8
0
100
AcDbLine
 10
455.6093082612
 20
322.4633274678
 30
0.0
 11
455.6093082612
 21
322.1633223895
 31
0.0
  0
LINE
  5
395
330
1F
100
AcDbEntity
  8
0
100
AcDbLine
 10
454.6093080973
 20
509.3500254754
 30
0.0
 11
454.6093080973
 21
507.4633224015
 31
0.0
  0
LINE
  5
396
330
1F
100
AcDbEntity
  8
0
100
AcDbLine
 10
479.6093084698
 20
507.4633224015
 30
0.0
 11
479.6093084698
 21
509.3500254754
 31
0.0
  0
ARC
  5
397
330
1F
100
AcDbEntity
  8
0
100
AcDbCircle
 10
467.1093082836
 20
477.5520548963
 30
0.0
 40
34.1666666666668
100
AcDbArc
 50
95.6459490965
 51
111.4601277494
  0
ARC
  5
398
330
1F
100
AcDbEntity
  8
0
100
AcDbCircle
 10
467.1093082836
 20
477.5520548963
 30
0.0
 40
34.1666666666668
100
AcDbArc
 50
68.53987225059998
 51
84.35405090349998
  0
LINE
  5
399
330
1F
100
AcDbEntity
  8
0
100
AcDbLine
 10
479.6093084698
 20
322.4633274678
 30
0.0
 11
479.6093084698
 21
393.9633233551
 31
0.0
  0
LINE
  5
39A
330
1F
100
AcDbEntity
  8
0
100
AcDbLine
 10
454.6093080973
 20
393.9633233551
 30
0.0
 11
454.6093080973
 21
322.4633274678
 31
0.0
  0
LINE
  5
39B
330
1F
100
AcDbEntity
  8
0
100
AcDbLine
 10
467.1093082836
 20
303.3907873635
 30
0.0
 11
483.1093090435
 21
303.3907873635
 31
0.0
  0
LINE
  5
39C
330
1F
100
AcDbEntity
  8
0
100
AcDbLine
 10
467.1093082836
 20
309.3907846216
 30
0.0
 11
483.1093090435
 21
309.3907846216
 31
0.0
  0
LINE
  5
39D
330
1F
100
AcDbEntity
  8
0
100
AcDbLine
 10
447.1093087306
 20
303.3907873635
 30
0.0
 11
467.1093082836
 21
303.3907873635
 31
0.0
  0
LINE
  5
39E
330
1F
100
AcDbEntity
  8
0
100
AcDbLine
 10
447.1093087306
 20
309.3907846216
 30
0.0
 11
467.1093082836
 21
309.3907846216
 31
0.0
  0
LINE
  5
39F
330
1F
100
AcDbEntity
  8
0
100
AcDbLine
 10
446.1093085667
 20
303.3907873635
 30
0.0
 11
446.1093085667
 21
309.3907846216
 31
0.0
  0
LINE
  5
3A0
330
1F
100
AcDbEntity
  8
0
100
AcDbLine
 10
447.1093087306
 20
303.3907873635
 30
0.0
 11
446.1093085667
 21
303.3907873635
 31
0.0
  0
LINE
  5
3A1
330
1F
100
AcDbEntity
  8
0
100
AcDbLine
 10
446.1093085667
 20
309.3907846216
 30
0.0
 11
447.1093087306
 21
309.3907846216
 31
0.0
  0
LINE
  5
3A2
330
1F
100
AcDbEntity
  8
0
100
AcDbLine
 10
479.6093084698
 20
313.3907852773
 30
0.0
 11
454.6093080973
 21
313.3907852773
 31
0.0
  0
LINE
  5
3A3
330
1F
100
AcDbEntity
  8
0
100
AcDbLine
 10
455.1866582444
 20
314.3907873039
 30
0.0
 11
479.0319583228
 21
314.3907873039
 31
0.0
  0
LINE
  5
3A4
330
1F
100
AcDbEntity
  8
0
100
AcDbLine
 10
454.6093080973
 20
507.4633224015
 30
0.0
 11
454.6093080973
 21
396.4633246962
 31
0.0
  0
LINE
  5
3A5
330
1F
100
AcDbEntity
  8
0
100
AcDbLine
 10
454.6093080973
 20
507.4633224015
 30
0.0
 11
479.6093084698
 21
507.4633224015
 31
0.0
  0
CIRCLE
  5
3A6
330
1F
100
AcDbEntity
  8
0
100
AcDbCircle
 10
475.6093082836
 20
421.463323799
 30
0.0
 40
3.75
  0
CIRCLE
  5
3A7
330
1F
100
AcDbEntity
  8
0
100
AcDbCircle
 10
459.1093082836
 20
421.463323799
 30
0.0
 40
3.349999999999966
  0
LINE
  5
3A8
330
1F
100
AcDbEntity
  8
0
100
AcDbLine
 10
479.6093084698
 20
507.4633224015
 30
0.0
 11
479.6093084698
 21
396.4633246962
 31
0.0
  0
LINE
  5
3A9
330
1F
100
AcDbEntity
  8
0
100
AcDbLine
 10
479.6093084698
 20
396.4633246962
 30
0.0
 11
454.6093080973
 21
396.4633246962
 31
0.0
  0
CIRCLE
  5
3AA
330
1F
100
AcDbEntity
  8
0
100
AcDbCircle
 10
475.6093082836
 20
421.463323799
 30
0.0
 40
2.75
  0
CIRCLE
  5
3AB
330
1F
100
AcDbEntity
  8
0
100
AcDbCircle
 10
459.1093082836
 20
421.463323799
 30
0.0
 40
3.049999999999955
  0
LINE
  5
3AC
330
1F
100
AcDbEntity
  8
0
100
AcDbLine
 10
479.249679189
 20
393.9633233551
 30
0.0
 11
479.249679189
 21
396.4633246962
 31
0.0
  0
LINE
  5
3AD
330
1F
100
AcDbEntity
  8
0
100
AcDbLine
 10
479.0136410704
 20
396.4633246962
 30
0.0
 11
479.0136410704
 21
393.9633233551
 31
0.0
  0
LINE
  5
3AE
330
1F
100
AcDbEntity
  8
0
100
AcDbLine
 10
464.7657942807
 20
319.9878124599
 30
0.0
 11
464.6898905596
 21
319.7382031087
 31
0.0
  0
SPLINE
  5
3AF
330
1F
100
AcDbEntity
  8
0
100
AcDbSpline
210
0.0
220
0.0
230
1.0
 70
     8
 71
     3
 72
     9
 73
     5
 74
     0
 42
0.000000001
 43
0.00000001
 40
0.0
 40
0.0
 40
0.0
 40
0.0
 40
0.3681185757664683
 40
1.0
 40
1.0
 40
1.0
 40
1.0
 10
464.7101642878607
 20
317.2217769626859
 30
0.0
 10
464.7281846382647
 20
317.1500936480601
 30
0.0
 10
464.7771372084156
 20
316.9553647771348
 30
0.0
 10
464.8970938654878
 20
316.8073433003295
 30
0.0
 10
464.9728922488049
 20
316.7138112787488
 30
0.0
  0
LINE
  5
3B0
330
1F
100
AcDbEntity
  8
0
100
AcDbLine
 10
469.3229025544
 20
321.6633213763
 30
0.0
 11
469.3229025544
 21
320.1450420622
 31
0.0
  0
LINE
  5
3B1
330
1F
100
AcDbEntity
  8
0
100
AcDbLine
 10
464.8957140127
 20
321.6633213763
 30
0.0
 11
454.7593078425
 21
321.6633213763
 31
0.0
  0
LINE
  5
3B2
330
1F
100
AcDbEntity
  8
0
100
AcDbLine
 10
479.4593087247
 20
321.6633213763
 30
0.0
 11
469.3229025544
 21
321.6633213763
 31
0.0
  0
LINE
  5
3B3
330
1F
100
AcDbEntity
  8
0
100
AcDbLine
 10
464.8957140127
 20
320.1450420622
 30
0.0
 11
464.8957140127
 21
321.6633213763
 31
0.0
  0
SPLINE
  5
3B4
330
1F
100
AcDbEntity
  8
0
100
AcDbSpline
210
0.0
220
0.0
230
1.0
 70
     8
 71
     3
 72
    11
 73
     7
 74
     0
 42
0.000000001
 43
0.00000001
 40
0.0
 40
0.0
 40
0.0
 40
0.0
 40
0.2630182265142789
 40
0.5262147775034381
 40
0.7854155516880738
 40
0.9999999999999999
 40
0.9999999999999999
 40
0.9999999999999999
 40
0.9999999999999999
 10
464.8957140127078
 20
320.1450420622113
 30
0.0
 10
464.7379862850369
 20
319.8813109049674
 30
0.0
 10
464.4224238914248
 20
319.3536697826431
 30
0.0
 10
464.3148601966799
 20
318.4234715421253
 30
0.0
 10
464.4726492441077
 20
317.5622068465725
 30
0.0
 10
464.7638326649086
 20
317.0937685497027
 30
0.0
 10
464.8957140127078
 20
316.8816058043721
 30
0.0
  0
LINE
  5
3B5
330
1F
100
AcDbEntity
  8
0
100
AcDbLine
 10
464.8957140127
 20
314.9633271698
 30
0.0
 11
464.8957140127
 21
316.8816058044
 31
0.0
  0
LINE
  5
3B6
330
1F
100
AcDbEntity
  8
0
100
AcDbLine
 10
464.8957140127
 20
314.9633271698
 30
0.0
 11
454.7593078425
 21
314.9633271698
 31
0.0
  0
LINE
  5
3B7
330
1F
100
AcDbEntity
  8
0
100
AcDbLine
 10
479.4593087247
 20
314.9633271698
 30
0.0
 11
469.3229025544
 21
314.9633271698
 31
0.0
  0
LINE
  5
3B8
330
1F
100
AcDbEntity
  8
0
100
AcDbLine
 10
469.3229025544
 20
316.8816058044
 30
0.0
 11
469.3229025544
 21
314.9633271698
 31
0.0
  0
SPLINE
  5
3B9
330
1F
100
AcDbEntity
  8
0
100
AcDbSpline
210
0.0
220
0.0
230
1.0
 70
     8
 71
     3
 72
    11
 73
     7
 74
     0
 42
0.000000001
 43
0.00000001
 40
0.0
 40
0.0
 40
0.0
 40
0.0
 40
0.2630182265142789
 40
0.5262147775034381
 40
0.7854155516880738
 40
0.9999999999999999
 40
0.9999999999999999
 40
0.9999999999999999
 40
0.9999999999999999
 10
469.322902554448
 20
316.8816058043721
 30
0.0
 10
469.4806302821189
 20
317.1453369616158
 30
0.0
 10
469.7961926757309
 20
317.6729780839402
 30
0.0
 10
469.9037563704759
 20
318.603176324458
 30
0.0
 10
469.7459673230481
 20
319.4644410200109
 30
0.0
 10
469.4547839022471
 20
319.9328793168806
 30
0.0
 10
469.322902554448
 20
320.1450420622113
 30
0.0
  0
LINE
  5
3BA
330
1F
100
AcDbEntity
  8
0
100
AcDbLine
 10
478.9593086427
 20
322.1633223895
 30
0.0
 11
455.2593079245
 21
322.1633223895
 31
0.0
  0
SPLINE
  5
3BB
330
1F
100
AcDbEntity
  8
0
100
AcDbSpline
210
0.0
220
0.0
230
1.0
 70
     8
 71
     3
 72
     9
 73
     5
 74
     0
 42
0.000000001
 43
0.00000001
 40
0.0
 40
0.0
 40
0.0
 40
0.0
 40
0.6569318404642612
 40
0.9999999999999999
 40
0.9999999999999999
 40
0.9999999999999999
 40
0.9999999999999999
 10
464.8957140127078
 20
321.6633213762524
 30
0.0
 10
465.8684903901299
 20
321.7806791232276
 30
0.0
 10
467.349277767911
 20
321.9593243642501
 30
0.0
 10
468.818767437906
 20
321.7389312398237
 30
0.0
 10
469.322902554448
 20
321.6633213762524
 30
0.0
  0
LINE
  5
3BC
330
1F
100
AcDbEntity
  8
0
100
AcDbLine
 10
469.3229025544
 20
314.9633271698
 30
0.0
 11
464.8957140127
 21
314.9633271698
 31
0.0
  0
ARC
  5
3BD
330
1F
100
AcDbEntity
  8
0
100
AcDbCircle
 10
467.1093082836
 20
318.513323799
 30
0.0
 40
2.750000000000015
100
AcDbArc
 50
216.3952100685
 51
323.6047899315001
  0
ARC
  5
3BE
330
1F
100
AcDbEntity
  8
0
100
AcDbCircle
 10
467.1093082836
 20
318.513323799
 30
0.0
 40
2.749999999999981
100
AcDbArc
 50
36.3952100685
 51
143.6047899315
  0
LWPOLYLINE
  5
3BF
330
1F
100
AcDbEntity
  8
0
100
AcDbPolyline
 90
        3
 70
   128
 43
0.0
 10
466.5894316824
 20
316.0679726009
 10
466.0707708064
 20
316.2392465476
 10
465.7844256692
 20
316.3932574991
  0
LWPOLYLINE
  5
3C0
330
1F
100
AcDbEntity
  8
0
100
AcDbPolyline
 90
        4
 70
   128
 43
0.0
 10
475.8593083208
 20
314.9633271698
 10
475.8503368905
 20
314.8607773785
 10
475.8234728908
 20
314.5537240509
 10
475.8092171362
 20
314.3907873039
  0
LWPOLYLINE
  5
3C1
330
1F
100
AcDbEntity
  8
0
100
AcDbPolyline
 90
        4
 70
   128
 43
0.0
 10
458.3593082463
 20
314.9633271698
 10
458.3682796767
 20
314.8607773785
 10
458.3951436764
 20
314.5537240509
 10
458.409399431
 20
314.3907873039
  0
LINE
  5
3C2
330
1F
100
AcDbEntity
  8
0
100
AcDbLine
 10
459.7728011979
 20
423.3500612047
 30
0.0
 11
459.5317548921
 21
423.4181995582
 31
0.0
  0
LINE
  5
3C3
330
1F
100
AcDbEntity
  8
0
100
AcDbLine
 10
457.222571302
 20
422.1268165004
 30
0.0
 11
457.1544329485
 21
421.8857701946
 31
0.0
  0
LINE
  5
3C4
330
1F
100
AcDbEntity
  8
0
100
AcDbLine
 10
458.445815075
 20
419.5765866045
 30
0.0
 11
458.6868618464
 21
419.508448251
 31
0.0
  0
LWPOLYLINE
  5
3C5
330
1F
100
AcDbEntity
  8
0
100
AcDbPolyline
 90
        3
 70
   128
 43
0.0
 10
460.9960454365
 20
420.7998313088
 10
461.0399498453
 20
420.9411902432
 10
461.06418379
 20
421.0408771489
  0
CIRCLE
  5
3C6
330
1F
100
AcDbEntity
  8
0
100
AcDbCircle
 10
459.1093082836
 20
421.463323799
 30
0.0
 40
2.900000000000061
  0
CIRCLE
  5
3C7
330
1F
100
AcDbEntity
  8
0
100
AcDbCircle
 10
459.1093082836
 20
421.463323799
 30
0.0
 40
3.000000000000068
  0
LINE
  5
3C8
330
1F
100
AcDbEntity
  8
0
100
AcDbLine
 10
459.6863474546
 20
423.5046533015
 30
0.0
 11
460.2278845234
 21
422.5363041353
 31
0.0
  0
LINE
  5
3C9
330
1F
100
AcDbEntity
  8
0
100
AcDbLine
 10
459.6863474546
 20
423.5046533015
 30
0.0
 11
458.7179978227
 21
422.9631157671
 31
0.0
  0
ARC
  5
3CA
330
1F
100
AcDbEntity
  8
0
100
AcDbCircle
 10
459.1093082836
 20
421.463323799
 30
0.0
 40
1.550000000000008
100
AcDbArc
 50
104.6230157402
 51
133.8081169443
  0
LINE
  5
3CB
330
1F
100
AcDbEntity
  8
0
100
AcDbLine
 10
457.0679792052
 20
422.0403627571
 30
0.0
 11
458.0363274401
 21
422.5819002916
 31
0.0
  0
LINE
  5
3CC
330
1F
100
AcDbEntity
  8
0
100
AcDbLine
 10
457.0679792052
 20
422.0403627571
 30
0.0
 11
457.609516274
 21
421.0720140566
 31
0.0
  0
ARC
  5
3CD
330
1F
100
AcDbEntity
  8
0
100
AcDbCircle
 10
459.1093082836
 20
421.463323799
 30
0.0
 40
1.549999999999989
100
AcDbArc
 50
194.6230157402
 51
223.8081169443
  0
LINE
  5
3CE
330
1F
100
AcDbEntity
  8
0
100
AcDbLine
 10
458.5322688183
 20
419.4219945077
 30
0.0
 11
457.9907317495
 21
420.3903436739
 31
0.0
  0
LINE
  5
3CF
330
1F
100
AcDbEntity
  8
0
100
AcDbLine
 10
458.5322688183
 20
419.4219945077
 30
0.0
 11
459.5006184501
 21
419.9635315765
 31
0.0
  0
ARC
  5
3D0
330
1F
100
AcDbEntity
  8
0
100
AcDbCircle
 10
459.1093082836
 20
421.463323799
 30
0.0
 40
1.550000000000078
100
AcDbArc
 50
284.6230157402
 51
313.8081169443
  0
LINE
  5
3D1
330
1F
100
AcDbEntity
  8
0
100
AcDbLine
 10
461.1506375333
 20
420.8862850521
 30
0.0
 11
460.1822888328
 21
420.344747052
 31
0.0
  0
LINE
  5
3D2
330
1F
100
AcDbEntity
  8
0
100
AcDbLine
 10
461.1506375333
 20
420.8862850521
 30
0.0
 11
460.6091004645
 21
421.8546342183
 31
0.0
  0
ARC
  5
3D3
330
1F
100
AcDbEntity
  8
0
100
AcDbCircle
 10
459.1093082836
 20
421.463323799
 30
0.0
 40
1.550000000000008
100
AcDbArc
 50
14.6230157402
 51
43.8081169443
  0
ARC
  5
3D4
330
1F
100
AcDbEntity
  8
0
100
AcDbCircle
 10
459.1093082836
 20
421.463323799
 30
0.0
 40
1.549999999999989
100
AcDbArc
 50
133.8081169443
 51
194.6230157402
  0
ARC
  5
3D5
330
1F
100
AcDbEntity
  8
0
100
AcDbCircle
 10
459.1093082836
 20
421.463323799
 30
0.0
 40
1.550000000000008
100
AcDbArc
 50
43.8081169443
 51
104.6230157402
  0
ARC
  5
3D6
330
1F
100
AcDbEntity
  8
0
100
AcDbCircle
 10
459.1093082836
 20
421.463323799
 30
0.0
 40
1.55000000000007
100
AcDbArc
 50
313.8081169443
 51
14.6230157402
  0
ARC
  5
3D7
330
1F
100
AcDbEntity
  8
0
100
AcDbCircle
 10
459.1093082836
 20
421.463323799
 30
0.0
 40
1.550000000000078
100
AcDbArc
 50
223.8081169443
 51
284.6230157402
  0
LINE
  5
3D8
330
1F
100
AcDbEntity
  8
0
100
AcDbLine
 10
465.7844256692
 20
316.3932574991
 30
0.0
 11
465.9169139888
 21
316.60526377
 31
0.0
  0
ARC
  5
3D9
330
1F
100
AcDbEntity
  8
0
100
AcDbCircle
 10
467.1093082836
 20
318.513323799
 30
0.0
 40
2.500000000000024
100
AcDbArc
 50
257.9977190219
 51
237.9977190219
  0
LINE
  5
3DA
330
1F
100
AcDbEntity
  8
0
100
AcDbLine
 10
466.5894316824
 20
316.0679726009
 30
0.0
 11
466.64141936
 21
316.3125081066
 31
0.0
  0
ARC
  5
3DB
330
1F
100
AcDbEntity
  8
0
100
AcDbCircle
 10
467.1093082836
 20
318.513323799
 30
0.0
 40
2.250000000000019
100
AcDbArc
 50
257.9977190219
 51
237.9977190219
  0
ARC
  5
3DC
330
1F
100
AcDbEntity
  8
0
100
AcDbCircle
 10
467.1093082836
 20
318.513323799
 30
0.0
 40
1.99999999999999
100
AcDbArc
 50
257.9977190219
 51
237.9977190219
  0
LINE
  5
3DD
330
1F
100
AcDbEntity
  8
0
100
AcDbLine
 10
465.9169139888
 20
316.60526377
 30
0.0
 11
466.049402192
 21
316.8172700409
 31
0.0
  0
LINE
  5
3DE
330
1F
100
AcDbEntity
  8
0
100
AcDbLine
 10
466.64141936
 20
316.3125081066
 30
0.0
 11
466.6934070085
 21
316.5570436124
 31
0.0
  0
LINE
  5
3DF
330
1F
100
AcDbEntity
  8
0
100
AcDbLine
 10
454.6093080973
 20
509.3500254754
 30
0.0
 11
479.6093084698
 21
509.3500254754
 31
0.0
  0
ARC
  5
3E0
330
1F
100
AcDbEntity
  8
0
100
AcDbCircle
 10
464.4322615683
 20
504.6358955457
 30
0.0
 40
6.950855504966288
100
AcDbArc
 50
89.3822469495
 51
96.4571242554
  0
ARC
  5
3E1
330
1F
100
AcDbEntity
  8
0
100
AcDbCircle
 10
464.5986966172
 20
501.3700184086
 30
0.0
 40
10.21672723927225
100
AcDbArc
 50
84.67521332010001
 51
95.32478667989999
  0
ARC
  5
3E2
330
1F
100
AcDbEntity
  8
0
100
AcDbCircle
 10
467.2761914519
 20
477.6562799862
 30
0.0
 40
33.93047675653121
100
AcDbArc
 50
87.07848232540002
 51
92.9215176746
  0
ARC
  5
3E3
330
1F
100
AcDbEntity
  8
0
100
AcDbCircle
 10
469.7867410014
 20
504.6431510908
 30
0.0
 40
6.943588612779905
100
AcDbArc
 50
84.3474097631
 51
96.4596736463
  0
ARC
  5
3E4
330
1F
100
AcDbEntity
  8
0
100
AcDbCircle
 10
469.6201928613
 20
501.3673458692
 30
0.0
 40
10.21940831076441
100
AcDbArc
 50
89.48855849100002
 51
94.6597568759
  0
ARC
  5
3E5
330
1F
100
AcDbEntity
  8
0
100
AcDbCircle
 10
466.9424024972
 20
477.6535249351
 30
0.0
 40
33.93323258704761
100
AcDbArc
 50
89.71818085049999
 51
92.55682698619998
  0
LINE
  5
3E6
330
1F
100
AcDbEntity
  8
0
100
AcDbLine
 10
479.6093084698
 20
393.9633233551
 30
0.0
 11
454.6093080973
 21
393.9633233551
 31
0.0
  0
LINE
  5
3E7
330
1F
100
AcDbEntity
  8
0
100
AcDbLine
 10
479.6093084698
 20
322.4633274678
 30
0.0
 11
454.6093080973
 21
322.4633274678
 31
0.0
  0
CIRCLE
  5
3E8
330
1F
100
AcDbEntity
  8
0
100
AcDbCircle
 10
475.6093082836
 20
421.4633237991
 30
0.0
 40
2.425000000000011
  0
CIRCLE
  5
3E9
330
1F
100
AcDbEntity
  8
0
100
AcDbCircle
 10
475.6093082836
 20
421.4633237991
 30
0.0
 40
2.674999999999955
  0
LINE
  5
3EA
330
1F
100
AcDbEntity
  8
0
100
AcDbLine
 10
474.359308075
 20
422.1850115884
 30
0.0
 11
474.359308075
 21
420.7416357551
 31
0.0
  0
LINE
  5
3EB
330
1F
100
AcDbEntity
  8
0
100
AcDbLine
 10
474.359308075
 20
420.7416357551
 30
0.0
 11
475.6093087455
 21
420.0199483041
 31
0.0
  0
LINE
  5
3EC
330
1F
100
AcDbEntity
  8
0
100
AcDbLine
 10
475.6093087455
 20
420.0199483041
 30
0.0
 11
476.8593084847
 21
420.7416357551
 31
0.0
  0
LINE
  5
3ED
330
1F
100
AcDbEntity
  8
0
100
AcDbLine
 10
476.8593084847
 20
420.7416357551
 30
0.0
 11
476.8593084847
 21
422.1850115884
 31
0.0
  0
LINE
  5
3EE
330
1F
100
AcDbEntity
  8
0
100
AcDbLine
 10
476.8593084847
 20
422.1850115884
 30
0.0
 11
475.6093087455
 21
422.9066995051
 31
0.0
  0
LINE
  5
3EF
330
1F
100
AcDbEntity
  8
0
100
AcDbLine
 10
475.6093087455
 20
422.9066995051
 30
0.0
 11
474.359308075
 21
422.1850115884
 31
0.0
  0
ARC
  5
3F0
330
1F
100
AcDbEntity
  8
0
100
AcDbCircle
 10
475.6093082836
 20
421.4633237991
 30
0.0
 40
1.250000000000004
100
AcDbArc
 50
300.0
 51
0.0
  0
ARC
  5
3F1
330
1F
100
AcDbEntity
  8
0
100
AcDbCircle
 10
475.6093082836
 20
421.4633237991
 30
0.0
 40
1.250000000000004
100
AcDbArc
 50
0.0
 51
60.0
  0
ARC
  5
3F2
330
1F
100
AcDbEntity
  8
0
100
AcDbCircle
 10
475.6093082836
 20
421.4633237991
 30
0.0
 40
1.250000000000032
100
AcDbArc
 50
240.0
 51
300.0
  0
ARC
  5
3F3
330
1F
100
AcDbEntity
  8
0
100
AcDbCircle
 10
475.6093082836
 20
421.4633237991
 30
0.0
 40
1.250000000000032
100
AcDbArc
 50
60.0
 51
120.0
  0
ARC
  5
3F4
330
1F
100
AcDbEntity
  8
0
100
AcDbCircle
 10
475.6093082836
 20
421.4633237991
 30
0.0
 40
1.250000000000032
100
AcDbArc
 50
180.0
 51
240.0
  0
ARC
  5
3F5
330
1F
100
AcDbEntity
  8
0
100
AcDbCircle
 10
475.6093082836
 20
421.4633237991
 30
0.0
 40
1.250000000000032
100
AcDbArc
 50
120.0
 51
180.0
  0
LINE
  5
3F6
330
1F
100
AcDbEntity
  8
0
  6
Continuous
 62
     8
370
    18
100
AcDbLine
 10
467.1093082836
 20
309.3907846216
 30
0.0
 11
467.1093082836
 21
303.3907873635
 31
0.0
  0
LINE
  5
3F7
330
1F
100
AcDbEntity
  8
0
  6
Continuous
 62
     8
370
    18
100
AcDbLine
 10
447.1093087306
 20
309.3907846216
 30
0.0
 11
447.1093087306
 21
303.3907873635
 31
0.0
  0
LINE
  5
3F8
330
1F
100
AcDbEntity
  8
0
  6
Continuous
 62
     8
370
    18
100
AcDbLine
 10
454.6093080973
 20
309.8907856349
 30
0.0
 11
479.6093084698
 21
309.8907856349
 31
0.0
  0
LINE
  5
3F9
330
1F
100
AcDbEntity
  8
0
  6
Continuous
 62
     8
370
    18
100
AcDbLine
 10
459.2823848909
 20
314.9633271698
 30
0.0
 11
459.2823848909
 21
314.3907873039
 31
0.0
  0
LINE
  5
3FA
330
1F
100
AcDbEntity
  8
0
  6
Continuous
 62
     8
370
    18
100
AcDbLine
 10
474.9362316763
 20
314.9633271698
 30
0.0
 11
474.9362316763
 21
314.3907873039
 31
0.0
  0
INSERT
  5
402
330
1F
100
AcDbEntity
  8
0
  6
Continuous
 62
     7
370
     0
100
AcDbBlockReference
  2
SW_NOTE_9
 10
436.5179393266
 20
490.0491247024
 30
0.0
  0
LEADER
  5
403
330
1F
100
AcDbEntity
  8
0
  6
Continuous
 62
     7
370
     0
100
AcDbLeader
  3
SLDDIMSTYLE0
 76
     2
 10
477.3050620787
 20
424.8080089959
 30
0.0
 10
436.5179393266
 20
490.0491247024
 30
0.0
  0
MTEXT
  5
404
330
1F
100
AcDbEntity
  8
0
  6
Continuous
 62
     7
370
     0
100
AcDbMText
 10
491.0882153618
 20
559.454545418
 30
0.0
 40
9.525
 41
0.0
 71
     1
 72
     1
  1
845E10R
  7
SLDTEXTSTYLE0
 73
     1
 44
1.0
  0
ARC
  5
598
330
1F
100
AcDbEntity
  8
0
  6
Continuous
 62
     7
370
    25
100
AcDbCircle
 10
163.8933481997
 20
247.3840292402
 30
0.0
 40
17.0
100
AcDbArc
 50
227.3320754318363
 51
312.6679245681638
  0
ARC
  5
599
330
1F
100
AcDbEntity
  8
0
  6
Continuous
 62
     7
370
    25
100
AcDbCircle
 10
163.8933481997
 20
235.8840292402
 30
0.0
 40
5.000000000000062
100
AcDbArc
 50
191.5369612105085
 51
348.4630387894915
  0
ARC
  5
59A
330
1F
100
AcDbEntity
  8
0
  6
Continuous
 62
     7
370
    25
100
AcDbCircle
 10
163.8933481997
 20
247.3840292402
 30
0.0
 40
17.5
100
AcDbArc
 50
225.5846922738843
 51
314.4153077261157
  0
ARC
  5
59C
330
1F
100
AcDbEntity
  8
0
  6
Continuous
 62
     7
370
    25
100
AcDbCircle
 10
163.8933481997
 20
235.8840292402
 30
0.0
 40
2.650000000000006
100
AcDbArc
 50
202.1701615107833
 51
337.8298384892167
  0
ARC
  5
59D
330
1F
100
AcDbEntity
  8
0
  6
Continuous
 62
     7
370
    25
100
AcDbCircle
 10
163.8933481997
 20
247.3840292402
 30
0.0
 40
17.5
100
AcDbArc
 50
315.5846922743522
 51
44.41530772564775
  0
ARC
  5
59E
330
1F
100
AcDbEntity
  8
0
  6
Continuous
 62
     7
370
    25
100
AcDbCircle
 10
163.8933481997
 20
247.3840292402
 30
0.0
 40
17.0
100
AcDbArc
 50
317.3320754323337
 51
42.66792456766629
  0
ARC
  5
59F
330
1F
100
AcDbEntity
  8
0
  6
Continuous
 62
     7
370
    25
100
AcDbCircle
 10
163.8933481997
 20
247.3840292402
 30
0.0
 40
17.5
100
AcDbArc
 50
45.58469227435204
 51
134.415307725648
  0
ARC
  5
5A0
330
1F
100
AcDbEntity
  8
0
  6
Continuous
 62
     7
370
    25
100
AcDbCircle
 10
163.8933481997
 20
247.3840292402
 30
0.0
 40
17.0
100
AcDbArc
 50
47.3320754323335
 51
132.6679245676665
  0
ARC
  5
5A1
330
1F
100
AcDbEntity
  8
0
  6
Continuous
 62
     7
370
    25
100
AcDbCircle
 10
163.8933481997
 20
247.3840292402
 30
0.0
 40
17.0
100
AcDbArc
 50
137.3320754323337
 51
222.6679245676664
  0
ARC
  5
5A2
330
1F
100
AcDbEntity
  8
0
  6
Continuous
 62
     7
370
    25
100
AcDbCircle
 10
163.8933481997
 20
247.3840292402
 30
0.0
 40
17.5
100
AcDbArc
 50
135.5846922743522
 51
224.4153077256478
  0
CIRCLE
  5
5A4
330
1F
100
AcDbEntity
  8
0
  6
Continuous
 62
     7
370
    25
100
AcDbCircle
 10
163.8933481997
 20
561.9351925496
 30
0.0
 40
17.5
  0
CIRCLE
  5
5A5
330
1F
100
AcDbEntity
  8
0
  6
Continuous
 62
     7
370
    25
100
AcDbCircle
 10
163.8933481997
 20
573.4351925496
 30
0.0
 40
2.650000000000006
  0
CIRCLE
  5
5A6
330
1F
100
AcDbEntity
  8
0
  6
Continuous
 62
     7
370
    25
100
AcDbCircle
 10
163.8933481997
 20
555.9351925496
 30
0.0
 40
2.650000000000034
  0
CIRCLE
  5
5AB
330
1F
100
AcDbEntity
  8
0
  6
Continuous
 62
     7
370
    25
100
AcDbCircle
 10
598.6726193169
 20
566.2865265035
 30
0.0
 40
17.5
  0
CIRCLE
  5
5AC
330
1F
100
AcDbEntity
  8
0
  6
Continuous
 62
     7
370
    25
100
AcDbCircle
 10
598.6726193169
 20
577.7865265035
 30
0.0
 40
2.650000000000006
  0
CIRCLE
  5
5AD
330
1F
100
AcDbEntity
  8
0
  6
Continuous
 62
     7
370
    25
100
AcDbCircle
 10
598.6726193169
 20
560.2865265035
 30
0.0
 40
2.650000000000034
  0
ARC
  5
5AF
330
1F
100
AcDbEntity
  8
0
100
AcDbCircle
 10
588.9726193168999
 20
230.2749424181
 30
0.0
 40
1.400000000000003
100
AcDbArc
 50
73.07632878009727
 51
16.92367121990138
  0
CIRCLE
  5
5B0
330
1F
100
AcDbEntity
  8
0
100
AcDbCircle
 10
588.9726193168999
 20
230.2749424181
 30
0.0
 40
1.190500000000002
  0
CIRCLE
  5
5B1
330
1F
100
AcDbEntity
  8
0
100
AcDbCircle
 10
598.6726193169
 20
239.9749424181
 30
0.0
 40
12.5
  0
LWPOLYLINE
  5
5B2
330
1F
100
AcDbEntity
  8
0
100
AcDbPolyline
 90
        9
 70
   128
 43
0.0
 10
595.7736147047999
 20
238.0786903772999
 10
596.1598586237
 20
237.8834904043999
 10
596.5462902042
 20
237.688195553
 10
596.9328473967
 20
237.4928373716
 10
597.3194669878
 20
237.2974475251999
 10
597.7060866954
 20
237.1020576789
 10
598.0926437132999
 20
236.9066994975
 10
598.4790754828999
 20
236.7114046460999
 10
598.8653194018
 20
236.5162047896
  0
LWPOLYLINE
  5
5B3
330
1F
100
AcDbEntity
  8
0
100
AcDbPolyline
 90
        9
 70
   128
 43
0.0
 10
598.8653194018
 20
236.5162047896
 10
599.2274894907
 20
236.7531018203999
 10
599.5898356724
 20
236.9901141024
 10
599.9522993753
 20
237.2272032185
 10
600.3148216933
 20
237.4643307517
 10
600.6773442442
 20
237.7014582849
 10
601.0398077724999
 20
237.9385474009999
 10
601.4021539541
 20
238.1755596831
 10
601.7643241157999
 20
238.4124567138999
  0
LWPOLYLINE
  5
5B4
330
1F
100
AcDbEntity
  8
0
100
AcDbPolyline
 90
        9
 70
   128
 43
0.0
 10
601.7643241157999
 20
238.4124567138999
 10
601.7402503586
 20
238.8445537176999
 10
601.716164727
 20
239.2768609093
 10
601.6920714119999
 20
239.7093082068
 10
601.6679741388999
 20
240.1418255863999
 10
601.6438768656999
 20
240.5743429659
 10
601.6197833179
 20
241.0067902052
 10
601.5956979191
 20
241.4390974551
 10
601.5716239290999
 20
241.8711944588
  0
LWPOLYLINE
  5
5B5
330
1F
100
AcDbEntity
  8
0
100
AcDbPolyline
 90
        9
 70
   128
 43
0.0
 10
601.5716239290999
 20
241.8711944588
 10
601.1853800102
 20
242.0663944317999
 10
600.7989484297
 20
242.2616892832
 10
600.4123912371999
 20
242.4570474646
 10
600.0257716461
 20
242.6524373109
 10
599.6391519384999
 20
242.8478271573
 10
599.2525949205999
 20
243.0431853386999
 10
598.8661631509999
 20
243.2384801900999
 10
598.4799192321
 20
243.4336800466
  0
LWPOLYLINE
  5
5B6
330
1F
100
AcDbEntity
  8
0
100
AcDbPolyline
 90
        9
 70
   128
 43
0.0
 10
598.4799192321
 20
243.4336800466
 10
598.1177491430999
 20
243.1967830158
 10
597.7554029615
 20
242.9597707338
 10
597.3929392586
 20
242.7226816176
 10
597.0304169405999
 20
242.4855540845
 10
596.6678943897
 20
242.2484265513
 10
596.3054308613999
 20
242.0113374351999
 10
595.9430846798
 20
241.7743251531
 10
595.5809145180999
 20
241.5374281223
  0
LWPOLYLINE
  5
5B7
330
1F
100
AcDbEntity
  8
0
100
AcDbPolyline
 90
        9
 70
   128
 43
0.0
 10
595.5809145180999
 20
241.5374281223
 10
595.6049882753
 20
241.1053311185
 10
595.6290739069
 20
240.6730239267999
 10
595.6531672218999
 20
240.2405766293
 10
595.6772644949999
 20
239.8080592498
 10
595.7013617682
 20
239.3755418702999
 10
595.725455316
 20
238.943094631
 10
595.7495407148
 20
238.5107873810999
 10
595.7736147047999
 20
238.0786903772999
  0
ARC
  5
5B8
330
1F
100
AcDbEntity
  8
0
100
AcDbCircle
 10
598.6726193169
 20
239.9749424181
 30
0.0
 40
3.000000000000022
100
AcDbArc
 50
303.1888797821991
 51
3.18887978220027
  0
ARC
  5
5B9
330
1F
100
AcDbEntity
  8
0
100
AcDbCircle
 10
598.6726193169
 20
239.9749424181
 30
0.0
 40
3.000000000000022
100
AcDbArc
 50
3.18887978220027
 51
63.18887978219984
  0
ARC
  5
5BA
330
1F
100
AcDbEntity
  8
0
100
AcDbCircle
 10
598.6726193169
 20
239.9749424181
 30
0.0
 40
2.999999999999998
100
AcDbArc
 50
123.1888797821991
 51
183.1888797822003
  0
ARC
  5
5BB
330
1F
100
AcDbEntity
  8
0
100
AcDbCircle
 10
598.6726193169
 20
239.9749424181
 30
0.0
 40
2.999999999999992
100
AcDbArc
 50
183.1888797822003
 51
243.1888797821998
  0
ARC
  5
5BC
330
1F
100
AcDbEntity
  8
0
100
AcDbCircle
 10
598.6726193169
 20
239.9749424181
 30
0.0
 40
2.999999999999998
100
AcDbArc
 50
243.1888797821998
 51
303.1888797821991
  0
ARC
  5
5BD
330
1F
100
AcDbEntity
  8
0
100
AcDbCircle
 10
598.6726193169
 20
239.9749424181
 30
0.0
 40
3.000000000000018
100
AcDbArc
 50
63.18887978219984
 51
123.1888797821991
  0
LINE
  5
5BE
330
1F
100
AcDbEntity
  8
0
100
AcDbLine
 10
586.1726191307
 20
252.4749426044
 30
0.0
 11
586.1726191307
 21
227.4749422318
 31
0.0
  0
LINE
  5
5BF
330
1F
100
AcDbEntity
  8
0
100
AcDbLine
 10
611.1726195031999
 20
252.4749426044
 30
0.0
 11
611.1726195031999
 21
227.4749422318
 31
0.0
  0
LINE
  5
5C0
330
1F
100
AcDbEntity
  8
0
100
AcDbLine
 10
611.1726195031999
 20
227.4749422318
 30
0.0
 11
586.1726191307
 21
227.4749422318
 31
0.0
  0
CIRCLE
  5
5C1
330
1F
100
AcDbEntity
  8
0
100
AcDbCircle
 10
588.9726193168999
 20
230.2749424181
 30
0.0
 40
1.0
  0
LINE
  5
5C2
330
1F
100
AcDbEntity
  8
0
100
AcDbLine
 10
611.1726195031999
 20
252.4749426044
 30
0.0
 11
586.1726191307
 21
252.4749426044
 31
0.0
  0
ARC
  5
5C3
330
1F
100
AcDbEntity
  8
0
  6
Continuous
 62
     8
370
    18
100
AcDbCircle
 10
598.6726193169
 20
239.9749424181
 30
0.0
 40
13.0
100
AcDbArc
 50
164.0576313944005
 51
195.9423686056001
  0
ARC
  5
5C4
330
1F
100
AcDbEntity
  8
0
  6
Continuous
 62
     8
370
    18
100
AcDbCircle
 10
598.6726193169
 20
239.9749424181
 30
0.0
 40
12.99999999999998
100
AcDbArc
 50
254.0576313943999
 51
285.9423686056001
  0
ARC
  5
5C5
330
1F
100
AcDbEntity
  8
0
  6
Continuous
 62
     8
370
    18
100
AcDbCircle
 10
598.6726193169
 20
239.9749424181
 30
0.0
 40
13.00000000000003
100
AcDbArc
 50
344.0576313943999
 51
15.94236860560004
  0
ARC
  5
5C6
330
1F
100
AcDbEntity
  8
0
  6
Continuous
 62
     8
370
    18
100
AcDbCircle
 10
598.6726193169
 20
239.9749424181
 30
0.0
 40
13.00000000000003
100
AcDbArc
 50
74.05763139439998
 51
105.9423686056001
  0
ARC
  5
5C7
330
1F
100
AcDbEntity
  8
0
  6
Continuous
 62
     7
370
    25
100
AcDbCircle
 10
598.6726193169
 20
239.9749424181
 30
0.0
 40
17.0
100
AcDbArc
 50
137.3320754318361
 51
222.6679245681639
  0
ARC
  5
5C8
330
1F
100
AcDbEntity
  8
0
  6
Continuous
 62
     7
370
    25
100
AcDbCircle
 10
598.6726193169
 20
239.9749424181
 30
0.0
 40
17.5
100
AcDbArc
 50
135.5846922738842
 51
224.4153077261158
  0
ARC
  5
5C9
330
1F
100
AcDbEntity
  8
0
  6
Continuous
 62
     7
370
    25
100
AcDbCircle
 10
598.6726193169
 20
239.9749424181
 30
0.0
 40
17.0
100
AcDbArc
 50
227.3320754323333
 51
312.6679245676663
  0
ARC
  5
5CA
330
1F
100
AcDbEntity
  8
0
  6
Continuous
 62
     7
370
    25
100
AcDbCircle
 10
598.6726193169
 20
239.9749424181
 30
0.0
 40
17.5
100
AcDbArc
 50
225.5846922743522
 51
314.4153077256478
  0
ARC
  5
5CB
330
1F
100
AcDbEntity
  8
0
  6
Continuous
 62
     7
370
    25
100
AcDbCircle
 10
598.6726193169
 20
239.9749424181
 30
0.0
 40
17.5
100
AcDbArc
 50
45.58469227435217
 51
134.4153077256478
  0
ARC
  5
5CC
330
1F
100
AcDbEntity
  8
0
  6
Continuous
 62
     7
370
    25
100
AcDbCircle
 10
598.6726193169
 20
239.9749424181
 30
0.0
 40
17.5
100
AcDbArc
 50
315.5846922743519
 51
44.41530772564784
  0
ARC
  5
5CD
330
1F
100
AcDbEntity
  8
0
  6
Continuous
 62
     7
370
    25
100
AcDbCircle
 10
598.6726193169
 20
239.9749424181
 30
0.0
 40
17.0
100
AcDbArc
 50
47.33207543233365
 51
132.6679245676664
  0
ARC
  5
5CE
330
1F
100
AcDbEntity
  8
0
  6
Continuous
 62
     7
370
    25
100
AcDbCircle
 10
598.6726193169
 20
239.9749424181
 30
0.0
 40
17.0
100
AcDbArc
 50
317.3320754323333
 51
42.66792456766635
  0
ARC
  5
5CF
330
1F
100
AcDbEntity
  8
0
  6
Continuous
 62
     7
370
    25
100
AcDbCircle
 10
587.1726193169
 20
239.9749424181
 30
0.0
 40
2.650000000000006
100
AcDbArc
 50
112.1701615107842
 51
247.8298384892181
  0
ARC
  5
5D0
330
1F
100
AcDbEntity
  8
0
  6
Continuous
 62
     7
370
    25
100
AcDbCircle
 10
587.1726193169
 20
239.9749424181
 30
0.0
 40
5.000000000000062
100
AcDbArc
 50
101.5369612105078
 51
258.4630387894922
  0
LEADER
  5
5D6
330
1F
100
AcDbEntity
  8
0
  6
Continuous
 62
     7
370
     0
100
AcDbLeader
  3
SLDDIMSTYLE0
 76
     2
 10
614.2175316035051
 20
233.3840292402
 30
0.0
 10
626.114715180705
 20
188.0915472784
 30
0.0
  0
LINE
  5
601
330
1F
100
AcDbEntity
  8
0
  6
Continuous
 62
     0
370
     0
100
AcDbLine
 10
326.5116236390844
 20
188.0915472784
 30
0.0
 11
181.4242791835844
 21
188.0915472784
 31
0.0
  0
MTEXT
  5
602
330
1F
100
AcDbEntity
  8
0
  6
Continuous
 62
     0
370
     0
100
AcDbMText
 10
181.9104496409844
 20
213.4931583076
 30
0.0
 40
9.2604166667
 41
0.0
 71
     1
 72
     1
  1
{BASE A TERRA }
  7
SLDTEXTSTYLE0
 73
     1
 44
1.0
1001
ACAD
1000
ACAD_MTEXT_DEFINED_HEIGHT_BEGIN
1070
    46
1040
9.2604166667
1000
ACAD_MTEXT_DEFINED_HEIGHT_END
  0
MTEXT
  5
603
330
1F
100
AcDbEntity
  8
0
  6
Continuous
 62
     0
370
     0
100
AcDbMText
 10
181.9104496409844
 20
200.1459358379
 30
0.0
 40
9.2604166667
 41
0.0
 71
     1
 72
     1
  1
{COD A845EE10}
  7
SLDTEXTSTYLE0
 73
     1
 44
1.0
1001
ACAD
1000
ACAD_MTEXT_DEFINED_HEIGHT_BEGIN
1070
    46
1040
9.2604166667
1000
ACAD_MTEXT_DEFINED_HEIGHT_END
  0
LINE
  5
604
330
1F
100
AcDbEntity
  8
0
  6
Continuous
 62
     0
370
     0
100
AcDbLine
 10
771.202059636205
 20
188.0915472784
 30
0.0
 11
626.114715180705
 21
188.0915472784
 31
0.0
  0
MTEXT
  5
605
330
1F
100
AcDbEntity
  8
0
  6
Continuous
 62
     0
370
     0
100
AcDbMText
 10
626.6008856381051
 20
213.4931583076
 30
0.0
 40
9.2604166667
 41
0.0
 71
     1
 72
     1
  1
{BASE A TERRA }
  7
SLDTEXTSTYLE0
 73
     1
 44
1.0
1001
ACAD
1000
ACAD_MTEXT_DEFINED_HEIGHT_BEGIN
1070
    46
1040
9.2604166667
1000
ACAD_MTEXT_DEFINED_HEIGHT_END
  0
MTEXT
  5
606
330
1F
100
AcDbEntity
  8
0
  6
Continuous
 62
     0
370
     0
100
AcDbMText
 10
626.6008856381051
 20
200.1459358379
 30
0.0
 40
9.2604166667
 41
0.0
 71
     1
 72
     1
  1
{COD A845EE10}
  7
SLDTEXTSTYLE0
 73
     1
 44
1.0
1001
ACAD
1000
ACAD_MTEXT_DEFINED_HEIGHT_BEGIN
1070
    46
1040
9.2604166667
1000
ACAD_MTEXT_DEFINED_HEIGHT_END
  0
ENDSEC
  0
SECTION
  2
OBJECTS
  0
DICTIONARY
  5
C
330
0
100
AcDbDictionary
281
     1
  3
ACAD_DETAILVIEWSTYLE
350
5DC
  3
ACAD_GROUP
350
D
  3
ACAD_IMAGE_VARS
350
428
  3
ACAD_LAYOUT
350
1A
  3
ACAD_MLINESTYLE
350
17
  3
ACAD_PLOTSETTINGS
350
19
  3
ACAD_PLOTSTYLENAME
350
E
  3
ACAD_SCALELIST
350
47
  3
ACAD_SECTIONVIEWSTYLE
350
5DD
  3
AcDbVariableDictionary
350
5D7
  3
APPDATA
350
426
  3
DWGPROPS
350
607
  0
DICTIONARY
  5
5DC
102
{ACAD_REACTORS
330
C
102
}
330
C
100
AcDbDictionary
281
     1
  0
DICTIONARY
  5
D
102
{ACAD_REACTORS
330
C
102
}
330
C
100
AcDbDictionary
281
     1
  0
RASTERVARIABLES
  5
428
102
{ACAD_REACTORS
330
C
102
}
330
C
100
AcDbRasterVariables
 90
        0
 70
     1
 71
     1
 72
     1
  0
DICTIONARY
  5
1A
102
{ACAD_REACTORS
330
C
102
}
330
C
100
AcDbDictionary
281
     1
  3
Layout1
350
1E
  3
Layout2
350
26
  3
Model
350
22
  0
DICTIONARY
  5
17
102
{ACAD_REACTORS
330
C
102
}
330
C
100
AcDbDictionary
281
     1
  3
Standard
350
18
  0
DICTIONARY
  5
19
102
{ACAD_REACTORS
330
C
102
}
330
C
100
AcDbDictionary
281
     1
  0
ACDBDICTIONARYWDFLT
  5
E
102
{ACAD_REACTORS
330
C
102
}
330
C
100
AcDbDictionary
281
     1
  3
Normal
350
F
100
AcDbDictionaryWithDefault
340
F
  0
DICTIONARY
  5
47
102
{ACAD_REACTORS
330
C
102
}
330
C
100
AcDbDictionary
281
     1
  3
A0
350
48
  3
A1
350
49
  3
A2
350
4A
  3
A3
350
4B
  3
A4
350
4C
  3
A5
350
4D
  3
A6
350
4E
  3
A7
350
4F
  3
A8
350
50
  3
A9
350
51
  3
B0
350
52
  3
B1
350
53
  3
B2
350
54
  3
B3
350
55
  3
B4
350
56
  3
B5
350
57
  3
B6
350
58
  3
B7
350
59
  3
B8
350
5A
  3
B9
350
5B
  3
C0
350
5C
  3
C1
350
5D
  3
C2
350
5E
  3
C3
350
5F
  3
C4
350
60
  3
C5
350
61
  3
C6
350
62
  3
C7
350
63
  3
C8
350
64
  3
C9
350
65
  3
D0
350
66
  3
D1
350
67
  3
D2
350
68
  0
DICTIONARY
  5
5DD
102
{ACAD_REACTORS
330
C
102
}
330
C
100
AcDbDictionary
281
     1
  0
DICTIONARY
  5
5D7
102
{ACAD_REACTORS
330
C
102
}
330
C
100
AcDbDictionary
281
     1
  0
DICTIONARY
  5
426
102
{ACAD_REACTORS
330
C
102
}
330
C
100
AcDbDictionary
281
     1
  0
XRECORD
  5
607
102
{ACAD_REACTORS
330
C
102
}
330
C
100
AcDbXrecord
280
     1
  1
DWGPROPS COOKIE
  2

  3

  4

  6

  7

  8
emilio
  9

300
=
301
=
302
=
303
=
304
=
305
=
306
=
307
=
308
=
309
=
 40
0.0
 41
2457966.536741678
 42
2458029.512821771
  1

 90
        0
  0
LAYOUT
  5
1E
102
{ACAD_REACTORS
330
1A
102
}
330
1A
100
AcDbPlotSettings
  1

  2
none_device
  4

  6

 40
0.0
 41
0.0
 42
0.0
 43
0.0
 44
0.0
 45
0.0
 46
0.0
 47
0.0
 48
0.0
 49
0.0
140
0.0
141
0.0
142
1.0
143
1.0
 70
   688
 72
     1
 73
     0
 74
     5
  7

 75
    16
147
1.0
148
0.0
149
0.0
100
AcDbLayout
  1
Layout1
 70
     1
 71
     1
 10
0.0
 20
0.0
 11
420.0
 21
297.0
 12
0.0
 22
0.0
 32
0.0
 14
1.000000000000000E+20
 24
1.000000000000000E+20
 34
1.000000000000000E+20
 15
-1.000000000000000E+20
 25
-1.000000000000000E+20
 35
-1.000000000000000E+20
146
0.0
 13
0.0
 23
0.0
 33
0.0
 16
1.0
 26
0.0
 36
0.0
 17
0.0
 27
1.0
 37
0.0
 76
     0
330
1B
  0
LAYOUT
  5
26
102
{ACAD_REACTORS
330
1A
102
}
330
1A
100
AcDbPlotSettings
  1

  2
none_device
  4

  6

 40
0.0
 41
0.0
 42
0.0
 43
0.0
 44
0.0
 45
0.0
 46
0.0
 47
0.0
 48
0.0
 49
0.0
140
0.0
141
0.0
142
1.0
143
1.0
 70
   688
 72
     1
 73
     0
 74
     5
  7

 75
    16
147
1.0
148
0.0
149
0.0
100
AcDbLayout
  1
Layout2
 70
     1
 71
     2
 10
0.0
 20
0.0
 11
0.0
 21
0.0
 12
0.0
 22
0.0
 32
0.0
 14
0.0
 24
0.0
 34
0.0
 15
0.0
 25
0.0
 35
0.0
146
0.0
 13
0.0
 23
0.0
 33
0.0
 16
1.0
 26
0.0
 36
0.0
 17
0.0
 27
1.0
 37
0.0
 76
     0
330
23
  0
LAYOUT
  5
22
102
{ACAD_REACTORS
330
1A
102
}
330
1A
100
AcDbPlotSettings
  1

  2
none_device
  4
Letter_(8.50_x_11.00_Inches)
  6

 40
6.35
 41
6.35
 42
6.35000508
 43
6.35000508
 44
215.9
 45
279.4
 46
0.0
 47
0.0
 48
0.0
 49
0.0
140
0.0
141
0.0
142
1.0
143
1.0
 70
  1712
 72
     1
 73
     0
 74
     0
  7

 75
     0
147
1.0
148
0.0
149
0.0
100
AcDbLayout
  1
Model
 70
     1
 71
     0
 10
0.0
 20
0.0
 11
840.0
 21
594.0
 12
0.0
 22
0.0
 32
0.0
 14
35.8686130936
 24
188.0915472784
 34
0.0
 15
771.2020596362051
 25
583.7865265035
 35
0.0
146
0.0
 13
0.0
 23
0.0
 33
0.0
 16
1.0
 26
0.0
 36
0.0
 17
0.0
 27
1.0
 37
0.0
 76
     0
330
1F
331
29
  0
MLINESTYLE
  5
18
102
{ACAD_REACTORS
330
17
102
}
330
17
100
AcDbMlineStyle
  2
Standard
 70
     0
  3

 62
   256
 51
90.0
 52
90.0
 71
     2
 49
0.5
 62
   256
  6
BYLAYER
 49
-0.5
 62
   256
  6
BYLAYER
  0
ACDBPLACEHOLDER
  5
F
102
{ACAD_REACTORS
330
E
102
}
330
E
  0
SCALE
  5
48
102
{ACAD_REACTORS
330
47
102
}
330
47
100
AcDbScale
 70
     0
300
1:1
140
1.0
141
1.0
290
     1
  0
SCALE
  5
49
102
{ACAD_REACTORS
330
47
102
}
330
47
100
AcDbScale
 70
     0
300
1:2
140
1.0
141
2.0
290
     0
  0
SCALE
  5
4A
102
{ACAD_REACTORS
330
47
102
}
330
47
100
AcDbScale
 70
     0
300
1:4
140
1.0
141
4.0
290
     0
  0
SCALE
  5
4B
102
{ACAD_REACTORS
330
47
102
}
330
47
100
AcDbScale
 70
     0
300
1:5
140
1.0
141
5.0
290
     0
  0
SCALE
  5
4C
102
{ACAD_REACTORS
330
47
102
}
330
47
100
AcDbScale
 70
     0
300
1:8
140
1.0
141
8.0
290
     0
  0
SCALE
  5
4D
102
{ACAD_REACTORS
330
47
102
}
330
47
100
AcDbScale
 70
     0
300
1:10
140
1.0
141
10.0
290
     0
  0
SCALE
  5
4E
102
{ACAD_REACTORS
330
47
102
}
330
47
100
AcDbScale
 70
     0
300
1:16
140
1.0
141
16.0
290
     0
  0
SCALE
  5
4F
102
{ACAD_REACTORS
330
47
102
}
330
47
100
AcDbScale
 70
     0
300
1:20
140
1.0
141
20.0
290
     0
  0
SCALE
  5
50
102
{ACAD_REACTORS
330
47
102
}
330
47
100
AcDbScale
 70
     0
300
1:30
140
1.0
141
30.0
290
     0
  0
SCALE
  5
51
102
{ACAD_REACTORS
330
47
102
}
330
47
100
AcDbScale
 70
     0
300
1:40
140
1.0
141
40.0
290
     0
  0
SCALE
  5
52
102
{ACAD_REACTORS
330
47
102
}
330
47
100
AcDbScale
 70
     0
300
1:50
140
1.0
141
50.0
290
     0
  0
SCALE
  5
53
102
{ACAD_REACTORS
330
47
102
}
330
47
100
AcDbScale
 70
     0
300
1:100
140
1.0
141
100.0
290
     0
  0
SCALE
  5
54
102
{ACAD_REACTORS
330
47
102
}
330
47
100
AcDbScale
 70
     0
300
2:1
140
2.0
141
1.0
290
     0
  0
SCALE
  5
55
102
{ACAD_REACTORS
330
47
102
}
330
47
100
AcDbScale
 70
     0
300
4:1
140
4.0
141
1.0
290
     0
  0
SCALE
  5
56
102
{ACAD_REACTORS
330
47
102
}
330
47
100
AcDbScale
 70
     0
300
8:1
140
8.0
141
1.0
290
     0
  0
SCALE
  5
57
102
{ACAD_REACTORS
330
47
102
}
330
47
100
AcDbScale
 70
     0
300
10:1
140
10.0
141
1.0
290
     0
  0
SCALE
  5
58
102
{ACAD_REACTORS
330
47
102
}
330
47
100
AcDbScale
 70
     0
300
100:1
140
100.0
141
1.0
290
     0
  0
SCALE
  5
59
102
{ACAD_REACTORS
330
47
102
}
330
47
100
AcDbScale
 70
     0
300
1/128" = 1'-0"
140
0.0078125
141
12.0
290
     0
  0
SCALE
  5
5A
102
{ACAD_REACTORS
330
47
102
}
330
47
100
AcDbScale
 70
     0
300
1/64" = 1'-0"
140
0.015625
141
12.0
290
     0
  0
SCALE
  5
5B
102
{ACAD_REACTORS
330
47
102
}
330
47
100
AcDbScale
 70
     0
300
1/32" = 1'-0"
140
0.03125
141
12.0
290
     0
  0
SCALE
  5
5C
102
{ACAD_REACTORS
330
47
102
}
330
47
100
AcDbScale
 70
     0
300
1/16" = 1'-0"
140
0.0625
141
12.0
290
     0
  0
SCALE
  5
5D
102
{ACAD_REACTORS
330
47
102
}
330
47
100
AcDbScale
 70
     0
300
3/32" = 1'-0"
140
0.09375
141
12.0
290
     0
  0
SCALE
  5
5E
102
{ACAD_REACTORS
330
47
102
}
330
47
100
AcDbScale
 70
     0
300
1/8" = 1'-0"
140
0.125
141
12.0
290
     0
  0
SCALE
  5
5F
102
{ACAD_REACTORS
330
47
102
}
330
47
100
AcDbScale
 70
     0
300
3/16" = 1'-0"
140
0.1875
141
12.0
290
     0
  0
SCALE
  5
60
102
{ACAD_REACTORS
330
47
102
}
330
47
100
AcDbScale
 70
     0
300
1/4" = 1'-0"
140
0.25
141
12.0
290
     0
  0
SCALE
  5
61
102
{ACAD_REACTORS
330
47
102
}
330
47
100
AcDbScale
 70
     0
300
3/8" = 1'-0"
140
0.375
141
12.0
290
     0
  0
SCALE
  5
62
102
{ACAD_REACTORS
330
47
102
}
330
47
100
AcDbScale
 70
     0
300
1/2" = 1'-0"
140
0.5
141
12.0
290
     0
  0
SCALE
  5
63
102
{ACAD_REACTORS
330
47
102
}
330
47
100
AcDbScale
 70
     0
300
3/4" = 1'-0"
140
0.75
141
12.0
290
     0
  0
SCALE
  5
64
102
{ACAD_REACTORS
330
47
102
}
330
47
100
AcDbScale
 70
     0
300
1" = 1'-0"
140
1.0
141
12.0
290
     0
  0
SCALE
  5
65
102
{ACAD_REACTORS
330
47
102
}
330
47
100
AcDbScale
 70
     0
300
1-1/2" = 1'-0"
140
1.5
141
12.0
290
     0
  0
SCALE
  5
66
102
{ACAD_REACTORS
330
47
102
}
330
47
100
AcDbScale
 70
     0
300
3" = 1'-0"
140
3.0
141
12.0
290
     0
  0
SCALE
  5
67
102
{ACAD_REACTORS
330
47
102
}
330
47
100
AcDbScale
 70
     0
300
6" = 1'-0"
140
6.0
141
12.0
290
     0
  0
SCALE
  5
68
102
{ACAD_REACTORS
330
47
102
}
330
47
100
AcDbScale
 70
     0
300
1'-0" = 1'-0"
140
12.0
141
12.0
290
     0
  0
ENDSEC
  0
EOF
