  0
SECTION
  2
HEADER
  9
$ACADVER
  1
AC1015
  9
$ACADMAINTVER
 70
    20
  9
$DWGCODEPAGE
  3
ANSI_1252
  9
$INSBASE
 10
0.0
 20
0.0
 30
0.0
  9
$EXTMIN
 10
-70.81855191759678
 20
-144.4552046316735
 30
-0.0000000000000098
  9
$EXTMAX
 10
179.0272365880914
 20
86.381479472308
 30
0.0000000000000055
  9
$LIMMIN
 10
-20.0
 20
-575.8499999999997
  9
$LIMMAX
 10
1785.35
 20
579.8499999999997
  9
$ORTHOMODE
 70
     0
  9
$REGENMODE
 70
     1
  9
$FILLMODE
 70
     1
  9
$QTEXTMODE
 70
     0
  9
$MIRRTEXT
 70
     1
  9
$LTSCALE
 40
10.0
  9
$ATTMODE
 70
     1
  9
$TEXTSIZE
 40
0.0
  9
$TRACEWID
 40
0.05
  9
$TEXTSTYLE
  7
Standard
  9
$CLAYER
  8
0
  9
$CELTYPE
  6
Continuous
  9
$CECOLOR
 62
   256
  9
$CELTSCALE
 40
1.0
  9
$DISPSILH
 70
     0
  9
$DIMSCALE
 40
1.0
  9
$DIMASZ
 40
1.25
  9
$DIMEXO
 40
0.0
  9
$DIMDLI
 40
0.38
  9
$DIMRND
 40
0.0
  9
$DIMDLE
 40
0.0
  9
$DIMEXE
 40
0.75
  9
$DIMTP
 40
0.0
  9
$DIMTM
 40
0.0
  9
$DIMTXT
 40
2.5
  9
$DIMCEN
 40
0.09
  9
$DIMTSZ
 40
0.0
  9
$DIMTOL
 70
     0
  9
$DIMLIM
 70
     0
  9
$DIMTIH
 70
     0
  9
$DIMTOH
 70
     0
  9
$DIMSE1
 70
     0
  9
$DIMSE2
 70
     0
  9
$DIMTAD
 70
     1
  9
$DIMZIN
 70
     0
  9
$DIMBLK
  1

  9
$DIMASO
 70
     1
  9
$DIMSHO
 70
     1
  9
$DIMPOST
  1

  9
$DIMAPOST
  1

  9
$DIMALT
 70
     0
  9
$DIMALTD
 70
     2
  9
$DIMALTF
 40
25.4
  9
$DIMLFAC
 40
1.0
  9
$DIMTOFL
 70
     0
  9
$DIMTVP
 40
0.0
  9
$DIMTIX
 70
     0
  9
$DIMSOXD
 70
     0
  9
$DIMSAH
 70
     0
  9
$DIMBLK1
  1

  9
$DIMBLK2
  1

  9
$DIMSTYLE
  2
Standard
  9
$DIMCLRD
 70
     7
  9
$DIMCLRE
 70
     7
  9
$DIMCLRT
 70
     7
  9
$DIMTFAC
 40
0.8
  9
$DIMGAP
 40
1.25
  9
$DIMJUST
 70
     0
  9
$DIMSD1
 70
     0
  9
$DIMSD2
 70
     0
  9
$DIMTOLJ
 70
     1
  9
$DIMTZIN
 70
     0
  9
$DIMALTZ
 70
     0
  9
$DIMALTTZ
 70
     0
  9
$DIMUPT
 70
     0
  9
$DIMDEC
 70
     2
  9
$DIMTDEC
 70
     4
  9
$DIMALTU
 70
     2
  9
$DIMALTTD
 70
     2
  9
$DIMTXSTY
  7
Standard
  9
$DIMAUNIT
 70
     0
  9
$DIMADEC
 70
     0
  9
$DIMALTRND
 40
0.0
  9
$DIMAZIN
 70
     0
  9
$DIMDSEP
 70
     0
  9
$DIMATFIT
 70
     3
  9
$DIMFRAC
 70
     0
  9
$DIMLDRBLK
  1

  9
$DIMLUNIT
 70
     2
  9
$DIMLWD
 70
     0
  9
$DIMLWE
 70
     0
  9
$DIMTMOVE
 70
     0
  9
$LUNITS
 70
     2
  9
$LUPREC
 70
     4
  9
$SKETCHINC
 40
0.1
  9
$FILLETRAD
 40
0.0
  9
$AUNITS
 70
     0
  9
$AUPREC
 70
     0
  9
$MENU
  1
acad
  9
$ELEVATION
 40
0.0
  9
$PELEVATION
 40
0.0
  9
$THICKNESS
 40
0.0
  9
$LIMCHECK
 70
     0
  9
$CHAMFERA
 40
0.0
  9
$CHAMFERB
 40
0.0
  9
$CHAMFERC
 40
0.0
  9
$CHAMFERD
 40
0.0
  9
$SKPOLY
 70
     0
  9
$TDCREATE
 40
2455301.802361111
  9
$TDUCREATE
 40
2455301.719027778
  9
$TDUPDATE
 40
2455306.358712581
  9
$TDUUPDATE
 40
2455306.275379248
  9
$TDINDWG
 40
0.1688102199
  9
$TDUSRTIMER
 40
0.1688091319
  9
$USRTIMER
 70
     1
  9
$ANGBASE
 50
0.0
  9
$ANGDIR
 70
     0
  9
$PDMODE
 70
     0
  9
$PDSIZE
 40
0.0
  9
$PLINEWID
 40
0.0
  9
$SPLFRAME
 70
     0
  9
$SPLINETYPE
 70
     6
  9
$SPLINESEGS
 70
     8
  9
$HANDSEED
  5
B65F
  9
$SURFTAB1
 70
     6
  9
$SURFTAB2
 70
     6
  9
$SURFTYPE
 70
     6
  9
$SURFU
 70
     6
  9
$SURFV
 70
     6
  9
$UCSBASE
  2

  9
$UCSNAME
  2

  9
$UCSORG
 10
0.0
 20
0.0
 30
0.0
  9
$UCSXDIR
 10
1.0
 20
0.0
 30
0.0
  9
$UCSYDIR
 10
0.0
 20
1.0
 30
0.0
  9
$UCSORTHOREF
  2

  9
$UCSORTHOVIEW
 70
     0
  9
$UCSORGTOP
 10
0.0
 20
0.0
 30
0.0
  9
$UCSORGBOTTOM
 10
0.0
 20
0.0
 30
0.0
  9
$UCSORGLEFT
 10
0.0
 20
0.0
 30
0.0
  9
$UCSORGRIGHT
 10
0.0
 20
0.0
 30
0.0
  9
$UCSORGFRONT
 10
0.0
 20
0.0
 30
0.0
  9
$UCSORGBACK
 10
0.0
 20
0.0
 30
0.0
  9
$PUCSBASE
  2

  9
$PUCSNAME
  2

  9
$PUCSORG
 10
0.0
 20
0.0
 30
0.0
  9
$PUCSXDIR
 10
1.0
 20
0.0
 30
0.0
  9
$PUCSYDIR
 10
0.0
 20
1.0
 30
0.0
  9
$PUCSORTHOREF
  2

  9
$PUCSORTHOVIEW
 70
     0
  9
$PUCSORGTOP
 10
0.0
 20
0.0
 30
0.0
  9
$PUCSORGBOTTOM
 10
0.0
 20
0.0
 30
0.0
  9
$PUCSORGLEFT
 10
0.0
 20
0.0
 30
0.0
  9
$PUCSORGRIGHT
 10
0.0
 20
0.0
 30
0.0
  9
$PUCSORGFRONT
 10
0.0
 20
0.0
 30
0.0
  9
$PUCSORGBACK
 10
0.0
 20
0.0
 30
0.0
  9
$USERI1
 70
     0
  9
$USERI2
 70
     0
  9
$USERI3
 70
     0
  9
$USERI4
 70
     0
  9
$USERI5
 70
     0
  9
$USERR1
 40
0.0
  9
$USERR2
 40
0.0
  9
$USERR3
 40
0.0
  9
$USERR4
 40
0.0
  9
$USERR5
 40
0.0
  9
$WORLDVIEW
 70
     1
  9
$SHADEDGE
 70
     3
  9
$SHADEDIF
 70
    70
  9
$TILEMODE
 70
     1
  9
$MAXACTVP
 70
    16
  9
$PINSBASE
 10
0.0
 20
0.0
 30
0.0
  9
$PLIMCHECK
 70
     0
  9
$PEXTMIN
 10
1.000000000000000E+20
 20
1.000000000000000E+20
 30
1.000000000000000E+20
  9
$PEXTMAX
 10
-1.000000000000000E+20
 20
-1.000000000000000E+20
 30
-1.000000000000000E+20
  9
$PLIMMIN
 10
0.0
 20
0.0
  9
$PLIMMAX
 10
12.0
 20
9.0
  9
$UNITMODE
 70
     0
  9
$VISRETAIN
 70
     0
  9
$PLINEGEN
 70
     1
  9
$PSLTSCALE
 70
     0
  9
$TREEDEPTH
 70
  3020
  9
$CMLSTYLE
  2
Standard
  9
$CMLJUST
 70
     0
  9
$CMLSCALE
 40
1.0
  9
$PROXYGRAPHICS
 70
     0
  9
$MEASUREMENT
 70
     1
  9
$CELWEIGHT
370
     0
  9
$ENDCAPS
280
     0
  9
$JOINSTYLE
280
     0
  9
$LWDISPLAY
290
     0
  9
$INSUNITS
 70
     0
  9
$HYPERLINKBASE
  1

  9
$STYLESHEET
  1

  9
$XEDIT
290
     1
  9
$CEPSNTYPE
380
     0
  9
$PSTYLEMODE
290
     1
  9
$FINGERPRINTGUID
  2

  9
$VERSIONGUID
  2
{D73F3BA9-2A58-477B-BC0B-D3DB4EFBEF72}
  9
$EXTNAMES
290
     1
  9
$PSVPSCALE
 40
0.0
  9
$OLESTARTUP
290
     0
  0
ENDSEC
  0
SECTION
  2
CLASSES
  0
CLASS
  1
IMAGE
  2
AcDbRasterImage
  3
ISM
 90
    34943
280
     0
281
     1
  0
CLASS
  1
DICTIONARYVAR
  2
AcDbDictionaryVar
  3
ObjectDBX Classes
 90
        0
280
     0
281
     0
  0
CLASS
  1
RASTERVARIABLES
  2
AcDbRasterVariables
  3
ISM
 90
    32768
280
     0
281
     0
  0
CLASS
  1
IMAGEDEF
  2
AcDbRasterImageDef
  3
ISM
 90
    32768
280
     0
281
     0
  0
CLASS
  1
IMAGEDEF_REACTOR
  2
AcDbRasterImageDefReactor
  3
ISM
 90
    32769
280
     0
281
     0
  0
CLASS
  1
IDBUFFER
  2
AcDbIdBuffer
  3
ObjectDBX Classes
 90
    32768
280
     0
281
     0
  0
CLASS
  1
SPATIAL_FILTER
  2
AcDbSpatialFilter
  3
ObjectDBX Classes
 90
    32768
280
     0
281
     0
  0
CLASS
  1
SORTENTSTABLE
  2
AcDbSortentsTable
  3
ObjectDBX Classes
 90
        0
280
     0
281
     0
  0
CLASS
  1
LAYER_INDEX
  2
AcDbLayerIndex
  3
ObjectDBX Classes
 90
    32768
280
     0
281
     0
  0
CLASS
  1
SPATIAL_INDEX
  2
AcDbSpatialIndex
  3
ObjectDBX Classes
 90
    32768
280
     0
281
     0
  0
CLASS
  1
OBJECT_PTR
  2
CAseDLPNTableRecord
  3
ASE-LPNTableRecord
 90
    32769
280
     0
281
     0
  0
CLASS
  1
LAYOUT
  2
AcDbLayout
  3
ObjectDBX Classes
 90
        0
280
     0
281
     0
  0
CLASS
  1
PLOTSETTINGS
  2
AcDbPlotSettings
  3
ObjectDBX Classes
 90
    32768
280
     0
281
     0
  0
CLASS
  1
ACDBDICTIONARYWDFLT
  2
AcDbDictionaryWithDefault
  3
ObjectDBX Classes
 90
        0
280
     0
281
     0
  0
CLASS
  1
ACDBPLACEHOLDER
  2
AcDbPlaceHolder
  3
ObjectDBX Classes
 90
        0
280
     0
281
     0
  0
CLASS
  1
VBA_PROJECT
  2
AcDbVbaProject
  3
acad
 90
    32768
280
     0
281
     0
  0
CLASS
  1
WIPEOUT
  2
AcDbWipeout
  3
"WipeOut|Product Desc: Object Enabler for WipeOut entity                        |Company: Autodesk, Inc.                        |WEB Address: www.autodesk.com"
 90
    34943
280
     0
281
     1
  0
CLASS
  1
WIPEOUTVARIABLES
  2
AcDbWipeoutVariables
  3
"WipeOut|Product Desc:     WipeOut Dbx Application|Company:          Autodesk, Inc.|WEB Address:      www.autodesk.com"
 90
        0
280
     0
281
     0
  0
CLASS
  1
RTEXT
  2
RText
  3
RText|AutoCAD Express Tool|expresstools@autodesk.com
 90
    35839
280
     0
281
     1
  0
CLASS
  1
ARCALIGNEDTEXT
  2
AcDbArcAlignedText
  3
ATEXT|AutoCAD Express Tool|expresstools@autodesk.com
 90
    32768
280
     0
281
     1
  0
CLASS
  1
MATERIAL
  2
AcDbMaterial
  3
ObjectDBX Classes
 90
     1153
280
     0
281
     0
  0
CLASS
  1
VISUALSTYLE
  2
AcDbVisualStyle
  3
ObjectDBX Classes
 90
     4095
280
     0
281
     0
  0
CLASS
  1
TABLESTYLE
  2
AcDbTableStyle
  3
ObjectDBX Classes
 90
     4095
280
     0
281
     0
  0
CLASS
  1
SCALE
  2
AcDbScale
  3
ObjectDBX Classes
 90
     1153
280
     0
281
     0
  0
CLASS
  1
MLEADERSTYLE
  2
AcDbMLeaderStyle
  3
ACDB_MLEADERSTYLE_CLASS
 90
     4095
280
     0
281
     0
  0
CLASS
  1
CELLSTYLEMAP
  2
AcDbCellStyleMap
  3
ObjectDBX Classes
 90
     1152
280
     0
281
     0
  0
ENDSEC
  0
SECTION
  2
TABLES
  0
TABLE
  2
VPORT
  5
7
330
0
100
AcDbSymbolTable
 70
     1
  0
VPORT
  5
15
330
7
100
AcDbSymbolTableRecord
100
AcDbViewportTableRecord
  2
*ACTIVE
 70
     0
 10
0.0
 20
0.0
 11
1.0
 21
1.0
 12
55.35375655850756
 22
-29.60882480637975
 13
0.0
 23
0.0
 14
1.0
 24
1.0
 15
0.0
 25
0.0
 16
0.0
 26
0.0
 36
1.0
 17
0.0
 27
0.0
 37
0.0
 40
261.1714747240903
 41
1.611330698287219
 42
50.0
 43
0.0
 44
0.0
 50
0.0
 51
0.0
 71
     0
 72
   100
 73
     1
 74
     1
 75
     0
 76
     0
 77
     0
 78
     0
281
     0
 65
     0
110
0.0
120
0.0
130
0.0
111
1.0
121
0.0
131
0.0
112
0.0
122
1.0
132
0.0
 79
     0
146
0.0
  0
ENDTAB
  0
TABLE
  2
LTYPE
  5
4
330
0
100
AcDbSymbolTable
 70
     3
  0
LTYPE
  5
11
330
4
100
AcDbSymbolTableRecord
100
AcDbLinetypeTableRecord
  2
ByBlock
 70
     0
  3

 72
    65
 73
     0
 40
0.0
  0
LTYPE
  5
12
330
4
100
AcDbSymbolTableRecord
100
AcDbLinetypeTableRecord
  2
ByLayer
 70
     0
  3

 72
    65
 73
     0
 40
0.0
  0
LTYPE
  5
13
330
4
100
AcDbSymbolTableRecord
100
AcDbLinetypeTableRecord
  2
Continuous
 70
     0
  3
Solid line
 72
    65
 73
     0
 40
0.0
  0
LTYPE
  5
108
330
4
100
AcDbSymbolTableRecord
100
AcDbLinetypeTableRecord
  2
CENTER
 70
     0
  3
____ _ ____ _ ____ _ ____ _ ____ _ ____ _ ____
 72
    65
 73
     4
 40
2.0
 49
1.25
 74
     0
 49
-0.25
 74
     0
 49
0.25
 74
     0
 49
-0.25
 74
     0
  0
ENDTAB
  0
TABLE
  2
LAYER
  5
2
330
0
100
AcDbSymbolTable
 70
     1
  0
LAYER
  5
14
102
{ACAD_XDICTIONARY
360
5858
102
}
330
2
100
AcDbSymbolTableRecord
100
AcDbLayerTableRecord
  2
0
 70
     0
 62
     7
  6
Continuous
370
    -3
390
1D
  0
ENDTAB
  0
TABLE
  2
STYLE
  5
3
330
0
100
AcDbSymbolTable
 70
     1
  0
STYLE
  5
17
330
3
100
AcDbSymbolTableRecord
100
AcDbTextStyleTableRecord
  2
Standard
 70
     0
 40
0.0
 41
1.0
 50
0.0
 71
     0
 42
0.0
  3
I011000D.TTF
  4

1001
ACAD
1000
IsonormD
1071
        0
  0
ENDTAB
  0
TABLE
  2
VIEW
  5
5
330
0
100
AcDbSymbolTable
 70
     0
  0
ENDTAB
  0
TABLE
  2
UCS
  5
6
330
0
100
AcDbSymbolTable
 70
     0
  0
ENDTAB
  0
TABLE
  2
APPID
  5
8
330
0
100
AcDbSymbolTable
 70
     5
  0
APPID
  5
16
330
8
100
AcDbSymbolTableRecord
100
AcDbRegAppTableRecord
  2
ACAD
 70
     0
  0
APPID
  5
26
330
8
100
AcDbSymbolTableRecord
100
AcDbRegAppTableRecord
  2
TopSolid'Draft
 70
     0
  0
APPID
  5
5850
330
8
100
AcDbSymbolTableRecord
100
AcDbRegAppTableRecord
  2
ACAD_MLEADERVER
 70
     0
  0
APPID
  5
5856
330
8
100
AcDbSymbolTableRecord
100
AcDbRegAppTableRecord
  2
DCO15
 70
     0
  0
APPID
  5
B626
330
8
100
AcDbSymbolTableRecord
100
AcDbRegAppTableRecord
  2
ACAD_EXEMPT_FROM_CAD_STANDARDS
 70
     0
  0
ENDTAB
  0
TABLE
  2
DIMSTYLE
  5
9
330
0
100
AcDbSymbolTable
 70
     2
100
AcDbDimStyleTable
 71
     1
340
18
  0
DIMSTYLE
105
18
330
9
100
AcDbSymbolTableRecord
100
AcDbDimStyleTableRecord
  2
Standard
 70
     0
 41
1.25
 42
0.0
 44
0.75
 73
     0
 74
     0
 77
     1
140
2.5
146
0.8
147
1.25
176
     7
177
     7
178
     7
271
     2
340
17
  0
ENDTAB
  0
TABLE
  2
BLOCK_RECORD
  5
1
330
0
100
AcDbSymbolTable
 70
     1
  0
BLOCK_RECORD
  5
A
102
{ACAD_XDICTIONARY
360
5864
102
}
330
1
100
AcDbSymbolTableRecord
100
AcDbBlockTableRecord
  2
*MODEL_SPACE
340
20
  0
BLOCK_RECORD
  5
B
330
1
100
AcDbSymbolTableRecord
100
AcDbBlockTableRecord
  2
*PAPER_SPACE
340
21
  0
ENDTAB
  0
ENDSEC
  0
SECTION
  2
BLOCKS
  0
BLOCK
  5
D
330
A
100
AcDbEntity
  8
0
100
AcDbBlockBegin
  2
*MODEL_SPACE
 70
     0
 10
0.0
 20
0.0
 30
0.0
  3
*MODEL_SPACE
  1

  0
ENDBLK
  5
E
330
A
100
AcDbEntity
  8
0
100
AcDbBlockEnd
  0
BLOCK
  5
F
330
B
100
AcDbEntity
 67
     1
  8
0
100
AcDbBlockBegin
  2
*PAPER_SPACE
 70
     0
 10
0.0
 20
0.0
 30
0.0
  3
*PAPER_SPACE
  1

  0
ENDBLK
  5
10
330
B
100
AcDbEntity
 67
     1
  8
0
100
AcDbBlockEnd
  0
ENDSEC
  0
SECTION
  2
ENTITIES
  0
LINE
  5
5B3
330
A
100
AcDbEntity
  8
0
  6
CENTER
 62
     1
100
AcDbLine
 10
30.00000000000026
 20
-54.8
 30
0.0
 11
30.00000000000026
 21
-49.50000000000005
 31
0.0
  0
LINE
  5
5B4
330
A
100
AcDbEntity
  8
0
  6
CENTER
 62
     1
100
AcDbLine
 10
29.99999995701259
 20
21.49999999999994
 30
0.0
 11
29.99999995701259
 21
26.79999999999996
 31
0.0
  0
LINE
  5
5B5
330
A
100
AcDbEntity
  8
0
  6
CENTER
 62
     1
100
AcDbLine
 10
29.99999995701259
 20
26.79999999999996
 30
0.0
 11
29.99999995701259
 21
-54.8
 31
0.0
  0
LINE
  5
5B6
330
A
100
AcDbEntity
  8
0
  6
CENTER
 62
     1
100
AcDbLine
 10
-8.899999999999835
 20
-0.0000000000000568
 30
0.0
 11
8.900000000000183
 21
-0.0000000000000568
 31
0.0
  0
LINE
  5
5B7
330
A
100
AcDbEntity
  8
0
  6
CENTER
 62
     1
100
AcDbLine
 10
0.0000000000001421
 20
-8.900000000000034
 30
0.0
 11
0.0000000000001421
 21
8.899999999999977
 31
0.0
  0
LINE
  5
5B8
330
A
100
AcDbEntity
  8
0
  6
CENTER
 62
     1
100
AcDbLine
 10
-8.899999999999835
 20
-28.00000000000006
 30
0.0
 11
8.900000000000183
 21
-28.00000000000006
 31
0.0
  0
LINE
  5
5B9
330
A
100
AcDbEntity
  8
0
  6
CENTER
 62
     1
100
AcDbLine
 10
0.0000000000001421
 20
-36.90000000000003
 30
0.0
 11
0.0000000000001421
 21
-19.10000000000002
 31
0.0
  0
LINE
  5
5BA
330
A
100
AcDbEntity
  8
0
  6
CENTER
 62
     1
100
AcDbLine
 10
51.99999999999076
 20
-28.00000000001302
 30
0.0
 11
67.99999999999077
 21
-28.00000000001302
 31
0.0
  0
LINE
  5
5BB
330
A
100
AcDbEntity
  8
0
  6
CENTER
 62
     1
100
AcDbLine
 10
59.99999999999076
 20
-36.00000000001286
 30
0.0
 11
59.99999999999076
 21
-20.00000000001302
 31
0.0
  0
LINE
  5
5BC
330
A
100
AcDbEntity
  8
0
  6
CENTER
 62
     1
100
AcDbLine
 10
51.75000000000742
 20
0.0000000000078445
 30
0.0
 11
68.25000000000741
 21
0.0000000000078445
 31
0.0
  0
LINE
  5
5BD
330
A
100
AcDbEntity
  8
0
  6
CENTER
 62
     1
100
AcDbLine
 10
60.00000000000724
 20
-8.249999999992098
 30
0.0
 11
60.00000000000724
 21
8.250000000007901
 31
0.0
  0
LINE
  5
6C8
330
A
100
AcDbEntity
  8
0
  6
CENTER
 62
     1
100
AcDbLine
 10
0.0000000000001421
 20
58.80000000014002
 30
0.0
 11
0.0000000000001421
 21
68.80000000014002
 31
0.0
  0
LINE
  5
6C9
330
A
100
AcDbEntity
  8
0
  6
CENTER
 62
     1
100
AcDbLine
 10
58.99999999999138
 20
68.80000000014454
 30
0.0
 11
58.99999999999138
 21
58.80000000014454
 31
0.0
  0
LINE
  5
6CA
330
A
100
AcDbEntity
  8
0
  6
CENTER
 62
     1
100
AcDbLine
 10
-0.0000000000625633
 20
50.9500000001302
 30
0.0
 11
0.0000000001466276
 21
56.40000000013025
 31
0.0
  0
LINE
  5
6CB
330
A
100
AcDbEntity
  8
0
  6
CENTER
 62
     1
100
AcDbLine
 10
59.99999999999161
 20
50.95000000014954
 30
0.0
 11
60.00000000000992
 21
56.40000000014948
 31
0.0
  0
LINE
  5
6CC
330
A
100
AcDbEntity
  8
0
  6
CENTER
 62
     1
100
AcDbLine
 10
22.00000000000013
 20
78.30000000014002
 30
0.0
 11
38.00000000000014
 21
78.30000000014002
 31
0.0
  0
LINE
  5
6CD
330
A
100
AcDbEntity
  8
0
  6
CENTER
 62
     1
100
AcDbLine
 10
30.00000000000026
 20
70.30000000014002
 30
0.0
 11
30.00000000000026
 21
86.30000000014026
 31
0.0
  0
LINE
  5
77F
330
A
100
AcDbEntity
  8
0
  6
CENTER
 62
     1
100
AcDbLine
 10
-64.80000000014385
 20
-35.99999999999925
 30
0.0
 11
-64.80000000014385
 21
-30.69999999999937
 31
0.0
  0
LINE
  5
780
330
A
100
AcDbEntity
  8
0
  6
CENTER
 62
     1
100
AcDbLine
 10
-64.80000000014385
 20
8.000000000000115
 30
0.0
 11
-64.80000000014385
 21
2.699999999999986
 31
0.0
  0
LINE
  5
781
330
A
100
AcDbEntity
  8
0
  6
CENTER
 62
     1
100
AcDbLine
 10
-37.45000000015331
 20
-27.99999999992878
 30
0.0
 11
-42.90000000015325
 21
-28.00000000014887
 31
0.0
  0
LINE
  5
782
330
A
100
AcDbEntity
  8
0
  6
CENTER
 62
     1
100
AcDbLine
 10
-37.45000000014234
 20
0.0000000000078445
 30
0.0
 11
-42.90000000014216
 21
0.0000000000078445
 31
0.0
  0
LINE
  5
783
330
A
100
AcDbEntity
  8
0
  6
CENTER
 62
     1
100
AcDbLine
 10
-45.30000000014385
 20
-0.0000000000000568
 30
0.0
 11
-55.30000000014705
 21
-0.0000000000000568
 31
0.0
  0
LINE
  5
784
330
A
100
AcDbEntity
  8
0
  6
CENTER
 62
     1
100
AcDbLine
 10
-45.30000000014385
 20
-28.00000000000006
 30
0.0
 11
-55.30000000014844
 21
-28.00000000000006
 31
0.0
  0
LINE
  5
785
330
A
100
AcDbEntity
  8
0
  6
CENTER
 62
     1
100
AcDbLine
 10
-64.80000000014385
 20
-54.8
 30
0.0
 11
-64.80000000014385
 21
-49.50000000000005
 31
0.0
  0
LINE
  5
786
330
A
100
AcDbEntity
  8
0
  6
CENTER
 62
     1
100
AcDbLine
 10
-64.79999973627254
 20
21.49999999999994
 30
0.0
 11
-64.79999973627254
 21
26.79999999999996
 31
0.0
  0
LINE
  5
787
330
A
100
AcDbEntity
  8
0
  6
CENTER
 62
     1
100
AcDbLine
 10
137.3000000001364
 20
-35.99999999999925
 30
0.0
 11
137.3000000001364
 21
-30.69999999999937
 31
0.0
  0
LINE
  5
788
330
A
100
AcDbEntity
  8
0
  6
CENTER
 62
     1
100
AcDbLine
 10
137.3000000001364
 20
8.000000000000115
 30
0.0
 11
137.3000000001364
 21
2.699999999999986
 31
0.0
  0
LINE
  5
789
330
A
100
AcDbEntity
  8
0
  6
CENTER
 62
     1
100
AcDbLine
 10
117.8000000001364
 20
-28.00000000000006
 30
0.0
 11
127.8000000001364
 21
-28.00000000000006
 31
0.0
  0
LINE
  5
78A
330
A
100
AcDbEntity
  8
0
  6
CENTER
 62
     1
100
AcDbLine
 10
117.8000000001364
 20
-0.0000000000000568
 30
0.0
 11
127.8000000001364
 21
-0.0000000000000568
 31
0.0
  0
LINE
  5
78B
330
A
100
AcDbEntity
  8
0
  6
CENTER
 62
     1
100
AcDbLine
 10
109.9500000001267
 20
-28.00000001495516
 30
0.0
 11
115.4000000001268
 21
-28.0000000147457
 31
0.0
  0
LINE
  5
78C
330
A
100
AcDbEntity
  8
0
  6
CENTER
 62
     1
100
AcDbLine
 10
109.9500000001271
 20
-0.0000000000000568
 30
0.0
 11
115.4000000001271
 21
-0.0000000000000568
 31
0.0
  0
LINE
  5
78D
330
A
100
AcDbEntity
  8
0
  6
CENTER
 62
     1
100
AcDbLine
 10
137.3000000001364
 20
-54.8
 30
0.0
 11
137.3000000001364
 21
-49.50000000000005
 31
0.0
  0
LINE
  5
78E
330
A
100
AcDbEntity
  8
0
  6
CENTER
 62
     1
100
AcDbLine
 10
137.2999997362651
 20
21.49999999999994
 30
0.0
 11
137.2999997362651
 21
26.79999999999996
 31
0.0
  0
LINE
  5
78F
330
A
100
AcDbEntity
  8
0
  6
CENTER
 62
     1
100
AcDbLine
 10
0.0000000000001421
 20
-76.80000000014001
 30
0.0
 11
0.0000000000001421
 21
-86.80000000014018
 31
0.0
  0
LINE
  5
790
330
A
100
AcDbEntity
  8
0
  6
CENTER
 62
     1
100
AcDbLine
 10
58.99999999999116
 20
-86.80000000014315
 30
0.0
 11
58.99999999999116
 21
-76.80000000014314
 31
0.0
  0
LINE
  5
791
330
A
100
AcDbEntity
  8
0
  6
CENTER
 62
     1
100
AcDbLine
 10
0.0000000000001421
 20
-68.95000000013073
 30
0.0
 11
0.0000000000001421
 21
-74.40000000013073
 31
0.0
  0
LINE
  5
792
330
A
100
AcDbEntity
  8
0
  6
CENTER
 62
     1
100
AcDbLine
 10
59.99999999999366
 20
-68.95000000013851
 30
0.0
 11
60.00000000001339
 21
-74.40000000013856
 31
0.0
  0
LINE
  5
793
330
A
100
AcDbEntity
  8
0
  6
CENTER
 62
     1
100
AcDbLine
 10
21.99999995701259
 20
-96.29999973626869
 30
0.0
 11
37.99999995701259
 21
-96.29999973626869
 31
0.0
  0
LINE
  5
794
330
A
100
AcDbEntity
  8
0
  6
CENTER
 62
     1
100
AcDbLine
 10
29.99999995701259
 20
-104.2999997362687
 30
0.0
 11
29.99999995701259
 21
-88.29999973626874
 31
0.0
  0
LINE
  5
A495
330
A
100
AcDbEntity
  8
0
  6
Continuous
 62
     9
370
     0
100
AcDbLine
 10
-39.45000000014232
 20
-5.412842109667167
 30
0.0
 11
-39.45000000014232
 21
2.225197257654315
 31
0.0
  0
LINE
  5
A496
330
A
100
AcDbEntity
  8
0
  6
Continuous
 62
     9
370
     0
100
AcDbLine
 10
-39.45000000014232
 20
2.225197257654315
 30
0.0
 11
-39.45000000014232
 21
5.412842109682969
 31
0.0
  0
LINE
  5
A497
330
A
100
AcDbEntity
  8
0
  6
Continuous
 62
     7
370
     0
100
AcDbLine
 10
-39.20000000014223
 20
4.979829407790701
 30
0.0
 11
-39.20000000014223
 21
2.047187506537737
 31
0.0
  0
LINE
  5
A498
330
A
100
AcDbEntity
  8
0
  6
Continuous
 62
     7
370
     0
100
AcDbLine
 10
-39.20000000014223
 20
2.047187506537737
 30
0.0
 11
-39.20000000014223
 21
-4.979829407775014
 31
0.0
  0
LINE
  5
A499
330
A
100
AcDbEntity
  8
0
  6
Continuous
 62
     9
370
     0
100
AcDbLine
 10
-39.44999999993454
 20
-33.41284210968451
 30
0.0
 11
-39.45000000001702
 21
-31.37402784906567
 31
0.0
  0
LINE
  5
A49A
330
A
100
AcDbEntity
  8
0
  6
Continuous
 62
     9
370
     0
100
AcDbLine
 10
-39.45000000001702
 20
-31.37402784906567
 30
0.0
 11
-39.45000000037203
 21
-22.58715789033454
 31
0.0
  0
LINE
  5
A49B
330
A
100
AcDbEntity
  8
0
  6
Continuous
 62
     7
370
     0
100
AcDbLine
 10
-39.20000000035456
 20
-23.02017059221652
 30
0.0
 11
-39.20000000002794
 21
-31.10411476354955
 31
0.0
  0
LINE
  5
A49C
330
A
100
AcDbEntity
  8
0
  6
Continuous
 62
     7
370
     0
100
AcDbLine
 10
-39.20000000002794
 20
-31.10411476354955
 30
0.0
 11
-39.19999999995205
 21
-32.97982940778218
 31
0.0
  0
LINE
  5
A49D
330
A
100
AcDbEntity
  8
0
  6
Continuous
 62
     7
370
     0
100
AcDbLine
 10
-39.19999999994283
 20
-23.02017060710506
 30
0.0
 11
-39.20000000032459
 21
-32.95813966214672
 31
0.0
  0
LINE
  5
A49E
330
A
100
AcDbEntity
  8
0
  6
Continuous
 62
     7
370
     0
100
AcDbLine
 10
-39.20000000032459
 20
-32.95813966214672
 30
0.0
 11
-39.20000000032555
 21
-32.97982942267072
 31
0.0
  0
LINE
  5
A49F
330
A
100
AcDbEntity
  8
0
  6
Continuous
 62
     7
370
     0
100
AcDbLine
 10
-45.80000000014535
 20
-26.692307692317
 30
0.0
 11
-45.80000000014535
 21
-1.307692307701698
 31
0.0
  0
LINE
  5
A4A0
330
A
100
AcDbEntity
  8
0
  6
Continuous
 62
     9
370
     0
100
AcDbLine
 10
-45.80000000014514
 20
-1.307692307698401
 30
0.0
 11
-43.80000000014514
 21
-1.307692307698401
 31
0.0
  0
LINE
  5
A4A1
330
A
100
AcDbEntity
  8
0
  6
Continuous
 62
     9
370
     0
100
AcDbLine
 10
-43.80000000014534
 20
-26.692307692317
 30
0.0
 11
-43.80000000014534
 21
-1.307692307701698
 31
0.0
  0
LINE
  5
A4A2
330
A
100
AcDbEntity
  8
0
  6
Continuous
 62
     9
370
     0
100
AcDbLine
 10
-45.80000000014535
 20
-26.6923076923203
 30
0.0
 11
-43.80000000014514
 21
-26.6923076923203
 31
0.0
  0
LINE
  5
A4A3
330
A
100
AcDbEntity
  8
0
  6
Continuous
 62
     7
370
     0
100
AcDbLine
 10
-40.80000000014514
 20
-2.576923076932414
 30
0.0
 11
-40.80000000014514
 21
-25.42307692308634
 31
0.0
  0
ELLIPSE
  5
A4A4
330
A
100
AcDbEntity
  8
0
  6
Continuous
 62
     9
370
     0
100
AcDbEllipse
 10
-43.80000000014534
 20
-25.42307692308919
 30
0.0
 11
3.000000000000001
 21
0.0
 31
0.0
210
0.0
220
0.0
230
1.0
 40
0.4230769230770325
 41
4.712388980384706
 42
6.283185307179584
  0
ELLIPSE
  5
A4A5
330
A
100
AcDbEntity
  8
0
  6
Continuous
 62
     9
370
     0
100
AcDbEllipse
 10
-43.80000000014534
 20
-2.576923076929516
 30
0.0
 11
3.000000000000001
 21
0.0
 31
0.0
210
0.0
220
0.0
230
1.0
 40
0.4230769230770348
 41
0.0
 42
1.570796326794878
  0
LINE
  5
A4A6
330
A
100
AcDbEntity
  8
0
  6
Continuous
 62
     9
370
     0
100
AcDbLine
 10
-43.80000000014534
 20
-1.307692307703063
 30
0.0
 11
-43.80000000014534
 21
21.78117190612073
 31
0.0
  0
ARC
  5
A4A7
330
A
100
AcDbEntity
  8
0
  6
Continuous
 62
     7
370
     0
100
AcDbCircle
 10
-44.94345128881454
 20
18.01776002945069
 30
0.0
 40
4.15808397152779
100
AcDbArc
 50
355.1918232406087
 51
55.59464043764375
  0
LINE
  5
A4A8
330
A
100
AcDbEntity
  8
0
  6
Continuous
 62
     7
370
     0
100
AcDbLine
 10
-40.80000000014514
 20
17.66922920910792
 30
0.0
 11
-40.80000000014514
 21
-2.576923076933838
 31
0.0
  0
LINE
  5
A4A9
330
A
100
AcDbEntity
  8
0
  6
Continuous
 62
     9
370
     0
100
AcDbLine
 10
-43.80000000014534
 20
21.78117190613142
 30
0.0
 11
-45.80000000014535
 21
21.78117190613142
 31
0.0
  0
LINE
  5
A4AA
330
A
100
AcDbEntity
  8
0
  6
Continuous
 62
     7
370
     0
100
AcDbLine
 10
-45.80000000014535
 20
-1.307692307703063
 30
0.0
 11
-45.80000000014514
 21
21.78117190612073
 31
0.0
  0
LINE
  5
A4AB
330
A
100
AcDbEntity
  8
0
  6
Continuous
 62
     9
370
     0
100
AcDbLine
 10
-43.80000000014534
 20
-49.78117190613943
 30
0.0
 11
-43.80000000014534
 21
-26.69230769231558
 31
0.0
  0
LINE
  5
A4AC
330
A
100
AcDbEntity
  8
0
  6
Continuous
 62
     9
370
     0
100
AcDbLine
 10
-45.80000000014535
 20
-49.78117190615012
 30
0.0
 11
-43.80000000014534
 21
-49.78117190615012
 31
0.0
  0
LINE
  5
A4AD
330
A
100
AcDbEntity
  8
0
  6
Continuous
 62
     7
370
     0
100
AcDbLine
 10
-45.80000000014535
 20
-49.78117190613943
 30
0.0
 11
-45.80000000014535
 21
-26.69230769231558
 31
0.0
  0
LINE
  5
A4AE
330
A
100
AcDbEntity
  8
0
  6
Continuous
 62
     7
370
     0
100
AcDbLine
 10
-40.80000000014514
 20
-25.42307692308492
 30
0.0
 11
-40.80000000014514
 21
-45.66922920912667
 31
0.0
  0
ARC
  5
A4AF
330
A
100
AcDbEntity
  8
0
  6
Continuous
 62
     9
370
     0
100
AcDbCircle
 10
-43.80837441746424
 20
-47.41225801069252
 30
0.0
 40
2.368928697735873
100
AcDbArc
 50
270.2025471547945
 51
295.0775180342205
  0
ARC
  5
A4B0
330
A
100
AcDbEntity
  8
0
  6
Continuous
 62
     9
370
     0
100
AcDbCircle
 10
-43.81372698648935
 20
19.37932466464428
 30
0.0
 40
2.401886467257115
100
AcDbArc
 50
59.47986138541091
 51
89.67254794296264
  0
ARC
  5
A4B1
330
A
100
AcDbEntity
  8
0
  6
Continuous
 62
     7
370
     0
100
AcDbCircle
 10
-44.80966611698334
 20
-46.06340241490669
 30
0.0
 40
4.028994277070522
100
AcDbArc
 50
299.849877736708
 51
5.614464438712182
  0
LINE
  5
A4B2
330
A
100
AcDbEntity
  8
0
  6
Continuous
 62
     9
370
     0
100
AcDbLine
 10
-43.80000000014534
 20
-49.78117190614999
 30
0.0
 11
-43.80000000014534
 21
-49.78916645542375
 31
0.0
  0
LINE
  5
A4B3
330
A
100
AcDbEntity
  8
0
  6
Continuous
 62
     9
370
     0
100
AcDbLine
 10
-43.80000000014534
 20
21.78916645540522
 30
0.0
 11
-43.80000000014534
 21
21.7811719061313
 31
0.0
  0
LINE
  5
A4B4
330
A
100
AcDbEntity
  8
0
  6
Continuous
 62
     7
370
     0
100
AcDbLine
 10
-45.80000000014535
 20
21.7811719061313
 30
0.0
 11
-45.80000000014535
 21
21.78916645540522
 31
0.0
  0
LINE
  5
A4B5
330
A
100
AcDbEntity
  8
0
  6
Continuous
 62
     7
370
     0
100
AcDbLine
 10
-45.80000000014535
 20
-49.78916645542375
 30
0.0
 11
-45.80000000014535
 21
-49.78117190614999
 31
0.0
  0
LINE
  5
A4B6
330
A
100
AcDbEntity
  8
0
  6
Continuous
 62
     7
370
     0
100
AcDbLine
 10
-45.80000000014535
 20
-1.402458151835047
 30
0.0
 11
-47.30000000014534
 21
-1.402458151835047
 31
0.0
  0
LINE
  5
A4B7
330
A
100
AcDbEntity
  8
0
  6
Continuous
 62
     7
370
     0
100
AcDbLine
 10
-45.80000000014535
 20
-25.9376495866216
 30
0.0
 11
-47.30000000014534
 21
-25.9376495866216
 31
0.0
  0
LINE
  5
A4B8
330
A
100
AcDbEntity
  8
0
  6
Continuous
 62
     7
370
     0
100
AcDbLine
 10
-47.30000000014534
 20
-25.93764958661825
 30
0.0
 11
-47.30000000014534
 21
-1.402458151838572
 31
0.0
  0
LINE
  5
A4B9
330
A
100
AcDbEntity
  8
0
  6
Continuous
 62
     9
370
     0
100
AcDbLine
 10
-47.30000000014534
 20
-45.00546039979905
 30
0.0
 11
-45.80000000014535
 21
-45.00546039979905
 31
0.0
  0
LINE
  5
A4BA
330
A
100
AcDbEntity
  8
0
  6
Continuous
 62
     7
370
     0
100
AcDbLine
 10
-47.30000000014534
 20
-45.00546039978871
 30
0.0
 11
-47.30000000014534
 21
-25.93764958661672
 31
0.0
  0
LINE
  5
A4BB
330
A
100
AcDbEntity
  8
0
  6
Continuous
 62
     9
370
     0
100
AcDbLine
 10
-45.80000000014535
 20
17.00546039978098
 30
0.0
 11
-47.30000000014534
 21
17.00546039978098
 31
0.0
  0
LINE
  5
A4BC
330
A
100
AcDbEntity
  8
0
  6
Continuous
 62
     7
370
     0
100
AcDbLine
 10
-47.30000000014534
 20
-1.402458151840162
 30
0.0
 11
-47.30000000014534
 21
17.00546039977064
 31
0.0
  0
LINE
  5
A4BD
330
A
100
AcDbEntity
  8
0
  6
Continuous
 62
     7
370
     0
100
AcDbLine
 10
-47.30000000014534
 20
-45.26710514266607
 30
0.0
 11
-47.30000000014534
 21
-45.00546039979854
 31
0.0
  0
LINE
  5
A4BE
330
A
100
AcDbEntity
  8
0
  6
Continuous
 62
     7
370
     0
100
AcDbLine
 10
-47.30000000014534
 20
17.00546039978047
 30
0.0
 11
-47.30000000014534
 21
17.26710514264812
 31
0.0
  0
LINE
  5
A4BF
330
A
100
AcDbEntity
  8
0
  6
Continuous
 62
     7
370
     0
100
AcDbLine
 10
-53.30000000014696
 20
-1.402458151835047
 30
0.0
 11
-54.80000000014705
 21
-1.402458151835047
 31
0.0
  0
LINE
  5
A4C0
330
A
100
AcDbEntity
  8
0
  6
Continuous
 62
     7
370
     0
100
AcDbLine
 10
-53.30000000014696
 20
-25.93764958661825
 30
0.0
 11
-53.30000000014696
 21
-1.402458151838572
 31
0.0
  0
LINE
  5
A4C1
330
A
100
AcDbEntity
  8
0
  6
Continuous
 62
     7
370
     0
100
AcDbLine
 10
-53.30000000014696
 20
-25.9376495866216
 30
0.0
 11
-54.80000000014705
 21
-25.9376495866216
 31
0.0
  0
LINE
  5
A4C2
330
A
100
AcDbEntity
  8
0
  6
Continuous
 62
     9
370
     0
100
AcDbLine
 10
-54.80000000014705
 20
-45.00546039979905
 30
0.0
 11
-53.30000000014696
 21
-45.00546039979905
 31
0.0
  0
LINE
  5
A4C3
330
A
100
AcDbEntity
  8
0
  6
Continuous
 62
     7
370
     0
100
AcDbLine
 10
-53.30000000014696
 20
-45.00546039978871
 30
0.0
 11
-53.30000000014696
 21
-25.93764958661672
 31
0.0
  0
LINE
  5
A4C4
330
A
100
AcDbEntity
  8
0
  6
Continuous
 62
     9
370
     0
100
AcDbLine
 10
-53.30000000014696
 20
17.00546039978098
 30
0.0
 11
-54.80000000014705
 21
17.00546039978098
 31
0.0
  0
LINE
  5
A4C5
330
A
100
AcDbEntity
  8
0
  6
Continuous
 62
     7
370
     0
100
AcDbLine
 10
-53.30000000014696
 20
-1.402458151840162
 30
0.0
 11
-53.30000000014696
 21
17.00546039977064
 31
0.0
  0
LINE
  5
A4C6
330
A
100
AcDbEntity
  8
0
  6
Continuous
 62
     7
370
     0
100
AcDbLine
 10
-53.30000000014696
 20
-45.00546039979854
 30
0.0
 11
-53.30000000014696
 21
-45.26710514266607
 31
0.0
  0
LINE
  5
A4C7
330
A
100
AcDbEntity
  8
0
  6
Continuous
 62
     7
370
     0
100
AcDbLine
 10
-53.30000000014696
 20
17.26710514264812
 30
0.0
 11
-53.30000000014696
 21
17.00546039978047
 31
0.0
  0
LINE
  5
A4C8
330
A
100
AcDbEntity
  8
0
  6
Continuous
 62
     7
370
     0
100
AcDbLine
 10
-47.30000000014705
 20
6.849999999984673
 30
0.0
 11
-53.30000000014696
 21
6.849999999984673
 31
0.0
  0
LINE
  5
A4C9
330
A
100
AcDbEntity
  8
0
  6
Continuous
 62
     7
370
     0
100
AcDbLine
 10
-47.30000000014844
 20
-21.15000000001533
 30
0.0
 11
-53.30000000014845
 21
-21.15000000001533
 31
0.0
  0
LINE
  5
A4CA
330
A
100
AcDbEntity
  8
0
  6
Continuous
 62
     7
370
     0
100
AcDbLine
 10
-59.50000000014386
 20
-52.8
 30
0.0
 11
-70.10000000014386
 21
-52.8
 31
0.0
  0
LINE
  5
A4CB
330
A
100
AcDbEntity
  8
0
  6
Continuous
 62
     7
370
     0
100
AcDbLine
 10
-70.80000000014385
 20
-52.10000000000002
 30
0.0
 11
-58.80000000014385
 21
-52.10000000000002
 31
0.0
  0
LINE
  5
A4CC
330
A
100
AcDbEntity
  8
0
  6
Continuous
 62
     7
370
     0
100
AcDbLine
 10
-59.15245835288084
 20
-51.50000000000007
 30
0.0
 11
-64.80000000014385
 21
-51.50000000000007
 31
0.0
  0
LINE
  5
A4CD
330
A
100
AcDbEntity
  8
0
  6
Continuous
 62
     7
370
     0
100
AcDbLine
 10
-64.80000000014385
 20
-51.50000000000007
 30
0.0
 11
-70.80000000014385
 21
-51.50000000000007
 31
0.0
  0
LINE
  5
A4CE
330
A
100
AcDbEntity
  8
0
  6
Continuous
 62
     7
370
     0
100
AcDbLine
 10
-70.09999973627237
 20
24.79999999999995
 30
0.0
 11
-59.76742415161536
 21
24.79999999999995
 31
0.0
  0
LINE
  5
A4CF
330
A
100
AcDbEntity
  8
0
  6
Continuous
 62
     7
370
     0
100
AcDbLine
 10
-58.79999973627254
 20
24.09999999999997
 30
0.0
 11
-59.10274435741534
 21
24.09999999999997
 31
0.0
  0
LINE
  5
A4D0
330
A
100
AcDbEntity
  8
0
  6
Continuous
 62
     7
370
     0
100
AcDbLine
 10
-59.76742415161536
 20
24.79999999999995
 30
0.0
 11
-59.49999973627254
 21
24.79999999999995
 31
0.0
  0
LINE
  5
A4D1
330
A
100
AcDbEntity
  8
0
  6
Continuous
 62
     7
370
     0
100
AcDbLine
 10
-59.10274435741534
 20
24.09999999999997
 30
0.0
 11
-70.79999973627256
 21
24.09999999999997
 31
0.0
  0
LINE
  5
A4D2
330
A
100
AcDbEntity
  8
0
  6
Continuous
 62
     7
370
     0
100
AcDbLine
 10
-70.79999973627256
 20
23.49999999999994
 30
0.0
 11
-64.80000000014385
 21
23.49999999999994
 31
0.0
  0
LINE
  5
A4D3
330
A
100
AcDbEntity
  8
0
  6
Continuous
 62
     7
370
     0
100
AcDbLine
 10
-64.80000000014385
 20
23.49999999999994
 30
0.0
 11
-59.17984083658466
 21
23.49999999999994
 31
0.0
  0
LINE
  5
A4D4
330
A
100
AcDbEntity
  8
0
  6
Continuous
 62
     7
370
     0
100
AcDbLine
 10
-59.17984083658466
 20
23.49999999999994
 30
0.0
 11
-59.15362062925655
 21
23.49999999999994
 31
0.0
  0
LINE
  5
A4D5
330
A
100
AcDbEntity
  8
0
  6
Continuous
 62
     7
370
     0
100
AcDbLine
 10
-63.80588235308535
 20
5.999999999999943
 30
0.0
 11
-64.80000000014385
 21
5.999999999999943
 31
0.0
  0
LINE
  5
A4D6
330
A
100
AcDbEntity
  8
0
  6
Continuous
 62
     7
370
     0
100
AcDbLine
 10
-64.80000000014385
 20
5.999999999999943
 30
0.0
 11
-70.80000000014385
 21
5.999999999999943
 31
0.0
  0
LINE
  5
A4D7
330
A
100
AcDbEntity
  8
0
  6
Continuous
 62
     7
370
     0
100
AcDbLine
 10
-64.30000000014385
 20
4.699999999999986
 30
0.0
 11
-64.80000000014385
 21
4.699999999999986
 31
0.0
  0
LINE
  5
A4D8
330
A
100
AcDbEntity
  8
0
  6
Continuous
 62
     7
370
     0
100
AcDbLine
 10
-64.80000000014385
 20
4.699999999999986
 30
0.0
 11
-70.80000000014385
 21
4.699999999999986
 31
0.0
  0
LINE
  5
A4D9
330
A
100
AcDbEntity
  8
0
  6
Continuous
 62
     7
370
     0
100
AcDbLine
 10
-70.80000000014385
 20
-33.99999999999939
 30
0.0
 11
-64.80000000014385
 21
-33.99999999999939
 31
0.0
  0
LINE
  5
A4DA
330
A
100
AcDbEntity
  8
0
  6
Continuous
 62
     7
370
     0
100
AcDbLine
 10
-64.80000000014385
 20
-33.99999999999939
 30
0.0
 11
-63.80588235308535
 21
-33.99999999999939
 31
0.0
  0
LINE
  5
A4DB
330
A
100
AcDbEntity
  8
0
  6
Continuous
 62
     7
370
     0
100
AcDbLine
 10
-70.80000000014385
 20
-32.69999999999936
 30
0.0
 11
-64.80000000014385
 21
-32.69999999999936
 31
0.0
  0
LINE
  5
A4DC
330
A
100
AcDbEntity
  8
0
  6
Continuous
 62
     7
370
     0
100
AcDbLine
 10
-64.80000000014385
 20
-32.69999999999936
 30
0.0
 11
-64.30000000014385
 21
-32.69999999999936
 31
0.0
  0
LINE
  5
A4DD
330
A
100
AcDbEntity
  8
0
  6
Continuous
 62
     9
370
     0
100
AcDbLine
 10
-58.74652366036606
 20
-1.307692307705165
 30
0.0
 11
-54.80000000014705
 21
-1.307692307705165
 31
0.0
  0
LINE
  5
A4DE
330
A
100
AcDbEntity
  8
0
  6
Continuous
 62
     7
370
     0
100
AcDbLine
 10
-54.80000000014705
 20
-1.307692307709827
 30
0.0
 11
-54.80000000014705
 21
-26.69230769230939
 31
0.0
  0
LINE
  5
A4DF
330
A
100
AcDbEntity
  8
0
  6
Continuous
 62
     9
370
     0
100
AcDbLine
 10
-58.74652366036606
 20
-26.6923076923207
 30
0.0
 11
-54.80000000014705
 21
-26.6923076923207
 31
0.0
  0
ARC
  5
A4E0
330
A
100
AcDbEntity
  8
0
  6
Continuous
 62
     7
370
     0
100
AcDbCircle
 10
-143.8259717444728
 20
-13.95984043568551
 30
0.0
 40
86.0269039820538
100
AcDbArc
 50
351.488631692567
 51
356.9943841446427
  0
ARC
  5
A4E6
330
A
100
AcDbEntity
  8
0
  6
Continuous
 62
     7
370
     0
100
AcDbCircle
 10
-143.8225250869662
 20
-14.0398119881454
 30
0.0
 40
86.0234438411758
100
AcDbArc
 50
3.005505040489871
 51
8.511479122301274
  0
LINE
  5
A4E7
330
A
100
AcDbEntity
  8
0
  6
Continuous
 62
     9
370
     0
100
AcDbLine
 10
-57.91740635087084
 20
-18.47056108218305
 30
0.0
 11
-57.91740635087084
 21
-9.529438917842696
 31
0.0
  0
LINE
  5
A4ED
330
A
100
AcDbEntity
  8
0
  6
Continuous
 62
     7
370
     0
100
AcDbLine
 10
-63.80000000014404
 20
-50.99357127850156
 30
0.0
 11
-63.80000000014404
 21
22.99357127847583
 31
0.0
  0
LINE
  5
A4F4
330
A
100
AcDbEntity
  8
0
  6
Continuous
 62
     7
370
     0
100
AcDbLine
 10
-59.15362062925655
 20
-51.50000000001286
 30
0.0
 11
-63.80588235308535
 21
-51.3805013882657
 31
0.0
  0
LINE
  5
A4F5
330
A
100
AcDbEntity
  8
0
  6
Continuous
 62
     7
370
     0
100
AcDbLine
 10
-63.80588235308535
 20
-51.3805013882657
 30
0.0
 11
-63.80000000014404
 21
-51.37471982417042
 31
0.0
  0
LINE
  5
A4F6
330
A
100
AcDbEntity
  8
0
  6
Continuous
 62
     7
370
     0
100
AcDbLine
 10
-63.80000000014404
 20
-51.37471982414349
 30
0.0
 11
-63.80000000014404
 21
-50.99357127847537
 31
0.0
  0
LINE
  5
A4FD
330
A
100
AcDbEntity
  8
0
  6
Continuous
 62
     7
370
     0
100
AcDbLine
 10
-58.80000000014575
 20
-51.19409326825939
 30
0.0
 11
-58.80000000014575
 21
-51.49999999998577
 31
0.0
  0
LINE
  5
A4FE
330
A
100
AcDbEntity
  8
0
  6
Continuous
 62
     7
370
     0
100
AcDbLine
 10
-54.80000000014705
 20
-26.69230769231389
 30
0.0
 11
-54.80000000014705
 21
-48.09080196205377
 31
0.0
  0
LINE
  5
A4FF
330
A
100
AcDbEntity
  8
0
  6
Continuous
 62
     7
370
     0
100
AcDbLine
 10
-59.15362062925655
 20
23.49999999998698
 30
0.0
 11
-63.80588235308535
 21
23.38050138823996
 31
0.0
  0
LINE
  5
A500
330
A
100
AcDbEntity
  8
0
  6
Continuous
 62
     7
370
     0
100
AcDbLine
 10
-58.80000000014575
 20
23.49999999996004
 30
0.0
 11
-58.80000000014575
 21
23.19409326823347
 31
0.0
  0
LINE
  5
A508
330
A
100
AcDbEntity
  8
0
  6
Continuous
 62
     7
370
     0
100
AcDbLine
 10
-63.80000000014404
 20
22.99357127844945
 30
0.0
 11
-63.80000000014404
 21
23.37471982411745
 31
0.0
  0
LINE
  5
A509
330
A
100
AcDbEntity
  8
0
  6
Continuous
 62
     7
370
     0
100
AcDbLine
 10
-63.80000000014404
 20
23.37471982414445
 30
0.0
 11
-63.80588235308535
 21
23.38050138823996
 31
0.0
  0
LINE
  5
A50A
330
A
100
AcDbEntity
  8
0
  6
Continuous
 62
     7
370
     0
100
AcDbLine
 10
-54.80000000014705
 20
20.0908019620361
 30
0.0
 11
-54.80000000014705
 21
-1.307692307708405
 31
0.0
  0
LINE
  5
A50B
330
A
100
AcDbEntity
  8
0
  6
Continuous
 62
     7
370
     0
100
AcDbLine
 10
-63.80588235308535
 20
-51.3805013882657
 30
0.0
 11
-63.80588235308535
 21
-32.70000000001301
 31
0.0
  0
LINE
  5
A50C
330
A
100
AcDbEntity
  8
0
  6
Continuous
 62
     7
370
     0
100
AcDbLine
 10
-64.30000000014385
 20
-32.70000000001301
 30
0.0
 11
-63.80588235308525
 21
-32.70000000001301
 31
0.0
  0
LINE
  5
A50D
330
A
100
AcDbEntity
  8
0
  6
Continuous
 62
     9
370
     0
100
AcDbLine
 10
-64.30000000014385
 20
-32.70000000001301
 30
0.0
 11
-64.30000000014385
 21
4.699999999986971
 31
0.0
  0
LINE
  5
A50E
330
A
100
AcDbEntity
  8
0
  6
Continuous
 62
     7
370
     0
100
AcDbLine
 10
-64.30000000014385
 20
4.699999999986971
 30
0.0
 11
-63.80588235308525
 21
4.699999999986971
 31
0.0
  0
LINE
  5
A50F
330
A
100
AcDbEntity
  8
0
  6
Continuous
 62
     7
370
     0
100
AcDbLine
 10
-63.80588235308535
 20
23.38050138823996
 30
0.0
 11
-63.80588235308535
 21
4.699999999986971
 31
0.0
  0
LINE
  5
A510
330
A
100
AcDbEntity
  8
0
  6
Continuous
 62
     9
370
     0
100
AcDbLine
 10
-64.80000000014385
 20
-32.70000000001301
 30
0.0
 11
-64.80000000014385
 21
4.699999999986971
 31
0.0
  0
LINE
  5
A511
330
A
100
AcDbEntity
  8
0
  6
Continuous
 62
     7
370
     0
100
AcDbLine
 10
-64.30000000014385
 20
-32.70000000001301
 30
0.0
 11
-64.80000000014385
 21
-32.70000000001301
 31
0.0
  0
LINE
  5
A512
330
A
100
AcDbEntity
  8
0
  6
Continuous
 62
     7
370
     0
100
AcDbLine
 10
-64.30000000014385
 20
4.699999999986971
 30
0.0
 11
-64.80000000014385
 21
4.699999999986971
 31
0.0
  0
LINE
  5
A513
330
A
100
AcDbEntity
  8
0
  6
Continuous
 62
     7
370
     0
100
AcDbLine
 10
-70.80000000014203
 20
-32.70000000001301
 30
0.0
 11
-70.80000000014203
 21
4.699999999986971
 31
0.0
  0
LINE
  5
A514
330
A
100
AcDbEntity
  8
0
  6
Continuous
 62
     7
370
     0
100
AcDbLine
 10
-64.80000000014385
 20
-32.70000000001301
 30
0.0
 11
-70.80000000014385
 21
-32.70000000001301
 31
0.0
  0
LINE
  5
A515
330
A
100
AcDbEntity
  8
0
  6
Continuous
 62
     7
370
     0
100
AcDbLine
 10
-64.80000000014385
 20
4.699999999986971
 30
0.0
 11
-70.80000000014385
 21
4.699999999986971
 31
0.0
  0
LINE
  5
A516
330
A
100
AcDbEntity
  8
0
  6
Continuous
 62
     7
370
     0
100
AcDbLine
 10
-64.80000000014385
 20
5.999999999999943
 30
0.0
 11
-63.80588235308535
 21
5.999999999999943
 31
0.0
  0
LINE
  5
A517
330
A
100
AcDbEntity
  8
0
  6
Continuous
 62
     9
370
     0
100
AcDbLine
 10
-64.80000000014385
 20
23.49999999999994
 30
0.0
 11
-64.80000000014385
 21
5.999999999999943
 31
0.0
  0
LINE
  5
A518
330
A
100
AcDbEntity
  8
0
  6
Continuous
 62
     7
370
     0
100
AcDbLine
 10
-59.15362062925655
 20
23.49999999999994
 30
0.0
 11
-64.80000000014385
 21
23.49999999999994
 31
0.0
  0
LINE
  5
A519
330
A
100
AcDbEntity
  8
0
  6
Continuous
 62
     7
370
     0
100
AcDbLine
 10
-64.80000000014385
 20
-51.50000000000007
 30
0.0
 11
-70.80000000014385
 21
-51.50000000000007
 31
0.0
  0
LINE
  5
A51A
330
A
100
AcDbEntity
  8
0
  6
Continuous
 62
     7
370
     0
100
AcDbLine
 10
-70.80000000014385
 20
-34.00000000000007
 30
0.0
 11
-70.80000000014385
 21
-51.50000000000007
 31
0.0
  0
LINE
  5
A51B
330
A
100
AcDbEntity
  8
0
  6
Continuous
 62
     7
370
     0
100
AcDbLine
 10
-64.80000000014385
 20
-34.00000000000007
 30
0.0
 11
-70.80000000014385
 21
-34.00000000000007
 31
0.0
  0
LINE
  5
A51C
330
A
100
AcDbEntity
  8
0
  6
Continuous
 62
     9
370
     0
100
AcDbLine
 10
-64.80000000014385
 20
-34.00000000000007
 30
0.0
 11
-64.80000000014385
 21
-51.50000000000007
 31
0.0
  0
LINE
  5
A51D
330
A
100
AcDbEntity
  8
0
  6
Continuous
 62
     7
370
     0
100
AcDbLine
 10
-64.80000000014385
 20
23.49999999999994
 30
0.0
 11
-70.80000000014385
 21
23.49999999999994
 31
0.0
  0
LINE
  5
A51E
330
A
100
AcDbEntity
  8
0
  6
Continuous
 62
     7
370
     0
100
AcDbLine
 10
-70.80000000014385
 20
5.999999999999943
 30
0.0
 11
-64.80000000014385
 21
5.999999999999943
 31
0.0
  0
LINE
  5
A51F
330
A
100
AcDbEntity
  8
0
  6
Continuous
 62
     7
370
     0
100
AcDbLine
 10
-70.80000000014385
 20
23.49999999999994
 30
0.0
 11
-70.80000000014385
 21
5.999999999999943
 31
0.0
  0
LINE
  5
A520
330
A
100
AcDbEntity
  8
0
  6
Continuous
 62
     7
370
     0
100
AcDbLine
 10
-63.80588235308535
 20
-34.00000000000007
 30
0.0
 11
-64.80000000014385
 21
-34.00000000000007
 31
0.0
  0
LINE
  5
A521
330
A
100
AcDbEntity
  8
0
  6
Continuous
 62
     7
370
     0
100
AcDbLine
 10
-59.15172335401805
 20
-51.50000000000007
 30
0.0
 11
-64.80000000014385
 21
-51.50000000000007
 31
0.0
  0
LINE
  5
A522
330
A
100
AcDbEntity
  8
0
  6
Continuous
 62
     7
370
     0
100
AcDbLine
 10
-40.80000000013805
 20
-6.19226497307079
 30
0.0
 11
-39.45000000014232
 21
-5.412842109667167
 31
0.0
  0
LINE
  5
A523
330
A
100
AcDbEntity
  8
0
  6
Continuous
 62
     7
370
     0
100
AcDbLine
 10
-39.45000000014232
 20
5.412842109682969
 30
0.0
 11
-40.80000000013796
 21
6.192264973086538
 31
0.0
  0
ARC
  5
A524
330
A
100
AcDbEntity
  8
0
  6
Continuous
 62
     7
370
     0
100
AcDbCircle
 10
-39.70000000014223
 20
4.979829407790701
 30
0.0
 40
0.5000000000000006
100
AcDbArc
 50
0.0
 51
59.99999999999951
  0
ARC
  5
A525
330
A
100
AcDbEntity
  8
0
  6
Continuous
 62
     7
370
     0
100
AcDbCircle
 10
-39.70000000014223
 20
-4.979829407775014
 30
0.0
 40
0.499999999999988
100
AcDbArc
 50
299.9999999999962
 51
359.9999999999968
  0
LINE
  5
A526
330
A
100
AcDbEntity
  8
0
  6
Continuous
 62
     7
370
     0
100
AcDbLine
 10
-40.80000000014514
 20
-34.19226497328486
 30
0.0
 11
-39.44999999993454
 21
-33.41284210968451
 31
0.0
  0
LINE
  5
A527
330
A
100
AcDbEntity
  8
0
  6
Continuous
 62
     7
370
     0
100
AcDbLine
 10
-39.45000000037203
 20
-22.58715789033454
 30
0.0
 11
-40.80000000013796
 21
-21.80773502713629
 31
0.0
  0
ARC
  5
A528
330
A
100
AcDbEntity
  8
0
  6
Continuous
 62
     7
370
     0
100
AcDbCircle
 10
-39.70000000035457
 20
-23.02017059223675
 30
0.0
 40
0.5000000000000006
100
AcDbArc
 50
0.0000000023156474
 51
60.00000000231662
  0
ARC
  5
A529
330
A
100
AcDbEntity
  8
0
  6
Continuous
 62
     7
370
     0
100
AcDbCircle
 10
-39.69999999995203
 20
-32.97982940780241
 30
0.0
 40
0.5000000000000096
100
AcDbArc
 50
300.0000000023161
 51
0.0000000023156474
  0
ARC
  5
A52A
330
A
100
AcDbEntity
  8
0
  6
Continuous
 62
     7
370
     0
100
AcDbCircle
 10
-43.81350336671684
 20
19.37393210397942
 30
0.0
 40
2.41471524506347
100
AcDbArc
 50
57.68478794499204
 51
89.67959371282594
  0
ARC
  5
A52B
330
A
100
AcDbEntity
  8
0
  6
Continuous
 62
     7
370
     0
100
AcDbCircle
 10
-43.80698100273285
 20
-47.4178522263495
 30
0.0
 40
2.370767644435768
100
AcDbArc
 50
270.168714367264
 51
294.0191866696801
  0
LINE
  5
A52C
330
A
100
AcDbEntity
  8
0
  6
Continuous
 62
     7
370
     0
100
AcDbLine
 10
-43.80000000014534
 20
21.78916645540522
 30
0.0
 11
-45.80000000014535
 21
21.78916645540522
 31
0.0
  0
LINE
  5
A52D
330
A
100
AcDbEntity
  8
0
  6
Continuous
 62
     7
370
     0
100
AcDbLine
 10
-45.80000000014535
 20
-49.78916645542375
 30
0.0
 11
-43.80000000014534
 21
-49.78916645542375
 31
0.0
  0
LINE
  5
A52E
330
A
100
AcDbEntity
  8
0
  6
Continuous
 62
     7
370
     0
100
AcDbLine
 10
-47.30000000014534
 20
-45.26710514266665
 30
0.0
 11
-45.80000000014535
 21
-45.26710514266665
 31
0.0
  0
LINE
  5
A52F
330
A
100
AcDbEntity
  8
0
  6
Continuous
 62
     7
370
     0
100
AcDbLine
 10
-45.80000000014535
 20
17.26710514264874
 30
0.0
 11
-47.30000000014534
 21
17.26710514264874
 31
0.0
  0
LINE
  5
A530
330
A
100
AcDbEntity
  8
0
  6
Continuous
 62
     7
370
     0
100
AcDbLine
 10
-54.80000000014705
 20
-45.26710514266665
 30
0.0
 11
-53.30000000014696
 21
-45.26710514266665
 31
0.0
  0
LINE
  5
A531
330
A
100
AcDbEntity
  8
0
  6
Continuous
 62
     7
370
     0
100
AcDbLine
 10
-53.30000000014696
 20
17.26710514264874
 30
0.0
 11
-54.80000000014705
 21
17.26710514264874
 31
0.0
  0
LINE
  5
A532
330
A
100
AcDbEntity
  8
0
  6
Continuous
 62
     7
370
     0
100
AcDbLine
 10
-53.30000000014696
 20
-6.90000000001055
 30
0.0
 11
-47.30000000014705
 21
-6.90000000001055
 31
0.0
  0
LINE
  5
A533
330
A
100
AcDbEntity
  8
0
  6
Continuous
 62
     7
370
     0
100
AcDbLine
 10
-53.30000000014845
 20
-34.9000000000105
 30
0.0
 11
-47.30000000014844
 21
-34.9000000000105
 31
0.0
  0
LINE
  5
A534
330
A
100
AcDbEntity
  8
0
  6
Continuous
 62
     7
370
     0
100
AcDbLine
 10
-47.30000000014385
 20
6.899999999999977
 30
0.0
 11
-53.30000000014385
 21
6.899999999999977
 31
0.0
  0
LINE
  5
A535
330
A
100
AcDbEntity
  8
0
  6
Continuous
 62
     7
370
     0
100
AcDbLine
 10
-47.30000000014385
 20
-21.10000000000003
 30
0.0
 11
-53.30000000014385
 21
-21.10000000000003
 31
0.0
  0
LINE
  5
A536
330
A
100
AcDbEntity
  8
0
  6
Continuous
 62
     7
370
     0
100
AcDbLine
 10
-70.80000000014385
 20
-52.10000000000002
 30
0.0
 11
-70.10000000014386
 21
-52.8
 31
0.0
  0
LINE
  5
A537
330
A
100
AcDbEntity
  8
0
  6
Continuous
 62
     7
370
     0
100
AcDbLine
 10
-59.50000000014386
 20
-52.8
 30
0.0
 11
-58.80000000014385
 21
-52.10000000000002
 31
0.0
  0
LINE
  5
A538
330
A
100
AcDbEntity
  8
0
  6
Continuous
 62
     7
370
     0
100
AcDbLine
 10
-58.80000000014385
 20
-52.10000000000002
 30
0.0
 11
-58.80000000014385
 21
-51.50000000000007
 31
0.0
  0
LINE
  5
A539
330
A
100
AcDbEntity
  8
0
  6
Continuous
 62
     7
370
     0
100
AcDbLine
 10
-70.80000000014385
 20
-51.50000000000007
 30
0.0
 11
-70.80000000014385
 21
-52.10000000000002
 31
0.0
  0
LINE
  5
A53A
330
A
100
AcDbEntity
  8
0
  6
Continuous
 62
     7
370
     0
100
AcDbLine
 10
-58.79999973627254
 20
24.09999999999997
 30
0.0
 11
-59.49999973627254
 21
24.79999999999995
 31
0.0
  0
LINE
  5
A53B
330
A
100
AcDbEntity
  8
0
  6
Continuous
 62
     7
370
     0
100
AcDbLine
 10
-70.09999973627237
 20
24.79999999999995
 30
0.0
 11
-70.79999973627256
 21
24.09999999999997
 31
0.0
  0
LINE
  5
A53C
330
A
100
AcDbEntity
  8
0
  6
Continuous
 62
     7
370
     0
100
AcDbLine
 10
-70.79999973627256
 20
24.09999999999997
 30
0.0
 11
-70.79999973627256
 21
23.49999999999994
 31
0.0
  0
LINE
  5
A53D
330
A
100
AcDbEntity
  8
0
  6
Continuous
 62
     7
370
     0
100
AcDbLine
 10
-58.79999973627254
 20
23.49999999999994
 30
0.0
 11
-58.79999973627254
 21
24.09999999999997
 31
0.0
  0
LINE
  5
A53E
330
A
100
AcDbEntity
  8
0
  6
Continuous
 62
     7
370
     0
100
AcDbLine
 10
-70.80000000014385
 20
5.999999999999943
 30
0.0
 11
-70.80000000014385
 21
4.699999999999986
 31
0.0
  0
LINE
  5
A53F
330
A
100
AcDbEntity
  8
0
  6
Continuous
 62
     7
370
     0
100
AcDbLine
 10
-70.80000000014385
 20
-32.69999999999936
 30
0.0
 11
-70.80000000014385
 21
-33.99999999999939
 31
0.0
  0
LINE
  5
A540
330
A
100
AcDbEntity
  8
0
  6
Continuous
 62
     7
370
     0
100
AcDbLine
 10
-59.15362062925655
 20
-51.50000000001286
 30
0.0
 11
-58.80000000014575
 21
-51.50000000001286
 31
0.0
  0
LINE
  5
A541
330
A
100
AcDbEntity
  8
0
  6
Continuous
 62
     7
370
     0
100
AcDbLine
 10
-58.80000000014575
 20
23.49999999998715
 30
0.0
 11
-59.15362062925655
 21
23.49999999998698
 31
0.0
  0
LINE
  5
A542
330
A
100
AcDbEntity
  8
0
  6
Continuous
 62
     7
370
     0
100
AcDbLine
 10
64.97982940778289
 20
52.70000000012033
 30
0.0
 11
59.96353079801011
 21
52.70000000013851
 31
0.0
  0
LINE
  5
A543
330
A
100
AcDbEntity
  8
0
  6
Continuous
 62
     7
370
     0
100
AcDbLine
 10
59.96353079801011
 20
52.70000000013851
 30
0.0
 11
55.02017059221711
 21
52.70000000015671
 31
0.0
  0
LINE
  5
A544
330
A
100
AcDbEntity
  8
0
  6
Continuous
 62
     9
370
     0
100
AcDbLine
 10
54.58715789032325
 20
52.95000000016762
 30
0.0
 11
64.23258736212861
 21
52.95000000013533
 31
0.0
  0
LINE
  5
A545
330
A
100
AcDbEntity
  8
0
  6
Continuous
 62
     9
370
     0
100
AcDbLine
 10
64.23258736212861
 20
52.95000000013533
 30
0.0
 11
65.41284210967322
 21
52.95000000013136
 31
0.0
  0
LINE
  5
A546
330
A
100
AcDbEntity
  8
0
  6
Continuous
 62
     7
370
     0
100
AcDbLine
 10
64.97982940778015
 20
52.70000000013283
 30
0.0
 11
63.89399184196739
 21
52.70000000013646
 31
0.0
  0
LINE
  5
A547
330
A
100
AcDbEntity
  8
0
  6
Continuous
 62
     7
370
     0
100
AcDbLine
 10
63.89399184196739
 20
52.70000000013646
 30
0.0
 11
55.02017059221461
 21
52.70000000016625
 31
0.0
  0
LINE
  5
A548
330
A
100
AcDbEntity
  8
0
  6
Continuous
 62
     7
370
     0
100
AcDbLine
 10
4.979829407783057
 20
52.70000000013043
 30
0.0
 11
-1.092295379524813
 21
52.70000000013043
 31
0.0
  0
LINE
  5
A549
330
A
100
AcDbEntity
  8
0
  6
Continuous
 62
     7
370
     0
100
AcDbLine
 10
-1.092295379524813
 20
52.70000000013043
 30
0.0
 11
-3.520107594298593
 21
52.70000000013043
 31
0.0
  0
LINE
  5
A54A
330
A
100
AcDbEntity
  8
0
  6
Continuous
 62
     7
370
     0
100
AcDbLine
 10
-3.520107594298593
 20
52.70000000013043
 30
0.0
 11
-4.979829407782602
 21
52.70000000013043
 31
0.0
  0
LINE
  5
A54B
330
A
100
AcDbEntity
  8
0
  6
Continuous
 62
     9
370
     0
100
AcDbLine
 10
-5.412842109660886
 20
52.95000000033815
 30
0.0
 11
0.5046462984885025
 21
52.950000000111
 31
0.0
  0
LINE
  5
A54C
330
A
100
AcDbEntity
  8
0
  6
Continuous
 62
     9
370
     0
100
AcDbLine
 10
0.5046462984885025
 20
52.950000000111
 30
0.0
 11
5.41284210968925
 21
52.9499999999224
 31
0.0
  0
LINE
  5
A54D
330
A
100
AcDbEntity
  8
0
  6
Continuous
 62
     7
370
     0
100
AcDbLine
 10
4.979829407787491
 20
52.69999999993911
 30
0.0
 11
0.4642759620135024
 21
52.70000000011248
 31
0.0
  0
LINE
  5
A54E
330
A
100
AcDbEntity
  8
0
  6
Continuous
 62
     7
370
     0
100
AcDbLine
 10
0.4642759620135024
 20
52.70000000011248
 30
0.0
 11
-4.979829407778225
 21
52.70000000032144
 31
0.0
  0
ELLIPSE
  5
A54F
330
A
100
AcDbEntity
  8
0
  6
Continuous
 62
     9
370
     0
100
AcDbEllipse
 10
69.46375073657711
 20
57.30000000014136
 30
0.0
 11
0.0
 21
-3.000000000000001
 31
0.0
210
0.0
220
0.0
230
1.0
 40
0.9060937684148299
 41
0.0
 42
1.570796326794896
  0
LINE
  5
A550
330
A
100
AcDbEntity
  8
0
  6
Continuous
 62
     7
370
     0
100
AcDbLine
 10
69.46375073656762
 20
54.30000000014138
 30
0.0
 11
47.99999999998394
 21
54.30000000014138
 31
0.0
  0
ARC
  5
A551
330
A
100
AcDbEntity
  8
0
  6
Continuous
 62
     9
370
     0
100
AcDbCircle
 10
48.15270636555308
 20
57.19461613725218
 30
0.0
 40
2.898641374041705
100
AcDbArc
 50
177.9164785334008
 51
266.9801429782552
  0
LINE
  5
A552
330
A
100
AcDbEntity
  8
0
  6
Continuous
 62
     9
370
     0
100
AcDbLine
 10
45.25598130839509
 20
57.30000000014136
 30
0.0
 11
72.18203204181148
 21
57.30000000014136
 31
0.0
  0
ARC
  5
A553
330
A
100
AcDbEntity
  8
0
  6
Continuous
 62
     7
370
     0
100
AcDbCircle
 10
47.99999999998712
 20
57.30000000014172
 30
0.0
 40
3.000000000000221
100
AcDbArc
 50
180.0000000000032
 51
270.0000000000098
  0
LINE
  5
A554
330
A
100
AcDbEntity
  8
0
  6
Continuous
 62
     9
370
     0
100
AcDbLine
 10
45.25598130839816
 20
57.30000000014136
 30
0.0
 11
44.99999999998691
 21
57.30000000014136
 31
0.0
  0
LINE
  5
A555
330
A
100
AcDbEntity
  8
0
  6
Continuous
 62
     9
370
     0
100
AcDbLine
 10
45.25598130839816
 20
59.3000000001415
 30
0.0
 11
45.25598130839816
 21
57.30000000014136
 31
0.0
  0
LINE
  5
A556
330
A
100
AcDbEntity
  8
0
  6
Continuous
 62
     7
370
     0
100
AcDbLine
 10
44.99999999998691
 20
57.30000000014136
 30
0.0
 11
44.99999999998691
 21
59.3000000001415
 31
0.0
  0
LINE
  5
A557
330
A
100
AcDbEntity
  8
0
  6
Continuous
 62
     7
370
     0
100
AcDbLine
 10
44.99999999998691
 20
59.3000000001415
 30
0.0
 11
45.25598130839816
 21
59.3000000001415
 31
0.0
  0
LINE
  5
A558
330
A
100
AcDbEntity
  8
0
  6
Continuous
 62
     9
370
     0
100
AcDbLine
 10
72.18203204182143
 20
59.3000000001415
 30
0.0
 11
72.18203204182143
 21
57.30000000014136
 31
0.0
  0
LINE
  5
A559
330
A
100
AcDbEntity
  8
0
  6
Continuous
 62
     7
370
     0
100
AcDbLine
 10
45.25598130839509
 20
59.3000000001415
 30
0.0
 11
72.18203204181148
 21
59.3000000001415
 31
0.0
  0
LINE
  5
A55A
330
A
100
AcDbEntity
  8
0
  6
Continuous
 62
     9
370
     0
100
AcDbLine
 10
72.18203204181444
 20
57.30000000014136
 30
0.0
 11
74.9992189893766
 21
57.30000000014136
 31
0.0
  0
LINE
  5
A55B
330
A
100
AcDbEntity
  8
0
  6
Continuous
 62
     7
370
     0
100
AcDbLine
 10
72.18203204181444
 20
59.3000000001415
 30
0.0
 11
74.9992189893766
 21
59.3000000001415
 31
0.0
  0
LINE
  5
A55C
330
A
100
AcDbEntity
  8
0
  6
Continuous
 62
     7
370
     0
100
AcDbLine
 10
71.9992189893766
 20
54.30000000014138
 30
0.0
 11
69.46375073657074
 21
54.30000000014138
 31
0.0
  0
ELLIPSE
  5
A55D
330
A
100
AcDbEntity
  8
0
  6
Continuous
 62
     9
370
     0
100
AcDbEllipse
 10
-9.463750736583577
 20
57.30000000013409
 30
0.0
 11
0.0
 21
-3.000000000000001
 31
0.0
210
0.0
220
0.0
230
1.0
 40
0.9060937684145947
 41
4.712388980384688
 42
6.283185307179584
  0
LINE
  5
A55E
330
A
100
AcDbEntity
  8
0
  6
Continuous
 62
     9
370
     0
100
AcDbLine
 10
-12.1820320418274
 20
57.30000000013409
 30
0.0
 11
14.744018691589
 21
57.30000000013409
 31
0.0
  0
ARC
  5
A55F
330
A
100
AcDbEntity
  8
0
  6
Continuous
 62
     9
370
     0
100
AcDbCircle
 10
11.84053633178993
 20
57.20079685883149
 30
0.0
 40
2.905176599951931
100
AcDbArc
 50
273.1465175922253
 51
1.956860896134272
  0
LINE
  5
A560
330
A
100
AcDbEntity
  8
0
  6
Continuous
 62
     7
370
     0
100
AcDbLine
 10
12.00000000000014
 20
54.30000000013409
 30
0.0
 11
-9.463750736583705
 21
54.30000000013409
 31
0.0
  0
ARC
  5
A561
330
A
100
AcDbEntity
  8
0
  6
Continuous
 62
     7
370
     0
100
AcDbCircle
 10
12.00000000000014
 20
57.30000000013409
 30
0.0
 40
3.000000000000055
100
AcDbArc
 50
270.0
 51
0.0
  0
LINE
  5
A562
330
A
100
AcDbEntity
  8
0
  6
Continuous
 62
     9
370
     0
100
AcDbLine
 10
15.00000000000014
 20
57.30000000013409
 30
0.0
 11
14.744018691589
 21
57.30000000013409
 31
0.0
  0
LINE
  5
A563
330
A
100
AcDbEntity
  8
0
  6
Continuous
 62
     7
370
     0
100
AcDbLine
 10
15.00000000000014
 20
59.30000000013422
 30
0.0
 11
15.00000000000014
 21
57.30000000013409
 31
0.0
  0
LINE
  5
A564
330
A
100
AcDbEntity
  8
0
  6
Continuous
 62
     9
370
     0
100
AcDbLine
 10
14.744018691589
 20
57.30000000013409
 30
0.0
 11
14.744018691589
 21
59.30000000013422
 31
0.0
  0
LINE
  5
A565
330
A
100
AcDbEntity
  8
0
  6
Continuous
 62
     7
370
     0
100
AcDbLine
 10
14.744018691589
 20
59.30000000013422
 30
0.0
 11
15.00000000000014
 21
59.30000000013422
 31
0.0
  0
LINE
  5
A566
330
A
100
AcDbEntity
  8
0
  6
Continuous
 62
     9
370
     0
100
AcDbLine
 10
-12.1820320418274
 20
59.30000000013422
 30
0.0
 11
-12.1820320418274
 21
57.30000000013409
 31
0.0
  0
LINE
  5
A567
330
A
100
AcDbEntity
  8
0
  6
Continuous
 62
     7
370
     0
100
AcDbLine
 10
-12.1820320418274
 20
59.30000000013422
 30
0.0
 11
14.744018691589
 21
59.30000000013422
 31
0.0
  0
LINE
  5
A568
330
A
100
AcDbEntity
  8
0
  6
Continuous
 62
     9
370
     0
100
AcDbLine
 10
-14.99921898938956
 20
57.30000000013409
 30
0.0
 11
-12.1820320418274
 21
57.30000000013409
 31
0.0
  0
LINE
  5
A569
330
A
100
AcDbEntity
  8
0
  6
Continuous
 62
     7
370
     0
100
AcDbLine
 10
-9.463750736583705
 20
54.30000000013409
 30
0.0
 11
-11.99921898938959
 21
54.30000000013409
 31
0.0
  0
LINE
  5
A56A
330
A
100
AcDbEntity
  8
0
  6
Continuous
 62
     7
370
     0
100
AcDbLine
 10
-14.99921898938956
 20
59.30000000013422
 30
0.0
 11
-12.1820320418274
 21
59.30000000013422
 31
0.0
  0
LINE
  5
A56B
330
A
100
AcDbEntity
  8
0
  6
Continuous
 62
     7
370
     0
100
AcDbLine
 10
50.99999999998821
 20
59.3000000001415
 30
0.0
 11
50.99999999998821
 21
60.80000000014138
 31
0.0
  0
LINE
  5
A56C
330
A
100
AcDbEntity
  8
0
  6
Continuous
 62
     9
370
     0
100
AcDbLine
 10
53.98899999998898
 20
60.80000000014138
 30
0.0
 11
53.98899999998898
 21
59.3000000001415
 31
0.0
  0
LINE
  5
A56D
330
A
100
AcDbEntity
  8
0
  6
Continuous
 62
     7
370
     0
100
AcDbLine
 10
50.99999999998877
 20
60.80000000014138
 30
0.0
 11
53.98899999998886
 21
60.80000000014138
 31
0.0
  0
LINE
  5
A56E
330
A
100
AcDbEntity
  8
0
  6
Continuous
 62
     7
370
     0
100
AcDbLine
 10
71.42900910641586
 20
59.3000000001415
 30
0.0
 11
71.42900910641586
 21
60.80000000014138
 31
0.0
  0
LINE
  5
A56F
330
A
100
AcDbEntity
  8
0
  6
Continuous
 62
     7
370
     0
100
AcDbLine
 10
53.98899999998329
 20
60.80000000014138
 30
0.0
 11
71.42900910640495
 21
60.80000000014138
 31
0.0
  0
LINE
  5
A570
330
A
100
AcDbEntity
  8
0
  6
Continuous
 62
     7
370
     0
100
AcDbLine
 10
71.42900910640824
 20
60.80000000014138
 30
0.0
 11
73.99999999998644
 21
60.80000000014138
 31
0.0
  0
LINE
  5
A571
330
A
100
AcDbEntity
  8
0
  6
Continuous
 62
     9
370
     0
100
AcDbLine
 10
6.011000000000173
 20
59.30000000014001
 30
0.0
 11
6.011000000000173
 21
60.80000000014024
 31
0.0
  0
LINE
  5
A572
330
A
100
AcDbEntity
  8
0
  6
Continuous
 62
     7
370
     0
100
AcDbLine
 10
6.011000000000173
 20
60.80000000014024
 30
0.0
 11
9.000000000000142
 21
60.80000000014024
 31
0.0
  0
LINE
  5
A573
330
A
100
AcDbEntity
  8
0
  6
Continuous
 62
     7
370
     0
100
AcDbLine
 10
9.000000000000142
 20
60.80000000014024
 30
0.0
 11
9.000000000000142
 21
59.30000000014001
 31
0.0
  0
LINE
  5
A574
330
A
100
AcDbEntity
  8
0
  6
Continuous
 62
     7
370
     0
100
AcDbLine
 10
-11.12091000297637
 20
59.30000000014001
 30
0.0
 11
-11.12091000297637
 21
60.80000000014024
 31
0.0
  0
LINE
  5
A575
330
A
100
AcDbEntity
  8
0
  6
Continuous
 62
     7
370
     0
100
AcDbLine
 10
-11.1209100029762
 20
60.80000000014024
 30
0.0
 11
6.011000000000173
 21
60.80000000014024
 31
0.0
  0
LINE
  5
A576
330
A
100
AcDbEntity
  8
0
  6
Continuous
 62
     7
370
     0
100
AcDbLine
 10
-13.99999999999984
 20
60.80000000014024
 30
0.0
 11
-11.1209100029762
 21
60.80000000014024
 31
0.0
  0
LINE
  5
A577
330
A
100
AcDbEntity
  8
0
  6
Continuous
 62
     7
370
     0
100
AcDbLine
 10
9.000000000000142
 20
68.30000000014002
 30
0.0
 11
9.000000000000142
 21
66.80000000014001
 31
0.0
  0
LINE
  5
A578
330
A
100
AcDbEntity
  8
0
  6
Continuous
 62
     9
370
     0
100
AcDbLine
 10
6.011000000000173
 20
66.80000000014001
 30
0.0
 11
6.011000000000173
 21
68.30000000014002
 31
0.0
  0
LINE
  5
A579
330
A
100
AcDbEntity
  8
0
  6
Continuous
 62
     7
370
     0
100
AcDbLine
 10
9.000000000000142
 20
66.80000000014001
 30
0.0
 11
6.011000000000173
 21
66.80000000014001
 31
0.0
  0
LINE
  5
A57A
330
A
100
AcDbEntity
  8
0
  6
Continuous
 62
     7
370
     0
100
AcDbLine
 10
-11.42900910642154
 20
68.30000000014002
 30
0.0
 11
-11.42900910642154
 21
66.80000000014001
 31
0.0
  0
LINE
  5
A57B
330
A
100
AcDbEntity
  8
0
  6
Continuous
 62
     7
370
     0
100
AcDbLine
 10
6.011000000000237
 20
66.80000000014001
 30
0.0
 11
-11.4290091064212
 21
66.80000000014001
 31
0.0
  0
LINE
  5
A57C
330
A
100
AcDbEntity
  8
0
  6
Continuous
 62
     7
370
     0
100
AcDbLine
 10
-11.42900910642144
 20
66.80000000014001
 30
0.0
 11
-13.99999999999951
 21
66.80000000014001
 31
0.0
  0
LINE
  5
A57D
330
A
100
AcDbEntity
  8
0
  6
Continuous
 62
     7
370
     0
100
AcDbLine
 10
50.99999999998821
 20
66.8000000001432
 30
0.0
 11
50.99999999998821
 21
68.3000000001432
 31
0.0
  0
LINE
  5
A57E
330
A
100
AcDbEntity
  8
0
  6
Continuous
 62
     9
370
     0
100
AcDbLine
 10
53.98899999998898
 20
68.3000000001432
 30
0.0
 11
53.98899999998898
 21
66.8000000001432
 31
0.0
  0
LINE
  5
A57F
330
A
100
AcDbEntity
  8
0
  6
Continuous
 62
     7
370
     0
100
AcDbLine
 10
53.98899999998886
 20
66.8000000001432
 30
0.0
 11
50.99999999998877
 21
66.8000000001432
 31
0.0
  0
LINE
  5
A580
330
A
100
AcDbEntity
  8
0
  6
Continuous
 62
     7
370
     0
100
AcDbLine
 10
71.42900910641586
 20
66.8000000001432
 30
0.0
 11
71.42900910641586
 21
68.3000000001432
 31
0.0
  0
LINE
  5
A581
330
A
100
AcDbEntity
  8
0
  6
Continuous
 62
     7
370
     0
100
AcDbLine
 10
53.98899999998329
 20
66.8000000001432
 30
0.0
 11
71.42900910640495
 21
66.8000000001432
 31
0.0
  0
LINE
  5
A582
330
A
100
AcDbEntity
  8
0
  6
Continuous
 62
     7
370
     0
100
AcDbLine
 10
71.42900910640824
 20
66.8000000001432
 30
0.0
 11
73.99999999998644
 21
66.8000000001432
 31
0.0
  0
CIRCLE
  5
A583
330
A
100
AcDbEntity
  8
0
  6
Continuous
 62
     7
370
     0
100
AcDbCircle
 10
30.00000000000026
 20
78.30000000014002
 30
0.0
 40
5.299999999999971
  0
CIRCLE
  5
A584
330
A
100
AcDbEntity
  8
0
  6
Continuous
 62
     7
370
     0
100
AcDbCircle
 10
30.00000000000026
 20
78.30000000014002
 30
0.0
 40
6.000000000000002
  0
LINE
  5
A585
330
A
100
AcDbEntity
  8
0
  6
Continuous
 62
     7
370
     0
100
AcDbLine
 10
36.42352941176293
 20
77.30588235308163
 30
0.0
 11
36.49999999999821
 21
77.30000000014024
 31
0.0
  0
LINE
  5
A586
330
A
100
AcDbEntity
  8
0
  6
Continuous
 62
     7
370
     0
100
AcDbLine
 10
36.49999999999611
 20
77.30000000014024
 30
0.0
 11
39.79999999999191
 21
77.30000000014024
 31
0.0
  0
LINE
  5
A587
330
A
100
AcDbEntity
  8
0
  6
Continuous
 62
     9
370
     0
100
AcDbLine
 10
72.1820320418146
 20
72.2465236603623
 30
0.0
 11
72.1820320418146
 21
68.3000000001432
 31
0.0
  0
LINE
  5
A588
330
A
100
AcDbEntity
  8
0
  6
Continuous
 62
     7
370
     0
100
AcDbLine
 10
72.18203204180011
 20
68.3000000001432
 30
0.0
 11
49.99999999998798
 21
68.3000000001432
 31
0.0
  0
LINE
  5
A589
330
A
100
AcDbEntity
  8
0
  6
Continuous
 62
     7
370
     0
100
AcDbLine
 10
38.33999999999438
 20
72.30000000014195
 30
0.0
 11
33.00000000000111
 21
72.30000000014195
 31
0.0
  0
LINE
  5
A58A
330
A
100
AcDbEntity
  8
0
  6
Continuous
 62
     7
370
     0
100
AcDbLine
 10
32.99999999999922
 20
72.53371870280648
 30
0.0
 11
32.99999999999922
 21
72.30000000014195
 31
0.0
  0
ARC
  5
A58B
330
A
100
AcDbEntity
  8
0
  6
Continuous
 62
     7
370
     0
100
AcDbCircle
 10
30.00000000000037
 20
78.30000000013979
 30
0.0
 40
6.499999999997807
100
AcDbArc
 50
297.4864262503807
 51
351.2025892900104
  0
ARC
  5
A58C
330
A
100
AcDbEntity
  8
0
  6
Continuous
 62
     7
370
     0
100
AcDbCircle
 10
38.33809608761064
 20
53.30000009554031
 30
0.0
 40
18.99999999999328
100
AcDbArc
 50
52.13635316960206
 51
89.99425862397353
  0
ARC
  5
A58D
330
A
100
AcDbEntity
  8
0
  6
Continuous
 62
     7
370
     0
100
AcDbCircle
 10
39.84272075492228
 20
-28.70295524584697
 30
0.0
 40
106.0029638545342
100
AcDbArc
 50
72.23706442911714
 51
90.02309104323151
  0
LINE
  5
A58E
330
A
100
AcDbEntity
  8
0
  6
Continuous
 62
     7
370
     0
100
AcDbLine
 10
35.99999999999844
 20
77.80000000014024
 30
0.0
 11
35.99999999999844
 21
78.30000000014002
 31
0.0
  0
ARC
  5
A58F
330
A
100
AcDbEntity
  8
0
  6
Continuous
 62
     7
370
     0
100
AcDbCircle
 10
36.49999999999821
 20
77.80000000014024
 30
0.0
 40
0.5000000000000422
100
AcDbArc
 50
180.0
 51
261.2025892900104
  0
LINE
  5
A590
330
A
100
AcDbEntity
  8
0
  6
Continuous
 62
     7
370
     0
100
AcDbLine
 10
30.00000000000026
 20
72.30000000014195
 30
0.0
 11
32.99999999999922
 21
72.30000000014195
 31
0.0
  0
LINE
  5
A591
330
A
100
AcDbEntity
  8
0
  6
Continuous
 62
     7
370
     0
100
AcDbLine
 10
74.99921898936637
 20
68.3000000001432
 30
0.0
 11
72.18203204180444
 21
68.3000000001432
 31
0.0
  0
LINE
  5
A59E
330
A
100
AcDbEntity
  8
0
  6
Continuous
 62
     7
370
     0
100
AcDbLine
 10
72.1820320418146
 20
72.2465236603623
 30
0.0
 11
74.66425031601679
 21
71.41740635086716
 31
0.0
  0
LINE
  5
A59F
330
A
100
AcDbEntity
  8
0
  6
Continuous
 62
     9
370
     0
100
AcDbLine
 10
26.78000000000023
 20
73.23723395774789
 30
0.0
 11
26.78000000000023
 21
72.30000000014001
 31
0.0
  0
LINE
  5
A5A0
330
A
100
AcDbEntity
  8
0
  6
Continuous
 62
     7
370
     0
100
AcDbLine
 10
26.78000000000023
 20
72.30000000014001
 30
0.0
 11
30.00000000000026
 21
72.30000000014001
 31
0.0
  0
ARC
  5
A5A1
330
A
100
AcDbEntity
  8
0
  6
Continuous
 62
     7
370
     0
100
AcDbCircle
 10
21.66190391238749
 20
53.30000009553146
 30
0.0
 40
19.0000000000003
100
AcDbArc
 50
90.00574137602646
 51
127.8636468303959
  0
LINE
  5
A5A2
330
A
100
AcDbEntity
  8
0
  6
Continuous
 62
     7
370
     0
100
AcDbLine
 10
10.00000000000014
 20
68.30000000014002
 30
0.0
 11
-12.1820320418274
 21
68.30000000014002
 31
0.0
  0
LINE
  5
A5A3
330
A
100
AcDbEntity
  8
0
  6
Continuous
 62
     9
370
     0
100
AcDbLine
 10
-12.1820320418274
 20
72.24652366036022
 30
0.0
 11
-12.1820320418274
 21
68.30000000014002
 31
0.0
  0
ARC
  5
A5A4
330
A
100
AcDbEntity
  8
0
  6
Continuous
 62
     7
370
     0
100
AcDbCircle
 10
20.15681668246211
 20
-28.69999120363576
 30
0.0
 40
105.9999999999975
100
AcDbArc
 50
89.976658283879
 51
107.7631862437717
  0
LINE
  5
A5A5
330
A
100
AcDbEntity
  8
0
  6
Continuous
 62
     7
370
     0
100
AcDbLine
 10
20.20000000000019
 20
77.30000000014001
 30
0.0
 11
23.50000000000013
 21
77.30000000014001
 31
0.0
  0
LINE
  5
A5CE
330
A
100
AcDbEntity
  8
0
  6
Continuous
 62
     7
370
     0
100
AcDbLine
 10
24.00000000000026
 20
77.80000000014002
 30
0.0
 11
24.00000000000026
 21
78.30000000014002
 31
0.0
  0
LINE
  5
A5CF
330
A
100
AcDbEntity
  8
0
  6
Continuous
 62
     7
370
     0
100
AcDbLine
 10
26.78000000000023
 20
72.30000000014001
 30
0.0
 11
21.66000000000022
 21
72.30000000014001
 31
0.0
  0
LINE
  5
A5DB
330
A
100
AcDbEntity
  8
0
  6
Continuous
 62
     7
370
     0
100
AcDbLine
 10
-12.1820320418274
 20
68.30000000014002
 30
0.0
 11
-14.99921898938956
 21
68.30000000014002
 31
0.0
  0
LINE
  5
A5DC
330
A
100
AcDbEntity
  8
0
  6
Continuous
 62
     7
370
     0
100
AcDbLine
 10
-14.6642503160303
 20
71.41740635086499
 30
0.0
 11
-12.1820320418274
 21
72.24652366036022
 31
0.0
  0
LINE
  5
A5DD
330
A
100
AcDbEntity
  8
0
  6
Continuous
 62
     7
370
     0
100
AcDbLine
 10
53.80773502693839
 20
54.30000000014138
 30
0.0
 11
54.58715789032325
 21
52.95000000016762
 31
0.0
  0
LINE
  5
A5DE
330
A
100
AcDbEntity
  8
0
  6
Continuous
 62
     7
370
     0
100
AcDbLine
 10
65.41284210967322
 20
52.95000000013136
 30
0.0
 11
66.19226497309128
 21
54.30000000014138
 31
0.0
  0
ARC
  5
A5DF
330
A
100
AcDbEntity
  8
0
  6
Continuous
 62
     7
370
     0
100
AcDbCircle
 10
64.97982940778192
 20
53.20000000013272
 30
0.0
 40
0.4999999999999451
100
AcDbArc
 50
269.9999999998079
 51
329.9999999998083
  0
ARC
  5
A5E0
330
A
100
AcDbEntity
  8
0
  6
Continuous
 62
     7
370
     0
100
AcDbCircle
 10
55.02017059221626
 20
53.20000000016625
 30
0.0
 40
0.4999999999999877
100
AcDbArc
 50
209.999999999805
 51
269.9999999998046
  0
LINE
  5
A5E1
330
A
100
AcDbEntity
  8
0
  6
Continuous
 62
     7
370
     0
100
AcDbLine
 10
-6.192264972879939
 20
54.30000000013409
 30
0.0
 11
-5.412842109660886
 21
52.95000000033815
 31
0.0
  0
LINE
  5
A5E2
330
A
100
AcDbEntity
  8
0
  6
Continuous
 62
     7
370
     0
100
AcDbLine
 10
5.41284210968925
 20
52.9499999999224
 30
0.0
 11
6.192264973286597
 21
54.30000000013409
 31
0.0
  0
ARC
  5
A5E3
330
A
100
AcDbEntity
  8
0
  6
Continuous
 62
     7
370
     0
100
AcDbCircle
 10
4.979829407806633
 20
53.1999999999391
 30
0.0
 40
0.4999999999999451
100
AcDbArc
 50
269.9999999977984
 51
329.9999999978008
  0
ARC
  5
A5E4
330
A
100
AcDbEntity
  8
0
  6
Continuous
 62
     7
370
     0
100
AcDbCircle
 10
-4.979829407759012
 20
53.20000000032142
 30
0.0
 40
0.5000000000000338
100
AcDbArc
 50
209.9999999978046
 51
269.9999999978049
  0
LINE
  5
A5E5
330
A
100
AcDbEntity
  8
0
  6
Continuous
 62
     7
370
     0
100
AcDbLine
 10
74.99921898938438
 20
57.30000000014136
 30
0.0
 11
74.99921898938438
 21
59.3000000001415
 31
0.0
  0
ARC
  5
A5E6
330
A
100
AcDbEntity
  8
0
  6
Continuous
 62
     7
370
     0
100
AcDbCircle
 10
71.99921898939058
 20
57.30000000014136
 30
0.0
 40
3.000000000000001
100
AcDbArc
 50
269.9999999999316
 51
0.0
  0
ARC
  5
A5E7
330
A
100
AcDbEntity
  8
0
  6
Continuous
 62
     7
370
     0
100
AcDbCircle
 10
-11.99921898938956
 20
57.30000000013409
 30
0.0
 40
3.000000000000001
100
AcDbArc
 50
180.0
 51
270.0
  0
LINE
  5
A5E8
330
A
100
AcDbEntity
  8
0
  6
Continuous
 62
     7
370
     0
100
AcDbLine
 10
-14.99921898938956
 20
59.30000000013422
 30
0.0
 11
-14.99921898938956
 21
57.30000000013409
 31
0.0
  0
LINE
  5
A5E9
330
A
100
AcDbEntity
  8
0
  6
Continuous
 62
     7
370
     0
100
AcDbLine
 10
73.99999999999474
 20
59.3000000001415
 30
0.0
 11
73.99999999999474
 21
60.80000000014138
 31
0.0
  0
LINE
  5
A5EA
330
A
100
AcDbEntity
  8
0
  6
Continuous
 62
     7
370
     0
100
AcDbLine
 10
-13.99999999999984
 20
60.80000000014024
 30
0.0
 11
-13.99999999999984
 21
59.30000000014001
 31
0.0
  0
LINE
  5
A5EB
330
A
100
AcDbEntity
  8
0
  6
Continuous
 62
     7
370
     0
100
AcDbLine
 10
-13.99999999999973
 20
68.30000000014002
 30
0.0
 11
-13.99999999999973
 21
66.80000000014001
 31
0.0
  0
LINE
  5
A5EC
330
A
100
AcDbEntity
  8
0
  6
Continuous
 62
     7
370
     0
100
AcDbLine
 10
73.99999999999474
 20
66.8000000001432
 30
0.0
 11
73.99999999999474
 21
68.3000000001432
 31
0.0
  0
LINE
  5
A5ED
330
A
100
AcDbEntity
  8
0
  6
Continuous
 62
     7
370
     0
100
AcDbLine
 10
65.89999999998886
 20
60.80000000014455
 30
0.0
 11
65.89999999998886
 21
66.80000000014458
 31
0.0
  0
LINE
  5
A5EE
330
A
100
AcDbEntity
  8
0
  6
Continuous
 62
     7
370
     0
100
AcDbLine
 10
52.09999999999374
 20
66.80000000014458
 30
0.0
 11
52.09999999999374
 21
60.80000000014455
 31
0.0
  0
LINE
  5
A5EF
330
A
100
AcDbEntity
  8
0
  6
Continuous
 62
     7
370
     0
100
AcDbLine
 10
-6.899999999999835
 20
66.80000000014001
 30
0.0
 11
-6.899999999999835
 21
60.80000000014002
 31
0.0
  0
LINE
  5
A5F0
330
A
100
AcDbEntity
  8
0
  6
Continuous
 62
     7
370
     0
100
AcDbLine
 10
6.900000000000183
 20
60.80000000014002
 30
0.0
 11
6.900000000000183
 21
66.80000000014001
 31
0.0
  0
LINE
  5
A5F1
330
A
100
AcDbEntity
  8
0
  6
Continuous
 62
     7
370
     0
100
AcDbLine
 10
74.9992189893758
 20
68.3000000001432
 30
0.0
 11
74.9992189893758
 21
70.97328679077247
 31
0.0
  0
LINE
  5
A5F2
330
A
100
AcDbEntity
  8
0
  6
Continuous
 62
     7
370
     0
100
AcDbLine
 10
-14.99921898938956
 20
70.97356392500161
 30
0.0
 11
-14.99921898938956
 21
68.30000000014002
 31
0.0
  0
ELLIPSE
  5
A71C
330
A
100
AcDbEntity
  8
0
  6
Continuous
 62
     7
370
     0
100
AcDbEllipse
 10
156.6677267053776
 20
-85.04195772372678
 30
0.0
 11
0.1011928851253341
 21
-0.1239354670786174
 31
0.0
210
-0.0000000000000001
220
0.0
230
1.0
 40
0.8164965809277264
 41
2.072497731627044
 42
3.141592653589828
  0
ELLIPSE
  5
A71D
330
A
100
AcDbEntity
  8
0
  6
Continuous
 62
     7
370
     0
100
AcDbEllipse
 10
148.0955365068323
 20
-113.2994511756377
 30
0.0
 11
21.75647030195849
 21
-26.64612542190703
 31
0.0000000000000012
210
0.0
220
0.0
230
1.0
 40
0.8164965809277269
 41
1.222236612936302
 42
2.072497731627009
  0
ELLIPSE
  5
A71E
330
A
100
AcDbEntity
  8
0
  6
Continuous
 62
     7
370
     0
100
AcDbEllipse
 10
156.5240595091165
 20
-111.0032841406741
 30
0.0
 11
15.17893276880822
 21
-18.59032006179562
 31
0.0000000000000008
210
-0.0000000000000001
220
0.0
230
1.0
 40
0.8164965809277259
 41
0.3485597138585927
 42
1.222236612936307
  0
ELLIPSE
  5
A71F
330
A
100
AcDbEntity
  8
0
  6
Continuous
 62
     7
370
     0
100
AcDbEllipse
 10
148.0955365068323
 20
-105.2661869988931
 30
0.0
 11
21.75647030195849
 21
-26.64612542190703
 31
0.0000000000000012
210
-0.0000000000000001
220
0.0
230
1.0
 40
0.8164965809277264
 41
6.209118057253053
 42
6.283185307179584
  0
LINE
  5
A720
330
A
100
AcDbEntity
  8
0
  6
Continuous
 62
     7
370
     0
100
AcDbLine
 10
156.5246183548176
 20
-85.0127458539932
 30
0.0
 11
156.5246183548176
 21
-89.38210656792836
 31
0.0
  0
LINE
  5
A721
330
A
100
AcDbEntity
  8
0
  6
Continuous
 62
     9
370
     0
100
AcDbLine
 10
175.9744972066959
 20
-105.704437136913
 30
0.0
 11
176.6900389594958
 21
-105.1201997422408
 31
0.0
  0
LINE
  5
A722
330
A
100
AcDbEntity
  8
0
  6
Continuous
 62
     9
370
     0
100
AcDbLine
 10
157.4233254217222
 20
-84.32567596712976
 30
0.0
 11
156.7077836689222
 21
-84.90991336180199
 31
0.0
  0
ELLIPSE
  5
A723
330
A
100
AcDbEntity
  8
0
  6
Continuous
 62
     9
370
     0
100
AcDbEllipse
 10
148.8110782596321
 20
-112.7152137809655
 30
0.0
 11
21.75647030195849
 21
-26.64612542190703
 31
-0.0000000000000012
210
0.0
220
-0.0000000000000001
230
1.0
 40
0.8164965809277269
 41
1.222236612936302
 42
2.072497731627009
  0
ELLIPSE
  5
A724
330
A
100
AcDbEntity
  8
0
  6
Continuous
 62
     9
370
     0
100
AcDbEllipse
 10
174.7449951897377
 20
-105.6500844426169
 30
0.0
 11
2.214006738965101
 21
0.9263768994404728
 31
-0.0000000000000002
210
0.0000000000000001
220
0.0
230
1.0
 40
0.1971908013744028
 41
5.696625002602917
 42
6.283184206081811
  0
ELLIPSE
  5
A73E
330
A
100
AcDbEntity
  8
0
  6
Continuous
 62
     9
370
     0
100
AcDbEllipse
 10
157.2396012619164
 20
-110.4190467460022
 30
0.0
 11
15.17893276880822
 21
-18.59032006179556
 31
0.0
210
0.0000000000000001
220
0.0
230
1.0
 40
0.8164965809277259
 41
0.3485597138585901
 42
1.222236612936302
  0
LINE
  5
A73F
330
A
100
AcDbEntity
  8
0
  6
Continuous
 62
     9
370
     0
100
AcDbLine
 10
175.9744972066959
 20
-124.2427390832464
 30
0.0
 11
176.6900389594958
 21
-123.6585016885742
 31
0.0
  0
ELLIPSE
  5
A740
330
A
100
AcDbEntity
  8
0
  6
Continuous
 62
     9
370
     0
100
AcDbEllipse
 10
174.7449951897377
 20
-122.334556194317
 30
0.0
 11
2.142656684574916
 21
-1.081213361019238
 31
0.0000000000000002
210
-0.0000000000000001
220
0.0
230
1.0
 40
0.5426316625362235
 41
6.046214545933398
 42
6.283185852180711
  0
ELLIPSE
  5
A741
330
A
100
AcDbEntity
  8
0
  6
Continuous
 62
     9
370
     0
100
AcDbEllipse
 10
157.3832684581774
 20
-84.45772032905463
 30
0.0
 11
-0.1011928851254451
 21
0.1239354670786175
 31
0.0
210
0.0
220
0.0
230
1.0
 40
0.8164965809276781
 41
5.2140903852167
 42
6.283972005805027
  0
ELLIPSE
  5
A742
330
A
100
AcDbEntity
  8
0
  6
Continuous
 62
     7
370
     0
100
AcDbEllipse
 10
156.6677267053776
 20
-85.04195772372678
 30
0.0
 11
0.1011928851254451
 21
-0.1239354670786175
 31
0.0
210
0.0
220
0.0
230
1.0
 40
0.8164965809277266
 41
3.141592653589716
 42
3.926990816987084
  0
ELLIPSE
  5
A743
330
A
100
AcDbEntity
  8
0
  6
Continuous
 62
     7
370
     0
100
AcDbEllipse
 10
148.8110782596321
 20
-104.681949604221
 30
0.0
 11
21.75647030195849
 21
-26.64612542190703
 31
0.0000000000000024
210
-0.0000000000000001
220
0.0
230
1.0
 40
0.8164965809277259
 41
0.0000000000000004
 42
0.058953719669676
  0
ELLIPSE
  5
A744
330
A
100
AcDbEntity
  8
0
  6
Continuous
 62
     7
370
     0
100
AcDbEllipse
 10
148.0955365068323
 20
-105.2661869988931
 30
0.0
 11
21.75647030195849
 21
-26.64612542190703
 31
0.0000000000000024
210
-0.0000000000000001
220
0.0
230
1.0
 40
0.8164965809277259
 41
0.0000000000000005
 42
0.3485597138585913
  0
ELLIPSE
  5
A745
330
A
100
AcDbEntity
  8
0
  6
Continuous
 62
     9
370
     0
100
AcDbEllipse
 10
148.8110782596321
 20
-104.681949604221
 30
0.0
 11
21.75647030195849
 21
-26.64612542190703
 31
0.0000000000000012
210
-0.0000000000000001
220
0.0
230
1.0
 40
0.8164965809277264
 41
0.0589537196696736
 42
0.3485597138585892
  0
ELLIPSE
  5
A746
330
A
100
AcDbEntity
  8
0
  6
Continuous
 62
     7
370
     0
100
AcDbEllipse
 10
143.4874476188148
 20
-112.3588289702078
 30
0.0
 11
21.75647030195849
 21
-26.64612542190703
 31
0.0000000000000012
210
-0.0000000000000001
220
0.0
230
1.0
 40
0.8164965809277264
 41
2.639891248757681
 42
3.141592653589794
  0
ELLIPSE
  5
A747
330
A
100
AcDbEntity
  8
0
  6
Continuous
 62
     7
370
     0
100
AcDbEllipse
 10
134.9152574202716
 20
-80.6017535242179
 30
0.0
 11
0.1011928851253896
 21
-0.1239354670786175
 31
0.0
210
-0.0000000000000001
220
0.0
230
1.0
 40
0.8164965809277406
 41
0.785398163397195
 42
2.639891248757673
  0
LINE
  5
A748
330
A
100
AcDbEntity
  8
0
  6
Continuous
 62
     7
370
     0
100
AcDbLine
 10
135.0583657708316
 20
-84.21986277223437
 30
0.0
 11
135.0583657708316
 21
-80.63096539395161
 31
0.0
  0
LINE
  5
A749
330
A
100
AcDbEntity
  8
0
  6
Continuous
 62
     9
370
     0
100
AcDbLine
 10
134.875200456727
 20
-80.45335597540486
 30
0.0
 11
135.5907422095269
 21
-79.86911858073279
 31
0.0
  0
ELLIPSE
  5
A74A
330
A
100
AcDbEntity
  8
0
  6
Continuous
 62
     9
370
     0
100
AcDbEllipse
 10
135.6307991730716
 20
-80.01751612954581
 30
0.0
 11
-0.1011928851253896
 21
0.1239354670786175
 31
0.0
210
-0.0000000000000001
220
0.0
230
1.0
 40
0.8164965809277855
 41
3.926990816986986
 42
5.781483902347332
  0
LINE
  5
A74B
330
A
100
AcDbEntity
  8
0
  6
Continuous
 62
     9
370
     0
100
AcDbLine
 10
135.7739075236316
 20
-80.04672799927936
 30
0.0
 11
135.0583657708316
 21
-80.63096539395161
 31
0.0
  0
LINE
  5
A74C
330
A
100
AcDbEntity
  8
0
  6
Continuous
 62
     9
370
     0
100
AcDbLine
 10
135.7739075236316
 20
-84.28442186546922
 30
0.0
 11
135.7739075236316
 21
-80.04672799927929
 31
0.0
  0
ELLIPSE
  5
A74D
330
A
100
AcDbEntity
  8
0
  6
Continuous
 62
     7
370
     0
100
AcDbEllipse
 10
143.4874476188148
 20
-112.3588289702078
 30
0.0
 11
21.75647030195849
 21
-26.64612542190703
 31
-0.0000000000000024
210
0.0
220
-0.0000000000000001
230
1.0
 40
0.8164965809277259
 41
3.141592653589792
 42
3.215659903515513
  0
ELLIPSE
  5
A74E
330
A
100
AcDbEntity
  8
0
  6
Continuous
 62
     9
370
     0
100
AcDbEllipse
 10
144.2029893716149
 20
-111.7745915755357
 30
0.0
 11
21.75647030195849
 21
-26.64612542190703
 31
0.0000000000000012
210
-0.0000000000000001
220
0.0
230
1.0
 40
0.8164965809277264
 41
2.639891248757681
 42
3.082536863074038
  0
LINE
  5
A74F
330
A
100
AcDbEntity
  8
0
  6
Continuous
 62
     9
370
     0
100
AcDbLine
 10
136.0289053239922
 20
-79.89614826605162
 30
0.0
 11
135.7739075236316
 21
-80.04672799927936
 31
0.0
  0
LINE
  5
A750
330
A
100
AcDbEntity
  8
0
  6
Continuous
 62
     9
370
     0
100
AcDbLine
 10
135.590742209527
 20
-79.86911858073279
 30
0.0
 11
135.8313832453273
 21
-79.71864438542758
 31
0.0
  0
ELLIPSE
  5
A751
330
A
100
AcDbEntity
  8
0
  6
Continuous
 62
     7
370
     0
100
AcDbEllipse
 10
144.2029893716149
 20
-111.7745915755357
 30
0.0
 11
21.75647030195849
 21
-26.64612542190703
 31
0.0000000000000012
210
-0.0000000000000001
220
0.0
230
1.0
 40
0.8164965809277264
 41
3.082536863074038
 42
3.141592653589794
  0
ELLIPSE
  5
A752
330
A
100
AcDbEntity
  8
0
  6
Continuous
 62
     7
370
     0
100
AcDbEllipse
 10
155.9879620402174
 20
-111.4415762605792
 30
0.0
 11
14.67296834318132
 21
-17.97064272640241
 31
-0.0000000000000008
210
0.0
220
0.0
230
1.0
 40
0.8164965809277259
 41
0.3611419062808503
 42
1.234767973115582
  0
LINE
  5
A753
330
A
100
AcDbEntity
  8
0
  6
Continuous
 62
     7
370
     0
100
AcDbLine
 10
160.281212557018
 20
-90.94426077990942
 30
0.0
 11
160.281212557018
 21
-91.87020778285511
 31
0.0
  0
ELLIPSE
  5
A754
330
A
100
AcDbEntity
  8
0
  6
Continuous
 62
     7
370
     0
100
AcDbEllipse
 10
161.7122960626182
 20
-91.23637947724558
 30
0.0
 11
1.011928851253895
 21
-1.239354670786396
 31
0.0000000000000001
210
-0.0000000000000001
220
0.0
230
1.0
 40
0.8164965809277257
 41
1.838935009164833
 42
3.141592653589778
  0
ELLIPSE
  5
A755
330
A
100
AcDbEntity
  8
0
  6
Continuous
 62
     7
370
     0
100
AcDbEllipse
 10
147.5588801922316
 20
-113.7376292216415
 30
0.0
 11
21.25050587633148
 21
-26.02644808651382
 31
0.0
210
0.0
220
0.0
230
1.0
 40
0.8164965809277259
 41
1.230881232660393
 42
1.838935009164839
  0
LINE
  5
A756
330
A
100
AcDbEntity
  8
0
  6
Continuous
 62
     7
370
     0
100
AcDbLine
 10
175.2152200830816
 20
-105.6186575304139
 30
0.0
 11
174.6785637684816
 21
-106.056835576418
 31
0.0
  0
LINE
  5
A757
330
A
100
AcDbEntity
  8
0
  6
Continuous
 62
     9
370
     0
100
AcDbLine
 10
162.9566231707375
 20
-89.67313894402172
 30
0.0
 11
162.4199668561376
 21
-90.11131699002573
 31
0.0
  0
ELLIPSE
  5
A758
330
A
100
AcDbEntity
  8
0
  6
Continuous
 62
     7
370
     0
100
AcDbEllipse
 10
148.0955365068316
 20
-113.2994511756374
 30
0.0
 11
21.25050587633148
 21
-26.02644808651382
 31
0.0
210
0.0
220
0.0
230
1.0
 40
0.8164965809277259
 41
1.230881232660393
 42
1.838935009164839
  0
LINE
  5
A759
330
A
100
AcDbEntity
  8
0
  6
Continuous
 62
     7
370
     0
100
AcDbLine
 10
175.435677855597
 20
-123.581628686842
 30
0.0
 11
174.899021540997
 21
-124.0198067328461
 31
0.0
  0
ELLIPSE
  5
A75A
330
A
100
AcDbEntity
  8
0
  6
Continuous
 62
     7
370
     0
100
AcDbEllipse
 10
156.5246183548172
 20
-111.0033982145751
 30
0.0
 11
14.67296834318132
 21
-17.97064272640241
 31
-0.0000000000000008
210
0.0
220
0.0
230
1.0
 40
0.8164965809277259
 41
0.3611419062808498
 42
1.234767973115581
  0
ELLIPSE
  5
A75B
330
A
100
AcDbEntity
  8
0
  6
Continuous
 62
     7
370
     0
100
AcDbEllipse
 10
166.7210883322194
 20
-103.4083120838345
 30
0.0
 11
-3.035786553761687
 21
3.718064012359133
 31
0.0
210
0.0
220
0.0
230
1.0
 40
0.8164965809277255
 41
3.838779807701977
 42
4.413079939482623
  0
ELLIPSE
  5
A75C
330
A
100
AcDbEntity
  8
0
  6
Continuous
 62
     7
370
     0
100
AcDbEllipse
 10
161.7122960626182
 20
-91.23637947724558
 30
0.0
 11
1.011928851253895
 21
-1.239354670786396
 31
0.0000000000000001
210
-0.0000000000000001
220
0.0
230
1.0
 40
0.8164965809277257
 41
3.141592653589778
 42
3.926990816987236
  0
ELLIPSE
  5
A75D
330
A
100
AcDbEntity
  8
0
  6
Continuous
 62
     7
370
     0
100
AcDbEllipse
 10
162.2489523772185
 20
-90.79820143124141
 30
0.0
 11
-1.011928851253895
 21
1.239354670786396
 31
-0.0000000000000001
210
-0.0000000000000001
220
0.0
230
1.0
 40
0.8164965809277255
 41
4.980527662754632
 42
6.28318530717957
  0
ELLIPSE
  5
A75E
330
A
100
AcDbEntity
  8
0
  6
Continuous
 62
     7
370
     0
100
AcDbEllipse
 10
148.0955365068316
 20
-105.2661869988926
 30
0.0
 11
21.25050587633148
 21
-26.02644808651382
 31
-0.0000000000000012
210
0.0
220
0.0
230
1.0
 40
0.8164965809277259
 41
0.0833404942668077
 42
0.3572551658256725
  0
ELLIPSE
  5
A75F
330
A
100
AcDbEntity
  8
0
  6
Continuous
 62
     7
370
     0
100
AcDbEllipse
 10
147.5588801922316
 20
-105.7043650448967
 30
0.0
 11
21.25050587633148
 21
-26.02644808651382
 31
-0.0000000000000012
210
0.0
220
0.0
230
1.0
 40
0.8164965809277259
 41
0.1280214725192874
 42
0.3572551658256697
  0
ELLIPSE
  5
A760
330
A
100
AcDbEntity
  8
0
  6
Continuous
 62
     7
370
     0
100
AcDbEllipse
 10
128.7973754338301
 20
-84.51764943851628
 30
0.0
 11
1.011928851253895
 21
-1.23935467078634
 31
0.0000000000000001
210
-0.0000000000000001
220
0.0
230
1.0
 40
0.816496580927726
 41
1.484141282067646
 42
2.873453971219859
  0
LINE
  5
A761
330
A
100
AcDbEntity
  8
0
  6
Continuous
 62
     9
370
     0
100
AcDbLine
 10
128.089704640311
 20
-83.10368155963141
 30
0.0
 11
128.626360954911
 21
-82.66550351362729
 31
0.0
  0
ELLIPSE
  5
A762
330
A
100
AcDbEntity
  8
0
  6
Continuous
 62
     7
370
     0
100
AcDbEllipse
 10
129.3340317484301
 20
-84.07947139251211
 30
0.0
 11
-1.011928851253895
 21
1.239354670786396
 31
-0.0000000000000001
210
-0.0000000000000001
220
0.0
230
1.0
 40
0.8164965809277259
 41
4.266021400149031
 42
6.015046624809652
  0
ELLIPSE
  5
A763
330
A
100
AcDbEntity
  8
0
  6
Continuous
 62
     7
370
     0
100
AcDbEllipse
 10
142.9507913042128
 20
-112.7970070162137
 30
0.0
 11
21.25050587633148
 21
-26.02644808651382
 31
0.0000000000000012
210
-0.0000000000000001
220
0.0
230
1.0
 40
0.8164965809277259
 41
2.873453971219848
 42
3.013571181068983
  0
ELLIPSE
  5
A764
330
A
100
AcDbEntity
  8
0
  6
Continuous
 62
     7
370
     0
100
AcDbEllipse
 10
143.4874476188128
 20
-112.3588289702095
 30
0.0
 11
21.25050587633148
 21
-26.02644808651382
 31
0.0000000000000012
210
-0.0000000000000001
220
0.0
230
1.0
 40
0.8164965809277259
 41
2.873453971219848
 42
3.058252159321788
  0
LINE
  5
A765
330
A
100
AcDbEntity
  8
0
  6
Continuous
 62
     7
370
     0
100
AcDbLine
 10
172.5319385100812
 20
-107.8095477604351
 30
0.0
 11
172.5311751616967
 21
-107.8101710317812
 31
0.0
  0
LINE
  5
A766
330
A
100
AcDbEntity
  8
0
  6
Continuous
 62
     9
370
     0
100
AcDbLine
 10
160.2733415977373
 20
-91.8640291740427
 30
0.0
 11
160.2609402331045
 21
-91.87415484586438
 31
0.0
  0
ELLIPSE
  5
A767
330
A
100
AcDbEntity
  8
0
  6
Continuous
 62
     7
370
     0
100
AcDbEllipse
 10
145.4122549338313
 20
-115.4903414056585
 30
0.0
 11
21.25050587633148
 21
-26.02644808651382
 31
0.0
210
0.0
220
0.0
230
1.0
 40
0.8164965809277259
 41
1.230881232660393
 42
1.838935009164839
  0
ELLIPSE
  5
A768
330
A
100
AcDbEntity
  8
0
  6
Continuous
 62
     7
370
     0
100
AcDbEllipse
 10
153.8413367818169
 20
-113.1942884445962
 30
0.0
 11
14.67296834318132
 21
-17.97064272640241
 31
0.0
210
0.0
220
0.0
230
1.0
 40
0.8164965809277259
 41
1.226189153848057
 42
1.234767973115581
  0
ELLIPSE
  5
A769
330
A
100
AcDbEntity
  8
0
  6
Continuous
 62
     7
370
     0
100
AcDbEllipse
 10
166.0055465794189
 20
-103.2622527351727
 30
0.0
 11
-3.491154536825913
 21
4.275773614212996
 31
-0.0000000000000002
210
-0.0000000000000001
220
0.0
230
1.0
 40
0.816496580927725
 41
4.345322074623233
 42
5.301939291965393
  0
ELLIPSE
  5
A76A
330
A
100
AcDbEntity
  8
0
  6
Continuous
 62
     7
370
     0
100
AcDbEllipse
 10
166.0055465794189
 20
-103.2622527351727
 30
0.0
 11
-3.491154536825913
 21
4.275773614212996
 31
-0.0000000000000002
210
-0.0000000000000001
220
0.0
230
1.0
 40
0.816496580927725
 41
3.870669229908461
 42
4.345322074623233
  0
ELLIPSE
  5
A76B
330
A
100
AcDbEntity
  8
0
  6
Continuous
 62
     7
370
     0
100
AcDbEllipse
 10
138.9938454112291
 20
-141.7488911091934
 30
0.0
 11
4.800000000000026
 21
0.0
 31
0.0
210
0.0
220
0.0
230
1.0
 40
0.4082482904638631
 41
3.141592653589792
 42
3.49508382207309
  0
ELLIPSE
  5
A76C
330
A
100
AcDbEntity
  8
0
  6
Continuous
 62
     7
370
     0
100
AcDbEllipse
 10
138.9938454112291
 20
-141.7488911091934
 30
0.0
 11
4.800000000000026
 21
0.0
 31
0.0
210
0.0
220
0.0
230
1.0
 40
0.4082482904638633
 41
5.81953769817878
 42
6.283185307179584
  0
ELLIPSE
  5
A76D
330
A
100
AcDbEntity
  8
0
  6
Continuous
 62
     7
370
     0
100
AcDbEllipse
 10
138.9938454112291
 20
-141.7488911091934
 30
0.0
 11
4.800000000000026
 21
0.0
 31
0.0
210
0.0
220
0.0
230
1.0
 40
0.4082482904638631
 41
4.248741371383879
 42
5.81953769817878
  0
ELLIPSE
  5
A76E
330
A
100
AcDbEntity
  8
0
  6
Continuous
 62
     7
370
     0
100
AcDbEllipse
 10
138.9938454112291
 20
-141.7488911091934
 30
0.0
 11
4.800000000000026
 21
0.0
 31
0.0
210
0.0
220
0.0
230
1.0
 40
0.4082482904638631
 41
3.682259657258031
 42
4.248741371383879
  0
ELLIPSE
  5
A76F
330
A
100
AcDbEntity
  8
0
  6
Continuous
 62
     7
370
     0
100
AcDbEllipse
 10
138.9938454112291
 20
-141.7488911091934
 30
0.0
 11
4.800000000000026
 21
0.0
 31
0.0
210
0.0
220
0.0
230
1.0
 40
0.4082482904638631
 41
3.664947205792584
 42
3.682259657258031
  0
ELLIPSE
  5
A770
330
A
100
AcDbEntity
  8
0
  6
Continuous
 62
     7
370
     0
100
AcDbEllipse
 10
138.9938454112291
 20
-141.7488911091934
 30
0.0
 11
4.800000000000026
 21
0.0
 31
0.0
210
0.0
220
0.0
230
1.0
 40
0.4082482904638631
 41
3.626162851275748
 42
3.664947205792584
  0
ELLIPSE
  5
A771
330
A
100
AcDbEntity
  8
0
  6
Continuous
 62
     7
370
     0
100
AcDbEllipse
 10
138.9938454112291
 20
-141.7488911091934
 30
0.0
 11
4.800000000000026
 21
0.0
 31
0.0
210
0.0
220
0.0
230
1.0
 40
0.4082482904638631
 41
3.49508382207309
 42
3.626162851275748
  0
ELLIPSE
  5
A772
330
A
100
AcDbEntity
  8
0
  6
Continuous
 62
     7
370
     0
100
AcDbEllipse
 10
138.9938454112291
 20
-142.1870691551975
 30
0.0
 11
-4.800000000000026
 21
0.0
 31
0.0
210
0.0
220
0.0
230
1.0
 40
0.4082482904638633
 41
0.0
 42
0.3534911684832929
  0
ELLIPSE
  5
A773
330
A
100
AcDbEntity
  8
0
  6
Continuous
 62
     7
370
     0
100
AcDbEllipse
 10
138.9938454112291
 20
-142.1870691551975
 30
0.0
 11
-4.800000000000026
 21
0.0
 31
0.0
210
0.0
220
0.0
230
1.0
 40
0.4082482904638631
 41
0.3534911684832942
 42
0.4636476090008033
  0
ELLIPSE
  5
A774
330
A
100
AcDbEntity
  8
0
  6
Continuous
 62
     7
370
     0
100
AcDbEllipse
 10
138.9938454112291
 20
-142.6982768755357
 30
0.0
 11
4.240000000000021
 21
0.0
 31
0.0
210
0.0
220
0.0
230
1.0
 40
0.408248290463863
 41
3.605240262590596
 42
5.81953769817878
  0
ELLIPSE
  5
A775
330
A
100
AcDbEntity
  8
0
  6
Continuous
 62
     7
370
     0
100
AcDbEllipse
 10
138.9938454112291
 20
-142.1870691551975
 30
0.0
 11
-4.800000000000026
 21
0.0
 31
0.0
210
0.0
220
0.0
230
1.0
 40
0.4082482904638631
 41
2.677945044588984
 42
3.141592653589794
  0
ELLIPSE
  5
A776
330
A
100
AcDbEntity
  8
0
  6
Continuous
 62
     7
370
     0
100
AcDbEllipse
 10
138.9938454112291
 20
-142.1870691551975
 30
0.0
 11
-4.800000000000026
 21
0.0
 31
0.0
210
0.0
220
0.0
230
1.0
 40
0.4082482904638631
 41
0.4636476090008049
 42
2.677945044588984
  0
ELLIPSE
  5
A777
330
A
100
AcDbEntity
  8
0
  6
Continuous
 62
     7
370
     0
100
AcDbEllipse
 10
138.9938454748751
 20
-86.02724950897401
 30
0.0
 11
-4.240000000000021
 21
0.0
 31
0.0
210
0.0
220
0.0
230
1.0
 40
0.4082482904638631
 41
3.605240262590596
 42
3.92971922145749
  0
ELLIPSE
  5
A778
330
A
100
AcDbEntity
  8
0
  6
Continuous
 62
     7
370
     0
100
AcDbEllipse
 10
138.9938454748751
 20
-86.02724950897401
 30
0.0
 11
-4.240000000000021
 21
0.0
 31
0.0
210
0.0
220
0.0
230
1.0
 40
0.4082482904638631
 41
5.819537698178772
 42
9.888425569770179
  0
ELLIPSE
  5
A779
330
A
100
AcDbEntity
  8
0
  6
Continuous
 62
     7
370
     0
100
AcDbEllipse
 10
138.9938454748751
 20
-86.53845722931219
 30
0.0
 11
4.800000000000026
 21
0.0
 31
0.0
210
0.0
220
0.0
230
1.0
 40
0.4082482904638631
 41
0.0
 42
0.4636476090008049
  0
ELLIPSE
  5
A77A
330
A
100
AcDbEntity
  8
0
  6
Continuous
 62
     7
370
     0
100
AcDbEllipse
 10
138.9938454748751
 20
-86.02724950897401
 30
0.0
 11
-4.240000000000021
 21
0.0
 31
0.0
210
0.0
220
0.0
230
1.0
 40
0.4082482904638631
 41
3.92971922145749
 42
5.819537698178772
  0
ELLIPSE
  5
A77B
330
A
100
AcDbEntity
  8
0
  6
Continuous
 62
     7
370
     0
100
AcDbEllipse
 10
138.9938454748751
 20
-86.97663527531625
 30
0.0
 11
-4.800000000000026
 21
0.0
 31
0.0
210
0.0
220
0.0
230
1.0
 40
0.4082482904638633
 41
0.0000000000000036
 42
0.5300450040473197
  0
ELLIPSE
  5
A77C
330
A
100
AcDbEntity
  8
0
  6
Continuous
 62
     7
370
     0
100
AcDbEllipse
 10
138.9938454748751
 20
-86.97663527531625
 30
0.0
 11
-4.800000000000026
 21
0.0
 31
0.0
210
0.0
220
0.0
230
1.0
 40
0.4082482904638631
 41
0.5300450040473197
 42
0.5406659569709463
  0
ELLIPSE
  5
A77D
330
A
100
AcDbEntity
  8
0
  6
Continuous
 62
     7
370
     0
100
AcDbEllipse
 10
138.9938454748751
 20
-86.97663527531625
 30
0.0
 11
-4.800000000000026
 21
0.0
 31
0.0
210
0.0
220
0.0
230
1.0
 40
0.4082482904638628
 41
0.540665956970946
 42
1.10714870296942
  0
ELLIPSE
  5
A77E
330
A
100
AcDbEntity
  8
0
  6
Continuous
 62
     7
370
     0
100
AcDbEllipse
 10
138.9938454748751
 20
-86.97663527531625
 30
0.0
 11
-4.800000000000026
 21
0.0
 31
0.0
210
0.0
220
0.0
230
1.0
 40
0.4082482904638633
 41
1.10714870296942
 42
2.677945000610423
  0
ELLIPSE
  5
A77F
330
A
100
AcDbEntity
  8
0
  6
Continuous
 62
     7
370
     0
100
AcDbEllipse
 10
138.9938454748751
 20
-86.97663527531625
 30
0.0
 11
-4.800000000000026
 21
0.0
 31
0.0
210
0.0
220
0.0000000000000001
230
1.0
 40
0.4082482904638628
 41
2.677945000610423
 42
3.141592653589792
  0
ELLIPSE
  5
A780
330
A
100
AcDbEntity
  8
0
  6
Continuous
 62
     7
370
     0
100
AcDbEllipse
 10
138.9938454748751
 20
-86.53845722931219
 30
0.0
 11
4.800000000000026
 21
0.0
 31
0.0
210
0.0
220
0.0
230
1.0
 40
0.4082482904638633
 41
2.677945044588983
 42
3.141592653589796
  0
ELLIPSE
  5
A781
330
A
100
AcDbEntity
  8
0
  6
Continuous
 62
     7
370
     0
100
AcDbEllipse
 10
138.9938454748751
 20
-86.53845722931219
 30
0.0
 11
4.800000000000026
 21
0.0
 31
0.0
210
0.0
220
0.0
230
1.0
 40
0.4082482904638633
 41
3.141592653589796
 42
6.283185307179584
  0
ELLIPSE
  5
A782
330
A
100
AcDbEntity
  8
0
  6
Continuous
 62
     7
370
     0
100
AcDbEllipse
 10
138.9938454112291
 20
-99.75682836713069
 30
0.0
 11
4.800000000000026
 21
0.0
 31
0.0
210
0.0
220
0.0
230
1.0
 40
0.4082482904638644
 41
5.819537698178782
 42
6.283185307179584
  0
ELLIPSE
  5
A783
330
A
100
AcDbEntity
  8
0
  6
Continuous
 62
     7
370
     0
100
AcDbEllipse
 10
138.9938454112291
 20
-99.75682836713069
 30
0.0
 11
4.800000000000026
 21
0.0
 31
-0.0000000000000002
210
0.0
220
0.0000000000000001
230
1.0
 40
0.4082482904638642
 41
4.248741371383881
 42
5.819537698178782
  0
ELLIPSE
  5
A784
330
A
100
AcDbEntity
  8
0
  6
Continuous
 62
     7
370
     0
100
AcDbEllipse
 10
138.9938454112291
 20
-99.75682836713069
 30
0.0
 11
4.800000000000026
 21
0.0
 31
0.0000000000000002
210
0.0
220
0.0
230
1.0
 40
0.4082482904638642
 41
3.141592653589792
 42
4.248741371383881
  0
ELLIPSE
  5
A785
330
A
100
AcDbEntity
  8
0
  6
Continuous
 62
     7
370
     0
100
AcDbEllipse
 10
138.9938454112291
 20
-100.706214133473
 30
0.0
 11
4.800000000000026
 21
0.0
 31
0.0
210
0.0
220
0.0
230
1.0
 40
0.4082482904638644
 41
5.819537698178152
 42
6.283185307179584
  0
ELLIPSE
  5
A786
330
A
100
AcDbEntity
  8
0
  6
Continuous
 62
     7
370
     0
100
AcDbEllipse
 10
138.9938454112291
 20
-100.706214133473
 30
0.0
 11
4.800000000000026
 21
0.0
 31
-0.0000000000000002
210
0.0
220
0.0000000000000001
230
1.0
 40
0.4082482904638642
 41
4.248741371384041
 42
5.819537698178152
  0
ELLIPSE
  5
A787
330
A
100
AcDbEntity
  8
0
  6
Continuous
 62
     7
370
     0
100
AcDbEllipse
 10
138.9938454112291
 20
-100.706214133473
 30
0.0
 11
4.800000000000026
 21
0.0
 31
0.0000000000000002
210
0.0
220
0.0
230
1.0
 40
0.4082482904638642
 41
3.141592653589792
 42
4.248741371384041
  0
ELLIPSE
  5
A788
330
A
100
AcDbEntity
  8
0
  6
Continuous
 62
     7
370
     0
100
AcDbEllipse
 10
138.9938454112291
 20
-128.9686981007391
 30
0.0
 11
-4.800000000000026
 21
0.0
 31
0.0
210
0.0
220
0.0
230
1.0
 40
0.4082482904638633
 41
0.0
 42
1.107148717794089
  0
ELLIPSE
  5
A789
330
A
100
AcDbEntity
  8
0
  6
Continuous
 62
     7
370
     0
100
AcDbEllipse
 10
138.9938454112291
 20
-128.9686981007391
 30
0.0
 11
-4.800000000000026
 21
0.0
 31
0.0
210
0.0
220
0.0
230
1.0
 40
0.4082482904638631
 41
1.107148717794089
 42
2.677945044588982
  0
ELLIPSE
  5
A78A
330
A
100
AcDbEntity
  8
0
  6
Continuous
 62
     7
370
     0
100
AcDbEllipse
 10
138.9938454112291
 20
-128.9686981007391
 30
0.0
 11
-4.800000000000026
 21
0.0
 31
0.0
210
0.0
220
0.0
230
1.0
 40
0.4082482904638631
 41
2.677945044588983
 42
3.141592653589794
  0
ELLIPSE
  5
A78B
330
A
100
AcDbEntity
  8
0
  6
Continuous
 62
     7
370
     0
100
AcDbEllipse
 10
138.9938454112291
 20
-128.0193123343969
 30
0.0
 11
-4.800000000000026
 21
0.0
 31
0.0
210
0.0
220
0.0
230
1.0
 40
0.4082482904638633
 41
0.0
 42
1.107148717794089
  0
ELLIPSE
  5
A78C
330
A
100
AcDbEntity
  8
0
  6
Continuous
 62
     7
370
     0
100
AcDbEllipse
 10
138.9938454112291
 20
-128.0193123343969
 30
0.0
 11
-4.800000000000026
 21
0.0
 31
0.0
210
0.0
220
0.0
230
1.0
 40
0.4082482904638631
 41
1.107148717794089
 42
2.677945044588984
  0
LINE
  5
A78D
330
A
100
AcDbEntity
  8
0
  6
Continuous
 62
     9
370
     0
100
AcDbLine
 10
173.4153729316518
 20
-122.1406964519415
 30
0.0
 11
173.4153729316518
 21
-115.6110240535167
 31
0.0
  0
ARC
  5
A78E
330
A
100
AcDbEntity
  8
0
  6
Continuous
 62
     7
370
     0
100
AcDbCircle
 10
154.6745895673909
 20
-118.8458868191289
 30
0.0
 40
19.02820883905359
100
AcDbArc
 50
331.1592245914849
 51
350.0287523872919
  0
ARC
  5
A78F
330
A
100
AcDbEntity
  8
0
  6
Continuous
 62
     7
370
     0
100
AcDbCircle
 10
147.3475102181245
 20
-115.8966379186616
 30
0.0
 40
26.63983680598459
100
AcDbArc
 50
267.8840686091596
 51
309.7415140373175
  0
LINE
  5
A790
330
A
100
AcDbEntity
  8
0
  6
Continuous
 62
     9
370
     0
100
AcDbLine
 10
146.3639254650663
 20
-142.5183107827596
 30
0.0
 11
146.3639254650663
 21
-88.48574152435014
 31
0.0
  0
ARC
  5
A791
330
A
100
AcDbEntity
  8
0
  6
Continuous
 62
     7
370
     0
100
AcDbCircle
 10
131.0830560887095
 20
-132.0166640225812
 30
0.0
 40
46.1350862407805
100
AcDbArc
 50
29.23252515548356
 51
70.65715070096901
  0
ARC
  5
A792
330
A
100
AcDbEntity
  8
0
  6
Continuous
 62
     7
370
     0
100
AcDbCircle
 10
152.4410625880404
 20
-119.2962660185807
 30
0.0
 40
21.29560289663557
100
AcDbArc
 50
9.965303576113131
 51
27.42932485809484
  0
ARC
  5
A793
330
A
100
AcDbEntity
  8
0
  6
Continuous
 62
     7
370
     0
100
AcDbCircle
 10
186.4100454723745
 20
32.03140179099512
 30
0.0
 40
125.0343512320691
100
AcDbArc
 50
251.6796726925087
 51
256.3402044461558
  0
ELLIPSE
  5
A794
330
A
100
AcDbEntity
  8
0
  6
Continuous
 62
     7
370
     0
100
AcDbEllipse
 10
144.8755986192428
 20
-115.9285194516668
 30
0.0
 11
-21.75647030195843
 21
26.64612542190703
 31
-0.0000000000000012
210
-0.0000000000000001
220
0.0
230
1.0
 40
0.8164965809274706
 41
4.363829266526472
 42
5.096902980675587
  0
LINE
  5
A795
330
A
100
AcDbEntity
  8
0
  6
Continuous
 62
     9
370
     0
100
AcDbLine
 10
171.3426080904408
 20
-109.4863587635715
 30
0.0
 11
172.7545593190906
 21
-108.3335054129421
 31
0.0
  0
ELLIPSE
  5
A796
330
A
100
AcDbEntity
  8
0
  6
Continuous
 62
     7
370
     0
100
AcDbEllipse
 10
141.6556607316441
 20
-118.5575877276907
 30
0.0
 11
21.75647030195849
 21
-26.64612542190703
 31
0.0000000000000012
210
-0.0000000000000001
220
0.0
230
1.0
 40
0.8164965809274697
 41
2.202567650640375
 42
2.27984125448654
  0
LINE
  5
A797
330
A
100
AcDbEntity
  8
0
  6
Continuous
 62
     7
370
     0
100
AcDbLine
 10
144.0026376808271
 20
-87.72539413211509
 30
0.0
 11
143.9458152475165
 21
-87.71172097565342
 31
0.0
  0
ELLIPSE
  5
A79F
330
A
100
AcDbEntity
  8
0
  6
Continuous
 62
     7
370
     0
100
AcDbEllipse
 10
143.4445151136434
 20
-117.0969942410108
 30
0.0
 11
-21.75647030195843
 21
26.64612542190703
 31
0.0
210
0.0
220
0.0
230
1.0
 40
0.8164965809274701
 41
5.378434211914941
 42
5.502903445172893
  0
LINE
  5
A7A0
330
A
100
AcDbEntity
  8
0
  6
Continuous
 62
     9
370
     0
100
AcDbLine
 10
171.3426080904408
 20
-128.0246607099001
 30
0.0
 11
172.7545593190906
 21
-126.8718073592709
 31
0.0
  0
ARC
  5
A7A1
330
A
100
AcDbEntity
  8
0
  6
Continuous
 62
     7
370
     0
100
AcDbCircle
 10
160.2126835832444
 20
-118.8758602527292
 30
0.0
 40
13.60037357715729
100
AcDbArc
 50
346.110219893492
 51
13.88978010650786
  0
ELLIPSE
  5
A7A2
330
A
100
AcDbEntity
  8
0
  6
Continuous
 62
     7
370
     0
100
AcDbEllipse
 10
153.3041216215223
 20
-113.6323524167035
 30
0.0
 11
-15.17893276880822
 21
18.59032006179562
 31
-0.0000000000000008
210
0.0
220
0.0
230
1.0
 40
0.8164965809274693
 41
3.490152367448518
 42
4.36382926652632
  0
ELLIPSE
  5
A7A3
330
A
100
AcDbEntity
  8
0
  6
Continuous
 62
     7
370
     0
100
AcDbEllipse
 10
141.6556607316441
 20
-110.5243235509483
 30
0.0
 11
21.75647030195849
 21
-26.64612542190703
 31
0.0000000000000012
210
-0.0000000000000001
220
0.0
230
1.0
 40
0.8164965809274701
 41
5.574140379487606
 42
5.651413983333786
  0
LINE
  5
A7A4
330
A
100
AcDbEntity
  8
0
  6
Continuous
 62
     9
370
     0
100
AcDbLine
 10
144.0026376808271
 20
-142.314666473786
 30
0.0
 11
144.0026376808271
 21
-87.72539413211509
 31
0.0
  0
LINE
  5
A7A5
330
A
100
AcDbEntity
  8
0
  6
Continuous
 62
     7
370
     0
100
AcDbLine
 10
143.9458152475166
 20
-142.3094378321847
 30
0.0
 11
144.0026376808273
 21
-142.314666473786
 31
0.0
  0
LINE
  5
A7A6
330
A
100
AcDbEntity
  8
0
  6
Continuous
 62
     7
370
     0
100
AcDbLine
 10
143.9458152475166
 20
-142.3094378321847
 30
0.0
 11
143.9458152475166
 21
-128.6671285043813
 31
0.0
  0
ELLIPSE
  5
A7A7
330
A
100
AcDbEntity
  8
0
  6
Continuous
 62
     7
370
     0
100
AcDbEllipse
 10
143.8237522426271
 20
-128.8226387520807
 30
0.0
 11
-0.3999999999999559
 21
0.0
 31
0.0
210
0.0
220
0.0000000000000001
230
1.0
 40
0.4082482904638625
 41
4.402285153923436
 42
5.81953769817878
  0
LINE
  5
A7A8
330
A
100
AcDbEntity
  8
0
  6
Continuous
 62
     9
370
     0
100
AcDbLine
 10
143.4659813662274
 20
-128.7496090777467
 30
0.0
 11
143.4659813662274
 21
-101.4365108768224
 31
0.0
  0
ELLIPSE
  5
A7A9
330
A
100
AcDbEntity
  8
0
  6
Continuous
 62
     7
370
     0
100
AcDbEllipse
 10
143.8237522426271
 20
-101.5095405511563
 30
0.0
 11
-0.3999999999999559
 21
0.0
 31
0.0
210
0.0
220
0.0000000000000001
230
1.0
 40
0.4082482904638625
 41
4.402285153923443
 42
5.819537698178776
  0
LINE
  5
A7AA
330
A
100
AcDbEntity
  8
0
  6
Continuous
 62
     7
370
     0
100
AcDbLine
 10
143.9458152475166
 20
-87.71172097565342
 30
0.0
 11
143.9458152475166
 21
-101.3540303034569
 31
0.0
  0
ELLIPSE
  5
A7AB
330
A
100
AcDbEntity
  8
0
  6
Continuous
 62
     7
370
     0
100
AcDbEllipse
 10
138.9938454112291
 20
-100.7062141334824
 30
0.0
 11
-5.199999999999981
 21
0.0
 31
0.0
210
0.0
220
0.0
230
1.0
 40
0.4082482904638631
 41
3.451696480051039
 42
3.54113463789189
  0
LINE
  5
A7B9
330
A
100
AcDbEntity
  8
0
  6
Continuous
 62
     7
370
     0
100
AcDbLine
 10
143.4659813662274
 20
-101.4365108768224
 30
0.0
 11
143.2870959280275
 21
-101.5825702254904
 31
0.0
  0
ELLIPSE
  5
A7BA
330
A
100
AcDbEntity
  8
0
  6
Continuous
 62
     7
370
     0
100
AcDbEllipse
 10
138.9938454112291
 20
-100.7062141334824
 30
0.0
 11
4.800000000000026
 21
0.0
 31
0.0
210
0.0
220
0.0
230
1.0
 40
0.4082482904638628
 41
4.248741371383881
 42
5.819537698178777
  0
ELLIPSE
  5
A7BB
330
A
100
AcDbEntity
  8
0
  6
Continuous
 62
     7
370
     0
100
AcDbEllipse
 10
138.9938454112291
 20
-100.7062141334824
 30
0.0
 11
4.800000000000026
 21
0.0
 31
0.0
210
0.0
220
0.0
230
1.0
 40
0.4082482904638628
 41
3.141592653589792
 42
4.248741371383883
  0
ELLIPSE
  5
A7BC
330
A
100
AcDbEntity
  8
0
  6
Continuous
 62
     7
370
     0
100
AcDbEllipse
 10
138.9938454112291
 20
-128.0193123344067
 30
0.0
 11
4.800000000000026
 21
0.0
 31
0.0
210
0.0
220
0.0
230
1.0
 40
0.4082482904638628
 41
4.248741371383881
 42
5.81953769817878
  0
LINE
  5
A7BD
330
A
100
AcDbEntity
  8
0
  6
Continuous
 62
     9
370
     0
100
AcDbLine
 10
143.2870959280275
 20
-128.8956684264146
 30
0.0
 11
143.2870959280275
 21
-101.5825702254904
 31
0.0
  0
ELLIPSE
  5
A7BE
330
A
100
AcDbEntity
  8
0
  6
Continuous
 62
     7
370
     0
100
AcDbEllipse
 10
138.9938454112291
 20
-128.0193123344067
 30
0.0
 11
4.800000000000026
 21
0.0
 31
0.0
210
0.0
220
0.0
230
1.0
 40
0.4082482904638628
 41
3.141592653589792
 42
4.248741371383883
  0
ARC
  5
A7BF
330
A
100
AcDbEntity
  8
0
  6
Continuous
 62
     7
370
     0
100
AcDbCircle
 10
146.2995240337959
 20
-114.2351275904587
 30
0.0
 40
28.58858658136755
100
AcDbArc
 50
309.2276224978637
 51
331.1613956189944
  0
LINE
  5
A7C0
330
A
100
AcDbEntity
  8
0
  6
Continuous
 62
     7
370
     0
100
AcDbLine
 10
143.7947919142144
 20
-140.9242972382442
 30
0.0
 11
143.9468354792025
 21
-141.0849496721904
 31
0.0
  0
ELLIPSE
  5
A7C1
330
A
100
AcDbEntity
  8
0
  6
Continuous
 62
     7
370
     0
100
AcDbEllipse
 10
144.8755986192428
 20
-107.8952552749243
 30
0.0
 11
-21.75647030195843
 21
26.64612542190708
 31
0.0
210
0.0000000000000001
220
0.0
230
1.0
 40
0.8164965809274693
 41
3.141592653589893
 42
3.490152367448363
  0
LINE
  5
A7C2
330
A
100
AcDbEntity
  8
0
  6
Continuous
 62
     7
370
     0
100
AcDbLine
 10
143.4659813662274
 20
-128.7496090777467
 30
0.0
 11
143.2870959280275
 21
-128.8956684264146
 31
0.0
  0
ELLIPSE
  5
A7C3
330
A
100
AcDbEntity
  8
0
  6
Continuous
 62
     7
370
     0
100
AcDbEllipse
 10
138.9938454112291
 20
-86.97663535867679
 30
0.0
 11
4.800000000000026
 21
0.0
 31
0.0
210
0.0
220
0.0
230
1.0
 40
0.4082482904638631
 41
4.248741371383883
 42
5.81953769817878
  0
ELLIPSE
  5
A7C4
330
A
100
AcDbEntity
  8
0
  6
Continuous
 62
     7
370
     0
100
AcDbEllipse
 10
138.9938454112291
 20
-86.97663535867679
 30
0.0
 11
4.800000000000026
 21
0.0
 31
0.0
210
0.0
220
0.0
230
1.0
 40
0.4082482904638631
 41
3.682259657258032
 42
4.248741371383883
  0
LINE
  5
A7C5
330
A
100
AcDbEntity
  8
0
  6
Continuous
 62
     9
370
     0
100
AcDbLine
 10
143.2870959280289
 20
-87.85299145068508
 30
0.0
 11
143.2870959280289
 21
-100.633184459139
 31
0.0
  0
ELLIPSE
  5
A7C6
330
A
100
AcDbEntity
  8
0
  6
Continuous
 62
     7
370
     0
100
AcDbEllipse
 10
138.9938454112291
 20
-99.75682836713069
 30
0.0
 11
-4.800000000000026
 21
0.0
 31
0.0
210
0.0
220
0.0
230
1.0
 40
0.4082482904638631
 41
1.107148717794089
 42
2.677945044588982
  0
ELLIPSE
  5
A7C7
330
A
100
AcDbEntity
  8
0
  6
Continuous
 62
     7
370
     0
100
AcDbEllipse
 10
138.9938454112291
 20
-99.75682836713069
 30
0.0
 11
-4.800000000000026
 21
0.0
 31
0.0
210
0.0
220
0.0
230
1.0
 40
0.4082482904638631
 41
0.0
 42
1.107148717794089
  0
LINE
  5
A7C8
330
A
100
AcDbEntity
  8
0
  6
Continuous
 62
     7
370
     0
100
AcDbLine
 10
134.8784907232188
 20
-87.98525287718673
 30
0.0
 11
134.8347714474081
 21
-87.9549774102257
 31
0.0
  0
ARC
  5
A7D2
330
A
100
AcDbEntity
  8
0
  6
Continuous
 62
     7
370
     0
100
AcDbCircle
 10
128.2703277588163
 20
-104.755476218526
 30
0.0
 40
18.88651881646319
100
AcDbArc
 50
129.4966271258871
 51
156.3003861121638
  0
ELLIPSE
  5
A7D3
330
A
100
AcDbEntity
  8
0
  6
Continuous
 62
     7
370
     0
100
AcDbEllipse
 10
140.2675097312131
 20
-114.9878972462344
 30
0.0
 11
-21.75647030195843
 21
26.64612542190703
 31
0.0
210
0.0
220
0.0
230
1.0
 40
0.8164965809277259
 41
5.898671306888691
 42
6.283185307179584
  0
ELLIPSE
  5
A7D4
330
A
100
AcDbEntity
  8
0
  6
Continuous
 62
     7
370
     0
100
AcDbEllipse
 10
137.0475718436134
 20
-117.6169655222592
 30
0.0
 11
21.75647030195849
 21
-26.64612542190703
 31
0.0
210
0.0
220
0.0
230
1.0
 40
0.8164965809277259
 41
2.437755513100509
 42
2.509821329744212
  0
ARC
  5
A7D5
330
A
100
AcDbEntity
  8
0
  6
Continuous
 62
     7
370
     0
100
AcDbCircle
 10
130.1803644153454
 20
-108.6519151478832
 30
0.0
 40
23.1299149661943
100
AcDbArc
 50
84.64422461771375
 51
127.0079150333066
  0
LINE
  5
A7D6
330
A
100
AcDbEntity
  8
0
  6
Continuous
 62
     7
370
     0
100
AcDbLine
 10
128.2607191192301
 20
-83.62398763645575
 30
0.0
 11
135.1728524512776
 21
-84.2291908967149
 31
0.0
  0
ELLIPSE
  5
A7D7
330
A
100
AcDbEntity
  8
0
  6
Continuous
 62
     7
370
     0
100
AcDbEllipse
 10
138.8364262256132
 20
-116.1563720355787
 30
0.0
 11
-21.75647030195849
 21
26.64612542190703
 31
0.0
210
0.0
220
0.0
230
1.0
 40
0.8164965809277259
 41
5.551493685308376
 42
5.617140075649255
  0
ELLIPSE
  5
A7D8
330
A
100
AcDbEntity
  8
0
  6
Continuous
 62
     7
370
     0
100
AcDbEllipse
 10
138.9938454112291
 20
-86.97663535867679
 30
0.0
 11
4.800000000000026
 21
0.0
 31
0.0
210
0.0
220
0.0
230
1.0
 40
0.4082482904638633
 41
5.81953769817878
 42
6.283185307179584
  0
ELLIPSE
  5
A7D9
330
A
100
AcDbEntity
  8
0
  6
Continuous
 62
     7
370
     0
100
AcDbEllipse
 10
138.9938454112291
 20
-99.75682836713069
 30
0.0
 11
-4.800000000000026
 21
0.0
 31
0.0000000000000001
210
0.0
220
0.0
230
1.0
 40
0.4082482904638631
 41
2.677945044588983
 42
3.141592653589794
  0
ELLIPSE
  5
A7DA
330
A
100
AcDbEntity
  8
0
  6
Continuous
 62
     7
370
     0
100
AcDbEllipse
 10
137.0475718436134
 20
-109.5837013455167
 30
0.0
 11
21.75647030195849
 21
-26.64612542190703
 31
0.0
210
0.0
220
0.0
230
1.0
 40
0.8164965809277259
 41
5.344160304230268
 42
5.404904721036282
  0
LINE
  5
A7DB
330
A
100
AcDbEntity
  8
0
  6
Continuous
 62
     9
370
     0
100
AcDbLine
 10
132.3393071101899
 20
-85.62297829044752
 30
0.0
 11
132.3393071101899
 21
-139.6555475488568
 31
0.0
  0
LINE
  5
A7DC
330
A
100
AcDbEntity
  8
0
  6
Continuous
 62
     9
370
     0
100
AcDbLine
 10
109.4971010144076
 20
-102.563761433697
 30
0.0
 11
109.4971010144076
 21
-109.0934338321217
 31
0.0
  0
ARC
  5
A7DD
330
A
100
AcDbEntity
  8
0
  6
Continuous
 62
     7
370
     0
100
AcDbCircle
 10
128.2349909231119
 20
-104.7955259065138
 30
0.0
 40
18.87032831968877
100
AcDbArc
 50
156.145913318411
 51
173.2078195966825
  0
ARC
  5
A7E5
330
A
100
AcDbEntity
  8
0
  6
Continuous
 62
     7
370
     0
100
AcDbCircle
 10
142.3280826733711
 20
-105.214066720593
 30
0.0
 40
33.05938362821072
100
AcDbArc
 50
186.7389235993674
 51
198.4973269883089
  0
ELLIPSE
  5
A7E6
330
A
100
AcDbEntity
  8
0
  6
Continuous
 62
     7
370
     0
100
AcDbEllipse
 10
138.9938454112291
 20
-128.9686981007394
 30
0.0
 11
4.800000000000026
 21
0.0
 31
-0.0000000000000001
210
0.0
220
0.0
230
1.0
 40
0.4082482904638631
 41
4.248741371383883
 42
5.81953769817878
  0
ELLIPSE
  5
A7E7
330
A
100
AcDbEntity
  8
0
  6
Continuous
 62
     7
370
     0
100
AcDbEllipse
 10
138.9938454112291
 20
-128.9686981007394
 30
0.0
 11
4.800000000000026
 21
0.0
 31
0.0
210
0.0
220
0.0
230
1.0
 40
0.4082482904638631
 41
3.141592653589792
 42
4.248741371383883
  0
ELLIPSE
  5
A7E8
330
A
100
AcDbEntity
  8
0
  6
Continuous
 62
     7
370
     0
100
AcDbEllipse
 10
138.9938454112291
 20
-141.7488911091934
 30
0.0
 11
4.800000000000026
 21
0.0
 31
0.0
210
0.0
220
0.0
230
1.0
 40
0.4082482904638631
 41
4.248741371383883
 42
5.819537698178779
  0
LINE
  5
A7E9
330
A
100
AcDbEntity
  8
0
  6
Continuous
 62
     9
370
     0
100
AcDbLine
 10
143.2870959280289
 20
-129.8450541927478
 30
0.0
 11
143.2870959280289
 21
-142.6252472012017
 31
0.0
  0
LINE
  5
A7F1
330
A
100
AcDbEntity
  8
0
  6
Continuous
 62
     7
370
     0
100
AcDbLine
 10
134.7464440681367
 20
-142.6610638335747
 30
0.0
 11
134.8364948009187
 21
-142.7283197976876
 31
0.0
  0
LINE
  5
A7F2
330
A
100
AcDbEntity
  8
0
  6
Continuous
 62
     7
370
     0
100
AcDbLine
 10
134.8364948009187
 20
-142.7283197976876
 30
0.0
 11
134.8784907232189
 21
-142.7575086277031
 31
0.0
  0
ELLIPSE
  5
A7F3
330
A
100
AcDbEntity
  8
0
  6
Continuous
 62
     7
370
     0
100
AcDbEllipse
 10
138.9938454112291
 20
-141.7488911091934
 30
0.0
 11
4.800000000000026
 21
0.0
 31
0.0
210
0.0
220
0.0
230
1.0
 40
0.4082482904638631
 41
3.682259657258033
 42
4.248741371383883
  0
ELLIPSE
  5
A7F4
330
A
100
AcDbEntity
  8
0
  6
Continuous
 62
     7
370
     0
100
AcDbEllipse
 10
138.9938454112291
 20
-141.7488911091934
 30
0.0
 11
4.800000000000026
 21
0.0
 31
0.0
210
0.0
220
0.0
230
1.0
 40
0.4082482904638633
 41
5.81953769817878
 42
6.283185307179584
  0
ELLIPSE
  5
A7F5
330
A
100
AcDbEntity
  8
0
  6
Continuous
 62
     7
370
     0
100
AcDbEllipse
 10
138.9938454112291
 20
-128.9686981007394
 30
0.0
 11
4.800000000000026
 21
0.0
 31
0.0
210
0.0
220
0.0
230
1.0
 40
0.4082482904638633
 41
5.81953769817878
 42
6.283185307179584
  0
LINE
  5
A7F6
330
A
100
AcDbEntity
  8
0
  6
Continuous
 62
     7
370
     0
100
AcDbLine
 10
109.3836218877962
 20
-107.0428370698448
 30
0.0
 11
109.4971010144076
 21
-109.0934338321217
 31
0.0
  0
LINE
  5
A7F7
330
A
100
AcDbEntity
  8
0
  6
Continuous
 62
     7
370
     0
100
AcDbLine
 10
109.4971010144076
 20
-102.563761433697
 30
0.0
 11
109.3835876146625
 21
-104.4299506680535
 31
0.0
  0
ARC
  5
A7F8
330
A
100
AcDbEntity
  8
0
  6
Continuous
 62
     7
370
     0
100
AcDbCircle
 10
139.1987248657417
 20
-120.6026404883725
 30
0.0
 40
40.96314240081786
100
AcDbArc
 50
22.80770308689326
 51
62.21807802282024
  0
ARC
  5
A7F9
330
A
100
AcDbEntity
  8
0
  6
Continuous
 62
     7
370
     0
100
AcDbCircle
 10
156.5583913503483
 20
-113.9920029169714
 30
0.0
 40
22.40728031479069
100
AcDbArc
 50
335.1295990456279
 51
24.43299205565511
  0
LINE
  5
A7FA
330
A
100
AcDbEntity
  8
0
  6
Continuous
 62
     7
370
     0
100
AcDbLine
 10
158.2979336989791
 20
-84.36450262534368
 30
0.0
 11
158.2533275207621
 21
-84.34193744504458
 31
0.0
  0
LINE
  5
A804
330
A
100
AcDbEntity
  8
0
  6
Continuous
 62
     7
370
     0
100
AcDbLine
 10
157.282075573052
 20
-84.33378486197591
 30
0.0
 11
156.5665338202521
 21
-84.91802225664804
 31
0.0
  0
LINE
  5
A805
330
A
100
AcDbEntity
  8
0
  6
Continuous
 62
     7
370
     0
100
AcDbLine
 10
169.8520068087962
 20
-131.912312420807
 30
0.0
 11
170.5675485615962
 21
-131.3280750261347
 31
0.0
  0
LINE
  5
A806
330
A
100
AcDbEntity
  8
0
  6
Continuous
 62
     7
370
     0
100
AcDbLine
 10
171.8549618412584
 20
-130.1970679832885
 30
0.0
 11
172.0121613596056
 21
-130.0472239843185
 31
0.0
  0
LINE
  5
A807
330
A
100
AcDbEntity
  8
0
  6
Continuous
 62
     7
370
     0
100
AcDbLine
 10
172.0121613596057
 20
-130.0472239843185
 30
0.0
 11
173.1597154468554
 21
-128.8643245411095
 31
0.0
  0
ARC
  5
A808
330
A
100
AcDbEntity
  8
0
  6
Continuous
 62
     7
370
     0
100
AcDbCircle
 10
154.8445536761426
 20
-112.3333562944663
 30
0.0
 40
24.67221234220593
100
AcDbArc
 50
317.9311020962963
 51
333.3085271510225
  0
LINE
  5
A809
330
A
100
AcDbEntity
  8
0
  6
Continuous
 62
     7
370
     0
100
AcDbLine
 10
122.4465190696564
 20
-85.12846615362871
 30
0.0
 11
121.7309773168564
 21
-85.71270354830073
 31
0.0
  0
ARC
  5
A810
330
A
100
AcDbEntity
  8
0
  6
Continuous
 62
     7
370
     0
100
AcDbCircle
 10
138.1221934305436
 20
-104.7322453944652
 30
0.0
 40
25.11828845596706
100
AcDbArc
 50
95.23431307755352
 51
123.2418582529276
  0
LINE
  5
A811
330
A
100
AcDbEntity
  8
0
  6
Continuous
 62
     7
370
     0
100
AcDbLine
 10
124.3529910417334
 20
-83.724211680356
 30
0.0
 11
124.1330567703612
 21
-83.87166558961951
 31
0.0
  0
LINE
  5
A812
330
A
100
AcDbEntity
  8
0
  6
Continuous
 62
     7
370
     0
100
AcDbLine
 10
124.1330567703612
 20
-83.8716655896194
 30
0.0
 11
123.8146082921579
 21
-84.09154350081454
 31
0.0
  0
LINE
  5
A813
330
A
100
AcDbEntity
  8
0
  6
Continuous
 62
     7
370
     0
100
AcDbLine
 10
136.0272822652317
 20
-84.31135355698154
 30
0.0
 11
136.0272822652317
 21
-79.89813554141665
 31
0.0
  0
LINE
  5
A814
330
A
100
AcDbEntity
  8
0
  6
Continuous
 62
     7
370
     0
100
AcDbLine
 10
161.2370235259641
 20
-89.55884676045467
 30
0.0
 11
160.7003672113643
 21
-89.99702480645884
 31
0.0
  0
LINE
  5
A815
330
A
100
AcDbEntity
  8
0
  6
Continuous
 62
     7
370
     0
100
AcDbLine
 10
143.7938454112291
 20
-142.1870691551975
 30
0.0
 11
143.7938454112291
 21
-141.7488911091934
 31
0.0
  0
LINE
  5
A816
330
A
100
AcDbEntity
  8
0
  6
Continuous
 62
     7
370
     0
100
AcDbLine
 10
134.1938454112292
 20
-141.7488911091934
 30
0.0
 11
134.1938454112292
 21
-142.1870691551975
 31
0.0
  0
LINE
  5
A817
330
A
100
AcDbEntity
  8
0
  6
Continuous
 62
     7
370
     0
100
AcDbLine
 10
134.7005948944296
 20
-143.0634252472056
 30
0.0
 11
135.2014741213896
 21
-143.4723914234764
 31
0.0
  0
LINE
  5
A818
330
A
100
AcDbEntity
  8
0
  6
Continuous
 62
     7
370
     0
100
AcDbLine
 10
142.7862167010688
 20
-143.4723914234764
 30
0.0
 11
143.2870959280286
 21
-143.0634252472056
 31
0.0
  0
LINE
  5
A819
330
A
100
AcDbEntity
  8
0
  6
Continuous
 62
     7
370
     0
100
AcDbLine
 10
143.2870959916749
 20
-85.66210113730386
 30
0.0
 11
142.7862167647149
 21
-85.25313496103336
 31
0.0
  0
LINE
  5
A81A
330
A
100
AcDbEntity
  8
0
  6
Continuous
 62
     7
370
     0
100
AcDbLine
 10
135.2014741850355
 20
-85.25313496103336
 30
0.0
 11
134.7005949580755
 21
-85.66210113730386
 31
0.0
  0
LINE
  5
A81B
330
A
100
AcDbEntity
  8
0
  6
Continuous
 62
     7
370
     0
100
AcDbLine
 10
134.1938454748751
 20
-86.53845722931219
 30
0.0
 11
134.1938454748751
 21
-86.97663527531622
 31
0.0
  0
LINE
  5
A81C
330
A
100
AcDbEntity
  8
0
  6
Continuous
 62
     7
370
     0
100
AcDbLine
 10
143.7938454748751
 20
-86.97663527531625
 30
0.0
 11
143.7938454748751
 21
-86.53845722931219
 31
0.0
  0
LINE
  5
A81D
330
A
100
AcDbEntity
  8
0
  6
Continuous
 62
     7
370
     0
100
AcDbLine
 10
143.7938454112291
 20
-100.706214133473
 30
0.0
 11
143.7938454112291
 21
-99.75682836713069
 31
0.0
  0
LINE
  5
A81E
330
A
100
AcDbEntity
  8
0
  6
Continuous
 62
     7
370
     0
100
AcDbLine
 10
134.1938454112292
 20
-99.75682836713069
 30
0.0
 11
134.1938454112292
 21
-100.706214133473
 31
0.0
  0
LINE
  5
A81F
330
A
100
AcDbEntity
  8
0
  6
Continuous
 62
     7
370
     0
100
AcDbLine
 10
134.1938454112292
 20
-128.0193123343969
 30
0.0
 11
134.1938454112292
 21
-128.9686981007391
 31
0.0
  0
LINE
  5
A820
330
A
100
AcDbEntity
  8
0
  6
Continuous
 62
     7
370
     0
100
AcDbLine
 10
143.7938454112291
 20
-128.9686981007391
 30
0.0
 11
143.7938454112291
 21
-128.6597965066223
 31
0.0
  0
LINE
  5
A821
330
A
100
AcDbEntity
  8
0
  6
Continuous
 62
     7
370
     0
100
AcDbLine
 10
134.1938454112306
 20
-100.7062141334824
 30
0.0
 11
134.1938454112306
 21
-128.0193123344067
 31
0.0
  0
LINE
  5
A822
330
A
100
AcDbEntity
  8
0
  6
Continuous
 62
     7
370
     0
100
AcDbLine
 10
164.3791443514803
 20
-136.3808859050895
 30
0.0
 11
166.6320689211978
 21
-134.5413806968272
 31
0.0
  0
LINE
  5
A823
330
A
100
AcDbEntity
  8
0
  6
Continuous
 62
     7
370
     0
100
AcDbLine
 10
134.1938454112292
 20
-86.97663535867679
 30
0.0
 11
134.1938454112292
 21
-99.75682836713069
 31
0.0
  0
LINE
  5
A824
330
A
100
AcDbEntity
  8
0
  6
Continuous
 62
     7
370
     0
100
AcDbLine
 10
118.5110394292548
 20
-88.3417718243273
 30
0.0
 11
116.258114859536
 21
-90.18127703259057
 31
0.0
  0
LINE
  5
A825
330
A
100
AcDbEntity
  8
0
  6
Continuous
 62
     7
370
     0
100
AcDbLine
 10
143.7938454112291
 20
-99.75682836713069
 30
0.0
 11
143.7938454112291
 21
-86.97663535867679
 31
0.0
  0
LINE
  5
A826
330
A
100
AcDbEntity
  8
0
  6
Continuous
 62
     7
370
     0
100
AcDbLine
 10
134.1938454112292
 20
-128.9686981007394
 30
0.0
 11
134.1938454112292
 21
-141.7488911091934
 31
0.0
  0
LINE
  5
A827
330
A
100
AcDbEntity
  8
0
  6
Continuous
 62
     7
370
     0
100
AcDbLine
 10
143.7938454112291
 20
-141.7488911091934
 30
0.0
 11
143.7938454112291
 21
-128.9686981007395
 31
0.0
  0
LINE
  5
A828
330
A
100
AcDbEntity
  8
0
  6
Continuous
 62
     7
370
     0
100
AcDbLine
 10
109.3835869407304
 20
-104.4303438647245
 30
0.0
 11
109.3835869407304
 21
-107.0412942465449
 31
0.0
  0
TEXT
  5
A829
330
A
100
AcDbEntity
  8
0
  6
Continuous
 62
     7
370
     0
100
AcDbText
 10
94.19472913616013
 20
61.00732064421675
 30
0.0
 40
10.0
  1
8401
100
AcDbText
  0
LINE
  5
A82A
330
A
100
AcDbEntity
  8
0
  6
Continuous
 62
     7
370
     0
100
AcDbLine
 10
111.6999999999446
 20
-32.97982940778218
 30
0.0
 11
111.6999999999621
 21
-32.55063543886723
 31
0.0
  0
LINE
  5
A82B
330
A
100
AcDbEntity
  8
0
  6
Continuous
 62
     7
370
     0
100
AcDbLine
 10
111.6999999999621
 20
-32.55063543886723
 30
0.0
 11
111.7000000003471
 21
-23.02017059221652
 31
0.0
  0
LINE
  5
A82C
330
A
100
AcDbEntity
  8
0
  6
Continuous
 62
     9
370
     0
100
AcDbLine
 10
111.9500000001269
 20
5.412842109675011
 30
0.0
 11
111.9500000001269
 21
-5.281026409745891
 31
0.0
  0
LINE
  5
A82D
330
A
100
AcDbEntity
  8
0
  6
Continuous
 62
     9
370
     0
100
AcDbLine
 10
111.9500000001269
 20
-5.281026409745891
 30
0.0
 11
111.9500000001269
 21
-5.412842109675123
 31
0.0
  0
LINE
  5
A82E
330
A
100
AcDbEntity
  8
0
  6
Continuous
 62
     7
370
     0
100
AcDbLine
 10
111.7000000001269
 20
-4.979829407782856
 30
0.0
 11
111.7000000001269
 21
-4.85855860667425
 31
0.0
  0
LINE
  5
A82F
330
A
100
AcDbEntity
  8
0
  6
Continuous
 62
     7
370
     0
100
AcDbLine
 10
111.7000000001269
 20
-4.85855860667425
 30
0.0
 11
111.7000000001269
 21
4.979829407782801
 31
0.0
  0
LINE
  5
A830
330
A
100
AcDbEntity
  8
0
  6
Continuous
 62
     9
370
     0
100
AcDbLine
 10
111.9499999999188
 20
-22.5871579052033
 30
0.0
 11
111.9500000003347
 21
-33.41284212455327
 31
0.0
  0
LINE
  5
A831
330
A
100
AcDbEntity
  8
0
  6
Continuous
 62
     7
370
     0
100
AcDbLine
 10
111.7000000003181
 20
-32.97982942267072
 30
0.0
 11
111.6999999999354
 21
-23.02017060710506
 31
0.0
  0
LINE
  5
A832
330
A
100
AcDbEntity
  8
0
  6
Continuous
 62
     7
370
     0
100
AcDbLine
 10
113.3000000001379
 20
-45.66922920913623
 30
0.0
 11
113.3057943266871
 21
-45.92470666404466
 31
0.0
  0
LINE
  5
A833
330
A
100
AcDbEntity
  8
0
  6
Continuous
 62
     7
370
     0
100
AcDbLine
 10
113.3000000001305
 20
-25.42307692307697
 30
0.0
 11
113.3000000001305
 21
-2.576923076923093
 31
0.0
  0
ELLIPSE
  5
A834
330
A
100
AcDbEntity
  8
0
  6
Continuous
 62
     9
370
     0
100
AcDbEllipse
 10
116.3000000001305
 20
-2.576923076923093
 30
0.0
 11
-3.000000000000001
 21
0.0
 31
0.0
210
0.0
220
0.0
230
1.0
 40
0.4230769230769224
 41
4.712388980384688
 42
6.283185307179584
  0
LINE
  5
A835
330
A
100
AcDbEntity
  8
0
  6
Continuous
 62
     9
370
     0
100
AcDbLine
 10
116.3000000001305
 20
-1.307692307692376
 30
0.0
 11
116.3000000001306
 21
-26.69230769230768
 31
0.0
  0
ELLIPSE
  5
A836
330
A
100
AcDbEntity
  8
0
  6
Continuous
 62
     9
370
     0
100
AcDbEllipse
 10
116.3000000001305
 20
-25.42307692307697
 30
0.0
 11
-3.000000000000001
 21
0.0
 31
0.0
210
0.0
220
0.0
230
1.0
 40
0.4230769230769255
 41
0.0
 42
1.570796326794896
  0
LINE
  5
A837
330
A
100
AcDbEntity
  8
0
  6
Continuous
 62
     9
370
     0
100
AcDbLine
 10
118.3000000001305
 20
-26.69230769230768
 30
0.0
 11
116.3000000001305
 21
-26.69230769230768
 31
0.0
  0
LINE
  5
A838
330
A
100
AcDbEntity
  8
0
  6
Continuous
 62
     9
370
     0
100
AcDbLine
 10
118.3000000001305
 20
-1.307692307692376
 30
0.0
 11
116.3000000001305
 21
-1.307692307692376
 31
0.0
  0
LINE
  5
A839
330
A
100
AcDbEntity
  8
0
  6
Continuous
 62
     7
370
     0
100
AcDbLine
 10
118.3000000001305
 20
-1.307692307692376
 30
0.0
 11
118.3000000001305
 21
-26.69230769230768
 31
0.0
  0
LINE
  5
A83A
330
A
100
AcDbEntity
  8
0
  6
Continuous
 62
     7
370
     0
100
AcDbLine
 10
113.3000000001305
 20
-2.576923076923093
 30
0.0
 11
113.3000000001305
 21
17.66922920911861
 31
0.0
  0
ARC
  5
A83B
330
A
100
AcDbEntity
  8
0
  6
Continuous
 62
     9
370
     0
100
AcDbCircle
 10
116.3083743430929
 20
19.412258585703
 30
0.0
 40
2.368928122447699
100
AcDbArc
 50
90.20254540555786
 51
115.0773829576537
  0
LINE
  5
A83C
330
A
100
AcDbEntity
  8
0
  6
Continuous
 62
     9
370
     0
100
AcDbLine
 10
116.3000000001305
 20
21.78117190613148
 30
0.0
 11
116.3000000001306
 21
-1.307692307692376
 31
0.0
  0
LINE
  5
A83D
330
A
100
AcDbEntity
  8
0
  6
Continuous
 62
     9
370
     0
100
AcDbLine
 10
118.3000000001305
 20
21.78117190613148
 30
0.0
 11
116.3000000001305
 21
21.78117190613148
 31
0.0
  0
LINE
  5
A83E
330
A
100
AcDbEntity
  8
0
  6
Continuous
 62
     7
370
     0
100
AcDbLine
 10
118.3000000001305
 20
21.78117190613148
 30
0.0
 11
118.3000000001305
 21
-1.307692307692376
 31
0.0
  0
LINE
  5
A83F
330
A
100
AcDbEntity
  8
0
  6
Continuous
 62
     9
370
     0
100
AcDbLine
 10
116.3000000001305
 20
-26.69230769230768
 30
0.0
 11
116.3000000001305
 21
-49.78117190613148
 31
0.0
  0
ARC
  5
A840
330
A
100
AcDbEntity
  8
0
  6
Continuous
 62
     7
370
     0
100
AcDbCircle
 10
117.4434496217634
 20
-46.01776105201787
 30
0.0
 40
4.158082396072058
100
AcDbArc
 50
175.1918072740603
 51
235.5946131113269
  0
LINE
  5
A841
330
A
100
AcDbEntity
  8
0
  6
Continuous
 62
     7
370
     0
100
AcDbLine
 10
113.3000000001305
 20
-45.66922920911878
 30
0.0
 11
113.3000000001305
 21
-25.42307692307697
 31
0.0
  0
LINE
  5
A842
330
A
100
AcDbEntity
  8
0
  6
Continuous
 62
     9
370
     0
100
AcDbLine
 10
116.3000000001306
 20
-49.78117190613148
 30
0.0
 11
118.3000000001305
 21
-49.78117190613148
 31
0.0
  0
LINE
  5
A843
330
A
100
AcDbEntity
  8
0
  6
Continuous
 62
     7
370
     0
100
AcDbLine
 10
118.3000000001305
 20
-26.69230769230768
 30
0.0
 11
118.3000000001305
 21
-49.78117190613148
 31
0.0
  0
ARC
  5
A844
330
A
100
AcDbEntity
  8
0
  6
Continuous
 62
     9
370
     0
100
AcDbCircle
 10
116.3137270343189
 20
-47.37932433766047
 30
0.0
 40
2.401886794509211
100
AcDbArc
 50
239.4797978425052
 51
269.6725468462594
  0
ARC
  5
A845
330
A
100
AcDbEntity
  8
0
  6
Continuous
 62
     7
370
     0
100
AcDbCircle
 10
117.2886479412309
 20
18.08682193888631
 30
0.0
 40
3.998225313821718
100
AcDbArc
 50
119.755599987582
 51
184.215281416029
  0
LINE
  5
A846
330
A
100
AcDbEntity
  8
0
  6
Continuous
 62
     7
370
     0
100
AcDbLine
 10
113.3012381934473
 20
17.79293562861448
 30
0.0
 11
113.3000000001305
 21
17.66922920911861
 31
0.0
  0
LINE
  5
A847
330
A
100
AcDbEntity
  8
0
  6
Continuous
 62
     9
370
     0
100
AcDbLine
 10
116.3000000001305
 20
21.78117190613148
 30
0.0
 11
116.3000000001305
 21
21.78916645540522
 31
0.0
  0
LINE
  5
A848
330
A
100
AcDbEntity
  8
0
  6
Continuous
 62
     7
370
     0
100
AcDbLine
 10
118.3000000001305
 20
21.78916645540522
 30
0.0
 11
118.3000000001305
 21
21.78117190613148
 31
0.0
  0
LINE
  5
A849
330
A
100
AcDbEntity
  8
0
  6
Continuous
 62
     9
370
     0
100
AcDbLine
 10
116.3000000001306
 20
-49.7891664554052
 30
0.0
 11
116.3000000001306
 21
-49.78117190613148
 31
0.0
  0
LINE
  5
A84A
330
A
100
AcDbEntity
  8
0
  6
Continuous
 62
     7
370
     0
100
AcDbLine
 10
118.3000000001305
 20
-49.78117190613148
 30
0.0
 11
118.3000000001305
 21
-49.7891664554052
 31
0.0
  0
LINE
  5
A84B
330
A
100
AcDbEntity
  8
0
  6
Continuous
 62
     7
370
     0
100
AcDbLine
 10
118.3000000001366
 20
-26.59754184817035
 30
0.0
 11
119.8000000001364
 21
-26.59754184817035
 31
0.0
  0
LINE
  5
A84C
330
A
100
AcDbEntity
  8
0
  6
Continuous
 62
     7
370
     0
100
AcDbLine
 10
118.3000000001366
 20
-2.062350413390786
 30
0.0
 11
119.8000000001364
 21
-2.062350413390786
 31
0.0
  0
LINE
  5
A84D
330
A
100
AcDbEntity
  8
0
  6
Continuous
 62
     7
370
     0
100
AcDbLine
 10
119.8000000001364
 20
-2.062350413390786
 30
0.0
 11
119.8000000001364
 21
-26.59754184817035
 31
0.0
  0
LINE
  5
A84E
330
A
100
AcDbEntity
  8
0
  6
Continuous
 62
     9
370
     0
100
AcDbLine
 10
119.8000000001364
 20
17.00546039978132
 30
0.0
 11
118.3000000001364
 21
17.00546039978132
 31
0.0
  0
LINE
  5
A84F
330
A
100
AcDbEntity
  8
0
  6
Continuous
 62
     7
370
     0
100
AcDbLine
 10
119.8000000001364
 20
17.00546039978132
 30
0.0
 11
119.8000000001364
 21
-2.062350413390786
 31
0.0
  0
LINE
  5
A850
330
A
100
AcDbEntity
  8
0
  6
Continuous
 62
     9
370
     0
100
AcDbLine
 10
118.3000000001366
 20
-45.00546039978121
 30
0.0
 11
119.8000000001364
 21
-45.00546039978121
 31
0.0
  0
LINE
  5
A851
330
A
100
AcDbEntity
  8
0
  6
Continuous
 62
     7
370
     0
100
AcDbLine
 10
119.8000000001364
 20
-26.59754184817035
 30
0.0
 11
119.8000000001364
 21
-45.00546039978121
 31
0.0
  0
LINE
  5
A852
330
A
100
AcDbEntity
  8
0
  6
Continuous
 62
     7
370
     0
100
AcDbLine
 10
119.8000000001364
 20
17.2671051426488
 30
0.0
 11
119.8000000001364
 21
17.00546039978132
 31
0.0
  0
LINE
  5
A853
330
A
100
AcDbEntity
  8
0
  6
Continuous
 62
     7
370
     0
100
AcDbLine
 10
119.8000000001364
 20
-45.00546039978121
 30
0.0
 11
119.8000000001364
 21
-45.26710514264892
 31
0.0
  0
LINE
  5
A854
330
A
100
AcDbEntity
  8
0
  6
Continuous
 62
     7
370
     0
100
AcDbLine
 10
127.3000000001364
 20
-1.402458151829703
 30
0.0
 11
125.8000000001364
 21
-1.402458151829703
 31
0.0
  0
LINE
  5
A855
330
A
100
AcDbEntity
  8
0
  6
Continuous
 62
     7
370
     0
100
AcDbLine
 10
127.3000000001364
 20
-25.93764958660921
 30
0.0
 11
125.8000000001364
 21
-25.93764958660921
 31
0.0
  0
LINE
  5
A856
330
A
100
AcDbEntity
  8
0
  6
Continuous
 62
     7
370
     0
100
AcDbLine
 10
125.8000000001364
 20
-25.93764958660921
 30
0.0
 11
125.8000000001364
 21
-1.402458151829875
 31
0.0
  0
LINE
  5
A857
330
A
100
AcDbEntity
  8
0
  6
Continuous
 62
     9
370
     0
100
AcDbLine
 10
125.8000000001364
 20
-45.00546039978121
 30
0.0
 11
127.3000000001364
 21
-45.00546039978121
 31
0.0
  0
LINE
  5
A858
330
A
100
AcDbEntity
  8
0
  6
Continuous
 62
     7
370
     0
100
AcDbLine
 10
125.8000000001364
 20
-45.00546039978098
 30
0.0
 11
125.8000000001364
 21
-25.93764958660921
 31
0.0
  0
LINE
  5
A859
330
A
100
AcDbEntity
  8
0
  6
Continuous
 62
     9
370
     0
100
AcDbLine
 10
127.3000000001364
 20
17.00546039978115
 30
0.0
 11
125.8000000001364
 21
17.00546039978115
 31
0.0
  0
LINE
  5
A85A
330
A
100
AcDbEntity
  8
0
  6
Continuous
 62
     7
370
     0
100
AcDbLine
 10
125.8000000001364
 20
-1.402458151829875
 30
0.0
 11
125.8000000001364
 21
17.00546039978076
 31
0.0
  0
LINE
  5
A85B
330
A
100
AcDbEntity
  8
0
  6
Continuous
 62
     7
370
     0
100
AcDbLine
 10
125.8000000001364
 20
-45.26710514264875
 30
0.0
 11
125.8000000001364
 21
-45.00546039978121
 31
0.0
  0
LINE
  5
A85C
330
A
100
AcDbEntity
  8
0
  6
Continuous
 62
     7
370
     0
100
AcDbLine
 10
125.8000000001364
 20
17.00546039978115
 30
0.0
 11
125.8000000001364
 21
17.26710514264874
 31
0.0
  0
LINE
  5
A85D
330
A
100
AcDbEntity
  8
0
  6
Continuous
 62
     7
370
     0
100
AcDbLine
 10
142.6000000001364
 20
-52.8
 30
0.0
 11
141.1647115205914
 21
-52.8
 31
0.0
  0
LINE
  5
A85E
330
A
100
AcDbEntity
  8
0
  6
Continuous
 62
     7
370
     0
100
AcDbLine
 10
131.3000000001364
 20
-52.10000000000002
 30
0.0
 11
141.6751451176327
 21
-52.10000000000002
 31
0.0
  0
LINE
  5
A85F
330
A
100
AcDbEntity
  8
0
  6
Continuous
 62
     7
370
     0
100
AcDbLine
 10
141.1647115205914
 20
-52.8
 30
0.0
 11
132.0000000001364
 21
-52.8
 31
0.0
  0
LINE
  5
A860
330
A
100
AcDbEntity
  8
0
  6
Continuous
 62
     7
370
     0
100
AcDbLine
 10
141.6751451176327
 20
-52.10000000000002
 30
0.0
 11
143.3000000001364
 21
-52.10000000000002
 31
0.0
  0
LINE
  5
A861
330
A
100
AcDbEntity
  8
0
  6
Continuous
 62
     7
370
     0
100
AcDbLine
 10
143.3000000001364
 20
-51.50000000000007
 30
0.0
 11
142.3627660425287
 21
-51.50000000000007
 31
0.0
  0
LINE
  5
A862
330
A
100
AcDbEntity
  8
0
  6
Continuous
 62
     7
370
     0
100
AcDbLine
 10
142.3627660425287
 20
-51.50000000000007
 30
0.0
 11
142.0752187176779
 21
-51.50000000000007
 31
0.0
  0
LINE
  5
A863
330
A
100
AcDbEntity
  8
0
  6
Continuous
 62
     7
370
     0
100
AcDbLine
 10
142.0752187176779
 20
-51.50000000000007
 30
0.0
 11
141.6751451176327
 21
-51.50000000000007
 31
0.0
  0
LINE
  5
A864
330
A
100
AcDbEntity
  8
0
  6
Continuous
 62
     7
370
     0
100
AcDbLine
 10
141.6751451176327
 20
-51.50000000000007
 30
0.0
 11
132.2372339577443
 21
-51.50000000000007
 31
0.0
  0
LINE
  5
A865
330
A
100
AcDbEntity
  8
0
  6
Continuous
 62
     7
370
     0
100
AcDbLine
 10
132.2372339577443
 20
-51.50000000000007
 30
0.0
 11
131.3000000001364
 21
-51.50000000000007
 31
0.0
  0
LINE
  5
A866
330
A
100
AcDbEntity
  8
0
  6
Continuous
 62
     7
370
     0
100
AcDbLine
 10
131.299999736265
 20
23.49999999999994
 30
0.0
 11
132.2372336665319
 21
23.49999999999994
 31
0.0
  0
LINE
  5
A867
330
A
100
AcDbEntity
  8
0
  6
Continuous
 62
     7
370
     0
100
AcDbLine
 10
132.2372336665319
 20
23.49999999999994
 30
0.0
 11
137.2708225438561
 21
23.49999999999994
 31
0.0
  0
LINE
  5
A868
330
A
100
AcDbEntity
  8
0
  6
Continuous
 62
     7
370
     0
100
AcDbLine
 10
137.2708225438561
 20
23.49999999999994
 30
0.0
 11
142.3627658741216
 21
23.49999999999994
 31
0.0
  0
LINE
  5
A869
330
A
100
AcDbEntity
  8
0
  6
Continuous
 62
     7
370
     0
100
AcDbLine
 10
142.3627658741216
 20
23.49999999999994
 30
0.0
 11
143.2999997362651
 21
23.49999999999994
 31
0.0
  0
LINE
  5
A86A
330
A
100
AcDbEntity
  8
0
  6
Continuous
 62
     7
370
     0
100
AcDbLine
 10
143.2999997362651
 20
24.09999999999997
 30
0.0
 11
131.299999736265
 21
24.09999999999997
 31
0.0
  0
LINE
  5
A86B
330
A
100
AcDbEntity
  8
0
  6
Continuous
 62
     7
370
     0
100
AcDbLine
 10
131.999999736265
 20
24.79999999999995
 30
0.0
 11
142.5999997362651
 21
24.79999999999995
 31
0.0
  0
LINE
  5
A86C
330
A
100
AcDbEntity
  8
0
  6
Continuous
 62
     7
370
     0
100
AcDbLine
 10
143.3000000001364
 20
5.999999999999943
 30
0.0
 11
137.3000000001364
 21
5.999999999999943
 31
0.0
  0
LINE
  5
A86D
330
A
100
AcDbEntity
  8
0
  6
Continuous
 62
     7
370
     0
100
AcDbLine
 10
137.3000000001364
 20
5.999999999999943
 30
0.0
 11
136.8000000001364
 21
5.999999999999943
 31
0.0
  0
LINE
  5
A86E
330
A
100
AcDbEntity
  8
0
  6
Continuous
 62
     7
370
     0
100
AcDbLine
 10
143.3000000001364
 20
4.699999999999986
 30
0.0
 11
137.3000000001364
 21
4.699999999999986
 31
0.0
  0
LINE
  5
A86F
330
A
100
AcDbEntity
  8
0
  6
Continuous
 62
     7
370
     0
100
AcDbLine
 10
137.3000000001364
 20
4.699999999999986
 30
0.0
 11
136.3000000001364
 21
4.699999999999986
 31
0.0
  0
LINE
  5
A870
330
A
100
AcDbEntity
  8
0
  6
Continuous
 62
     7
370
     0
100
AcDbLine
 10
136.8000000001364
 20
-33.99999999999939
 30
0.0
 11
137.3000000001364
 21
-33.99999999999939
 31
0.0
  0
LINE
  5
A871
330
A
100
AcDbEntity
  8
0
  6
Continuous
 62
     7
370
     0
100
AcDbLine
 10
137.3000000001364
 20
-33.99999999999939
 30
0.0
 11
143.3000000001364
 21
-33.99999999999939
 31
0.0
  0
LINE
  5
A872
330
A
100
AcDbEntity
  8
0
  6
Continuous
 62
     7
370
     0
100
AcDbLine
 10
136.3000000001364
 20
-32.69999999999936
 30
0.0
 11
137.3000000001364
 21
-32.69999999999936
 31
0.0
  0
LINE
  5
A873
330
A
100
AcDbEntity
  8
0
  6
Continuous
 62
     7
370
     0
100
AcDbLine
 10
137.3000000001364
 20
-32.69999999999936
 30
0.0
 11
143.3000000001364
 21
-32.69999999999936
 31
0.0
  0
LINE
  5
A874
330
A
100
AcDbEntity
  8
0
  6
Continuous
 62
     7
370
     0
100
AcDbLine
 10
137.3000000001364
 20
-32.70000000001301
 30
0.0
 11
136.3000000001361
 21
-32.70000000001301
 31
0.0
  0
LINE
  5
A875
330
A
100
AcDbEntity
  8
0
  6
Continuous
 62
     7
370
     0
100
AcDbLine
 10
137.3000000001364
 20
4.699999999986971
 30
0.0
 11
136.3000000001361
 21
4.699999999986971
 31
0.0
  0
LINE
  5
A876
330
A
100
AcDbEntity
  8
0
  6
Continuous
 62
     9
370
     0
100
AcDbLine
 10
137.3000000001364
 20
-32.70000000001301
 30
0.0
 11
137.3000000001364
 21
4.699999999986971
 31
0.0
  0
LINE
  5
A877
330
A
100
AcDbEntity
  8
0
  6
Continuous
 62
     7
370
     0
100
AcDbLine
 10
143.3000000001364
 20
-32.70000000001301
 30
0.0
 11
137.3000000001364
 21
-32.70000000001301
 31
0.0
  0
LINE
  5
A878
330
A
100
AcDbEntity
  8
0
  6
Continuous
 62
     7
370
     0
100
AcDbLine
 10
143.3000000001364
 20
4.699999999986971
 30
0.0
 11
137.3000000001364
 21
4.699999999986971
 31
0.0
  0
LINE
  5
A879
330
A
100
AcDbEntity
  8
0
  6
Continuous
 62
     7
370
     0
100
AcDbLine
 10
143.3000000001346
 20
-32.70000000001301
 30
0.0
 11
143.3000000001346
 21
4.699999999986971
 31
0.0
  0
LINE
  5
A87A
330
A
100
AcDbEntity
  8
0
  6
Continuous
 62
     9
370
     0
100
AcDbLine
 10
131.2465236603567
 20
-26.69230769230768
 30
0.0
 11
127.3000000001364
 21
-26.69230769230768
 31
0.0
  0
LINE
  5
A87B
330
A
100
AcDbEntity
  8
0
  6
Continuous
 62
     7
370
     0
100
AcDbLine
 10
127.3000000001364
 20
-26.69230769230768
 30
0.0
 11
127.3000000001364
 21
-1.307692307692205
 31
0.0
  0
LINE
  5
A87C
330
A
100
AcDbEntity
  8
0
  6
Continuous
 62
     9
370
     0
100
AcDbLine
 10
131.2465236603567
 20
-1.307692307692376
 30
0.0
 11
127.3000000001364
 21
-1.307692307692376
 31
0.0
  0
ARC
  5
A87D
330
A
100
AcDbEntity
  8
0
  6
Continuous
 62
     7
370
     0
100
AcDbCircle
 10
216.3259717444129
 20
-14.04015956432471
 30
0.0
 40
86.02690398200328
100
AcDbArc
 50
171.4886316925638
 51
176.9943841446426
  0
ARC
  5
A883
330
A
100
AcDbEntity
  8
0
  6
Continuous
 62
     7
370
     0
100
AcDbCircle
 10
216.3225250869307
 20
-13.96018801186727
 30
0.0
 40
86.02344384114996
100
AcDbArc
 50
183.0055050404898
 51
188.5114791223044
  0
LINE
  5
A884
330
A
100
AcDbEntity
  8
0
  6
Continuous
 62
     9
370
     0
100
AcDbLine
 10
130.4174063508614
 20
-9.52943891782985
 30
0.0
 11
130.4174063508614
 21
-18.47056108217021
 31
0.0
  0
LINE
  5
A88A
330
A
100
AcDbEntity
  8
0
  6
Continuous
 62
     7
370
     0
100
AcDbLine
 10
136.3000000001364
 20
22.99357127848856
 30
0.0
 11
136.3000000001364
 21
-50.99357127848874
 31
0.0
  0
LINE
  5
A891
330
A
100
AcDbEntity
  8
0
  6
Continuous
 62
     7
370
     0
100
AcDbLine
 10
142.3627660425287
 20
-51.50000000000007
 30
0.0
 11
141.6751451176327
 21
-51.50000000000007
 31
0.0
  0
LINE
  5
A892
330
A
100
AcDbEntity
  8
0
  6
Continuous
 62
     7
370
     0
100
AcDbLine
 10
141.6751451176327
 20
-51.50000000000007
 30
0.0
 11
132.2372339577443
 21
-51.50000000000007
 31
0.0
  0
LINE
  5
A893
330
A
100
AcDbEntity
  8
0
  6
Continuous
 62
     7
370
     0
100
AcDbLine
 10
132.2372339577443
 20
-51.50000000000007
 30
0.0
 11
131.3000000001364
 21
-51.50000000000007
 31
0.0
  0
LINE
  5
A894
330
A
100
AcDbEntity
  8
0
  6
Continuous
 62
     7
370
     0
100
AcDbLine
 10
131.3000000001364
 20
-51.50000000000007
 30
0.0
 11
131.3000000001364
 21
-51.19409326827303
 31
0.0
  0
LINE
  5
A89C
330
A
100
AcDbEntity
  8
0
  6
Continuous
 62
     7
370
     0
100
AcDbLine
 10
136.3000000001364
 20
-50.99357127848874
 30
0.0
 11
136.3000000001364
 21
-51.37471982415757
 31
0.0
  0
LINE
  5
A89D
330
A
100
AcDbEntity
  8
0
  6
Continuous
 62
     7
370
     0
100
AcDbLine
 10
136.3000000001364
 20
-51.37471982415757
 30
0.0
 11
136.8000000001364
 21
-51.41004078301488
 31
0.0
  0
LINE
  5
A89E
330
A
100
AcDbEntity
  8
0
  6
Continuous
 62
     7
370
     0
100
AcDbLine
 10
136.8000000001364
 20
-51.41004078301488
 30
0.0
 11
137.3000000001364
 21
-51.41004078301488
 31
0.0
  0
LINE
  5
A89F
330
A
100
AcDbEntity
  8
0
  6
Continuous
 62
     7
370
     0
100
AcDbLine
 10
137.3000000001364
 20
-51.41004078301488
 30
0.0
 11
142.0752294693682
 21
-51.49801858348324
 31
0.0
  0
LINE
  5
A8A0
330
A
100
AcDbEntity
  8
0
  6
Continuous
 62
     7
370
     0
100
AcDbLine
 10
142.0752294693682
 20
-51.49801858348324
 30
0.0
 11
142.3627660425287
 21
-51.50000000000007
 31
0.0
  0
LINE
  5
A8A1
330
A
100
AcDbEntity
  8
0
  6
Continuous
 62
     7
370
     0
100
AcDbLine
 10
127.3000000001364
 20
-48.09080196207202
 30
0.0
 11
127.3000000001364
 21
-26.69230769230768
 31
0.0
  0
LINE
  5
A8A2
330
A
100
AcDbEntity
  8
0
  6
Continuous
 62
     7
370
     0
100
AcDbLine
 10
137.3000000001364
 20
23.41004078301478
 30
0.0
 11
136.8000000001364
 21
23.41004078301478
 31
0.0
  0
LINE
  5
A8A3
330
A
100
AcDbEntity
  8
0
  6
Continuous
 62
     7
370
     0
100
AcDbLine
 10
136.8000000001364
 20
23.41004078301478
 30
0.0
 11
136.3000000001364
 21
23.37471982415729
 31
0.0
  0
LINE
  5
A8A4
330
A
100
AcDbEntity
  8
0
  6
Continuous
 62
     7
370
     0
100
AcDbLine
 10
136.3000000001364
 20
23.37471982415729
 30
0.0
 11
136.3000000001364
 21
22.99357127848856
 31
0.0
  0
LINE
  5
A8AB
330
A
100
AcDbEntity
  8
0
  6
Continuous
 62
     7
370
     0
100
AcDbLine
 10
131.3000000001364
 20
23.19409326827315
 30
0.0
 11
131.3000000001364
 21
23.49999999999994
 31
0.0
  0
LINE
  5
A8AC
330
A
100
AcDbEntity
  8
0
  6
Continuous
 62
     7
370
     0
100
AcDbLine
 10
132.2372336665319
 20
23.49999999999994
 30
0.0
 11
131.3000000001364
 21
23.49999999999994
 31
0.0
  0
LINE
  5
A8AD
330
A
100
AcDbEntity
  8
0
  6
Continuous
 62
     7
370
     0
100
AcDbLine
 10
142.3627660425287
 20
23.49999999999994
 30
0.0
 11
137.3000000001364
 21
23.41004078301478
 31
0.0
  0
LINE
  5
A8AE
330
A
100
AcDbEntity
  8
0
  6
Continuous
 62
     7
370
     0
100
AcDbLine
 10
127.3000000001364
 20
-1.307692307692376
 30
0.0
 11
127.3000000001364
 21
20.09080196207196
 31
0.0
  0
LINE
  5
A8AF
330
A
100
AcDbEntity
  8
0
  6
Continuous
 62
     9
370
     0
100
AcDbLine
 10
136.8000000001364
 20
-34.00000000000007
 30
0.0
 11
136.8000000001364
 21
-51.41004078301488
 31
0.0
  0
LINE
  5
A8B0
330
A
100
AcDbEntity
  8
0
  6
Continuous
 62
     7
370
     0
100
AcDbLine
 10
136.3000000001364
 20
-34.00000000000007
 30
0.0
 11
136.8000000001364
 21
-34.00000000000007
 31
0.0
  0
LINE
  5
A8B1
330
A
100
AcDbEntity
  8
0
  6
Continuous
 62
     9
370
     0
100
AcDbLine
 10
136.8000000001364
 20
23.41004078301478
 30
0.0
 11
136.8000000001364
 21
5.999999999999943
 31
0.0
  0
LINE
  5
A8B2
330
A
100
AcDbEntity
  8
0
  6
Continuous
 62
     7
370
     0
100
AcDbLine
 10
136.8000000001364
 20
5.999999999999943
 30
0.0
 11
136.3000000001364
 21
5.999999999999943
 31
0.0
  0
LINE
  5
A8B3
330
A
100
AcDbEntity
  8
0
  6
Continuous
 62
     9
370
     0
100
AcDbLine
 10
137.3000000001364
 20
-34.00000000000007
 30
0.0
 11
137.3000000001364
 21
-51.41004078301488
 31
0.0
  0
LINE
  5
A8B4
330
A
100
AcDbEntity
  8
0
  6
Continuous
 62
     7
370
     0
100
AcDbLine
 10
137.3000000001364
 20
-34.00000000000007
 30
0.0
 11
136.8000000001364
 21
-34.00000000000007
 31
0.0
  0
LINE
  5
A8B5
330
A
100
AcDbEntity
  8
0
  6
Continuous
 62
     7
370
     0
100
AcDbLine
 10
143.3000000001364
 20
-51.50000000000007
 30
0.0
 11
142.3627660425287
 21
-51.50000000000007
 31
0.0
  0
LINE
  5
A8B6
330
A
100
AcDbEntity
  8
0
  6
Continuous
 62
     7
370
     0
100
AcDbLine
 10
143.3000000001364
 20
-34.00000000000007
 30
0.0
 11
143.3000000001364
 21
-51.50000000000007
 31
0.0
  0
LINE
  5
A8B7
330
A
100
AcDbEntity
  8
0
  6
Continuous
 62
     7
370
     0
100
AcDbLine
 10
143.3000000001364
 20
-34.00000000000007
 30
0.0
 11
137.3000000001364
 21
-34.00000000000007
 31
0.0
  0
LINE
  5
A8B8
330
A
100
AcDbEntity
  8
0
  6
Continuous
 62
     7
370
     0
100
AcDbLine
 10
143.3000000001364
 20
23.49999999999994
 30
0.0
 11
142.3627660425287
 21
23.49999999999994
 31
0.0
  0
LINE
  5
A8B9
330
A
100
AcDbEntity
  8
0
  6
Continuous
 62
     7
370
     0
100
AcDbLine
 10
143.3000000001364
 20
23.49999999999994
 30
0.0
 11
143.3000000001364
 21
5.999999999999943
 31
0.0
  0
LINE
  5
A8BA
330
A
100
AcDbEntity
  8
0
  6
Continuous
 62
     9
370
     0
100
AcDbLine
 10
137.3000000001364
 20
23.41004078301478
 30
0.0
 11
137.3000000001364
 21
5.999999999999943
 31
0.0
  0
LINE
  5
A8BB
330
A
100
AcDbEntity
  8
0
  6
Continuous
 62
     7
370
     0
100
AcDbLine
 10
137.3000000001364
 20
5.999999999999943
 30
0.0
 11
143.3000000001364
 21
5.999999999999943
 31
0.0
  0
LINE
  5
A8BC
330
A
100
AcDbEntity
  8
0
  6
Continuous
 62
     7
370
     0
100
AcDbLine
 10
136.8000000001364
 20
5.999999999999943
 30
0.0
 11
137.3000000001364
 21
5.999999999999943
 31
0.0
  0
LINE
  5
A8BD
330
A
100
AcDbEntity
  8
0
  6
Continuous
 62
     7
370
     0
100
AcDbLine
 10
113.3000000001305
 20
6.192264973083012
 30
0.0
 11
111.9500000001269
 21
5.412842109675011
 31
0.0
  0
LINE
  5
A8BE
330
A
100
AcDbEntity
  8
0
  6
Continuous
 62
     7
370
     0
100
AcDbLine
 10
111.9500000001269
 20
-5.412842109675123
 30
0.0
 11
113.3000000001305
 21
-6.192264973083241
 31
0.0
  0
ARC
  5
A8BF
330
A
100
AcDbEntity
  8
0
  6
Continuous
 62
     7
370
     0
100
AcDbCircle
 10
112.2000000001269
 20
-4.979829407782856
 30
0.0
 40
0.5000000000000006
100
AcDbArc
 50
180.0
 51
239.9999999999995
  0
ARC
  5
A8C0
330
A
100
AcDbEntity
  8
0
  6
Continuous
 62
     7
370
     0
100
AcDbCircle
 10
112.2000000001269
 20
4.979829407782801
 30
0.0
 40
0.5000000000000159
100
AcDbArc
 50
120.0000000000033
 51
180.0000000000032
  0
LINE
  5
A8C1
330
A
100
AcDbEntity
  8
0
  6
Continuous
 62
     7
370
     0
100
AcDbLine
 10
113.3000000001305
 20
-21.80773504160578
 30
0.0
 11
111.9499999999188
 21
-22.5871579052033
 31
0.0
  0
LINE
  5
A8C2
330
A
100
AcDbEntity
  8
0
  6
Continuous
 62
     7
370
     0
100
AcDbLine
 10
111.9500000003347
 20
-33.41284212455327
 30
0.0
 11
113.3000000001305
 21
-34.19226498777244
 31
0.0
  0
ARC
  5
A8C3
330
A
100
AcDbEntity
  8
0
  6
Continuous
 62
     7
370
     0
100
AcDbCircle
 10
112.2000000003181
 20
-32.97982942265151
 30
0.0
 40
0.5000000000000006
100
AcDbArc
 50
180.0000000022015
 51
240.0000000022
  0
ARC
  5
A8C4
330
A
100
AcDbEntity
  8
0
  6
Continuous
 62
     7
370
     0
100
AcDbCircle
 10
112.1999999999354
 20
-23.0201706070859
 30
0.0
 40
0.4999999999999499
100
AcDbArc
 50
120.0000000022038
 51
180.0000000022049
  0
ARC
  5
A8C5
330
A
100
AcDbEntity
  8
0
  6
Continuous
 62
     7
370
     0
100
AcDbCircle
 10
116.3135033221459
 20
-47.3739324340064
 30
0.0
 40
2.41471491479264
100
AcDbArc
 50
237.6848529090104
 51
269.6795947262453
  0
ARC
  5
A8C6
330
A
100
AcDbEntity
  8
0
  6
Continuous
 62
     7
370
     0
100
AcDbCircle
 10
116.3069809406518
 20
19.41785275026495
 30
0.0
 40
2.37076712032116
100
AcDbArc
 50
90.16871290456316
 51
114.0190496745573
  0
LINE
  5
A8C7
330
A
100
AcDbEntity
  8
0
  6
Continuous
 62
     7
370
     0
100
AcDbLine
 10
118.3000000001305
 20
21.78916645540522
 30
0.0
 11
116.3000000001305
 21
21.78916645540522
 31
0.0
  0
LINE
  5
A8C8
330
A
100
AcDbEntity
  8
0
  6
Continuous
 62
     7
370
     0
100
AcDbLine
 10
116.3000000001306
 20
-49.7891664554052
 30
0.0
 11
118.3000000001305
 21
-49.7891664554052
 31
0.0
  0
LINE
  5
A8C9
330
A
100
AcDbEntity
  8
0
  6
Continuous
 62
     7
370
     0
100
AcDbLine
 10
119.8000000001364
 20
17.2671051426488
 30
0.0
 11
118.3000000001364
 21
17.2671051426488
 31
0.0
  0
LINE
  5
A8CA
330
A
100
AcDbEntity
  8
0
  6
Continuous
 62
     7
370
     0
100
AcDbLine
 10
118.3000000001366
 20
-45.26710514264892
 30
0.0
 11
119.8000000001364
 21
-45.26710514264892
 31
0.0
  0
LINE
  5
A8CB
330
A
100
AcDbEntity
  8
0
  6
Continuous
 62
     7
370
     0
100
AcDbLine
 10
125.8000000001364
 20
-45.26710514264875
 30
0.0
 11
127.3000000001364
 21
-45.26710514264875
 31
0.0
  0
LINE
  5
A8CC
330
A
100
AcDbEntity
  8
0
  6
Continuous
 62
     7
370
     0
100
AcDbLine
 10
127.3000000001364
 20
17.26710514264874
 30
0.0
 11
125.8000000001364
 21
17.26710514264874
 31
0.0
  0
LINE
  5
A8CD
330
A
100
AcDbEntity
  8
0
  6
Continuous
 62
     7
370
     0
100
AcDbLine
 10
125.8000000001364
 20
6.899999999999977
 30
0.0
 11
119.8000000001364
 21
6.899999999999977
 31
0.0
  0
LINE
  5
A8CE
330
A
100
AcDbEntity
  8
0
  6
Continuous
 62
     7
370
     0
100
AcDbLine
 10
119.8000000001364
 20
-6.900000000000032
 30
0.0
 11
125.8000000001364
 21
-6.900000000000032
 31
0.0
  0
LINE
  5
A8CF
330
A
100
AcDbEntity
  8
0
  6
Continuous
 62
     7
370
     0
100
AcDbLine
 10
125.8000000001364
 20
-21.10000000000003
 30
0.0
 11
119.8000000001364
 21
-21.10000000000003
 31
0.0
  0
LINE
  5
A8D0
330
A
100
AcDbEntity
  8
0
  6
Continuous
 62
     7
370
     0
100
AcDbLine
 10
119.8000000001364
 20
-34.90000000000004
 30
0.0
 11
125.8000000001364
 21
-34.90000000000004
 31
0.0
  0
LINE
  5
A8D1
330
A
100
AcDbEntity
  8
0
  6
Continuous
 62
     7
370
     0
100
AcDbLine
 10
131.3000000001364
 20
-52.10000000000002
 30
0.0
 11
132.0000000001364
 21
-52.8
 31
0.0
  0
LINE
  5
A8D2
330
A
100
AcDbEntity
  8
0
  6
Continuous
 62
     7
370
     0
100
AcDbLine
 10
142.6000000001364
 20
-52.8
 30
0.0
 11
143.3000000001364
 21
-52.10000000000002
 31
0.0
  0
LINE
  5
A8D3
330
A
100
AcDbEntity
  8
0
  6
Continuous
 62
     7
370
     0
100
AcDbLine
 10
143.3000000001364
 20
-52.10000000000002
 30
0.0
 11
143.3000000001364
 21
-51.50000000000007
 31
0.0
  0
LINE
  5
A8D4
330
A
100
AcDbEntity
  8
0
  6
Continuous
 62
     7
370
     0
100
AcDbLine
 10
131.3000000001364
 20
-51.50000000000007
 30
0.0
 11
131.3000000001364
 21
-52.10000000000002
 31
0.0
  0
LINE
  5
A8D5
330
A
100
AcDbEntity
  8
0
  6
Continuous
 62
     7
370
     0
100
AcDbLine
 10
131.299999736265
 20
24.09999999999997
 30
0.0
 11
131.299999736265
 21
23.49999999999994
 31
0.0
  0
LINE
  5
A8D6
330
A
100
AcDbEntity
  8
0
  6
Continuous
 62
     7
370
     0
100
AcDbLine
 10
143.2999997362651
 20
23.49999999999994
 30
0.0
 11
143.2999997362651
 21
24.09999999999997
 31
0.0
  0
LINE
  5
A8D7
330
A
100
AcDbEntity
  8
0
  6
Continuous
 62
     7
370
     0
100
AcDbLine
 10
143.2999997362651
 20
24.09999999999997
 30
0.0
 11
142.5999997362651
 21
24.79999999999995
 31
0.0
  0
LINE
  5
A8D8
330
A
100
AcDbEntity
  8
0
  6
Continuous
 62
     7
370
     0
100
AcDbLine
 10
131.999999736265
 20
24.79999999999995
 30
0.0
 11
131.299999736265
 21
24.09999999999997
 31
0.0
  0
LINE
  5
A8D9
330
A
100
AcDbEntity
  8
0
  6
Continuous
 62
     7
370
     0
100
AcDbLine
 10
143.3000000001364
 20
4.699999999999986
 30
0.0
 11
143.3000000001364
 21
5.999999999999943
 31
0.0
  0
LINE
  5
A8DA
330
A
100
AcDbEntity
  8
0
  6
Continuous
 62
     7
370
     0
100
AcDbLine
 10
143.3000000001364
 20
-33.99999999999939
 30
0.0
 11
143.3000000001364
 21
-32.69999999999936
 31
0.0
  0
LINE
  5
A8DB
330
A
100
AcDbEntity
  8
0
  6
Continuous
 62
     9
370
     0
100
AcDbLine
 10
65.412842109676
 20
-70.95000000011873
 30
0.0
 11
64.93430409164691
 21
-70.95000000012061
 31
0.0
  0
LINE
  5
A8DC
330
A
100
AcDbEntity
  8
0
  6
Continuous
 62
     9
370
     0
100
AcDbLine
 10
64.93430409164691
 20
-70.95000000012061
 30
0.0
 11
54.58715789032587
 21
-70.95000000015835
 31
0.0
  0
LINE
  5
A8DD
330
A
100
AcDbEntity
  8
0
  6
Continuous
 62
     7
370
     0
100
AcDbLine
 10
55.02017059221711
 20
-70.70000000015676
 30
0.0
 11
64.53957313452773
 21
-70.70000000012186
 31
0.0
  0
LINE
  5
A8DE
330
A
100
AcDbEntity
  8
0
  6
Continuous
 62
     7
370
     0
100
AcDbLine
 10
64.53957313452773
 20
-70.70000000012186
 30
0.0
 11
64.97982940778289
 21
-70.70000000012027
 31
0.0
  0
LINE
  5
A8DF
330
A
100
AcDbEntity
  8
0
  6
Continuous
 62
     7
370
     0
100
AcDbLine
 10
55.02017059221461
 20
-70.70000000016626
 30
0.0
 11
64.97982940778015
 21
-70.7000000001329
 31
0.0
  0
LINE
  5
A8E0
330
A
100
AcDbEntity
  8
0
  6
Continuous
 62
     9
370
     0
100
AcDbLine
 10
5.412842109675324
 20
-70.95000000013072
 30
0.0
 11
-5.412842109674812
 21
-70.95000000013072
 31
0.0
  0
LINE
  5
A8E1
330
A
100
AcDbEntity
  8
0
  6
Continuous
 62
     7
370
     0
100
AcDbLine
 10
-4.979829407782602
 20
-70.70000000013056
 30
0.0
 11
4.979829407783057
 21
-70.70000000013056
 31
0.0
  0
LINE
  5
A8E2
330
A
100
AcDbEntity
  8
0
  6
Continuous
 62
     7
370
     0
100
AcDbLine
 10
-4.979829407778225
 20
-70.70000000032172
 30
0.0
 11
4.979829407787491
 21
-70.69999999993922
 31
0.0
  0
ARC
  5
A8E3
330
A
100
AcDbEntity
  8
0
  6
Continuous
 62
     7
370
     0
100
AcDbCircle
 10
47.99999999998712
 20
-75.30000000014189
 30
0.0
 40
3.000000000000333
100
AcDbArc
 50
89.99999999999023
 51
179.9999999999935
  0
ARC
  5
A8E4
330
A
100
AcDbEntity
  8
0
  6
Continuous
 62
     9
370
     0
100
AcDbCircle
 10
48.15948929967285
 20
-75.20082030325515
 30
0.0
 40
2.90520141602447
100
AcDbArc
 50
93.14699694975537
 51
181.9563815385919
  0
LINE
  5
A8E5
330
A
100
AcDbEntity
  8
0
  6
Continuous
 62
     9
370
     0
100
AcDbLine
 10
44.99999999998691
 20
-75.30000000014155
 30
0.0
 11
45.25598130839805
 21
-75.30000000014155
 31
0.0
  0
ELLIPSE
  5
A8E6
330
A
100
AcDbEntity
  8
0
  6
Continuous
 62
     9
370
     0
100
AcDbEllipse
 10
69.46375073657711
 20
-75.30000000014149
 30
0.0
 11
0.0
 21
3.000000000000001
 31
0.0
210
0.0
220
0.0
230
1.0
 40
0.9060937684148292
 41
4.712388980384688
 42
6.283185307179584
  0
LINE
  5
A8E7
330
A
100
AcDbEntity
  8
0
  6
Continuous
 62
     9
370
     0
100
AcDbLine
 10
72.18203204181148
 20
-75.30000000014149
 30
0.0
 11
45.25598130839509
 21
-75.30000000014155
 31
0.0
  0
LINE
  5
A8E8
330
A
100
AcDbEntity
  8
0
  6
Continuous
 62
     7
370
     0
100
AcDbLine
 10
47.99999999998394
 20
-72.30000000014155
 30
0.0
 11
69.46375073656762
 21
-72.30000000014155
 31
0.0
  0
LINE
  5
A8E9
330
A
100
AcDbEntity
  8
0
  6
Continuous
 62
     7
370
     0
100
AcDbLine
 10
44.99999999998691
 20
-77.30000000014155
 30
0.0
 11
44.99999999998691
 21
-75.30000000014155
 31
0.0
  0
LINE
  5
A8EA
330
A
100
AcDbEntity
  8
0
  6
Continuous
 62
     9
370
     0
100
AcDbLine
 10
45.25598130839816
 20
-75.30000000014155
 30
0.0
 11
45.25598130839816
 21
-77.30000000014155
 31
0.0
  0
LINE
  5
A8EB
330
A
100
AcDbEntity
  8
0
  6
Continuous
 62
     7
370
     0
100
AcDbLine
 10
45.25598130839805
 20
-77.30000000014155
 30
0.0
 11
44.99999999998691
 21
-77.30000000014155
 31
0.0
  0
LINE
  5
A8EC
330
A
100
AcDbEntity
  8
0
  6
Continuous
 62
     9
370
     0
100
AcDbLine
 10
72.18203204182143
 20
-77.30000000014149
 30
0.0
 11
72.18203204182143
 21
-75.30000000014149
 31
0.0
  0
LINE
  5
A8ED
330
A
100
AcDbEntity
  8
0
  6
Continuous
 62
     7
370
     0
100
AcDbLine
 10
72.18203204181148
 20
-77.30000000014149
 30
0.0
 11
45.25598130839509
 21
-77.30000000014155
 31
0.0
  0
LINE
  5
A8EE
330
A
100
AcDbEntity
  8
0
  6
Continuous
 62
     7
370
     0
100
AcDbLine
 10
74.9992189893766
 20
-77.30000000014155
 30
0.0
 11
72.1820320418146
 21
-77.30000000014155
 31
0.0
  0
LINE
  5
A8EF
330
A
100
AcDbEntity
  8
0
  6
Continuous
 62
     9
370
     0
100
AcDbLine
 10
74.9992189893766
 20
-75.30000000014155
 30
0.0
 11
72.1820320418146
 21
-75.30000000014155
 31
0.0
  0
LINE
  5
A8F0
330
A
100
AcDbEntity
  8
0
  6
Continuous
 62
     7
370
     0
100
AcDbLine
 10
69.46375073657091
 20
-72.30000000014155
 30
0.0
 11
71.9992189893766
 21
-72.30000000014155
 31
0.0
  0
ARC
  5
A8F1
330
A
100
AcDbEntity
  8
0
  6
Continuous
 62
     9
370
     0
100
AcDbCircle
 10
11.84093195212243
 20
-75.20043499563588
 30
0.0
 40
2.904793591115656
100
AcDbArc
 50
358.0357392093357
 51
86.86088230230216
  0
ARC
  5
A8F2
330
A
100
AcDbEntity
  8
0
  6
Continuous
 62
     7
370
     0
100
AcDbCircle
 10
12.00000000000014
 20
-75.30000000013416
 30
0.0
 40
3.000000000000001
100
AcDbArc
 50
0.0
 51
90.0
  0
LINE
  5
A8F3
330
A
100
AcDbEntity
  8
0
  6
Continuous
 62
     9
370
     0
100
AcDbLine
 10
14.744018691589
 20
-75.3000000001342
 30
0.0
 11
15.00000000000014
 21
-75.30000000013416
 31
0.0
  0
ELLIPSE
  5
A8F4
330
A
100
AcDbEntity
  8
0
  6
Continuous
 62
     9
370
     0
100
AcDbEllipse
 10
-9.463750736583577
 20
-75.30000000013416
 30
0.0
 11
0.0
 21
3.000000000000001
 31
0.0
210
0.0
220
0.0
230
1.0
 40
0.906093768414596
 41
0.0
 42
1.570796326794896
  0
LINE
  5
A8F5
330
A
100
AcDbEntity
  8
0
  6
Continuous
 62
     7
370
     0
100
AcDbLine
 10
-9.463750736583577
 20
-72.30000000013422
 30
0.0
 11
12.00000000000014
 21
-72.30000000013422
 31
0.0
  0
LINE
  5
A8F6
330
A
100
AcDbEntity
  8
0
  6
Continuous
 62
     9
370
     0
100
AcDbLine
 10
14.744018691589
 20
-75.3000000001342
 30
0.0
 11
-12.1820320418274
 21
-75.3000000001342
 31
0.0
  0
LINE
  5
A8F7
330
A
100
AcDbEntity
  8
0
  6
Continuous
 62
     9
370
     0
100
AcDbLine
 10
14.744018691589
 20
-77.30000000013416
 30
0.0
 11
14.744018691589
 21
-75.3000000001342
 31
0.0
  0
LINE
  5
A8F8
330
A
100
AcDbEntity
  8
0
  6
Continuous
 62
     7
370
     0
100
AcDbLine
 10
15.00000000000009
 20
-75.30000000013416
 30
0.0
 11
15.00000000000009
 21
-77.30000000013416
 31
0.0
  0
LINE
  5
A8F9
330
A
100
AcDbEntity
  8
0
  6
Continuous
 62
     7
370
     0
100
AcDbLine
 10
15.00000000000014
 20
-77.30000000013416
 30
0.0
 11
14.744018691589
 21
-77.30000000013416
 31
0.0
  0
LINE
  5
A8FA
330
A
100
AcDbEntity
  8
0
  6
Continuous
 62
     9
370
     0
100
AcDbLine
 10
-12.1820320418274
 20
-77.30000000013416
 30
0.0
 11
-12.1820320418274
 21
-75.30000000013416
 31
0.0
  0
LINE
  5
A8FB
330
A
100
AcDbEntity
  8
0
  6
Continuous
 62
     7
370
     0
100
AcDbLine
 10
14.744018691589
 20
-77.30000000013416
 30
0.0
 11
-12.1820320418274
 21
-77.30000000013416
 31
0.0
  0
LINE
  5
A8FC
330
A
100
AcDbEntity
  8
0
  6
Continuous
 62
     9
370
     0
100
AcDbLine
 10
-12.1820320418274
 20
-75.30000000013416
 30
0.0
 11
-14.99921898938956
 21
-75.30000000013416
 31
0.0
  0
LINE
  5
A8FD
330
A
100
AcDbEntity
  8
0
  6
Continuous
 62
     7
370
     0
100
AcDbLine
 10
-12.1820320418274
 20
-77.30000000013416
 30
0.0
 11
-14.99921898938956
 21
-77.30000000013416
 31
0.0
  0
LINE
  5
A8FE
330
A
100
AcDbEntity
  8
0
  6
Continuous
 62
     7
370
     0
100
AcDbLine
 10
-11.99921898938956
 20
-72.30000000013422
 30
0.0
 11
-9.463750736583705
 21
-72.30000000013422
 31
0.0
  0
LINE
  5
A8FF
330
A
100
AcDbEntity
  8
0
  6
Continuous
 62
     9
370
     0
100
AcDbLine
 10
53.98899999998898
 20
-77.30000000014155
 30
0.0
 11
53.98899999998898
 21
-78.80000000014155
 31
0.0
  0
LINE
  5
A900
330
A
100
AcDbEntity
  8
0
  6
Continuous
 62
     7
370
     0
100
AcDbLine
 10
50.99999999998821
 20
-78.80000000014155
 30
0.0
 11
50.99999999998821
 21
-77.30000000014155
 31
0.0
  0
LINE
  5
A901
330
A
100
AcDbEntity
  8
0
  6
Continuous
 62
     7
370
     0
100
AcDbLine
 10
53.98899999998886
 20
-78.80000000014155
 30
0.0
 11
50.99999999998877
 21
-78.80000000014155
 31
0.0
  0
LINE
  5
A902
330
A
100
AcDbEntity
  8
0
  6
Continuous
 62
     7
370
     0
100
AcDbLine
 10
71.12091000297036
 20
-77.30000000014155
 30
0.0
 11
71.12091000297036
 21
-78.80000000014155
 31
0.0
  0
LINE
  5
A903
330
A
100
AcDbEntity
  8
0
  6
Continuous
 62
     7
370
     0
100
AcDbLine
 10
71.12091000295968
 20
-78.80000000014155
 30
0.0
 11
53.98899999998329
 21
-78.80000000014155
 31
0.0
  0
LINE
  5
A904
330
A
100
AcDbEntity
  8
0
  6
Continuous
 62
     7
370
     0
100
AcDbLine
 10
73.99999999998644
 20
-78.80000000014155
 30
0.0
 11
71.12091000296297
 21
-78.80000000014155
 31
0.0
  0
LINE
  5
A905
330
A
100
AcDbEntity
  8
0
  6
Continuous
 62
     7
370
     0
100
AcDbLine
 10
9.000000000000142
 20
-77.3000000001402
 30
0.0
 11
9.000000000000142
 21
-78.8000000001402
 31
0.0
  0
LINE
  5
A906
330
A
100
AcDbEntity
  8
0
  6
Continuous
 62
     9
370
     0
100
AcDbLine
 10
6.011000000000173
 20
-78.8000000001402
 30
0.0
 11
6.011000000000173
 21
-77.3000000001402
 31
0.0
  0
LINE
  5
A907
330
A
100
AcDbEntity
  8
0
  6
Continuous
 62
     7
370
     0
100
AcDbLine
 10
9.000000000000142
 20
-78.8000000001402
 30
0.0
 11
6.011000000000173
 21
-78.8000000001402
 31
0.0
  0
LINE
  5
A908
330
A
100
AcDbEntity
  8
0
  6
Continuous
 62
     7
370
     0
100
AcDbLine
 10
-11.42900910642154
 20
-77.3000000001402
 30
0.0
 11
-11.42900910642154
 21
-78.8000000001402
 31
0.0
  0
LINE
  5
A909
330
A
100
AcDbEntity
  8
0
  6
Continuous
 62
     7
370
     0
100
AcDbLine
 10
6.011000000000173
 20
-78.8000000001402
 30
0.0
 11
-11.42900910642154
 21
-78.8000000001402
 31
0.0
  0
LINE
  5
A90A
330
A
100
AcDbEntity
  8
0
  6
Continuous
 62
     7
370
     0
100
AcDbLine
 10
-11.42900910642154
 20
-78.8000000001402
 30
0.0
 11
-13.99999999999984
 21
-78.8000000001402
 31
0.0
  0
LINE
  5
A90B
330
A
100
AcDbEntity
  8
0
  6
Continuous
 62
     9
370
     0
100
AcDbLine
 10
6.011000000000173
 20
-86.30000000014019
 30
0.0
 11
6.011000000000173
 21
-84.80000000014001
 31
0.0
  0
LINE
  5
A90C
330
A
100
AcDbEntity
  8
0
  6
Continuous
 62
     7
370
     0
100
AcDbLine
 10
9.000000000000142
 20
-84.80000000014001
 30
0.0
 11
9.000000000000142
 21
-86.30000000014019
 31
0.0
  0
LINE
  5
A90D
330
A
100
AcDbEntity
  8
0
  6
Continuous
 62
     7
370
     0
100
AcDbLine
 10
6.011000000000173
 20
-84.80000000014001
 30
0.0
 11
9.000000000000142
 21
-84.80000000014001
 31
0.0
  0
LINE
  5
A90E
330
A
100
AcDbEntity
  8
0
  6
Continuous
 62
     7
370
     0
100
AcDbLine
 10
-11.1209100029762
 20
-86.30000000014019
 30
0.0
 11
-11.1209100029762
 21
-84.80000000014001
 31
0.0
  0
LINE
  5
A90F
330
A
100
AcDbEntity
  8
0
  6
Continuous
 62
     7
370
     0
100
AcDbLine
 10
-11.12091000297595
 20
-84.80000000014001
 30
0.0
 11
6.011000000000237
 21
-84.80000000014001
 31
0.0
  0
LINE
  5
A910
330
A
100
AcDbEntity
  8
0
  6
Continuous
 62
     7
370
     0
100
AcDbLine
 10
-13.99999999999951
 20
-84.80000000014001
 30
0.0
 11
-11.12091000297604
 21
-84.80000000014001
 31
0.0
  0
LINE
  5
A911
330
A
100
AcDbEntity
  8
0
  6
Continuous
 62
     9
370
     0
100
AcDbLine
 10
53.98899999998898
 20
-84.80000000014314
 30
0.0
 11
53.98899999998898
 21
-86.30000000014314
 31
0.0
  0
LINE
  5
A912
330
A
100
AcDbEntity
  8
0
  6
Continuous
 62
     7
370
     0
100
AcDbLine
 10
50.99999999998821
 20
-86.30000000014314
 30
0.0
 11
50.99999999998821
 21
-84.80000000014314
 31
0.0
  0
LINE
  5
A913
330
A
100
AcDbEntity
  8
0
  6
Continuous
 62
     7
370
     0
100
AcDbLine
 10
50.99999999998877
 20
-84.80000000014314
 30
0.0
 11
53.98899999998886
 21
-84.80000000014314
 31
0.0
  0
LINE
  5
A914
330
A
100
AcDbEntity
  8
0
  6
Continuous
 62
     7
370
     0
100
AcDbLine
 10
71.12091000297036
 20
-84.80000000014314
 30
0.0
 11
71.12091000297036
 21
-86.30000000014314
 31
0.0
  0
LINE
  5
A915
330
A
100
AcDbEntity
  8
0
  6
Continuous
 62
     7
370
     0
100
AcDbLine
 10
71.12091000295961
 20
-84.80000000014314
 30
0.0
 11
53.98899999998329
 21
-84.80000000014314
 31
0.0
  0
LINE
  5
A916
330
A
100
AcDbEntity
  8
0
  6
Continuous
 62
     7
370
     0
100
AcDbLine
 10
73.99999999998644
 20
-84.80000000014314
 30
0.0
 11
71.12091000296297
 21
-84.80000000014314
 31
0.0
  0
LINE
  5
A917
330
A
100
AcDbEntity
  8
0
  6
Continuous
 62
     7
370
     0
100
AcDbLine
 10
58.17084380240268
 20
-84.80000000014326
 30
0.0
 11
58.17084380240268
 21
-78.80000000014314
 31
0.0
  0
LINE
  5
A918
330
A
100
AcDbEntity
  8
0
  6
Continuous
 62
     7
370
     0
100
AcDbLine
 10
59.82915619757969
 20
-78.80000000014314
 30
0.0
 11
59.82915619757969
 21
-84.80000000014326
 31
0.0
  0
CIRCLE
  5
A919
330
A
100
AcDbEntity
  8
0
  6
Continuous
 62
     7
370
     0
100
AcDbCircle
 10
29.99999995701259
 20
-96.29999973626869
 30
0.0
 40
5.299999999999971
  0
CIRCLE
  5
A91A
330
A
100
AcDbEntity
  8
0
  6
Continuous
 62
     7
370
     0
100
AcDbCircle
 10
29.99999995701259
 20
-96.29999973626869
 30
0.0
 40
6.000000000000002
  0
ARC
  5
A91B
330
A
100
AcDbEntity
  8
0
  6
Continuous
 62
     7
370
     0
100
AcDbCircle
 10
38.33809608761081
 20
-71.30000009554051
 30
0.0
 40
18.99999999999313
100
AcDbArc
 50
270.0057413760265
 51
307.8636468303979
  0
LINE
  5
A91C
330
A
100
AcDbEntity
  8
0
  6
Continuous
 62
     7
370
     0
100
AcDbLine
 10
49.99999999998428
 20
-86.30000000014314
 30
0.0
 11
72.18203204179193
 21
-86.30000000014314
 31
0.0
  0
LINE
  5
A91D
330
A
100
AcDbEntity
  8
0
  6
Continuous
 62
     9
370
     0
100
AcDbLine
 10
72.1820320418146
 20
-90.2465236603623
 30
0.0
 11
72.1820320418146
 21
-86.30000000014325
 31
0.0
  0
ARC
  5
A91E
330
A
100
AcDbEntity
  8
0
  6
Continuous
 62
     7
370
     0
100
AcDbCircle
 10
39.84303551993455
 20
10.70093827178323
 30
0.0
 40
106.0009470079591
100
AcDbArc
 50
269.9767383801868
 51
287.7631061474643
  0
LINE
  5
A91F
330
A
100
AcDbEntity
  8
0
  6
Continuous
 62
     7
370
     0
100
AcDbLine
 10
39.799999999993
 20
-95.30000000014041
 30
0.0
 11
36.49999999999713
 21
-95.30000000014041
 31
0.0
  0
LINE
  5
A920
330
A
100
AcDbEntity
  8
0
  6
Continuous
 62
     7
370
     0
100
AcDbLine
 10
36.49999999999821
 20
-95.30000000014041
 30
0.0
 11
36.42352941176293
 21
-95.30588235308155
 31
0.0
  0
ARC
  5
A921
330
A
100
AcDbEntity
  8
0
  6
Continuous
 62
     7
370
     0
100
AcDbCircle
 10
30.00000000000015
 20
-96.30000000014002
 30
0.0
 40
6.499999999998058
100
AcDbArc
 50
8.797410709989536
 51
62.51357374961932
  0
LINE
  5
A922
330
A
100
AcDbEntity
  8
0
  6
Continuous
 62
     7
370
     0
100
AcDbLine
 10
32.99999999999922
 20
-90.53371870280654
 30
0.0
 11
32.99999999999922
 21
-90.3000000001419
 31
0.0
  0
LINE
  5
A923
330
A
100
AcDbEntity
  8
0
  6
Continuous
 62
     7
370
     0
100
AcDbLine
 10
32.9999999999994
 20
-90.30000000014203
 30
0.0
 11
38.33999999999262
 21
-90.30000000014203
 31
0.0
  0
LINE
  5
A924
330
A
100
AcDbEntity
  8
0
  6
Continuous
 62
     7
370
     0
100
AcDbLine
 10
35.99999999999844
 20
-95.80000000014024
 30
0.0
 11
35.99999999999844
 21
-96.30000000014002
 31
0.0
  0
ARC
  5
A925
330
A
100
AcDbEntity
  8
0
  6
Continuous
 62
     7
370
     0
100
AcDbCircle
 10
36.49999999999821
 20
-95.80000000014024
 30
0.0
 40
0.4999999999999874
100
AcDbArc
 50
98.7974107099896
 51
180.0
  0
LINE
  5
A926
330
A
100
AcDbEntity
  8
0
  6
Continuous
 62
     7
370
     0
100
AcDbLine
 10
31.49999499000015
 20
-90.3000000001419
 30
0.0
 11
32.99999999999922
 21
-90.3000000001419
 31
0.0
  0
LINE
  5
A933
330
A
100
AcDbEntity
  8
0
  6
Continuous
 62
     7
370
     0
100
AcDbLine
 10
72.18203204180444
 20
-86.30000000014325
 30
0.0
 11
74.99921898936477
 21
-86.30000000014325
 31
0.0
  0
LINE
  5
A934
330
A
100
AcDbEntity
  8
0
  6
Continuous
 62
     7
370
     0
100
AcDbLine
 10
74.66425031601679
 20
-89.41740635086727
 30
0.0
 11
72.1820320418146
 21
-90.2465236603623
 31
0.0
  0
LINE
  5
A935
330
A
100
AcDbEntity
  8
0
  6
Continuous
 62
     7
370
     0
100
AcDbLine
 10
24.00000000000026
 20
-96.30000000014002
 30
0.0
 11
24.00000000000026
 21
-95.80000000014001
 31
0.0
  0
LINE
  5
A95E
330
A
100
AcDbEntity
  8
0
  6
Continuous
 62
     7
370
     0
100
AcDbLine
 10
23.50000000000026
 20
-95.30000000014002
 30
0.0
 11
20.20000000000019
 21
-95.30000000014002
 31
0.0
  0
ARC
  5
A95F
330
A
100
AcDbEntity
  8
0
  6
Continuous
 62
     7
370
     0
100
AcDbCircle
 10
20.15722296407282
 20
10.70259460439564
 30
0.0
 40
106.002603235809
100
AcDbArc
 50
252.2370339299487
 51
270.0231215424007
  0
LINE
  5
A960
330
A
100
AcDbEntity
  8
0
  6
Continuous
 62
     9
370
     0
100
AcDbLine
 10
-12.1820320418274
 20
-90.2465236603604
 30
0.0
 11
-12.1820320418274
 21
-86.30000000014019
 31
0.0
  0
LINE
  5
A961
330
A
100
AcDbEntity
  8
0
  6
Continuous
 62
     7
370
     0
100
AcDbLine
 10
-12.1820320418274
 20
-86.30000000014019
 30
0.0
 11
10.00000000000014
 21
-86.30000000014019
 31
0.0
  0
ARC
  5
A962
330
A
100
AcDbEntity
  8
0
  6
Continuous
 62
     7
370
     0
100
AcDbCircle
 10
21.66190391238765
 20
-71.30000009553089
 30
0.0
 40
19.00000000000092
100
AcDbArc
 50
232.1363531696041
 51
269.9942586239703
  0
LINE
  5
A963
330
A
100
AcDbEntity
  8
0
  6
Continuous
 62
     9
370
     0
100
AcDbLine
 10
26.78000000000023
 20
-91.23723366653569
 30
0.0
 11
26.78000000000023
 21
-90.30000000014018
 31
0.0
  0
LINE
  5
A964
330
A
100
AcDbEntity
  8
0
  6
Continuous
 62
     7
370
     0
100
AcDbLine
 10
21.66000000000022
 20
-90.30000000014018
 30
0.0
 11
26.78000000000023
 21
-90.30000000014018
 31
0.0
  0
LINE
  5
A965
330
A
100
AcDbEntity
  8
0
  6
Continuous
 62
     7
370
     0
100
AcDbLine
 10
26.78000000000023
 20
-90.30000000014018
 30
0.0
 11
30.00000000000026
 21
-90.30000000014002
 31
0.0
  0
LINE
  5
A966
330
A
100
AcDbEntity
  8
0
  6
Continuous
 62
     7
370
     0
100
AcDbLine
 10
-14.99921898938956
 20
-86.30000000014019
 30
0.0
 11
-12.1820320418274
 21
-86.30000000014019
 31
0.0
  0
LINE
  5
A972
330
A
100
AcDbEntity
  8
0
  6
Continuous
 62
     7
370
     0
100
AcDbLine
 10
-12.1820320418274
 20
-90.2465236603604
 30
0.0
 11
-14.6642503160303
 21
-89.41740635086508
 31
0.0
  0
LINE
  5
A973
330
A
100
AcDbEntity
  8
0
  6
Continuous
 62
     9
370
     0
100
AcDbLine
 10
31.49999499000015
 20
-90.4905236872549
 30
0.0
 11
31.49999499000015
 21
-90.30000501014001
 31
0.0
  0
LINE
  5
A974
330
A
100
AcDbEntity
  8
0
  6
Continuous
 62
     7
370
     0
100
AcDbLine
 10
66.19226497310169
 20
-72.30000000014155
 30
0.0
 11
65.412842109676
 21
-70.95000000011873
 31
0.0
  0
LINE
  5
A975
330
A
100
AcDbEntity
  8
0
  6
Continuous
 62
     7
370
     0
100
AcDbLine
 10
54.58715789032587
 20
-70.95000000015835
 30
0.0
 11
53.80773502693611
 21
-72.30000000014155
 31
0.0
  0
ARC
  5
A976
330
A
100
AcDbEntity
  8
0
  6
Continuous
 62
     7
370
     0
100
AcDbCircle
 10
55.02017059221893
 20
-71.20000000015664
 30
0.0
 40
0.5000000000000006
100
AcDbArc
 50
90.00000000020843
 51
150.0000000002111
  0
ARC
  5
A977
330
A
100
AcDbEntity
  8
0
  6
Continuous
 62
     7
370
     0
100
AcDbCircle
 10
64.97982940778465
 20
-71.20000000012033
 30
0.0
 40
0.4999999999999761
100
AcDbArc
 50
30.0000000002106
 51
90.00000000021168
  0
LINE
  5
A978
330
A
100
AcDbEntity
  8
0
  6
Continuous
 62
     7
370
     0
100
AcDbLine
 10
6.192264973083268
 20
-72.30000000013422
 30
0.0
 11
5.412842109675324
 21
-70.95000000013072
 31
0.0
  0
LINE
  5
A979
330
A
100
AcDbEntity
  8
0
  6
Continuous
 62
     7
370
     0
100
AcDbLine
 10
-5.412842109674812
 20
-70.95000000013072
 30
0.0
 11
-6.192264973082927
 21
-72.30000000013422
 31
0.0
  0
ARC
  5
A97A
330
A
100
AcDbEntity
  8
0
  6
Continuous
 62
     7
370
     0
100
AcDbCircle
 10
-4.979829407782602
 20
-71.20000000013056
 30
0.0
 40
0.5000000000000006
100
AcDbArc
 50
90.0
 51
149.9999999999994
  0
ARC
  5
A97B
330
A
100
AcDbEntity
  8
0
  6
Continuous
 62
     7
370
     0
100
AcDbCircle
 10
4.979829407783057
 20
-71.20000000013056
 30
0.0
 40
0.499999999999988
100
AcDbArc
 50
29.99999999999618
 51
89.99999999999674
  0
LINE
  5
A97C
330
A
100
AcDbEntity
  8
0
  6
Continuous
 62
     7
370
     0
100
AcDbLine
 10
74.99921898938438
 20
-77.30000000014155
 30
0.0
 11
74.99921898938438
 21
-75.30000000014155
 31
0.0
  0
ARC
  5
A97D
330
A
100
AcDbEntity
  8
0
  6
Continuous
 62
     7
370
     0
100
AcDbCircle
 10
71.99921898939058
 20
-75.30000000014155
 30
0.0
 40
3.000000000000001
100
AcDbArc
 50
0.0
 51
90.00000000006838
  0
LINE
  5
A97E
330
A
100
AcDbEntity
  8
0
  6
Continuous
 62
     7
370
     0
100
AcDbLine
 10
-14.99921898938956
 20
-75.3000000001342
 30
0.0
 11
-14.99921898938956
 21
-77.30000000013422
 31
0.0
  0
ARC
  5
A97F
330
A
100
AcDbEntity
  8
0
  6
Continuous
 62
     7
370
     0
100
AcDbCircle
 10
-11.99921898938956
 20
-75.30000000013416
 30
0.0
 40
3.000000000000001
100
AcDbArc
 50
90.0
 51
180.0
  0
LINE
  5
A980
330
A
100
AcDbEntity
  8
0
  6
Continuous
 62
     7
370
     0
100
AcDbLine
 10
73.99999999999474
 20
-78.80000000014155
 30
0.0
 11
73.99999999999474
 21
-77.30000000014155
 31
0.0
  0
LINE
  5
A981
330
A
100
AcDbEntity
  8
0
  6
Continuous
 62
     7
370
     0
100
AcDbLine
 10
-13.99999999999984
 20
-77.3000000001402
 30
0.0
 11
-13.99999999999984
 21
-78.8000000001402
 31
0.0
  0
LINE
  5
A982
330
A
100
AcDbEntity
  8
0
  6
Continuous
 62
     7
370
     0
100
AcDbLine
 10
-13.99999999999973
 20
-84.80000000014001
 30
0.0
 11
-13.99999999999973
 21
-86.30000000014019
 31
0.0
  0
LINE
  5
A983
330
A
100
AcDbEntity
  8
0
  6
Continuous
 62
     7
370
     0
100
AcDbLine
 10
73.99999999999474
 20
-86.30000000014314
 30
0.0
 11
73.99999999999474
 21
-84.80000000014314
 31
0.0
  0
LINE
  5
A984
330
A
100
AcDbEntity
  8
0
  6
Continuous
 62
     7
370
     0
100
AcDbLine
 10
52.09999999999363
 20
-78.80000000014314
 30
0.0
 11
52.09999999999363
 21
-84.80000000014326
 31
0.0
  0
LINE
  5
A985
330
A
100
AcDbEntity
  8
0
  6
Continuous
 62
     7
370
     0
100
AcDbLine
 10
65.8999999999888
 20
-84.80000000014326
 30
0.0
 11
65.8999999999888
 21
-78.80000000014314
 31
0.0
  0
LINE
  5
A986
330
A
100
AcDbEntity
  8
0
  6
Continuous
 62
     7
370
     0
100
AcDbLine
 10
6.900000000000183
 20
-84.80000000014001
 30
0.0
 11
6.900000000000183
 21
-78.8000000001402
 31
0.0
  0
LINE
  5
A987
330
A
100
AcDbEntity
  8
0
  6
Continuous
 62
     7
370
     0
100
AcDbLine
 10
-6.899999999999835
 20
-78.8000000001402
 30
0.0
 11
-6.899999999999835
 21
-84.80000000014001
 31
0.0
  0
LINE
  5
A988
330
A
100
AcDbEntity
  8
0
  6
Continuous
 62
     7
370
     0
100
AcDbLine
 10
74.9992189893758
 20
-88.97328679077252
 30
0.0
 11
74.9992189893758
 21
-86.30000000014314
 31
0.0
  0
LINE
  5
A989
330
A
100
AcDbEntity
  8
0
  6
Continuous
 62
     7
370
     0
100
AcDbLine
 10
-14.99921898938956
 20
-86.30000000014019
 30
0.0
 11
-14.99921898938956
 21
-88.97356392500155
 31
0.0
  0
LINE
  5
A98A
330
A
100
AcDbEntity
  8
0
  6
Continuous
 62
     7
370
     0
100
AcDbLine
 10
35.30000000000015
 20
-52.8
 30
0.0
 11
26.37315497109947
 21
-52.8
 31
0.0
  0
LINE
  5
A98B
330
A
100
AcDbEntity
  8
0
  6
Continuous
 62
     7
370
     0
100
AcDbLine
 10
24.00000000000026
 20
-52.10000000000002
 30
0.0
 11
25.89413770313152
 21
-52.10000000000002
 31
0.0
  0
LINE
  5
A98C
330
A
100
AcDbEntity
  8
0
  6
Continuous
 62
     7
370
     0
100
AcDbLine
 10
26.37315497109947
 20
-52.8
 30
0.0
 11
24.70000000000019
 21
-52.8
 31
0.0
  0
LINE
  5
A98D
330
A
100
AcDbEntity
  8
0
  6
Continuous
 62
     7
370
     0
100
AcDbLine
 10
25.89413770313152
 20
-52.10000000000002
 30
0.0
 11
36.00000000000026
 21
-52.10000000000002
 31
0.0
  0
LINE
  5
A98E
330
A
100
AcDbEntity
  8
0
  6
Continuous
 62
     7
370
     0
100
AcDbLine
 10
36.00000000000026
 20
-51.50000000000007
 30
0.0
 11
30.00000000000026
 21
-51.50000000000007
 31
0.0
  0
LINE
  5
A98F
330
A
100
AcDbEntity
  8
0
  6
Continuous
 62
     7
370
     0
100
AcDbLine
 10
30.00000000000026
 20
-51.50000000000007
 30
0.0
 11
26.77891409087837
 21
-51.50000000000007
 31
0.0
  0
LINE
  5
A990
330
A
100
AcDbEntity
  8
0
  6
Continuous
 62
     7
370
     0
100
AcDbLine
 10
26.77891409087837
 20
-51.50000000000007
 30
0.0
 11
26.36691255846162
 21
-51.50000000000007
 31
0.0
  0
LINE
  5
A991
330
A
100
AcDbEntity
  8
0
  6
Continuous
 62
     7
370
     0
100
AcDbLine
 10
26.36691255846162
 20
-51.50000000000007
 30
0.0
 11
25.89413770313152
 21
-51.50000000000007
 31
0.0
  0
LINE
  5
A992
330
A
100
AcDbEntity
  8
0
  6
Continuous
 62
     7
370
     0
100
AcDbLine
 10
25.89413770313152
 20
-51.50000000000007
 30
0.0
 11
24.00000000000026
 21
-51.50000000000007
 31
0.0
  0
LINE
  5
A993
330
A
100
AcDbEntity
  8
0
  6
Continuous
 62
     7
370
     0
100
AcDbLine
 10
23.99999995701259
 20
23.49999999999994
 30
0.0
 11
26.77999465783088
 21
23.49999999999994
 31
0.0
  0
LINE
  5
A994
330
A
100
AcDbEntity
  8
0
  6
Continuous
 62
     7
370
     0
100
AcDbLine
 10
26.77999465783088
 20
23.49999999999994
 30
0.0
 11
30.00000000000026
 21
23.49999999999994
 31
0.0
  0
LINE
  5
A995
330
A
100
AcDbEntity
  8
0
  6
Continuous
 62
     7
370
     0
100
AcDbLine
 10
30.00000000000026
 20
23.49999999999994
 30
0.0
 11
35.99999995701259
 21
23.49999999999994
 31
0.0
  0
LINE
  5
A996
330
A
100
AcDbEntity
  8
0
  6
Continuous
 62
     7
370
     0
100
AcDbLine
 10
35.99999995701259
 20
24.09999999999997
 30
0.0
 11
23.99999995701259
 21
24.09999999999997
 31
0.0
  0
LINE
  5
A997
330
A
100
AcDbEntity
  8
0
  6
Continuous
 62
     7
370
     0
100
AcDbLine
 10
24.69999995701253
 20
24.79999999999995
 30
0.0
 11
35.29999995701255
 21
24.79999999999995
 31
0.0
  0
LINE
  5
A998
330
A
100
AcDbEntity
  8
0
  6
Continuous
 62
     7
370
     0
100
AcDbLine
 10
36.00000000000026
 20
5.999999999999943
 30
0.0
 11
30.00000000000026
 21
5.999999999999943
 31
0.0
  0
LINE
  5
A999
330
A
100
AcDbEntity
  8
0
  6
Continuous
 62
     7
370
     0
100
AcDbLine
 10
30.00000000000026
 20
5.999999999999943
 30
0.0
 11
24.00000000000026
 21
5.999999999999943
 31
0.0
  0
LINE
  5
A99A
330
A
100
AcDbEntity
  8
0
  6
Continuous
 62
     7
370
     0
100
AcDbLine
 10
36.00000000000026
 20
4.699999999999986
 30
0.0
 11
30.00000000000026
 21
4.699999999999986
 31
0.0
  0
LINE
  5
A99B
330
A
100
AcDbEntity
  8
0
  6
Continuous
 62
     7
370
     0
100
AcDbLine
 10
30.00000000000026
 20
4.699999999999986
 30
0.0
 11
24.00000000000026
 21
4.699999999999986
 31
0.0
  0
LINE
  5
A99C
330
A
100
AcDbEntity
  8
0
  6
Continuous
 62
     7
370
     0
100
AcDbLine
 10
24.00000000000026
 20
-33.99999999999939
 30
0.0
 11
30.00000000000026
 21
-33.99999999999939
 31
0.0
  0
LINE
  5
A99D
330
A
100
AcDbEntity
  8
0
  6
Continuous
 62
     7
370
     0
100
AcDbLine
 10
30.00000000000026
 20
-33.99999999999939
 30
0.0
 11
36.00000000000026
 21
-33.99999999999939
 31
0.0
  0
LINE
  5
A99E
330
A
100
AcDbEntity
  8
0
  6
Continuous
 62
     7
370
     0
100
AcDbLine
 10
24.00000000000026
 20
-32.69999999999936
 30
0.0
 11
30.00000000000026
 21
-32.69999999999936
 31
0.0
  0
LINE
  5
A99F
330
A
100
AcDbEntity
  8
0
  6
Continuous
 62
     7
370
     0
100
AcDbLine
 10
30.00000000000026
 20
-32.69999999999936
 30
0.0
 11
36.00000000000026
 21
-32.69999999999936
 31
0.0
  0
LINE
  5
A9A0
330
A
100
AcDbEntity
  8
0
  6
Continuous
 62
     7
370
     0
100
AcDbLine
 10
36.00000000000026
 20
-32.70000000001301
 30
0.0
 11
30.00000000000026
 21
-32.70000000001301
 31
0.0
  0
LINE
  5
A9A1
330
A
100
AcDbEntity
  8
0
  6
Continuous
 62
     7
370
     0
100
AcDbLine
 10
36.00000000000026
 20
4.699999999986971
 30
0.0
 11
30.00000000000026
 21
4.699999999986971
 31
0.0
  0
LINE
  5
A9A2
330
A
100
AcDbEntity
  8
0
  6
Continuous
 62
     7
370
     0
100
AcDbLine
 10
35.99999999999844
 20
-32.70000000001301
 30
0.0
 11
35.99999999999844
 21
4.699999999986971
 31
0.0
  0
LINE
  5
A9A3
330
A
100
AcDbEntity
  8
0
  6
Continuous
 62
     7
370
     0
100
AcDbLine
 10
30.00000000000026
 20
-32.70000000001301
 30
0.0
 11
24.00000000000026
 21
-32.70000000001301
 31
0.0
  0
LINE
  5
A9A4
330
A
100
AcDbEntity
  8
0
  6
Continuous
 62
     7
370
     0
100
AcDbLine
 10
24.00000000000213
 20
-32.70000000001301
 30
0.0
 11
24.00000000000213
 21
4.699999999986971
 31
0.0
  0
LINE
  5
A9A5
330
A
100
AcDbEntity
  8
0
  6
Continuous
 62
     7
370
     0
100
AcDbLine
 10
30.00000000000026
 20
4.699999999986971
 30
0.0
 11
24.00000000000026
 21
4.699999999986971
 31
0.0
  0
LINE
  5
A9A6
330
A
100
AcDbEntity
  8
0
  6
Continuous
 62
     9
370
     0
100
AcDbLine
 10
36.49999999999821
 20
-51.37471982417042
 30
0.0
 11
36.49999999999821
 21
23.37471982414445
 31
0.0
  0
LINE
  5
A9A7
330
A
100
AcDbEntity
  8
0
  6
Continuous
 62
     7
370
     0
100
AcDbLine
 10
36.42352941176293
 20
-51.3805013882657
 30
0.0
 11
36.49999999999821
 21
-51.37471982417042
 31
0.0
  0
LINE
  5
A9A8
330
A
100
AcDbEntity
  8
0
  6
Continuous
 62
     7
370
     0
100
AcDbLine
 10
36.42352941176293
 20
-51.3805013882657
 30
0.0
 11
36.42352941176293
 21
-32.70000000001301
 31
0.0
  0
LINE
  5
A9A9
330
A
100
AcDbEntity
  8
0
  6
Continuous
 62
     7
370
     0
100
AcDbLine
 10
36.42352941176293
 20
23.38050138823996
 30
0.0
 11
36.42352941176293
 21
4.699999999986971
 31
0.0
  0
LINE
  5
A9AA
330
A
100
AcDbEntity
  8
0
  6
Continuous
 62
     7
370
     0
100
AcDbLine
 10
36.49999999999821
 20
23.37471982414445
 30
0.0
 11
36.42352941176293
 21
23.38050138823996
 31
0.0
  0
LINE
  5
A9AB
330
A
100
AcDbEntity
  8
0
  6
Continuous
 62
     7
370
     0
100
AcDbLine
 10
35.99999999999821
 20
4.699999999986971
 30
0.0
 11
36.42352941176293
 21
4.699999999986971
 31
0.0
  0
LINE
  5
A9AC
330
A
100
AcDbEntity
  8
0
  6
Continuous
 62
     7
370
     0
100
AcDbLine
 10
35.99999999999821
 20
-32.70000000001301
 30
0.0
 11
36.42352941176293
 21
-32.70000000001301
 31
0.0
  0
LINE
  5
A9AD
330
A
100
AcDbEntity
  8
0
  6
Continuous
 62
     7
370
     0
100
AcDbLine
 10
36.0012704960175
 20
-51.40995845289405
 30
0.0
 11
36.42352941176293
 21
-51.3805013882657
 31
0.0
  0
LINE
  5
A9AE
330
A
100
AcDbEntity
  8
0
  6
Continuous
 62
     7
370
     0
100
AcDbLine
 10
36.0012704960175
 20
23.40995845286808
 30
0.0
 11
36.42352941176293
 21
23.38050138823996
 31
0.0
  0
LINE
  5
A9AF
330
A
100
AcDbEntity
  8
0
  6
Continuous
 62
     9
370
     0
100
AcDbLine
 10
74.66425031601679
 20
-18.47056108218305
 30
0.0
 11
74.66425031601679
 21
-9.529438917842696
 31
0.0
  0
ARC
  5
A9B0
330
A
100
AcDbEntity
  8
0
  6
Continuous
 62
     7
370
     0
100
AcDbCircle
 10
44.99921898936739
 20
-14.00000000001285
 30
0.0
 40
30.00000000000845
100
AcDbArc
 50
334.9710005123939
 51
351.4299367612898
  0
LINE
  5
A9B1
330
A
100
AcDbEntity
  8
0
  6
Continuous
 62
     9
370
     0
100
AcDbLine
 10
39.79999999999714
 20
-50.99357127850156
 30
0.0
 11
39.79999999999714
 21
22.99357127847583
 31
0.0
  0
ARC
  5
A9B2
330
A
100
AcDbEntity
  8
0
  6
Continuous
 62
     7
370
     0
100
AcDbCircle
 10
44.99921898936466
 20
-14.00000000001375
 30
0.0
 40
30.00000000001127
100
AcDbArc
 50
8.570063238713489
 51
25.02899948760622
  0
ARC
  5
A9B3
330
A
100
AcDbEntity
  8
0
  6
Continuous
 62
     7
370
     0
100
AcDbCircle
 10
33.21957625266364
 20
-8.499435346274365
 30
0.0
 40
43.00062284805964
100
AcDbArc
 50
278.8026123649594
 51
334.9705576736976
  0
ARC
  5
A9B4
330
A
100
AcDbEntity
  8
0
  6
Continuous
 62
     7
370
     0
100
AcDbCircle
 10
33.2198537363486
 20
-19.50019489990949
 30
0.0
 40
43.00021498637285
100
AcDbArc
 50
25.02915234241128
 51
81.19767761893006
  0
ARC
  5
A9B5
330
A
100
AcDbEntity
  8
0
  6
Continuous
 62
     7
370
     0
100
AcDbCircle
 10
33.21999999999921
 20
-8.500000000013017
 30
0.0
 40
43.0
100
AcDbArc
 50
274.3747181580985
 51
278.8021695262539
  0
ARC
  5
A9B6
330
A
100
AcDbEntity
  8
0
  6
Continuous
 62
     7
370
     0
100
AcDbCircle
 10
33.21999999999921
 20
-19.50000000001285
 30
0.0
 40
43.0
100
AcDbArc
 50
81.19783047374607
 51
85.62528184190149
  0
ARC
  5
A9B7
330
A
100
AcDbEntity
  8
0
  6
Continuous
 62
     7
370
     0
100
AcDbCircle
 10
44.99921898936524
 20
-14.00000000001285
 30
0.0
 40
30.00000000001053
100
AcDbArc
 50
351.4299367612898
 51
8.570063238710218
  0
LINE
  5
A9B8
330
A
100
AcDbEntity
  8
0
  6
Continuous
 62
     7
370
     0
100
AcDbLine
 10
36.00000000000026
 20
-51.50000000000007
 30
0.0
 11
30.00000000000026
 21
-51.50000000000007
 31
0.0
  0
LINE
  5
A9B9
330
A
100
AcDbEntity
  8
0
  6
Continuous
 62
     7
370
     0
100
AcDbLine
 10
36.00000000000026
 20
-34.00000000000007
 30
0.0
 11
30.00000000000026
 21
-34.00000000000007
 31
0.0
  0
LINE
  5
A9BA
330
A
100
AcDbEntity
  8
0
  6
Continuous
 62
     7
370
     0
100
AcDbLine
 10
36.00000000000026
 20
-34.00000000000007
 30
0.0
 11
36.00000000000026
 21
-51.50000000000007
 31
0.0
  0
LINE
  5
A9BB
330
A
100
AcDbEntity
  8
0
  6
Continuous
 62
     7
370
     0
100
AcDbLine
 10
24.00000000000026
 20
-51.41004078301488
 30
0.0
 11
26.36692667850932
 21
-51.49801588946952
 31
0.0
  0
LINE
  5
A9BC
330
A
100
AcDbEntity
  8
0
  6
Continuous
 62
     7
370
     0
100
AcDbLine
 10
26.36692667850932
 20
-51.49801588946952
 30
0.0
 11
26.78000000000023
 21
-51.50000000000007
 31
0.0
  0
LINE
  5
A9BD
330
A
100
AcDbEntity
  8
0
  6
Continuous
 62
     7
370
     0
100
AcDbLine
 10
24.00000000000026
 20
-34.00000000000007
 30
0.0
 11
24.00000000000026
 21
-51.41004078301488
 31
0.0
  0
LINE
  5
A9BE
330
A
100
AcDbEntity
  8
0
  6
Continuous
 62
     7
370
     0
100
AcDbLine
 10
30.00000000000026
 20
-34.00000000000007
 30
0.0
 11
24.00000000000026
 21
-34.00000000000007
 31
0.0
  0
LINE
  5
A9BF
330
A
100
AcDbEntity
  8
0
  6
Continuous
 62
     7
370
     0
100
AcDbLine
 10
30.00000000000026
 20
-51.50000000000007
 30
0.0
 11
26.78000000000023
 21
-51.50000000000007
 31
0.0
  0
LINE
  5
A9C0
330
A
100
AcDbEntity
  8
0
  6
Continuous
 62
     7
370
     0
100
AcDbLine
 10
36.00000000000026
 20
23.49999999999994
 30
0.0
 11
36.00000000000026
 21
5.999999999999943
 31
0.0
  0
LINE
  5
A9C1
330
A
100
AcDbEntity
  8
0
  6
Continuous
 62
     7
370
     0
100
AcDbLine
 10
36.00000000000026
 20
23.49999999999994
 30
0.0
 11
30.00000000000026
 21
23.49999999999994
 31
0.0
  0
LINE
  5
A9C2
330
A
100
AcDbEntity
  8
0
  6
Continuous
 62
     7
370
     0
100
AcDbLine
 10
30.00000000000026
 20
5.999999999999943
 30
0.0
 11
36.00000000000026
 21
5.999999999999943
 31
0.0
  0
LINE
  5
A9C3
330
A
100
AcDbEntity
  8
0
  6
Continuous
 62
     7
370
     0
100
AcDbLine
 10
26.78000000000023
 20
23.49999999999994
 30
0.0
 11
24.00000000000026
 21
23.41004078301478
 31
0.0
  0
LINE
  5
A9C4
330
A
100
AcDbEntity
  8
0
  6
Continuous
 62
     7
370
     0
100
AcDbLine
 10
24.00000000000026
 20
23.41004078301478
 30
0.0
 11
24.00000000000026
 21
5.999999999999943
 31
0.0
  0
LINE
  5
A9C5
330
A
100
AcDbEntity
  8
0
  6
Continuous
 62
     7
370
     0
100
AcDbLine
 10
30.00000000000026
 20
23.49999999999994
 30
0.0
 11
26.78000000000023
 21
23.49999999999994
 31
0.0
  0
LINE
  5
A9C6
330
A
100
AcDbEntity
  8
0
  6
Continuous
 62
     7
370
     0
100
AcDbLine
 10
24.00000000000026
 20
5.999999999999943
 30
0.0
 11
30.00000000000026
 21
5.999999999999943
 31
0.0
  0
LINE
  5
A9C7
330
A
100
AcDbEntity
  8
0
  6
Continuous
 62
     9
370
     0
100
AcDbLine
 10
23.50000000000026
 20
-34.00000000000007
 30
0.0
 11
23.50000000000026
 21
-51.37471982415757
 31
0.0
  0
LINE
  5
A9C8
330
A
100
AcDbEntity
  8
0
  6
Continuous
 62
     7
370
     0
100
AcDbLine
 10
23.50000000000026
 20
-51.37471982415757
 30
0.0
 11
24.00000000000026
 21
-51.41004078301488
 31
0.0
  0
LINE
  5
A9C9
330
A
100
AcDbEntity
  8
0
  6
Continuous
 62
     7
370
     0
100
AcDbLine
 10
23.50000000000026
 20
-34.00000000000007
 30
0.0
 11
24.00000000000026
 21
-34.00000000000007
 31
0.0
  0
LINE
  5
A9CA
330
A
100
AcDbEntity
  8
0
  6
Continuous
 62
     9
370
     0
100
AcDbLine
 10
23.50000000000026
 20
23.37471982415729
 30
0.0
 11
23.50000000000026
 21
5.999999999999943
 31
0.0
  0
LINE
  5
A9CB
330
A
100
AcDbEntity
  8
0
  6
Continuous
 62
     7
370
     0
100
AcDbLine
 10
24.00000000000026
 20
23.41004078301478
 30
0.0
 11
23.50000000000026
 21
23.37471982415729
 31
0.0
  0
LINE
  5
A9CC
330
A
100
AcDbEntity
  8
0
  6
Continuous
 62
     7
370
     0
100
AcDbLine
 10
24.00000000000026
 20
5.999999999999943
 30
0.0
 11
23.50000000000026
 21
5.999999999999943
 31
0.0
  0
LINE
  5
A9CD
330
A
100
AcDbEntity
  8
0
  6
Continuous
 62
     9
370
     0
100
AcDbLine
 10
-14.6642503160303
 20
-9.52943891782985
 30
0.0
 11
-14.6642503160303
 21
-18.47056108217021
 31
0.0
  0
ARC
  5
A9CE
330
A
100
AcDbEntity
  8
0
  6
Continuous
 62
     7
370
     0
100
AcDbCircle
 10
15.00078101060993
 20
-13.99999999999971
 30
0.0
 40
29.99999999999935
100
AcDbArc
 50
154.9710005123864
 51
171.4299367612865
  0
LINE
  5
A9CF
330
A
100
AcDbEntity
  8
0
  6
Continuous
 62
     9
370
     0
100
AcDbLine
 10
20.20000000000019
 20
22.99357127848856
 30
0.0
 11
20.20000000000019
 21
-50.99357127848874
 31
0.0
  0
ARC
  5
A9D0
330
A
100
AcDbEntity
  8
0
  6
Continuous
 62
     7
370
     0
100
AcDbCircle
 10
15.00078101060807
 20
-14.00000000000074
 30
0.0
 40
29.99999999999746
100
AcDbArc
 50
188.5700632387134
 51
205.0289994876178
  0
ARC
  5
A9D1
330
A
100
AcDbEntity
  8
0
  6
Continuous
 62
     7
370
     0
100
AcDbCircle
 10
26.78036817108531
 20
-19.50049059703554
 30
0.0
 40
43.00054115877967
100
AcDbArc
 50
98.80255428552736
 51
154.9706157531125
  0
ARC
  5
A9D2
330
A
100
AcDbEntity
  8
0
  6
Continuous
 62
     7
370
     0
100
AcDbCircle
 10
26.78014809102817
 20
-8.499802665059178
 30
0.0
 40
43.00021767237405
100
AcDbArc
 50
205.0291542521437
 51
261.1976757092149
  0
LINE
  5
A9D3
330
A
100
AcDbEntity
  8
0
  6
Continuous
 62
     7
370
     0
100
AcDbLine
 10
23.00000000000026
 20
-34.00000000000007
 30
0.0
 11
23.00000000000026
 21
5.999999999999943
 31
0.0
  0
ARC
  5
A9D4
330
A
100
AcDbEntity
  8
0
  6
Continuous
 62
     7
370
     0
100
AcDbCircle
 10
26.78000000000023
 20
-19.50000000000006
 30
0.0
 40
42.99999999999996
100
AcDbArc
 50
94.37471815810175
 51
98.80216952625474
  0
ARC
  5
A9D5
330
A
100
AcDbEntity
  8
0
  6
Continuous
 62
     7
370
     0
100
AcDbCircle
 10
26.78000000000023
 20
-8.500000000000056
 30
0.0
 40
42.99999999999998
100
AcDbArc
 50
261.1978304737452
 51
265.6252818418983
  0
LINE
  5
A9D6
330
A
100
AcDbEntity
  8
0
  6
Continuous
 62
     7
370
     0
100
AcDbLine
 10
23.50000000000026
 20
-34.00000000000007
 30
0.0
 11
23.00000000000026
 21
-34.00000000000007
 31
0.0
  0
LINE
  5
A9D7
330
A
100
AcDbEntity
  8
0
  6
Continuous
 62
     7
370
     0
100
AcDbLine
 10
23.00000000000026
 20
5.999999999999943
 30
0.0
 11
23.50000000000026
 21
5.999999999999943
 31
0.0
  0
ARC
  5
A9D8
330
A
100
AcDbEntity
  8
0
  6
Continuous
 62
     7
370
     0
100
AcDbCircle
 10
15.00078101060682
 20
-14.00000000000006
 30
0.0
 40
29.99999999999632
100
AcDbArc
 50
171.4299367612859
 51
188.5700632387139
  0
LINE
  5
A9D9
330
A
100
AcDbEntity
  8
0
  6
Continuous
 62
     7
370
     0
100
AcDbLine
 10
24.00000000000026
 20
-52.10000000000002
 30
0.0
 11
24.70000000000019
 21
-52.8
 31
0.0
  0
LINE
  5
A9DA
330
A
100
AcDbEntity
  8
0
  6
Continuous
 62
     7
370
     0
100
AcDbLine
 10
35.30000000000015
 20
-52.8
 30
0.0
 11
36.00000000000026
 21
-52.10000000000002
 31
0.0
  0
LINE
  5
A9DB
330
A
100
AcDbEntity
  8
0
  6
Continuous
 62
     7
370
     0
100
AcDbLine
 10
36.00000000000026
 20
-52.10000000000002
 30
0.0
 11
36.00000000000026
 21
-51.50000000000007
 31
0.0
  0
LINE
  5
A9DC
330
A
100
AcDbEntity
  8
0
  6
Continuous
 62
     7
370
     0
100
AcDbLine
 10
24.00000000000026
 20
-51.50000000000007
 30
0.0
 11
24.00000000000026
 21
-52.10000000000002
 31
0.0
  0
LINE
  5
A9DD
330
A
100
AcDbEntity
  8
0
  6
Continuous
 62
     7
370
     0
100
AcDbLine
 10
23.99999995701259
 20
24.09999999999997
 30
0.0
 11
23.99999995701259
 21
23.49999999999994
 31
0.0
  0
LINE
  5
A9DE
330
A
100
AcDbEntity
  8
0
  6
Continuous
 62
     7
370
     0
100
AcDbLine
 10
35.99999995701259
 20
23.49999999999994
 30
0.0
 11
35.99999995701259
 21
24.09999999999997
 31
0.0
  0
LINE
  5
A9DF
330
A
100
AcDbEntity
  8
0
  6
Continuous
 62
     7
370
     0
100
AcDbLine
 10
35.99999995701259
 20
24.09999999999997
 30
0.0
 11
35.29999995701255
 21
24.79999999999995
 31
0.0
  0
LINE
  5
A9E0
330
A
100
AcDbEntity
  8
0
  6
Continuous
 62
     7
370
     0
100
AcDbLine
 10
24.69999995701253
 20
24.79999999999995
 30
0.0
 11
23.99999995701259
 21
24.09999999999997
 31
0.0
  0
LINE
  5
A9E1
330
A
100
AcDbEntity
  8
0
  6
Continuous
 62
     7
370
     0
100
AcDbLine
 10
36.00000000000026
 20
4.699999999999986
 30
0.0
 11
36.00000000000026
 21
5.999999999999943
 31
0.0
  0
LINE
  5
A9E2
330
A
100
AcDbEntity
  8
0
  6
Continuous
 62
     7
370
     0
100
AcDbLine
 10
24.00000000000026
 20
5.999999999999943
 30
0.0
 11
24.00000000000026
 21
4.699999999999986
 31
0.0
  0
LINE
  5
A9E3
330
A
100
AcDbEntity
  8
0
  6
Continuous
 62
     7
370
     0
100
AcDbLine
 10
24.00000000000026
 20
-32.69999999999936
 30
0.0
 11
24.00000000000026
 21
-33.99999999999939
 31
0.0
  0
LINE
  5
A9E4
330
A
100
AcDbEntity
  8
0
  6
Continuous
 62
     7
370
     0
100
AcDbLine
 10
36.00000000000026
 20
-33.99999999999939
 30
0.0
 11
36.00000000000026
 21
-32.69999999999936
 31
0.0
  0
LINE
  5
B4DD
330
A
100
AcDbEntity
  8
0
  6
Continuous
 62
     7
370
     0
100
AcDbLine
 10
-58.80000000014575
 20
23.19409326826007
 30
0.0
 11
-58.78414378481396
 21
23.09431452714597
 31
0.0
  0
LINE
  5
B4DE
330
A
100
AcDbEntity
  8
0
  6
Continuous
 62
     7
370
     0
100
AcDbLine
 10
-58.78414378481396
 20
23.09431452714597
 30
0.0
 11
-58.73701587048254
 21
22.98065707557879
 31
0.0
  0
LINE
  5
B4DF
330
A
100
AcDbEntity
  8
0
  6
Continuous
 62
     7
370
     0
100
AcDbLine
 10
-58.73701587048254
 20
22.98065707557879
 30
0.0
 11
-58.65904502306354
 21
22.85359281060863
 31
0.0
  0
ARC
  5
B4E0
330
A
100
AcDbEntity
  8
0
  6
Continuous
 62
     7
370
     0
100
AcDbCircle
 10
-49.39306088423966
 20
31.71971060064999
 30
0.0
 40
12.82444956822023
100
AcDbArc
 50
223.7366637766788
 51
245.0636116911347
  0
ARC
  5
B4E1
330
A
100
AcDbEntity
  8
0
  6
Continuous
 62
     7
370
     0
100
AcDbCircle
 10
-49.94314725588985
 20
-58.84211544914406
 30
0.0
 40
11.79744719320315
100
AcDbArc
 50
114.310838197696
 51
138.1670498614271
  0
LINE
  5
B4E2
330
A
100
AcDbEntity
  8
0
  6
Continuous
 62
     7
370
     0
100
AcDbLine
 10
-58.73333740226455
 20
-50.97367739149901
 30
0.0
 11
-58.78321564400526
 21
-51.09122785291277
 31
0.0
  0
LINE
  5
B4E3
330
A
100
AcDbEntity
  8
0
  6
Continuous
 62
     7
370
     0
100
AcDbLine
 10
-58.78321564400526
 20
-51.09122785291277
 30
0.0
 11
-58.80000000014575
 21
-51.19409326828599
 31
0.0
  0
ARC
  5
B4E4
330
A
100
AcDbEntity
  8
0
  6
Continuous
 62
     7
370
     0
100
AcDbCircle
 10
-492.9719017120935
 20
-80.73825676805004
 30
0.0
 40
441.4305081376395
100
AcDbArc
 50
10.36620678315729
 51
13.50830635684411
  0
LINE
  5
B4E5
330
A
100
AcDbEntity
  8
0
  6
Continuous
 62
     7
370
     0
100
AcDbLine
 10
-63.75309764617384
 20
22.37387516062398
 30
0.0
 11
-63.78849378688734
 21
22.71369988623479
 31
0.0
  0
LINE
  5
B4E6
330
A
100
AcDbEntity
  8
0
  6
Continuous
 62
     7
370
     0
100
AcDbLine
 10
-63.78849378688734
 20
22.71369988623479
 30
0.0
 11
-63.80000000014404
 21
22.99357127847583
 31
0.0
  0
ARC
  5
B4E7
330
A
100
AcDbEntity
  8
0
  6
Continuous
 62
     7
370
     0
100
AcDbCircle
 10
129.6722782206589
 20
-86.7194416802037
 30
0.0
 40
196.743132677883
100
AcDbArc
 50
165.2472161309944
 51
169.537825241847
  0
ARC
  5
B4E8
330
A
100
AcDbEntity
  8
0
  6
Continuous
 62
     7
370
     0
100
AcDbCircle
 10
-208.9640783953987
 20
-4.005819504296709
 30
0.0
 40
151.9210008421412
100
AcDbArc
 50
347.6037119305286
 51
351.4118511870866
  0
ARC
  5
B4E9
330
A
100
AcDbEntity
  8
0
  6
Continuous
 62
     7
370
     0
100
AcDbCircle
 10
-90.88263141211106
 20
-13.16101702529653
 30
0.0
 40
33.39007818844157
100
AcDbArc
 50
350.850235959598
 51
359.1424008988722
  0
ARC
  5
B4EA
330
A
100
AcDbEntity
  8
0
  6
Continuous
 62
     7
370
     0
100
AcDbCircle
 10
30.14548237766612
 20
-2.640205710435964
 30
0.0
 40
88.33195291286566
100
AcDbArc
 50
184.4731860527332
 51
187.1670783652225
  0
LINE
  5
B4EB
330
A
100
AcDbEntity
  8
0
  6
Continuous
 62
     7
370
     0
100
AcDbLine
 10
-14.99921898938956
 20
70.97309012725041
 30
0.0
 11
-14.99920747087073
 21
70.97329521167989
 31
0.0
  0
LINE
  5
B4EC
330
A
100
AcDbEntity
  8
0
  6
Continuous
 62
     7
370
     0
100
AcDbLine
 10
-14.99920747087073
 20
70.97329521167989
 30
0.0
 11
-14.99900540520056
 21
70.97667598541306
 31
0.0
  0
LINE
  5
B4ED
330
A
100
AcDbEntity
  8
0
  6
Continuous
 62
     7
370
     0
100
AcDbLine
 10
-14.99900540520056
 20
70.97667598541306
 30
0.0
 11
-14.99767672138399
 21
70.99329885214591
 31
0.0
  0
LINE
  5
B4EE
330
A
100
AcDbEntity
  8
0
  6
Continuous
 62
     7
370
     0
100
AcDbLine
 10
-14.99767672138399
 20
70.99329885214591
 30
0.0
 11
-14.99357474365537
 21
71.02505424047194
 31
0.0
  0
LINE
  5
B4EF
330
A
100
AcDbEntity
  8
0
  6
Continuous
 62
     7
370
     0
100
AcDbLine
 10
-14.99357474365537
 20
71.02505424047194
 30
0.0
 11
-14.97765457948905
 21
71.09295874717325
 31
0.0
  0
LINE
  5
B4F0
330
A
100
AcDbEntity
  8
0
  6
Continuous
 62
     7
370
     0
100
AcDbLine
 10
-14.97765457948905
 20
71.09295874717325
 30
0.0
 11
-14.91487167610373
 21
71.2242270331385
 31
0.0
  0
LINE
  5
B4F1
330
A
100
AcDbEntity
  8
0
  6
Continuous
 62
     7
370
     0
100
AcDbLine
 10
-14.91487167610373
 20
71.2242270331385
 30
0.0
 11
-14.81056939410102
 21
71.33700476774459
 31
0.0
  0
LINE
  5
B4F2
330
A
100
AcDbEntity
  8
0
  6
Continuous
 62
     7
370
     0
100
AcDbLine
 10
-14.81056939410102
 20
71.33700476774459
 30
0.0
 11
-14.6642503160303
 21
71.41740635086499
 31
0.0
  0
LINE
  5
B4F3
330
A
100
AcDbEntity
  8
0
  6
Continuous
 62
     7
370
     0
100
AcDbLine
 10
23.50000000000026
 20
77.30000000014001
 30
0.0
 11
23.52080185632227
 21
77.30043457684324
 31
0.0
  0
LINE
  5
B4F4
330
A
100
AcDbEntity
  8
0
  6
Continuous
 62
     7
370
     0
100
AcDbLine
 10
23.52080185632227
 20
77.30043457684324
 30
0.0
 11
23.541586514893
 21
77.30173542115551
 31
0.0
  0
LINE
  5
B4F5
330
A
100
AcDbEntity
  8
0
  6
Continuous
 62
     7
370
     0
100
AcDbLine
 10
23.541586514893
 20
77.30173542115551
 30
0.0
 11
23.56230038373062
 21
77.30389820438097
 31
0.0
  0
LINE
  5
B4F6
330
A
100
AcDbEntity
  8
0
  6
Continuous
 62
     7
370
     0
100
AcDbLine
 10
23.56230038373062
 20
77.30389820438097
 30
0.0
 11
23.5828898708536
 21
77.30691859782395
 31
0.0
  0
LINE
  5
B4F7
330
A
100
AcDbEntity
  8
0
  6
Continuous
 62
     7
370
     0
100
AcDbLine
 10
23.5828898708536
 20
77.30691859782395
 30
0.0
 11
23.60392721653946
 21
77.31092203783295
 31
0.0
  0
LINE
  5
B4F8
330
A
100
AcDbEntity
  8
0
  6
Continuous
 62
     7
370
     0
100
AcDbLine
 10
23.60392721653946
 20
77.31092203783295
 30
0.0
 11
23.62479462917709
 21
77.31582755536705
 31
0.0
  0
LINE
  5
B4F9
330
A
100
AcDbEntity
  8
0
  6
Continuous
 62
     7
370
     0
100
AcDbLine
 10
23.62479462917709
 20
77.31582755536705
 30
0.0
 11
23.64543519481796
 21
77.3216207321974
 31
0.0
  0
LINE
  5
B4FA
330
A
100
AcDbEntity
  8
0
  6
Continuous
 62
     7
370
     0
100
AcDbLine
 10
23.64543519481796
 20
77.3216207321974
 30
0.0
 11
23.66579199951443
 21
77.32828715009545
 31
0.0
  0
LINE
  5
B4FB
330
A
100
AcDbEntity
  8
0
  6
Continuous
 62
     7
370
     0
100
AcDbLine
 10
23.66579199951443
 20
77.32828715009545
 30
0.0
 11
23.68528493694961
 21
77.33559951919119
 31
0.0
  0
LINE
  5
B4FC
330
A
100
AcDbEntity
  8
0
  6
Continuous
 62
     7
370
     0
100
AcDbLine
 10
23.68528493694961
 20
77.33559951919119
 30
0.0
 11
23.70447512179013
 21
77.34372494355477
 31
0.0
  0
LINE
  5
B4FD
330
A
100
AcDbEntity
  8
0
  6
Continuous
 62
     7
370
     0
100
AcDbLine
 10
23.70447512179013
 20
77.34372494355477
 30
0.0
 11
23.72331312755747
 21
77.35264157338995
 31
0.0
  0
LINE
  5
B4FE
330
A
100
AcDbEntity
  8
0
  6
Continuous
 62
     7
370
     0
100
AcDbLine
 10
23.72331312755747
 20
77.35264157338995
 30
0.0
 11
23.74174952777398
 21
77.36232755889978
 31
0.0
  0
LINE
  5
B4FF
330
A
100
AcDbEntity
  8
0
  6
Continuous
 62
     7
370
     0
100
AcDbLine
 10
23.74174952777398
 20
77.36232755889978
 30
0.0
 11
23.76028513448765
 21
77.37309281052796
 31
0.0
  0
LINE
  5
B500
330
A
100
AcDbEntity
  8
0
  6
Continuous
 62
     7
370
     0
100
AcDbLine
 10
23.76028513448765
 20
77.37309281052796
 30
0.0
 11
23.77836098824284
 21
77.38465462470696
 31
0.0
  0
LINE
  5
B501
330
A
100
AcDbEntity
  8
0
  6
Continuous
 62
     7
370
     0
100
AcDbLine
 10
23.77836098824284
 20
77.38465462470696
 30
0.0
 11
23.79592783675807
 21
77.39698037822074
 31
0.0
  0
LINE
  5
B502
330
A
100
AcDbEntity
  8
0
  6
Continuous
 62
     7
370
     0
100
AcDbLine
 10
23.79592783675807
 20
77.39698037822074
 30
0.0
 11
23.81293642775208
 21
77.41003744785324
 31
0.0
  0
LINE
  5
B503
330
A
100
AcDbEntity
  8
0
  6
Continuous
 62
     7
370
     0
100
AcDbLine
 10
23.81293642775208
 20
77.41003744785324
 30
0.0
 11
23.82888678339438
 21
77.4233943807792
 31
0.0
  0
LINE
  5
B504
330
A
100
AcDbEntity
  8
0
  6
Continuous
 62
     7
370
     0
100
AcDbLine
 10
23.82888678339438
 20
77.4233943807792
 30
0.0
 11
23.84428272040346
 21
77.43741704283692
 31
0.0
  0
LINE
  5
B505
330
A
100
AcDbEntity
  8
0
  6
Continuous
 62
     7
370
     0
100
AcDbLine
 10
23.84428272040346
 20
77.43741704283692
 30
0.0
 11
23.85908481697069
 21
77.45206839275771
 31
0.0
  0
LINE
  5
B506
330
A
100
AcDbEntity
  8
0
  6
Continuous
 62
     7
370
     0
100
AcDbLine
 10
23.85908481697069
 20
77.45206839275771
 30
0.0
 11
23.87325365128643
 21
77.46731138927157
 31
0.0
  0
LINE
  5
B507
330
A
100
AcDbEntity
  8
0
  6
Continuous
 62
     7
370
     0
100
AcDbLine
 10
23.87325365128643
 20
77.46731138927157
 30
0.0
 11
23.88715923742044
 21
77.48360496289809
 31
0.0
  0
LINE
  5
B508
330
A
100
AcDbEntity
  8
0
  6
Continuous
 62
     7
370
     0
100
AcDbLine
 10
23.88715923742044
 20
77.48360496289809
 30
0.0
 11
23.90036767433096
 21
77.5004965161013
 31
0.0
  0
LINE
  5
B509
330
A
100
AcDbEntity
  8
0
  6
Continuous
 62
     7
370
     0
100
AcDbLine
 10
23.90036767433096
 20
77.5004965161013
 30
0.0
 11
23.91284333351709
 21
77.51793887722977
 31
0.0
  0
LINE
  5
B50A
330
A
100
AcDbEntity
  8
0
  6
Continuous
 62
     7
370
     0
100
AcDbLine
 10
23.91284333351709
 20
77.51793887722977
 30
0.0
 11
23.92455058647798
 21
77.53588487463321
 31
0.0
  0
LINE
  5
B50B
330
A
100
AcDbEntity
  8
0
  6
Continuous
 62
     7
370
     0
100
AcDbLine
 10
23.92455058647798
 20
77.53588487463321
 30
0.0
 11
23.93515265512572
 21
77.55374712358992
 31
0.0
  0
LINE
  5
B50C
330
A
100
AcDbEntity
  8
0
  6
Continuous
 62
     7
370
     0
100
AcDbLine
 10
23.93515265512572
 20
77.55374712358992
 30
0.0
 11
23.9450129964071
 21
77.57205169040151
 31
0.0
  0
LINE
  5
B50D
330
A
100
AcDbEntity
  8
0
  6
Continuous
 62
     7
370
     0
100
AcDbLine
 10
23.9450129964071
 20
77.57205169040151
 30
0.0
 11
23.95410683977312
 21
77.5907506493677
 31
0.0
  0
LINE
  5
B50E
330
A
100
AcDbEntity
  8
0
  6
Continuous
 62
     7
370
     0
100
AcDbLine
 10
23.95410683977312
 20
77.5907506493677
 30
0.0
 11
23.96240941467571
 21
77.60979607478725
 31
0.0
  0
LINE
  5
B50F
330
A
100
AcDbEntity
  8
0
  6
Continuous
 62
     7
370
     0
100
AcDbLine
 10
23.96240941467571
 20
77.60979607478725
 30
0.0
 11
23.97011731881938
 21
77.62974193388595
 31
0.0
  0
LINE
  5
B510
330
A
100
AcDbEntity
  8
0
  6
Continuous
 62
     7
370
     0
100
AcDbLine
 10
23.97011731881938
 20
77.62974193388595
 30
0.0
 11
23.97697203215736
 21
77.65001898140496
 31
0.0
  0
LINE
  5
B511
330
A
100
AcDbEntity
  8
0
  6
Continuous
 62
     7
370
     0
100
AcDbLine
 10
23.97697203215736
 20
77.65001898140496
 30
0.0
 11
23.98295575253948
 21
77.67057108580513
 31
0.0
  0
LINE
  5
B512
330
A
100
AcDbEntity
  8
0
  6
Continuous
 62
     7
370
     0
100
AcDbLine
 10
23.98295575253948
 20
77.67057108580513
 30
0.0
 11
23.98805067781554
 21
77.6913421155481
 31
0.0
  0
LINE
  5
B513
330
A
100
AcDbEntity
  8
0
  6
Continuous
 62
     7
370
     0
100
AcDbLine
 10
23.98805067781554
 20
77.6913421155481
 30
0.0
 11
23.9923338748729
 21
77.71280107872826
 31
0.0
  0
LINE
  5
B514
330
A
100
AcDbEntity
  8
0
  6
Continuous
 62
     7
370
     0
100
AcDbLine
 10
23.9923338748729
 20
77.71280107872826
 30
0.0
 11
23.99567736521836
 21
77.73445910950342
 31
0.0
  0
LINE
  5
B515
330
A
100
AcDbEntity
  8
0
  6
Continuous
 62
     7
370
     0
100
AcDbLine
 10
23.99567736521836
 20
77.73445910950342
 30
0.0
 11
23.99807418925378
 21
77.75625344714774
 31
0.0
  0
LINE
  5
B516
330
A
100
AcDbEntity
  8
0
  6
Continuous
 62
     7
370
     0
100
AcDbLine
 10
23.99807418925378
 20
77.75625344714774
 30
0.0
 11
23.99951738738045
 21
77.77812133093528
 31
0.0
  0
LINE
  5
B517
330
A
100
AcDbEntity
  8
0
  6
Continuous
 62
     7
370
     0
100
AcDbLine
 10
23.99951738738045
 20
77.77812133093528
 30
0.0
 11
24.00000000000026
 21
77.80000000014002
 31
0.0
  0
LINE
  5
B518
330
A
100
AcDbEntity
  8
0
  6
Continuous
 62
     7
370
     0
100
AcDbLine
 10
74.66425031601616
 20
71.41740635086738
 30
0.0
 11
74.79652054690207
 21
71.34774057231071
 31
0.0
  0
LINE
  5
B519
330
A
100
AcDbEntity
  8
0
  6
Continuous
 62
     7
370
     0
100
AcDbLine
 10
74.79652054690207
 20
71.34774057231071
 30
0.0
 11
74.91039389950557
 21
71.23077108443578
 31
0.0
  0
LINE
  5
B51A
330
A
100
AcDbEntity
  8
0
  6
Continuous
 62
     7
370
     0
100
AcDbLine
 10
74.91039389950557
 20
71.23077108443578
 30
0.0
 11
74.9779785767561
 21
71.09190760220986
 31
0.0
  0
LINE
  5
B51B
330
A
100
AcDbEntity
  8
0
  6
Continuous
 62
     7
370
     0
100
AcDbLine
 10
74.9779785767561
 20
71.09190760220986
 30
0.0
 11
74.99412600419006
 21
71.0215710442933
 31
0.0
  0
LINE
  5
B51C
330
A
100
AcDbEntity
  8
0
  6
Continuous
 62
     7
370
     0
100
AcDbLine
 10
74.99412600419006
 20
71.0215710442933
 30
0.0
 11
74.99747204000797
 21
70.99536970633232
 31
0.0
  0
LINE
  5
B51D
330
A
100
AcDbEntity
  8
0
  6
Continuous
 62
     7
370
     0
100
AcDbLine
 10
74.99747204000797
 20
70.99536970633232
 30
0.0
 11
74.99868415751976
 21
70.98140514491195
 31
0.0
  0
LINE
  5
B51E
330
A
100
AcDbEntity
  8
0
  6
Continuous
 62
     7
370
     0
100
AcDbLine
 10
74.99868415751976
 20
70.98140514491195
 30
0.0
 11
74.99904464350513
 21
70.97604854907103
 31
0.0
  0
LINE
  5
B51F
330
A
100
AcDbEntity
  8
0
  6
Continuous
 62
     7
370
     0
100
AcDbLine
 10
74.99904464350513
 20
70.97604854907103
 30
0.0
 11
74.99920840041378
 21
70.97327871679749
 31
0.0
  0
LINE
  5
B520
330
A
100
AcDbEntity
  8
0
  6
Continuous
 62
     7
370
     0
100
AcDbLine
 10
74.99920840041378
 20
70.97327871679749
 30
0.0
 11
74.9992189893758
 21
70.9730901272528
 31
0.0
  0
LINE
  5
B546
330
A
100
AcDbEntity
  8
0
  6
Continuous
 62
     7
370
     0
100
AcDbLine
 10
136.0272822501779
 20
-79.89778060583438
 30
0.0
 11
135.9948106460885
 21
-79.79227044608876
 31
0.0
  0
LINE
  5
B547
330
A
100
AcDbEntity
  8
0
  6
Continuous
 62
     7
370
     0
100
AcDbLine
 10
135.9948106460885
 20
-79.79227044608876
 30
0.0
 11
135.906838372811
 21
-79.72693358066866
 31
0.0
  0
LINE
  5
B548
330
A
100
AcDbEntity
  8
0
  6
Continuous
 62
     7
370
     0
100
AcDbLine
 10
135.906838372811
 20
-79.72693358066866
 30
0.0
 11
135.8301898541764
 21
-79.71874972202572
 31
0.0
  0
ARC
  5
B549
330
A
100
AcDbEntity
  8
0
  6
Continuous
 62
     7
370
     0
100
AcDbCircle
 10
157.6196071379977
 20
-85.56473979260513
 30
0.0
 40
1.377260725037452
100
AcDbArc
 50
62.60443766814311
 51
83.07213159573038
  0
LINE
  5
B54A
330
A
100
AcDbEntity
  8
0
  6
Continuous
 62
     7
370
     0
100
AcDbLine
 10
157.7857319096456
 20
-84.19753473666958
 30
0.0
 11
157.6463284046791
 21
-84.19502181036444
 31
0.0
  0
LINE
  5
B54B
330
A
100
AcDbEntity
  8
0
  6
Continuous
 62
     7
370
     0
100
AcDbLine
 10
157.6463284046791
 20
-84.19502181036444
 30
0.0
 11
157.5258495474891
 21
-84.21332235352016
 31
0.0
  0
LINE
  5
B54C
330
A
100
AcDbEntity
  8
0
  6
Continuous
 62
     7
370
     0
100
AcDbLine
 10
157.5258495474891
 20
-84.21332235352016
 30
0.0
 11
157.4259894672452
 21
-84.24652932664201
 31
0.0
  0
LINE
  5
B54D
330
A
100
AcDbEntity
  8
0
  6
Continuous
 62
     7
370
     0
100
AcDbLine
 10
157.4259894672452
 20
-84.24652932664201
 30
0.0
 11
157.3223291806868
 21
-84.3036031874999
 31
0.0
  0
LINE
  5
B54E
330
A
100
AcDbEntity
  8
0
  6
Continuous
 62
     7
370
     0
100
AcDbLine
 10
157.3223291806868
 20
-84.3036031874999
 30
0.0
 11
157.2819959735927
 21
-84.33384991861766
 31
0.0
  0
LINE
  5
B54F
330
A
100
AcDbEntity
  8
0
  6
Continuous
 62
     7
370
     0
100
AcDbLine
 10
134.1938454112306
 20
-141.7097369846235
 30
0.0
 11
134.209994150907
 21
-141.8785493356135
 31
0.0
  0
LINE
  5
B550
330
A
100
AcDbEntity
  8
0
  6
Continuous
 62
     7
370
     0
100
AcDbLine
 10
134.209994150907
 20
-141.8785493356135
 30
0.0
 11
134.2610238179794
 21
-142.0531847872128
 31
0.0
  0
LINE
  5
B551
330
A
100
AcDbEntity
  8
0
  6
Continuous
 62
     7
370
     0
100
AcDbLine
 10
134.2610238179794
 20
-142.0531847872128
 30
0.0
 11
134.3445751447102
 21
-142.2214865284413
 31
0.0
  0
ARC
  5
B552
330
A
100
AcDbEntity
  8
0
  6
Continuous
 62
     7
370
     0
100
AcDbCircle
 10
135.7514228528064
 20
-141.3388091246165
 30
0.0
 40
1.660825057914938
100
AcDbArc
 50
212.1047781850711
 51
232.7633750541159
  0
ARC
  5
B553
330
A
100
AcDbEntity
  8
0
  6
Continuous
 62
     7
370
     0
100
AcDbCircle
 10
147.8575447618961
 20
-104.6307346688818
 30
0.0
 40
38.50698957740457
100
AcDbArc
 50
196.7099070087831
 51
240.6204846589317
  0
LINE
  5
B554
330
A
100
AcDbEntity
  8
0
  6
Continuous
 62
     7
370
     0
100
AcDbLine
 10
128.9663144219994
 20
-138.1853120400736
 30
0.0
 11
130.0727895411876
 21
-138.7239757861057
 31
0.0
  0
LINE
  5
B555
330
A
100
AcDbEntity
  8
0
  6
Continuous
 62
     7
370
     0
100
AcDbLine
 10
130.0727895411876
 20
-138.7239757861057
 30
0.0
 11
131.1979459171916
 21
-139.2145478896495
 31
0.0
  0
LINE
  5
B556
330
A
100
AcDbEntity
  8
0
  6
Continuous
 62
     7
370
     0
100
AcDbLine
 10
131.1979459171916
 20
-139.2145478896495
 30
0.0
 11
132.3393071101899
 21
-139.6555475488568
 31
0.0
  0
ARC
  5
B557
330
A
100
AcDbEntity
  8
0
  6
Continuous
 62
     7
370
     0
100
AcDbCircle
 10
136.0366037113284
 20
-86.19946047078091
 30
0.0
 40
2.127496302059678
100
AcDbArc
 50
222.0167191220894
 51
235.6043391660645
  0
LINE
  5
B558
330
A
100
AcDbEntity
  8
0
  6
Continuous
 62
     7
370
     0
100
AcDbLine
 10
134.455981314414
 20
-87.62349465353434
 30
0.0
 11
134.3389921195856
 21
-87.46989729963891
 31
0.0
  0
LINE
  5
B559
330
A
100
AcDbEntity
  8
0
  6
Continuous
 62
     7
370
     0
100
AcDbLine
 10
134.3389921195856
 20
-87.46989729963891
 30
0.0
 11
134.2651540725519
 21
-87.33506615479024
 31
0.0
  0
LINE
  5
B55A
330
A
100
AcDbEntity
  8
0
  6
Continuous
 62
     7
370
     0
100
AcDbLine
 10
134.2651540725519
 20
-87.33506615479024
 30
0.0
 11
134.2230668389716
 21
-87.22061858971505
 31
0.0
  0
LINE
  5
B55B
330
A
100
AcDbEntity
  8
0
  6
Continuous
 62
     7
370
     0
100
AcDbLine
 10
134.2230668389716
 20
-87.22061858971505
 30
0.0
 11
134.1971609976935
 21
-87.08492626064687
 31
0.0
  0
LINE
  5
B55C
330
A
100
AcDbEntity
  8
0
  6
Continuous
 62
     7
370
     0
100
AcDbLine
 10
134.1971609976935
 20
-87.08492626064687
 30
0.0
 11
134.1938454112343
 21
-87.01578510471836
 31
0.0
  0
LINE
  5
B55D
330
A
100
AcDbEntity
  8
0
  6
Continuous
 62
     7
370
     0
100
AcDbLine
 10
144.1938454112271
 20
-87.03381674375968
 30
0.0
 11
144.1892841441855
 21
-87.12797816242822
 31
0.0
  0
LINE
  5
B55E
330
A
100
AcDbEntity
  8
0
  6
Continuous
 62
     7
370
     0
100
AcDbLine
 10
144.1892841441855
 20
-87.12797816242822
 30
0.0
 11
144.1751683701748
 21
-87.2239576700719
 31
0.0
  0
LINE
  5
B55F
330
A
100
AcDbEntity
  8
0
  6
Continuous
 62
     7
370
     0
100
AcDbLine
 10
144.1751683701748
 20
-87.2239576700719
 30
0.0
 11
144.1607995893659
 21
-87.28629573887003
 31
0.0
  0
LINE
  5
B560
330
A
100
AcDbEntity
  8
0
  6
Continuous
 62
     7
370
     0
100
AcDbLine
 10
144.1607995893659
 20
-87.28629573887003
 30
0.0
 11
144.1423755604132
 21
-87.34828007996872
 31
0.0
  0
LINE
  5
B561
330
A
100
AcDbEntity
  8
0
  6
Continuous
 62
     7
370
     0
100
AcDbLine
 10
144.1423755604132
 20
-87.34828007996872
 30
0.0
 11
144.1198297833765
 21
-87.41004474941172
 31
0.0
  0
LINE
  5
B562
330
A
100
AcDbEntity
  8
0
  6
Continuous
 62
     7
370
     0
100
AcDbLine
 10
144.1198297833765
 20
-87.41004474941172
 30
0.0
 11
144.0932341613512
 21
-87.47132683371722
 31
0.0
  0
LINE
  5
B563
330
A
100
AcDbEntity
  8
0
  6
Continuous
 62
     7
370
     0
100
AcDbLine
 10
144.0932341613512
 20
-87.47132683371722
 30
0.0
 11
144.0624797846798
 21
-87.53230159606165
 31
0.0
  0
LINE
  5
B564
330
A
100
AcDbEntity
  8
0
  6
Continuous
 62
     7
370
     0
100
AcDbLine
 10
144.0624797846798
 20
-87.53230159606165
 30
0.0
 11
144.0276887221701
 21
-87.59266779520023
 31
0.0
  0
LINE
  5
B565
330
A
100
AcDbEntity
  8
0
  6
Continuous
 62
     7
370
     0
100
AcDbLine
 10
144.0276887221701
 20
-87.59266779520023
 30
0.0
 11
143.9887541791229
 21
-87.65255902629554
 31
0.0
  0
LINE
  5
B566
330
A
100
AcDbEntity
  8
0
  6
Continuous
 62
     7
370
     0
100
AcDbLine
 10
143.9887541791229
 20
-87.65255902629554
 30
0.0
 11
143.9458152475166
 21
-87.71172097565342
 31
0.0
  0
ARC
  5
B567
330
A
100
AcDbEntity
  8
0
  6
Continuous
 62
     7
370
     0
100
AcDbCircle
 10
142.5720795734611
 20
-87.34834462739632
 30
0.0
 40
1.699631477468193
100
AcDbArc
 50
27.55358625903037
 51
52.30366876597011
  0
LINE
  5
B568
330
A
100
AcDbEntity
  8
0
  6
Continuous
 62
     7
370
     0
100
AcDbLine
 10
144.078936455405
 20
-86.5621325080931
 30
0.0
 11
144.1515207885138
 21
-86.74657808793954
 31
0.0
  0
LINE
  5
B569
330
A
100
AcDbEntity
  8
0
  6
Continuous
 62
     7
370
     0
100
AcDbLine
 10
144.1515207885138
 20
-86.74657808793954
 30
0.0
 11
144.1889257797419
 21
-86.93582256692536
 31
0.0
  0
LINE
  5
B56A
330
A
100
AcDbEntity
  8
0
  6
Continuous
 62
     7
370
     0
100
AcDbLine
 10
144.1889257797419
 20
-86.93582256692536
 30
0.0
 11
144.1938454112271
 21
-87.03381674375968
 31
0.0
  0
LINE
  5
B56B
330
A
100
AcDbEntity
  8
0
  6
Continuous
 62
     9
370
     0
100
AcDbLine
 10
158.2920450522545
 20
-84.36144544069936
 30
0.0
 11
158.2867059019668
 21
-84.35869527979672
 31
0.0
  0
LINE
  5
B56C
330
A
100
AcDbEntity
  8
0
  6
Continuous
 62
     9
370
     0
100
AcDbLine
 10
158.2867059019668
 20
-84.35869527979672
 30
0.0
 11
158.2198064477944
 21
-84.32602669252508
 31
0.0
  0
LINE
  5
B56D
330
A
100
AcDbEntity
  8
0
  6
Continuous
 62
     9
370
     0
100
AcDbLine
 10
158.2198064477944
 20
-84.32602669252508
 30
0.0
 11
158.1530432112129
 21
-84.29686834872553
 31
0.0
  0
LINE
  5
B56E
330
A
100
AcDbEntity
  8
0
  6
Continuous
 62
     9
370
     0
100
AcDbLine
 10
158.1530432112129
 20
-84.29686834872553
 30
0.0
 11
158.0865120634685
 21
-84.27145767937407
 31
0.0
  0
LINE
  5
B56F
330
A
100
AcDbEntity
  8
0
  6
Continuous
 62
     9
370
     0
100
AcDbLine
 10
158.0865120634685
 20
-84.27145767937407
 30
0.0
 11
158.0215903225344
 21
-84.25042560112467
 31
0.0
  0
LINE
  5
B570
330
A
100
AcDbEntity
  8
0
  6
Continuous
 62
     9
370
     0
100
AcDbLine
 10
158.0215903225344
 20
-84.25042560112467
 30
0.0
 11
157.9572363948799
 21
-84.23354207727042
 31
0.0
  0
LINE
  5
B571
330
A
100
AcDbEntity
  8
0
  6
Continuous
 62
     9
370
     0
100
AcDbLine
 10
157.9572363948799
 20
-84.23354207727042
 30
0.0
 11
157.8934436548874
 21
-84.22104897449518
 31
0.0
  0
LINE
  5
B572
330
A
100
AcDbEntity
  8
0
  6
Continuous
 62
     9
370
     0
100
AcDbLine
 10
157.8934436548874
 20
-84.22104897449518
 30
0.0
 11
157.8618744258859
 21
-84.21655551974925
 31
0.0
  0
LINE
  5
B573
330
A
100
AcDbEntity
  8
0
  6
Continuous
 62
     9
370
     0
100
AcDbLine
 10
157.8618744258859
 20
-84.21655551974925
 30
0.0
 11
157.8306203353066
 21
-84.21328472863846
 31
0.0
  0
LINE
  5
B574
330
A
100
AcDbEntity
  8
0
  6
Continuous
 62
     9
370
     0
100
AcDbLine
 10
157.8306203353066
 20
-84.21328472863846
 30
0.0
 11
157.7995269840139
 21
-84.21125844831578
 31
0.0
  0
LINE
  5
B575
330
A
100
AcDbEntity
  8
0
  6
Continuous
 62
     9
370
     0
100
AcDbLine
 10
157.7995269840139
 20
-84.21125844831578
 30
0.0
 11
157.7688167003322
 21
-84.21052863126789
 31
0.0
  0
LINE
  5
B576
330
A
100
AcDbEntity
  8
0
  6
Continuous
 62
     9
370
     0
100
AcDbLine
 10
157.7688167003322
 20
-84.21052863126789
 30
0.0
 11
157.7384247787654
 21
-84.2111275982722
 31
0.0
  0
LINE
  5
B577
330
A
100
AcDbEntity
  8
0
  6
Continuous
 62
     9
370
     0
100
AcDbLine
 10
157.7384247787654
 20
-84.2111275982722
 30
0.0
 11
157.7084875594256
 21
-84.21308511624962
 31
0.0
  0
LINE
  5
B578
330
A
100
AcDbEntity
  8
0
  6
Continuous
 62
     9
370
     0
100
AcDbLine
 10
157.7084875594256
 20
-84.21308511624962
 30
0.0
 11
157.6718094774987
 21
-84.21747230100619
 31
0.0
  0
LINE
  5
B579
330
A
100
AcDbEntity
  8
0
  6
Continuous
 62
     9
370
     0
100
AcDbLine
 10
157.6718094774987
 20
-84.21747230100619
 30
0.0
 11
157.6359666204803
 21
-84.22405318277958
 31
0.0
  0
LINE
  5
B57A
330
A
100
AcDbEntity
  8
0
  6
Continuous
 62
     9
370
     0
100
AcDbLine
 10
157.6359666204803
 20
-84.22405318277958
 30
0.0
 11
157.6008221322075
 21
-84.23292354592541
 31
0.0
  0
LINE
  5
B57B
330
A
100
AcDbEntity
  8
0
  6
Continuous
 62
     9
370
     0
100
AcDbLine
 10
157.6008221322075
 20
-84.23292354592541
 30
0.0
 11
157.5666676443334
 21
-84.24407286055691
 31
0.0
  0
LINE
  5
B57C
330
A
100
AcDbEntity
  8
0
  6
Continuous
 62
     9
370
     0
100
AcDbLine
 10
157.5666676443334
 20
-84.24407286055691
 30
0.0
 11
157.5333616503779
 21
-84.25761571456151
 31
0.0
  0
LINE
  5
B57D
330
A
100
AcDbEntity
  8
0
  6
Continuous
 62
     9
370
     0
100
AcDbLine
 10
157.5333616503779
 20
-84.25761571456151
 30
0.0
 11
157.5012009387609
 21
-84.27348905882155
 31
0.0
  0
LINE
  5
B57E
330
A
100
AcDbEntity
  8
0
  6
Continuous
 62
     9
370
     0
100
AcDbLine
 10
157.5012009387609
 20
-84.27348905882155
 30
0.0
 11
157.4700425164416
 21
-84.2918256288117
 31
0.0
  0
LINE
  5
B57F
330
A
100
AcDbEntity
  8
0
  6
Continuous
 62
     9
370
     0
100
AcDbLine
 10
157.4700425164416
 20
-84.2918256288117
 30
0.0
 11
157.4401766322993
 21
-84.31250245508385
 31
0.0
  0
LINE
  5
B580
330
A
100
AcDbEntity
  8
0
  6
Continuous
 62
     9
370
     0
100
AcDbLine
 10
157.4401766322993
 20
-84.31250245508385
 30
0.0
 11
157.4233254217222
 21
-84.32567596712976
 31
0.0
  0
ARC
  5
B581
330
A
100
AcDbEntity
  8
0
  6
Continuous
 62
     7
370
     0
100
AcDbCircle
 10
122.4431472558794
 20
30.84211544913495
 30
0.0
 40
11.79744719320675
100
AcDbArc
 50
294.3108381976858
 51
318.1670498614181
  0
LINE
  5
B582
330
A
100
AcDbEntity
  8
0
  6
Continuous
 62
     7
370
     0
100
AcDbLine
 10
131.2333374022552
 20
22.97367739148609
 30
0.0
 11
131.283215643996
 21
23.09122785289975
 31
0.0
  0
LINE
  5
B583
330
A
100
AcDbEntity
  8
0
  6
Continuous
 62
     7
370
     0
100
AcDbLine
 10
131.283215643996
 20
23.09122785289975
 30
0.0
 11
131.3000000001364
 21
23.19409326827315
 31
0.0
  0
LINE
  5
B584
330
A
100
AcDbEntity
  8
0
  6
Continuous
 62
     7
370
     0
100
AcDbLine
 10
131.3000000001364
 20
-51.19409326827303
 30
0.0
 11
131.2841437848048
 21
-51.09431452715909
 31
0.0
  0
LINE
  5
B585
330
A
100
AcDbEntity
  8
0
  6
Continuous
 62
     7
370
     0
100
AcDbLine
 10
131.2841437848048
 20
-51.09431452715909
 30
0.0
 11
131.2370158704734
 21
-50.98065707559175
 31
0.0
  0
LINE
  5
B586
330
A
100
AcDbEntity
  8
0
  6
Continuous
 62
     7
370
     0
100
AcDbLine
 10
131.2370158704734
 20
-50.98065707559175
 30
0.0
 11
131.1590450230543
 21
-50.85359281062159
 31
0.0
  0
ARC
  5
B587
330
A
100
AcDbEntity
  8
0
  6
Continuous
 62
     7
370
     0
100
AcDbCircle
 10
121.8930608842284
 20
-59.71971060066788
 30
0.0
 40
12.82444956822509
100
AcDbArc
 50
43.73666377668818
 51
65.06361169114054
  0
ARC
  5
B588
330
A
100
AcDbEntity
  8
0
  6
Continuous
 62
     7
370
     0
100
AcDbCircle
 10
556.7099675052534
 20
50.88383874030069
 30
0.0
 40
432.4779769464488
100
AcDbArc
 50
190.3334125699952
 51
193.5407068869285
  0
LINE
  5
B589
330
A
100
AcDbEntity
  8
0
  6
Continuous
 62
     7
370
     0
100
AcDbLine
 10
136.253226572225
 20
-50.37488704503255
 30
0.0
 11
136.2885364106599
 21
-50.71436539476457
 31
0.0
  0
LINE
  5
B58A
330
A
100
AcDbEntity
  8
0
  6
Continuous
 62
     7
370
     0
100
AcDbLine
 10
136.2885364106599
 20
-50.71436539476457
 30
0.0
 11
136.3000000001364
 21
-50.99357127848874
 31
0.0
  0
ARC
  5
B58B
330
A
100
AcDbEntity
  8
0
  6
Continuous
 62
     7
370
     0
100
AcDbCircle
 10
-143.9966023179291
 20
77.10134400693924
 30
0.0
 40
285.4712530898435
100
AcDbArc
 50
345.8144098891718
 51
349.0741513462702
  0
ARC
  5
B58C
330
A
100
AcDbEntity
  8
0
  6
Continuous
 62
     7
370
     0
100
AcDbCircle
 10
279.4901557730842
 20
-23.66724914909872
 30
0.0
 40
149.920393022823
100
AcDbArc
 50
168.1407026459623
 51
171.4227424278855
  0
ARC
  5
B58D
330
A
100
AcDbEntity
  8
0
  6
Continuous
 62
     7
370
     0
100
AcDbCircle
 10
165.4080312892177
 20
-15.04361984452021
 30
0.0
 40
35.4224508591514
100
AcDbArc
 50
171.0443962835838
 51
178.803891779359
  0
ARC
  5
B58E
330
A
100
AcDbEntity
  8
0
  6
Continuous
 62
     7
370
     0
100
AcDbCircle
 10
35.66728621779763
 20
-26.01070081943936
 30
0.0
 40
95.04966581996788
100
AcDbArc
 50
4.549964306224439
 51
7.074626174680632
  0
LINE
  5
B58F
330
A
100
AcDbEntity
  8
0
  6
Continuous
 62
     7
370
     0
100
AcDbLine
 10
-14.6642503160303
 20
-89.41740635086508
 30
0.0
 11
-14.79652054691574
 21
-89.34774057230857
 31
0.0
  0
LINE
  5
B590
330
A
100
AcDbEntity
  8
0
  6
Continuous
 62
     7
370
     0
100
AcDbLine
 10
-14.79652054691574
 20
-89.34774057230857
 30
0.0
 11
-14.91039389951933
 21
-89.23077108443379
 31
0.0
  0
LINE
  5
B591
330
A
100
AcDbEntity
  8
0
  6
Continuous
 62
     7
370
     0
100
AcDbLine
 10
-14.91039389951933
 20
-89.23077108443379
 30
0.0
 11
-14.97797857676984
 21
-89.0919076022077
 31
0.0
  0
LINE
  5
B592
330
A
100
AcDbEntity
  8
0
  6
Continuous
 62
     7
370
     0
100
AcDbLine
 10
-14.97797857676984
 20
-89.0919076022077
 30
0.0
 11
-14.99412600420388
 21
-89.02157104429104
 31
0.0
  0
LINE
  5
B593
330
A
100
AcDbEntity
  8
0
  6
Continuous
 62
     7
370
     0
100
AcDbLine
 10
-14.99412600420388
 20
-89.02157104429104
 30
0.0
 11
-14.99805520845156
 21
-88.98921136308297
 31
0.0
  0
LINE
  5
B594
330
A
100
AcDbEntity
  8
0
  6
Continuous
 62
     7
370
     0
100
AcDbLine
 10
-14.99805520845156
 20
-88.98921136308297
 30
0.0
 11
-14.99884983999075
 21
-88.97904897576649
 31
0.0
  0
LINE
  5
B595
330
A
100
AcDbEntity
  8
0
  6
Continuous
 62
     7
370
     0
100
AcDbLine
 10
-14.99884983999075
 20
-88.97904897576649
 30
0.0
 11
-14.99915612974921
 21
-88.97419166096721
 31
0.0
  0
LINE
  5
B596
330
A
100
AcDbEntity
  8
0
  6
Continuous
 62
     7
370
     0
100
AcDbLine
 10
-14.99915612974921
 20
-88.97419166096721
 30
0.0
 11
-14.99921898938956
 21
-88.97309012725056
 31
0.0
  0
LINE
  5
B597
330
A
100
AcDbEntity
  8
0
  6
Continuous
 62
     7
370
     0
100
AcDbLine
 10
24.00000000000026
 20
-95.80000000014001
 30
0.0
 11
23.99956822278229
 21
-95.77926569329402
 31
0.0
  0
LINE
  5
B598
330
A
100
AcDbEntity
  8
0
  6
Continuous
 62
     7
370
     0
100
AcDbLine
 10
23.99956822278229
 20
-95.77926569329402
 30
0.0
 11
23.99827588509121
 21
-95.75854935987271
 31
0.0
  0
LINE
  5
B599
330
A
100
AcDbEntity
  8
0
  6
Continuous
 62
     7
370
     0
100
AcDbLine
 10
23.99827588509121
 20
-95.75854935987271
 30
0.0
 11
23.9961274778715
 21
-95.73790453857121
 31
0.0
  0
LINE
  5
B59A
330
A
100
AcDbEntity
  8
0
  6
Continuous
 62
     7
370
     0
100
AcDbLine
 10
23.9961274778715
 20
-95.73790453857121
 30
0.0
 11
23.99312749206743
 21
-95.71738476808498
 31
0.0
  0
LINE
  5
B59B
330
A
100
AcDbEntity
  8
0
  6
Continuous
 62
     7
370
     0
100
AcDbLine
 10
23.99312749206743
 20
-95.71738476808498
 30
0.0
 11
23.98915131637725
 21
-95.69641859060373
 31
0.0
  0
LINE
  5
B59C
330
A
100
AcDbEntity
  8
0
  6
Continuous
 62
     7
370
     0
100
AcDbLine
 10
23.98915131637725
 20
-95.69641859060373
 30
0.0
 11
23.9842798677785
 21
-95.67562289818523
 31
0.0
  0
LINE
  5
B59D
330
A
100
AcDbEntity
  8
0
  6
Continuous
 62
     7
370
     0
100
AcDbLine
 10
23.9842798677785
 20
-95.67562289818523
 30
0.0
 11
23.97852781741776
 21
-95.6550543327029
 31
0.0
  0
LINE
  5
B59E
330
A
100
AcDbEntity
  8
0
  6
Continuous
 62
     7
370
     0
100
AcDbLine
 10
23.97852781741776
 20
-95.6550543327029
 30
0.0
 11
23.97190983644143
 21
-95.63476953602986
 31
0.0
  0
LINE
  5
B59F
330
A
100
AcDbEntity
  8
0
  6
Continuous
 62
     7
370
     0
100
AcDbLine
 10
23.97190983644143
 20
-95.63476953602986
 30
0.0
 11
23.96465250232731
 21
-95.61534795457104
 31
0.0
  0
LINE
  5
B5A0
330
A
100
AcDbEntity
  8
0
  6
Continuous
 62
     7
370
     0
100
AcDbLine
 10
23.96465250232731
 20
-95.61534795457104
 30
0.0
 11
23.9565898034256
 21
-95.59622862417279
 31
0.0
  0
LINE
  5
B5A1
330
A
100
AcDbEntity
  8
0
  6
Continuous
 62
     7
370
     0
100
AcDbLine
 10
23.9565898034256
 20
-95.59622862417279
 30
0.0
 11
23.9477437565541
 21
-95.57746044390118
 31
0.0
  0
LINE
  5
B5A2
330
A
100
AcDbEntity
  8
0
  6
Continuous
 62
     7
370
     0
100
AcDbLine
 10
23.9477437565541
 20
-95.57746044390118
 30
0.0
 11
23.93813637853012
 21
-95.55909231282253
 31
0.0
  0
LINE
  5
B5A3
330
A
100
AcDbEntity
  8
0
  6
Continuous
 62
     7
370
     0
100
AcDbLine
 10
23.93813637853012
 20
-95.55909231282253
 30
0.0
 11
23.92746223025896
 21
-95.54062735244798
 31
0.0
  0
LINE
  5
B5A4
330
A
100
AcDbEntity
  8
0
  6
Continuous
 62
     7
370
     0
100
AcDbLine
 10
23.92746223025896
 20
-95.54062735244798
 30
0.0
 11
23.91600090118995
 21
-95.52261953655397
 31
0.0
  0
LINE
  5
B5A5
330
A
100
AcDbEntity
  8
0
  6
Continuous
 62
     7
370
     0
100
AcDbLine
 10
23.91600090118995
 20
-95.52261953655397
 30
0.0
 11
23.9037849563671
 21
-95.50511724829616
 31
0.0
  0
LINE
  5
B5A6
330
A
100
AcDbEntity
  8
0
  6
Continuous
 62
     7
370
     0
100
AcDbLine
 10
23.9037849563671
 20
-95.50511724829616
 30
0.0
 11
23.89084696083504
 21
-95.48816887083104
 31
0.0
  0
LINE
  5
B5A7
330
A
100
AcDbEntity
  8
0
  6
Continuous
 62
     7
370
     0
100
AcDbLine
 10
23.89084696083504
 20
-95.48816887083104
 30
0.0
 11
23.87757929206665
 21
-95.47223146927587
 31
0.0
  0
LINE
  5
B5A8
330
A
100
AcDbEntity
  8
0
  6
Continuous
 62
     7
370
     0
100
AcDbLine
 10
23.87757929206665
 20
-95.47223146927587
 30
0.0
 11
23.86365164321707
 21
-95.45684622295789
 31
0.0
  0
LINE
  5
B5A9
330
A
100
AcDbEntity
  8
0
  6
Continuous
 62
     7
370
     0
100
AcDbLine
 10
23.86365164321707
 20
-95.45684622295789
 30
0.0
 11
23.84910095897109
 21
-95.44205188697759
 31
0.0
  0
LINE
  5
B5AA
330
A
100
AcDbEntity
  8
0
  6
Continuous
 62
     7
370
     0
100
AcDbLine
 10
23.84910095897109
 20
-95.44205188697759
 30
0.0
 11
23.83396418401396
 21
-95.42788721643587
 31
0.0
  0
LINE
  5
B5AB
330
A
100
AcDbEntity
  8
0
  6
Continuous
 62
     7
370
     0
100
AcDbLine
 10
23.83396418401396
 20
-95.42788721643587
 30
0.0
 11
23.81779004069838
 21
-95.41398493741921
 31
0.0
  0
LINE
  5
B5AC
330
A
100
AcDbEntity
  8
0
  6
Continuous
 62
     7
370
     0
100
AcDbLine
 10
23.81779004069838
 20
-95.41398493741921
 30
0.0
 11
23.80102443584113
 21
-95.4007745274934
 31
0.0
  0
LINE
  5
B5AD
330
A
100
AcDbEntity
  8
0
  6
Continuous
 62
     7
370
     0
100
AcDbLine
 10
23.80102443584113
 20
-95.4007745274934
 30
0.0
 11
23.78371400004719
 21
-95.38829075278101
 31
0.0
  0
LINE
  5
B5AE
330
A
100
AcDbEntity
  8
0
  6
Continuous
 62
     7
370
     0
100
AcDbLine
 10
23.78371400004719
 20
-95.38829075278101
 30
0.0
 11
23.76590536392129
 21
-95.3765683794054
 31
0.0
  0
LINE
  5
B5AF
330
A
100
AcDbEntity
  8
0
  6
Continuous
 62
     7
370
     0
100
AcDbLine
 10
23.76590536392129
 20
-95.3765683794054
 30
0.0
 11
23.74809728597117
 21
-95.36589624444115
 31
0.0
  0
LINE
  5
B5B0
330
A
100
AcDbEntity
  8
0
  6
Continuous
 62
     7
370
     0
100
AcDbLine
 10
23.74809728597117
 20
-95.36589624444115
 30
0.0
 11
23.72984786220852
 21
-95.35596509510103
 31
0.0
  0
LINE
  5
B5B1
330
A
100
AcDbEntity
  8
0
  6
Continuous
 62
     7
370
     0
100
AcDbLine
 10
23.72984786220852
 20
-95.35596509510103
 30
0.0
 11
23.71120479202997
 21
-95.34679930566033
 31
0.0
  0
LINE
  5
B5B2
330
A
100
AcDbEntity
  8
0
  6
Continuous
 62
     7
370
     0
100
AcDbLine
 10
23.71120479202997
 20
-95.34679930566033
 30
0.0
 11
23.69221577483265
 21
-95.33842325039453
 31
0.0
  0
LINE
  5
B5B3
330
A
100
AcDbEntity
  8
0
  6
Continuous
 62
     7
370
     0
100
AcDbLine
 10
23.69221577483265
 20
-95.33842325039453
 30
0.0
 11
23.67233331113212
 21
-95.33063940111276
 31
0.0
  0
LINE
  5
B5B4
330
A
100
AcDbEntity
  8
0
  6
Continuous
 62
     7
370
     0
100
AcDbLine
 10
23.67233331113212
 20
-95.33063940111276
 30
0.0
 11
23.65212034188746
 21
-95.32370587176206
 31
0.0
  0
LINE
  5
B5B5
330
A
100
AcDbEntity
  8
0
  6
Continuous
 62
     7
370
     0
100
AcDbLine
 10
23.65212034188746
 20
-95.32370587176206
 30
0.0
 11
23.63163236591899
 21
-95.31764011175168
 31
0.0
  0
LINE
  5
B5B6
330
A
100
AcDbEntity
  8
0
  6
Continuous
 62
     7
370
     0
100
AcDbLine
 10
23.63163236591899
 20
-95.31764011175168
 30
0.0
 11
23.61092488204761
 21
-95.31245957049065
 31
0.0
  0
LINE
  5
B5B7
330
A
100
AcDbEntity
  8
0
  6
Continuous
 62
     7
370
     0
100
AcDbLine
 10
23.61092488204761
 20
-95.31245957049065
 30
0.0
 11
23.58902578251158
 21
-95.3079934398824
 31
0.0
  0
LINE
  5
B5B8
330
A
100
AcDbEntity
  8
0
  6
Continuous
 62
     7
370
     0
100
AcDbLine
 10
23.58902578251158
 20
-95.3079934398824
 30
0.0
 11
23.56691750286163
 21
-95.30450717452401
 31
0.0
  0
LINE
  5
B5B9
330
A
100
AcDbEntity
  8
0
  6
Continuous
 62
     7
370
     0
100
AcDbLine
 10
23.56691750286163
 20
-95.30450717452401
 30
0.0
 11
23.54466628477493
 21
-95.30200801743456
 31
0.0
  0
LINE
  5
B5BA
330
A
100
AcDbEntity
  8
0
  6
Continuous
 62
     7
370
     0
100
AcDbLine
 10
23.54466628477493
 20
-95.30200801743456
 30
0.0
 11
23.52233836992892
 21
-95.30050321163354
 31
0.0
  0
LINE
  5
B5BB
330
A
100
AcDbEntity
  8
0
  6
Continuous
 62
     7
370
     0
100
AcDbLine
 10
23.52233836992892
 20
-95.30050321163354
 30
0.0
 11
23.50000000000026
 21
-95.30000000014002
 31
0.0
  0
LINE
  5
B5BC
330
A
100
AcDbEntity
  8
0
  6
Continuous
 62
     7
370
     0
100
AcDbLine
 10
74.9992189893758
 20
-88.97309012725292
 30
0.0
 11
74.99920747085693
 21
-88.9732952116824
 31
0.0
  0
LINE
  5
B5BD
330
A
100
AcDbEntity
  8
0
  6
Continuous
 62
     7
370
     0
100
AcDbLine
 10
74.99920747085693
 20
-88.9732952116824
 30
0.0
 11
74.99906587587744
 21
-88.97570894450579
 31
0.0
  0
LINE
  5
B5BE
330
A
100
AcDbEntity
  8
0
  6
Continuous
 62
     7
370
     0
100
AcDbLine
 10
74.99906587587744
 20
-88.97570894450579
 30
0.0
 11
74.9987636493523
 21
-88.98029451082958
 31
0.0
  0
LINE
  5
B5BF
330
A
100
AcDbEntity
  8
0
  6
Continuous
 62
     7
370
     0
100
AcDbLine
 10
74.9987636493523
 20
-88.98029451082958
 30
0.0
 11
74.99767672137025
 21
-88.99329885214843
 31
0.0
  0
LINE
  5
B5C0
330
A
100
AcDbEntity
  8
0
  6
Continuous
 62
     7
370
     0
100
AcDbLine
 10
74.99767672137025
 20
-88.99329885214843
 30
0.0
 11
74.99357474364157
 21
-89.02505424047451
 31
0.0
  0
LINE
  5
B5C1
330
A
100
AcDbEntity
  8
0
  6
Continuous
 62
     7
370
     0
100
AcDbLine
 10
74.99357474364157
 20
-89.02505424047451
 30
0.0
 11
74.97765457947529
 21
-89.09295874717553
 31
0.0
  0
LINE
  5
B5C2
330
A
100
AcDbEntity
  8
0
  6
Continuous
 62
     7
370
     0
100
AcDbLine
 10
74.97765457947529
 20
-89.09295874717553
 30
0.0
 11
74.91487167608998
 21
-89.2242270331409
 31
0.0
  0
LINE
  5
B5C3
330
A
100
AcDbEntity
  8
0
  6
Continuous
 62
     7
370
     0
100
AcDbLine
 10
74.91487167608998
 20
-89.2242270331409
 30
0.0
 11
74.8105693940873
 21
-89.33700476774685
 31
0.0
  0
LINE
  5
B5C4
330
A
100
AcDbEntity
  8
0
  6
Continuous
 62
     7
370
     0
100
AcDbLine
 10
74.8105693940873
 20
-89.33700476774685
 30
0.0
 11
74.66425031601616
 21
-89.41740635086734
 31
0.0
  0
CIRCLE
  5
B637
330
A
100
AcDbEntity
  8
0
  6
CENTER
 62
     1
100
AcDbCircle
 10
0.0000000000001776
 20
-0.0000000000000568
 30
0.0
 40
7.0
  0
CIRCLE
  5
B638
330
A
100
AcDbEntity
  8
0
  6
CENTER
 62
     1
100
AcDbCircle
 10
0.0000000000001776
 20
-28.00000000000003
 30
0.0
 40
7.0
  0
CIRCLE
  5
B639
330
A
100
AcDbEntity
  8
0
  6
CENTER
 62
     1
100
AcDbCircle
 10
59.99999999999079
 20
-28.00000000001294
 30
0.0
 40
7.0
  0
CIRCLE
  5
B63A
330
A
100
AcDbEntity
  8
0
  6
CENTER
 62
     1
100
AcDbCircle
 10
60.00000000000728
 20
0.0000000000079013
 30
0.0
 40
7.0
  0
ENDSEC
  0
SECTION
  2
OBJECTS
  0
DICTIONARY
  5
19
330
0
100
AcDbDictionary
281
     1
  3
ACAD_COLOR
350
5829
  3
ACAD_GROUP
350
1A
  3
ACAD_LAYOUT
350
1E
  3
ACAD_MATERIAL
350
57FF
  3
ACAD_MLEADERSTYLE
350
584E
  3
ACAD_MLINESTYLE
350
1B
  3
ACAD_PLOTSETTINGS
350
22
  3
ACAD_PLOTSTYLENAME
350
1F
  3
ACAD_SCALELIST
350
582C
  3
ACAD_TABLESTYLE
350
582A
  3
ACAD_VISUALSTYLE
350
5818
  3
ACAD_WIPEOUT_VARS
350
23
  3
ACDB_RECOMPOSE_DATA
350
AB90
  3
AcDbVariableDictionary
350
AB91
  3
ASE_INDEX_DICTIONARY
350
B60C
  3
DWGPROPS
350
B659
  0
DICTIONARY
  5
5858
330
14
100
AcDbDictionary
280
     1
281
     1
  3
ADSK_XREC_LAYER_RECONCILED
360
5859
  0
DICTIONARY
  5
5864
330
A
100
AcDbDictionary
280
     1
281
     1
  3
ACAD_SORTENTS
360
5865
  0
DICTIONARY
  5
5829
102
{ACAD_REACTORS
330
19
102
}
330
19
100
AcDbDictionary
281
     1
  0
DICTIONARY
  5
1A
102
{ACAD_REACTORS
330
19
102
}
330
19
100
AcDbDictionary
281
     1
  0
DICTIONARY
  5
1E
102
{ACAD_REACTORS
330
19
102
}
330
19
100
AcDbDictionary
281
     1
  3
Layout1
350
21
  3
Model
350
20
  0
DICTIONARY
  5
57FF
102
{ACAD_REACTORS
330
19
102
}
330
19
100
AcDbDictionary
281
     1
  3
ByBlock
350
5808
  3
ByLayer
350
5800
  3
Global
350
5810
  0
DICTIONARY
  5
584E
102
{ACAD_REACTORS
330
19
102
}
330
19
100
AcDbDictionary
281
     1
  3
Standard
350
584F
  0
DICTIONARY
  5
1B
102
{ACAD_REACTORS
330
19
102
}
330
19
100
AcDbDictionary
281
     1
  3
Standard
350
1C
  0
DICTIONARY
  5
22
102
{ACAD_REACTORS
330
19
102
}
330
19
100
AcDbDictionary
281
     1
  0
ACDBDICTIONARYWDFLT
  5
1F
102
{ACAD_REACTORS
330
19
102
}
330
19
100
AcDbDictionary
281
     1
  3
Normal
350
1D
100
AcDbDictionaryWithDefault
340
1D
  0
DICTIONARY
  5
582C
102
{ACAD_REACTORS
330
19
102
}
330
19
100
AcDbDictionary
281
     1
  3
A0
350
582D
  3
A1
350
582E
  3
A2
350
582F
  3
A3
350
5830
  3
A4
350
5831
  3
A5
350
5832
  3
A6
350
5833
  3
A7
350
5834
  3
A8
350
5835
  3
A9
350
5836
  3
B0
350
5837
  3
B1
350
5838
  3
B2
350
5839
  3
B3
350
583A
  3
B4
350
583B
  3
B5
350
583C
  3
B6
350
583D
  3
B7
350
583E
  3
B8
350
583F
  3
B9
350
5840
  3
C0
350
5841
  3
C1
350
5842
  3
C2
350
5843
  3
C3
350
5844
  3
C4
350
5845
  3
C5
350
5846
  3
C6
350
5847
  3
C7
350
5848
  3
C8
350
5849
  3
C9
350
584A
  3
D0
350
584B
  3
D1
350
584C
  3
D2
350
584D
  0
DICTIONARY
  5
582A
102
{ACAD_REACTORS
330
19
102
}
330
19
100
AcDbDictionary
281
     1
  3
Standard
350
582B
  0
DICTIONARY
  5
5818
102
{ACAD_REACTORS
330
19
102
}
330
19
100
AcDbDictionary
281
     1
  3
2dWireframe
350
581E
  3
3D Hidden
350
5820
  3
3dWireframe
350
581F
  3
Basic
350
581D
  3
Brighten
350
5824
  3
ColorChange
350
5828
  3
Conceptual
350
5821
  3
Dim
350
5823
  3
Facepattern
350
5827
  3
Flat
350
5819
  3
FlatWithEdges
350
581A
  3
Gouraud
350
581B
  3
GouraudWithEdges
350
581C
  3
Linepattern
350
5826
  3
Realistic
350
5822
  3
Thicken
350
5825
  0
WIPEOUTVARIABLES
  5
23
330
19
100
AcDbWipeoutVariables
 70
     1
  0
XRECORD
  5
AB90
102
{ACAD_REACTORS
330
19
102
}
330
19
100
AcDbXrecord
280
     1
 90
        1
330
582B
  0
DICTIONARY
  5
AB91
102
{ACAD_REACTORS
330
19
102
}
330
19
100
AcDbDictionary
281
     1
  3
CANNOSCALE
350
AB95
  3
CMLEADERSTYLE
350
AB93
  3
CTABLESTYLE
350
AB92
  3
DIMASSOC
350
B616
  3
INDEXCTL
350
B615
  3
LIGHTINGUNITS
350
AB96
  3
MSLTSCALE
350
AB94
  3
SORTENTS
350
B614
  0
DICTIONARY
  5
B60C
102
{ACAD_REACTORS
330
19
102
}
330
19
100
AcDbDictionary
281
     1
  3
ASEBlockHierarchyIndexRecord
350
B60D
1001
DCO15
1040
1684838774.981
  0
XRECORD
  5
B659
102
{ACAD_REACTORS
330
19
102
}
330
19
100
AcDbXrecord
280
     1
  1
DWGPROPS COOKIE
  2

  3

  4

  6

  7

  8
renzo.ceresoli
  9

300
=
301
=
302
=
303
=
304
=
305
=
306
=
307
=
308
=
309
=
 40
0.1688100462962963
 41
2455301.802361111
 42
2455306.358712581
  1

 90
        0
  0
XRECORD
  5
5859
102
{ACAD_REACTORS
330
5858
102
}
330
5858
100
AcDbXrecord
280
     1
290
     1
  0
SORTENTSTABLE
  5
5865
102
{ACAD_REACTORS
330
5864
102
}
330
5864
100
AcDbSortentsTable
330
A
331
A53A
  5
5BD4
331
78D
  5
5BEA
331
A4C4
  5
5B76
331
A571
  5
5AFB
331
A5E0
  5
5B2E
331
A542
  5
5ACC
331
A4CC
  5
5B7E
331
A579
  5
5B03
331
A581
  5
5B0B
331
A5E8
  5
5B36
331
A50B
  5
5BA5
331
A54A
  5
5AD4
331
5B6
  5
5A7E
331
A495
  5
5B47
331
A4D4
  5
5B86
331
A99C
  5
4A0E
331
A9D3
  5
4FDC
331
A589
  5
5B13
331
A5F0
  5
5B3E
331
A935
  5
57D4
331
A4DC
  5
5B8E
331
A513
  5
5BAD
331
A49D
  5
5B4F
331
A552
  5
5ADC
331
A9A4
  5
4A16
331
A9DB
  5
4FE4
331
A965
  5
57DD
331
A9AC
  5
4A1E
331
A9E3
  5
5783
331
A975
  5
57E3
331
A9B4
  5
4A32
331
A8B1
  5
58D8
331
A8F0
  5
579A
331
A804
  5
59A5
331
A83B
  5
587A
331
A747
  5
5916
331
A786
  5
5955
331
A7C5
  5
5982
331
A87A
  5
58B9
331
A8B9
  5
58E0
331
A74F
  5
591E
331
A78E
  5
595D
331
A843
  5
5882
331
A8F8
  5
57A2
331
A88A
  5
58C1
331
A8C1
  5
58E8
331
A7D5
  5
598A
331
A814
  5
59B0
331
A757
  5
5926
331
A796
  5
5965
331
A84B
  5
588A
331
A900
  5
57AA
331
A908
  5
57B2
331
A853
  5
5892
331
A892
  5
58C4
331
A7DD
  5
5992
331
A75F
  5
592E
331
A81C
  5
59B8
331
A8C9
  5
58F0
331
A55A
  5
5AE4
331
A591
  5
5B1B
331
A4A5
  5
5B57
331
A51B
  5
5BB5
331
A720
  5
5907
331
A523
  5
5BBD
331
A4AD
  5
5B5F
331
A562
  5
5AEC
331
A52B
  5
5BC5
331
A56A
  5
5AF4
331
786
  5
5BE3
331
A4B5
  5
5B67
331
A4F4
  5
5B99
331
A5A1
  5
5B20
331
A9BC
  5
4FC5
331
A533
  5
5BCD
331
A97D
  5
57EB
331
A4BD
  5
5B6F
331
A9C4
  5
4FCD
331
A985
  5
57F3
331
A98D
  5
38B4
331
A9CC
  5
4FD5
331
A995
  5
38BC
331
A8D1
  5
58F8
331
A824
  5
59C0
331
A85B
  5
589A
331
A910
  5
57BA
331
A7A6
  5
596F
331
A7E5
  5
5994
331
A767
  5
5936
331
A8D9
  5
5900
331
A918
  5
57C2
331
A76F
  5
593E
331
A82C
  5
586B
331
A863
  5
58A2
331
A8A2
  5
58CE
331
A8E1
  5
578B
331
A7F5
  5
599E
331
A834
  5
5873
331
A777
  5
5946
331
A7BE
  5
597B
331
A86B
  5
58AA
331
A920
  5
57CA
331
A873
  5
58B2
331
A77F
  5
594E
331
A8E9
  5
5793
331
A572
  5
5AFC
331
A4C5
  5
5B77
331
78E
  5
5BEB
331
A53B
  5
5BD5
331
A57A
  5
5B04
331
A5E1
  5
5B2F
331
A4CD
  5
5B7F
331
A543
  5
5ACD
331
A54B
  5
5AD5
331
A582
  5
5B0C
331
A496
  5
5B48
331
A4D5
  5
5B87
331
5B7
  5
5A7F
331
A50C
  5
5BA6
331
A5E9
  5
5B37
331
A9D4
  5
4FDD
331
A5F1
  5
5B3F
331
A99D
  5
4A0F
331
A514
  5
5BAE
331
A553
  5
5ADD
331
A49E
  5
5B50
331
A4DD
  5
5B8F
331
A58A
  5
5B14
331
A9DC
  5
4FE5
331
A95E
  5
57D6
331
A9A5
  5
4A17
331
A9AD
  5
4A1F
331
A9E4
  5
5784
331
A966
  5
57DE
331
A976
  5
57E4
331
A9B5
  5
4A33
331
A740
  5
590F
331
A8F1
  5
579B
331
A87B
  5
58BA
331
A8B2
  5
58D9
331
A7C6
  5
5983
331
A805
  5
59A6
331
A748
  5
5917
331
A787
  5
5956
331
A83C
  5
587B
331
A8F9
  5
57A3
331
A78F
  5
595E
331
A844
  5
5883
331
A883
  5
58BE
331
A750
  5
591F
331
A8BA
  5
58E1
331
A8C2
  5
58E9
331
A815
  5
59B1
331
A84C
  5
588B
331
A901
  5
57AB
331
A758
  5
5927
331
A797
  5
5966
331
A7D6
  5
598B
331
A893
  5
58C5
331
A8CA
  5
58F1
331
A81D
  5
59B9
331
A79F
  5
5968
331
A854
  5
5893
331
A909
  5
57B3
331
A51C
  5
5BB6
331
A4A6
  5
5B58
331
A55B
  5
5AE5
331
A721
  5
5908
331
A4ED
  5
5B97
331
A524
  5
5BBE
331
77F
  5
5BDC
331
A4AE
  5
5B60
331
A563
  5
5AED
331
A56B
  5
5AF5
331
A5A2
  5
5B21
331
A4B6
  5
5B68
331
A4F5
  5
5B9A
331
787
  5
5BE4
331
A52C
  5
5BC6
331
A534
  5
5BCE
331
A97E
  5
57EC
331
A4BE
  5
5B70
331
A9BD
  5
4FC6
331
A986
  5
5863
331
A9C5
  5
4FCE
331
A9CD
  5
4FD6
331
A98E
  5
38B5
331
A996
  5
38BD
331
A760
  5
592F
331
A8D2
  5
58F9
331
A7E6
  5
5995
331
A825
  5
59C1
331
A768
  5
5937
331
A7A7
  5
5970
331
A85C
  5
589B
331
A911
  5
57BB
331
A919
  5
57C3
331
A864
  5
58A3
331
A8A3
  5
58CF
331
A770
  5
593F
331
A82D
  5
586C
331
A8DA
  5
5901
331
A8E2
  5
578C
331
A921
  5
57CB
331
A835
  5
5874
331
A86C
  5
58AB
331
A7BF
  5
597C
331
A7F6
  5
599F
331
A8AB
  5
58D2
331
A778
  5
5947
331
A8EA
  5
5794
331
A874
  5
58B3
331
A53C
  5
5BD6
331
A573
  5
5AFD
331
78F
  5
5BEC
331
A4C6
  5
5B78
331
A4FD
  5
5B9D
331
A5E2
  5
5B30
331
A544
  5
5ACE
331
A4CE
  5
5B80
331
A57B
  5
5B05
331
A583
  5
5B0D
331
A5EA
  5
5B38
331
A4D6
  5
5B88
331
A50D
  5
5BA7
331
5B8
  5
5A80
331
A497
  5
5B49
331
A54C
  5
5AD6
331
A99E
  5
4A10
331
A9D5
  5
4FDE
331
A58B
  5
5B15
331
A5F2
  5
5B40
331
A4DE
  5
5B90
331
A515
  5
5BAF
331
A49F
  5
5B51
331
A554
  5
5ADE
331
A95F
  5
57D7
331
A9A6
  5
4A18
331
A9DD
  5
4FE6
331
A9AE
  5
4A2C
331
A977
  5
57E5
331
A9B6
  5
4FBF
331
A780
  5
594F
331
A741
  5
5910
331
A8B3
  5
58DA
331
A8F2
  5
579C
331
A806
  5
59A7
331
A83D
  5
587C
331
A749
  5
5918
331
A788
  5
5957
331
A7C7
  5
5984
331
A87C
  5
58BB
331
A884
  5
58BF
331
A8BB
  5
58E2
331
A751
  5
5920
331
A790
  5
595F
331
A845
  5
5884
331
A8FA
  5
57A4
331
A902
  5
57AC
331
A8C3
  5
58EA
331
A7D7
  5
598C
331
A759
  5
5928
331
A816
  5
59B2
331
A84D
  5
588C
331
A90A
  5
57B4
331
A855
  5
5894
331
A894
  5
58C6
331
A81E
  5
59BA
331
A8CB
  5
58F2
331
6C8
  5
5B41
331
A55C
  5
5AE6
331
A4A7
  5
5B59
331
A4E6
  5
5B94
331
A51D
  5
5BB7
331
A722
  5
5909
331
A525
  5
5BBF
331
780
  5
5BDD
331
A4AF
  5
5B61
331
A564
  5
5AEE
331
A5A3
  5
5B22
331
A52D
  5
5BC7
331
A56C
  5
5AF6
331
A4B7
  5
5B69
331
A4F6
  5
5B9B
331
A9BE
  5
4FC7
331
A535
  5
5BCF
331
A97F
  5
57ED
331
A4BF
  5
5B71
331
A987
  5
5866
331
A9C6
  5
4FCF
331
A98F
  5
38B6
331
A9CE
  5
4FD7
331
A997
  5
38BE
331
A7A0
  5
5969
331
A761
  5
5930
331
A8D3
  5
58FA
331
A912
  5
57BC
331
A826
  5
59C2
331
A85D
  5
589C
331
A769
  5
5938
331
A7A8
  5
5971
331
A7E7
  5
5996
331
A89C
  5
58C8
331
A8A4
  5
58D0
331
A8DB
  5
5785
331
A771
  5
5940
331
A82E
  5
586D
331
A865
  5
58A4
331
A91A
  5
57C4
331
A8AC
  5
58D3
331
A8E3
  5
578D
331
A7F7
  5
59A0
331
A779
  5
5948
331
A836
  5
5875
331
A86D
  5
58AC
331
A922
  5
57CC
331
A875
  5
58B4
331
A8EB
  5
5795
331
788
  5
5BE5
331
A574
  5
5AFE
331
A5DB
  5
5B29
331
A4C7
  5
5B79
331
A4FE
  5
5B9E
331
790
  5
5BED
331
A53D
  5
5BD7
331
A545
  5
5ACF
331
A4CF
  5
5B81
331
A57C
  5
5B06
331
A5E3
  5
5B31
331
A54D
  5
5AD7
331
A584
  5
5B0E
331
A498
  5
5B4A
331
A4D7
  5
5B89
331
5B9
  5
5A81
331
A50E
  5
5BA8
331
A5EB
  5
5B39
331
A9D6
  5
4FDF
331
A99F
  5
4A11
331
A516
  5
5BB0
331
A555
  5
5ADF
331
A4DF
  5
5B91
331
A58C
  5
5B16
331
A9DE
  5
4FE7
331
A960
  5
57D8
331
A9A7
  5
4A19
331
A9AF
  5
4A2D
331
A9B7
  5
4FC0
331
A7C0
  5
597D
331
A742
  5
5911
331
A781
  5
5950
331
A8F3
  5
579D
331
A83E
  5
587D
331
A87D
  5
58BC
331
A7C8
  5
5985
331
A807
  5
59A8
331
A8B4
  5
58DB
331
A74A
  5
5919
331
A789
  5
5958
331
A8FB
  5
57A5
331
A791
  5
5960
331
A846
  5
5885
331
A752
  5
5921
331
A8BC
  5
58E3
331
A8C4
  5
58EB
331
A817
  5
59B3
331
A84E
  5
588D
331
A903
  5
57AD
331
A75A
  5
5929
331
A7D8
  5
598D
331
A8CC
  5
58F3
331
A81F
  5
59BB
331
A856
  5
5895
331
A90B
  5
57B5
331
6C9
  5
5B42
331
A4A0
  5
5B52
331
A4E7
  5
5B95
331
A51E
  5
5BB8
331
A4A8
  5
5B5A
331
A55D
  5
5AE7
331
A723
  5
590A
331
A526
  5
5BC0
331
781
  5
5BDE
331
A4B0
  5
5B62
331
A565
  5
5AEF
331
A978
  5
57E6
331
A56D
  5
5AF7
331
A5A4
  5
5B23
331
A4B8
  5
5B6A
331
A52E
  5
5BC8
331
A536
  5
5BD0
331
A980
  5
57EE
331
A9BF
  5
4FC8
331
A988
  5
5867
331
A9C7
  5
4FD0
331
A9CF
  5
4FD8
331
A990
  5
38B7
331
A762
  5
5931
331
A7A1
  5
596A
331
A913
  5
57BD
331
A89D
  5
58C9
331
A8D4
  5
58FB
331
A7E8
  5
5997
331
A827
  5
59C3
331
A76A
  5
5939
331
A7A9
  5
5972
331
A85E
  5
589D
331
A91B
  5
57C5
331
A866
  5
58A5
331
A7B9
  5
5976
331
A772
  5
5941
331
A82F
  5
586E
331
A8DC
  5
5786
331
A8E4
  5
578E
331
A923
  5
57CD
331
A837
  5
5876
331
A86E
  5
58AD
331
A77A
  5
5949
331
A7F8
  5
59A1
331
A8AD
  5
58D4
331
A8EC
  5
5796
331
A876
  5
58B5
331
789
  5
5BE6
331
A4C0
  5
5B72
331
A5DC
  5
5B2A
331
A53E
  5
5BD8
331
A575
  5
5AFF
331
791
  5
5BEE
331
A4C8
  5
5B7A
331
A4FF
  5
5B9F
331
A5E4
  5
5B32
331
A546
  5
5AD0
331
A4D0
  5
5B82
331
A57D
  5
5B07
331
A998
  5
4A0A
331
A585
  5
5B0F
331
A5EC
  5
5B3A
331
A4D8
  5
5B8A
331
A50F
  5
5BA9
331
5BA
  5
5A82
331
A499
  5
5B4B
331
A54E
  5
5AD8
331
A9A0
  5
4A12
331
A556
  5
5AE0
331
A58D
  5
5B17
331
A9D7
  5
4FE0
331
A517
  5
5BB1
331
A961
  5
57D9
331
A9A8
  5
4A1A
331
A9DF
  5
4FE8
331
A9B0
  5
4A2E
331
A782
  5
5951
331
A7C1
  5
597E
331
A743
  5
5912
331
A8B5
  5
58DC
331
A808
  5
59A9
331
A74B
  5
591A
331
A78A
  5
5959
331
A83F
  5
587E
331
A8F4
  5
579E
331
A8BD
  5
58E4
331
A810
  5
59AC
331
A753
  5
5922
331
A792
  5
5961
331
A847
  5
5886
331
A8FC
  5
57A6
331
A904
  5
57AE
331
A84F
  5
588E
331
A7D9
  5
598E
331
A75B
  5
592A
331
A818
  5
59B4
331
A8C5
  5
58EC
331
A90C
  5
57B6
331
A857
  5
5896
331
A8CD
  5
58F4
331
A4E0
  5
5B92
331
6CA
  5
5B43
331
A4A1
  5
5B53
331
A55E
  5
5AE8
331
A4A9
  5
5B5B
331
A51F
  5
5BB9
331
A71C
  5
5903
331
A724
  5
590B
331
A527
  5
5BC1
331
782
  5
5BDF
331
A4B1
  5
5B63
331
A566
  5
5AF0
331
A5A5
  5
5B24
331
A979
  5
57E7
331
A52F
  5
5BC9
331
A4B9
  5
5B6B
331
A56E
  5
5AF8
331
A9B8
  5
4FC1
331
A9C0
  5
4FC9
331
A537
  5
5BD1
331
A981
  5
57EF
331
A989
  5
5868
331
A9C8
  5
4FD1
331
A991
  5
38B8
331
A7A2
  5
596B
331
A763
  5
5932
331
A820
  5
59BC
331
A8D5
  5
58FC
331
A914
  5
57BE
331
A828
  5
59C4
331
A85F
  5
589E
331
A76B
  5
593A
331
A7AA
  5
5973
331
A7E9
  5
5998
331
A89E
  5
58CA
331
A8DD
  5
5787
331
A7F1
  5
599A
331
A830
  5
586F
331
A773
  5
5942
331
A7BA
  5
5977
331
A867
  5
58A6
331
A91C
  5
57C6
331
A924
  5
57CE
331
A8AE
  5
58D5
331
A8E5
  5
578F
331
A7F9
  5
59A2
331
A77B
  5
594A
331
A86F
  5
58AE
331
A877
  5
58B6
331
A8ED
  5
5797
331
78A
  5
5BE7
331
A4C1
  5
5B73
331
A576
  5
5B00
331
A5DD
  5
5B2B
331
A4C9
  5
5B7B
331
A500
  5
5BA0
331
792
  5
5BEF
331
A53F
  5
5BD9
331
A547
  5
5AD1
331
A57E
  5
5B08
331
A4D1
  5
5B83
331
5B3
  5
5A7B
331
A508
  5
5BA2
331
A5E5
  5
5B33
331
A5ED
  5
5B3B
331
A999
  5
4A0B
331
A54F
  5
5AD9
331
A586
  5
5B10
331
A9D0
  5
4FD9
331
A49A
  5
5B4C
331
A4D9
  5
5B8B
331
5BB
  5
5A83
331
A510
  5
5BAA
331
A9D8
  5
4FE1
331
A9A1
  5
4A13
331
A557
  5
5AE1
331
A58E
  5
5B18
331
A9A9
  5
4A1B
331
A9E0
  5
5780
331
A962
  5
57DA
331
A9B1
  5
4A2F
331
A972
  5
57E0
331
A7C2
  5
597F
331
A744
  5
5913
331
A783
  5
5952
331
A838
  5
5877
331
A8F5
  5
579F
331
A840
  5
587F
331
A78B
  5
595A
331
A74C
  5
591B
331
A809
  5
59AA
331
A8B6
  5
58DD
331
A8BE
  5
58E5
331
A848
  5
5887
331
A8FD
  5
57A7
331
A793
  5
5962
331
A7D2
  5
5987
331
A754
  5
5923
331
A811
  5
59AD
331
A8C6
  5
58ED
331
A819
  5
59B5
331
A850
  5
588F
331
A905
  5
57AF
331
A75C
  5
592B
331
A7DA
  5
598F
331
A8CE
  5
58F5
331
A90D
  5
57B7
331
A518
  5
5BB2
331
6CB
  5
5B44
331
A4A2
  5
5B54
331
A71D
  5
5904
331
A520
  5
5BBA
331
A4AA
  5
5B5C
331
A55F
  5
5AE9
331
A567
  5
5AF1
331
A59E
  5
5B1D
331
A528
  5
5BC2
331
783
  5
5BE0
331
A4B2
  5
5B64
331
A97A
  5
57E8
331
A56F
  5
5AF9
331
A9B9
  5
4FC2
331
A4BA
  5
5B6C
331
A530
  5
5BCA
331
A982
  5
57F0
331
A9C1
  5
4FCA
331
A5CE
  5
5B26
331
A98A
  5
38B1
331
A9C9
  5
4FD2
331
A992
  5
38B9
331
A821
  5
59BD
331
A764
  5
5933
331
A7A3
  5
596C
331
A858
  5
5897
331
A915
  5
57BF
331
A860
  5
589F
331
A89F
  5
58CB
331
A829
  5
5902
331
A8D6
  5
58FD
331
A76C
  5
593B
331
A7AB
  5
5974
331
A91D
  5
57C7
331
A868
  5
58A7
331
A7BB
  5
5978
331
A7F2
  5
599B
331
A774
  5
5943
331
A831
  5
5870
331
A8DE
  5
5788
331
A8E6
  5
5790
331
A925
  5
57CF
331
A870
  5
58AF
331
A77C
  5
594B
331
A7FA
  5
59A3
331
A8AF
  5
58D6
331
A8EE
  5
5798
331
A538
  5
5BD2
331
78B
  5
5BE8
331
A4C2
  5
5B74
331
A5DE
  5
5B2C
331
A540
  5
5BDA
331
793
  5
5BF0
331
A4CA
  5
5B7C
331
A577
  5
5B01
331
A5E6
  5
5B34
331
A509
  5
5BA3
331
A548
  5
5AD2
331
5B4
  5
5A7C
331
A4D2
  5
5B84
331
A57F
  5
5B09
331
A99A
  5
4A0C
331
A9D1
  5
4FDA
331
A587
  5
5B11
331
A5EE
  5
5B3C
331
A933
  5
57D2
331
A4DA
  5
5B8C
331
A511
  5
5BAB
331
5BC
  5
5A84
331
A49B
  5
5B4D
331
A550
  5
5ADA
331
A9A2
  5
4A14
331
A58F
  5
5B19
331
A9D9
  5
4FE2
331
A963
  5
57DB
331
A9AA
  5
4A1C
331
A9E1
  5
5781
331
A973
  5
57E1
331
A9B2
  5
4A30
331
A839
  5
5878
331
A784
  5
5953
331
A7C3
  5
5980
331
A878
  5
58B7
331
A745
  5
5914
331
A8B7
  5
58DE
331
A74D
  5
591C
331
A78C
  5
595B
331
A841
  5
5880
331
A8F6
  5
57A0
331
A8BF
  5
58E6
331
A7D3
  5
5988
331
A812
  5
59AE
331
A755
  5
5924
331
A794
  5
5963
331
A849
  5
5888
331
A8FE
  5
57A8
331
A906
  5
57B0
331
A851
  5
5890
331
A7DB
  5
5990
331
A75D
  5
592C
331
A81A
  5
59B6
331
A8C7
  5
58EE
331
A8CF
  5
58F6
331
A90E
  5
57B8
331
A558
  5
5AE2
331
A4A3
  5
5B55
331
6CC
  5
5B45
331
A519
  5
5BB3
331
A71E
  5
5905
331
A560
  5
5AEA
331
A4AB
  5
5B5D
331
A521
  5
5BBB
331
A529
  5
5BC3
331
784
  5
5BE1
331
A4B3
  5
5B65
331
A568
  5
5AF2
331
A59F
  5
5B1E
331
A9BA
  5
4FC3
331
A531
  5
5BCB
331
A73E
  5
590D
331
A97B
  5
57E9
331
A4BB
  5
5B6D
331
A9C2
  5
4FCB
331
A5CF
  5
5B27
331
A983
  5
57F1
331
A98B
  5
38B2
331
A9CA
  5
4FD3
331
A993
  5
38BA
331
A859
  5
5898
331
A7A4
  5
596D
331
A765
  5
5934
331
A822
  5
59BE
331
A8D7
  5
58FE
331
A916
  5
57C0
331
A76D
  5
593C
331
A82A
  5
5869
331
A861
  5
58A0
331
A8A0
  5
58CC
331
A8DF
  5
5789
331
A7F3
  5
599C
331
A832
  5
5871
331
A775
  5
5944
331
A7BC
  5
5979
331
A869
  5
58A8
331
A91E
  5
57C8
331
A926
  5
57D0
331
A871
  5
58B0
331
A77D
  5
594C
331
A8E7
  5
5791
331
A8EF
  5
5799
331
A570
  5
5AFA
331
A539
  5
5BD3
331
78C
  5
5BE9
331
A4C3
  5
5B75
331
A578
  5
5B02
331
A5DF
  5
5B2D
331
A4CB
  5
5B7D
331
794
  5
5BF1
331
A541
  5
5BDB
331
A549
  5
5AD3
331
A580
  5
5B0A
331
A4D3
  5
5B85
331
5B5
  5
5A7D
331
A50A
  5
5BA4
331
A5E7
  5
5B35
331
A5EF
  5
5B3D
331
A934
  5
57D3
331
A99B
  5
4A0D
331
A512
  5
5BAC
331
A551
  5
5ADB
331
A49C
  5
5B4E
331
A4DB
  5
5B8D
331
A588
  5
5B12
331
5BD
  5
5A85
331
A9D2
  5
4FDB
331
A9DA
  5
4FE3
331
A9A3
  5
4A15
331
A9AB
  5
4A1D
331
A9E2
  5
5782
331
A964
  5
57DC
331
A9B3
  5
4A31
331
A974
  5
57E2
331
A879
  5
58B8
331
A8B0
  5
58D7
331
A7C4
  5
5981
331
A746
  5
5915
331
A785
  5
5954
331
A83A
  5
5879
331
A8F7
  5
57A1
331
A78D
  5
595C
331
A842
  5
5881
331
A74E
  5
591D
331
A8B8
  5
58DF
331
A8C0
  5
58E7
331
A813
  5
59AF
331
A84A
  5
5889
331
A8FF
  5
57A9
331
A795
  5
5964
331
A7D4
  5
5989
331
A756
  5
5925
331
A8C8
  5
58EF
331
A907
  5
57B1
331
A81B
  5
59B7
331
A852
  5
5891
331
A75E
  5
592D
331
A7DC
  5
5991
331
A891
  5
58C3
331
A90F
  5
57B9
331
A51A
  5
5BB4
331
6CD
  5
5B46
331
A4A4
  5
5B56
331
A559
  5
5AE3
331
A590
  5
5B1A
331
A71F
  5
5906
331
A522
  5
5BBC
331
A4AC
  5
5B5E
331
A561
  5
5AEB
331
A569
  5
5AF3
331
A5A0
  5
5B1F
331
A4B4
  5
5B66
331
785
  5
5BE2
331
A52A
  5
5BC4
331
A73F
  5
590E
331
A97C
  5
57EA
331
A9BB
  5
4FC4
331
A4BC
  5
5B6E
331
A532
  5
5BCC
331
A984
  5
57F2
331
A9C3
  5
4FCC
331
A9CB
  5
4FD4
331
A98C
  5
38B3
331
A994
  5
38BB
331
A8D0
  5
58F7
331
A823
  5
59BF
331
A766
  5
5935
331
A7A5
  5
596E
331
A85A
  5
5899
331
A917
  5
57C1
331
A862
  5
58A1
331
A8A1
  5
58CD
331
A76E
  5
593D
331
A82B
  5
586A
331
A8D8
  5
58FF
331
A8E0
  5
578A
331
A86A
  5
58A9
331
A91F
  5
57C9
331
A7BD
  5
597A
331
A7F4
  5
599D
331
A776
  5
5945
331
A833
  5
5872
331
A8E8
  5
5792
331
A77E
  5
594D
331
A872
  5
58B1
  0
LAYOUT
  5
21
102
{ACAD_XDICTIONARY
360
B65C
102
}
102
{ACAD_REACTORS
330
1E
102
}
330
1E
100
AcDbPlotSettings
  1

  2

  4

  6

 40
0.0
 41
0.0
 42
0.0
 43
0.0
 44
0.0
 45
0.0
 46
0.0
 47
0.0
 48
0.0
 49
0.0
140
0.0
141
0.0
142
1.0
143
1.0
 70
     0
 72
     0
 73
     0
 74
     0
  7

 75
     0
147
1.0
148
0.0
149
0.0
100
AcDbLayout
  1
Layout1
 70
     0
 71
     1
 10
0.0
 20
0.0
 11
12.0
 21
9.0
 12
0.0
 22
0.0
 32
0.0
 14
1.000000000000000E+20
 24
1.000000000000000E+20
 34
1.000000000000000E+20
 15
-1.000000000000000E+20
 25
-1.000000000000000E+20
 35
-1.000000000000000E+20
146
0.0
 13
0.0
 23
0.0
 33
0.0
 16
1.0
 26
0.0
 36
0.0
 17
0.0
 27
1.0
 37
0.0
 76
     0
330
B
  0
LAYOUT
  5
20
102
{ACAD_XDICTIONARY
360
B65A
102
}
102
{ACAD_REACTORS
330
1E
102
}
330
1E
100
AcDbPlotSettings
  1

  2

  4

  6

 40
0.0
 41
0.0
 42
0.0
 43
0.0
 44
0.0
 45
0.0
 46
0.0
 47
0.0
 48
0.0
 49
0.0
140
0.0
141
0.0
142
1.0
143
1.0
 70
  1024
 72
     0
 73
     0
 74
     0
  7

 75
     0
147
1.0
148
0.0
149
0.0
100
AcDbLayout
  1
Model
 70
     0
 71
     0
 10
0.0
 20
0.0
 11
0.0
 21
0.0
 12
0.0
 22
0.0
 32
0.0
 14
0.0
 24
0.0
 34
0.0
 15
0.0
 25
0.0
 35
0.0
146
0.0
 13
0.0
 23
0.0
 33
0.0
 16
0.0
 26
0.0
 36
0.0
 17
0.0
 27
0.0
 37
0.0
 76
     0
330
A
331
15
  0
MATERIAL
  5
5808
102
{ACAD_XDICTIONARY
360
5809
102
}
102
{ACAD_REACTORS
330
57FF
102
}
330
57FF
100
AcDbMaterial
  1
ByBlock
 72
     0
 43
0.0208333333333333
 43
0.0
 43
0.0
 43
0.0
 43
0.0
 43
0.0208333333333333
 43
0.0
 43
0.0
 43
0.0
 43
0.0
 43
1.0
 43
0.0
 43
0.0
 43
0.0
 43
0.0
 43
1.0
 77
     0
 47
0.0208333333333333
 47
0.0
 47
0.0
 47
0.0
 47
0.0
 47
0.0208333333333333
 47
0.0
 47
0.0
 47
0.0
 47
0.0
 47
1.0
 47
0.0
 47
0.0
 47
0.0
 47
0.0
 47
1.0
171
     0
 49
0.0208333333333333
 49
0.0
 49
0.0
 49
0.0
 49
0.0
 49
0.0208333333333333
 49
0.0
 49
0.0
 49
0.0
 49
0.0
 49
1.0
 49
0.0
 49
0.0
 49
0.0
 49
0.0
 49
1.0
175
     0
142
0.0208333333333333
142
0.0
142
0.0
142
0.0
142
0.0
142
0.0208333333333333
142
0.0
142
0.0
142
0.0
142
0.0
142
1.0
142
0.0
142
0.0
142
0.0
142
0.0
142
1.0
179
     0
144
0.0208333333333333
144
0.0
144
0.0
144
0.0
144
0.0
144
0.0208333333333333
144
0.0
144
0.0
144
0.0
144
0.0
144
1.0
144
0.0
144
0.0
144
0.0
144
0.0
144
1.0
147
0.0208333333333333
147
0.0
147
0.0
147
0.0
147
0.0
147
0.0208333333333333
147
0.0
147
0.0
147
0.0
147
0.0
147
1.0
147
0.0
147
0.0
147
0.0
147
0.0
147
1.0
  0
MATERIAL
  5
5800
102
{ACAD_XDICTIONARY
360
5801
102
}
102
{ACAD_REACTORS
330
57FF
102
}
330
57FF
100
AcDbMaterial
  1
ByLayer
 72
     0
 43
0.0208333333333333
 43
0.0
 43
0.0
 43
0.0
 43
0.0
 43
0.0208333333333333
 43
0.0
 43
0.0
 43
0.0
 43
0.0
 43
1.0
 43
0.0
 43
0.0
 43
0.0
 43
0.0
 43
1.0
 77
     0
 47
0.0208333333333333
 47
0.0
 47
0.0
 47
0.0
 47
0.0
 47
0.0208333333333333
 47
0.0
 47
0.0
 47
0.0
 47
0.0
 47
1.0
 47
0.0
 47
0.0
 47
0.0
 47
0.0
 47
1.0
171
     0
 49
0.0208333333333333
 49
0.0
 49
0.0
 49
0.0
 49
0.0
 49
0.0208333333333333
 49
0.0
 49
0.0
 49
0.0
 49
0.0
 49
1.0
 49
0.0
 49
0.0
 49
0.0
 49
0.0
 49
1.0
175
     0
142
0.0208333333333333
142
0.0
142
0.0
142
0.0
142
0.0
142
0.0208333333333333
142
0.0
142
0.0
142
0.0
142
0.0
142
1.0
142
0.0
142
0.0
142
0.0
142
0.0
142
1.0
179
     0
144
0.0208333333333333
144
0.0
144
0.0
144
0.0
144
0.0
144
0.0208333333333333
144
0.0
144
0.0
144
0.0
144
0.0
144
1.0
144
0.0
144
0.0
144
0.0
144
0.0
144
1.0
147
0.0208333333333333
147
0.0
147
0.0
147
0.0
147
0.0
147
0.0208333333333333
147
0.0
147
0.0
147
0.0
147
0.0
147
1.0
147
0.0
147
0.0
147
0.0
147
0.0
147
1.0
  0
MATERIAL
  5
5810
102
{ACAD_XDICTIONARY
360
5811
102
}
102
{ACAD_REACTORS
330
57FF
102
}
330
57FF
100
AcDbMaterial
  1
Global
 72
     0
 43
0.0208333333333333
 43
0.0
 43
0.0
 43
0.0
 43
0.0
 43
0.0208333333333333
 43
0.0
 43
0.0
 43
0.0
 43
0.0
 43
1.0
 43
0.0
 43
0.0
 43
0.0
 43
0.0
 43
1.0
 77
     0
 47
0.0208333333333333
 47
0.0
 47
0.0
 47
0.0
 47
0.0
 47
0.0208333333333333
 47
0.0
 47
0.0
 47
0.0
 47
0.0
 47
1.0
 47
0.0
 47
0.0
 47
0.0
 47
0.0
 47
1.0
171
     0
 49
0.0208333333333333
 49
0.0
 49
0.0
 49
0.0
 49
0.0
 49
0.0208333333333333
 49
0.0
 49
0.0
 49
0.0
 49
0.0
 49
1.0
 49
0.0
 49
0.0
 49
0.0
 49
0.0
 49
1.0
175
     0
142
0.0208333333333333
142
0.0
142
0.0
142
0.0
142
0.0
142
0.0208333333333333
142
0.0
142
0.0
142
0.0
142
0.0
142
1.0
142
0.0
142
0.0
142
0.0
142
0.0
142
1.0
179
     0
144
0.0208333333333333
144
0.0
144
0.0
144
0.0
144
0.0
144
0.0208333333333333
144
0.0
144
0.0
144
0.0
144
0.0
144
1.0
144
0.0
144
0.0
144
0.0
144
0.0
144
1.0
147
0.0208333333333333
147
0.0
147
0.0
147
0.0
147
0.0
147
0.0208333333333333
147
0.0
147
0.0
147
0.0
147
0.0
147
1.0
147
0.0
147
0.0
147
0.0
147
0.0
147
1.0
  0
MLEADERSTYLE
  5
584F
102
{ACAD_REACTORS
330
584E
102
}
330
584E
100
AcDbMLeaderStyle
170
     2
171
     1
172
     0
 90
        2
 40
0.0
 41
0.0
173
     1
 91
-1056964608
340
11
 92
       -2
290
     1
 42
2.0
291
     1
 43
0.36
  3
Standard
 44
4.0
300

342
17
174
     1
178
     6
175
     1
176
     0
 93
-1056964608
 45
4.0
292
     0
297
     0
 46
4.0
 94
-1056964608
 47
1.0
 49
1.0
140
1.0
293
     1
141
0.0
294
     1
177
     0
142
1.0
295
     0
296
     0
143
0.125
1001
ACAD_MLEADERVER
1070
     2
  0
MLINESTYLE
  5
1C
102
{ACAD_REACTORS
330
1B
102
}
330
1B
100
AcDbMlineStyle
  2
STANDARD
 70
     0
  3

 62
     0
 51
90.0
 52
90.0
 71
     2
 49
0.5
 62
   256
  6
BYLAYER
 49
-0.5
 62
   256
  6
BYLAYER
  0
ACDBPLACEHOLDER
  5
1D
102
{ACAD_REACTORS
330
1F
102
}
330
1F
  0
SCALE
  5
582D
102
{ACAD_REACTORS
330
582C
102
}
330
582C
100
AcDbScale
 70
     0
300
1:1
140
1.0
141
1.0
290
     1
  0
SCALE
  5
582E
102
{ACAD_REACTORS
330
582C
102
}
330
582C
100
AcDbScale
 70
     0
300
1:2
140
1.0
141
2.0
290
     0
  0
SCALE
  5
582F
102
{ACAD_REACTORS
330
582C
102
}
330
582C
100
AcDbScale
 70
     0
300
1:4
140
1.0
141
4.0
290
     0
  0
SCALE
  5
5830
102
{ACAD_REACTORS
330
582C
102
}
330
582C
100
AcDbScale
 70
     0
300
1:5
140
1.0
141
5.0
290
     0
  0
SCALE
  5
5831
102
{ACAD_REACTORS
330
582C
102
}
330
582C
100
AcDbScale
 70
     0
300
1:8
140
1.0
141
8.0
290
     0
  0
SCALE
  5
5832
102
{ACAD_REACTORS
330
582C
102
}
330
582C
100
AcDbScale
 70
     0
300
1:10
140
1.0
141
10.0
290
     0
  0
SCALE
  5
5833
102
{ACAD_REACTORS
330
582C
102
}
330
582C
100
AcDbScale
 70
     0
300
1:16
140
1.0
141
16.0
290
     0
  0
SCALE
  5
5834
102
{ACAD_REACTORS
330
582C
102
}
330
582C
100
AcDbScale
 70
     0
300
1:20
140
1.0
141
20.0
290
     0
  0
SCALE
  5
5835
102
{ACAD_REACTORS
330
582C
102
}
330
582C
100
AcDbScale
 70
     0
300
1:30
140
1.0
141
30.0
290
     0
  0
SCALE
  5
5836
102
{ACAD_REACTORS
330
582C
102
}
330
582C
100
AcDbScale
 70
     0
300
1:40
140
1.0
141
40.0
290
     0
  0
SCALE
  5
5837
102
{ACAD_REACTORS
330
582C
102
}
330
582C
100
AcDbScale
 70
     0
300
1:50
140
1.0
141
50.0
290
     0
  0
SCALE
  5
5838
102
{ACAD_REACTORS
330
582C
102
}
330
582C
100
AcDbScale
 70
     0
300
1:100
140
1.0
141
100.0
290
     0
  0
SCALE
  5
5839
102
{ACAD_REACTORS
330
582C
102
}
330
582C
100
AcDbScale
 70
     0
300
2:1
140
2.0
141
1.0
290
     0
  0
SCALE
  5
583A
102
{ACAD_REACTORS
330
582C
102
}
330
582C
100
AcDbScale
 70
     0
300
4:1
140
4.0
141
1.0
290
     0
  0
SCALE
  5
583B
102
{ACAD_REACTORS
330
582C
102
}
330
582C
100
AcDbScale
 70
     0
300
8:1
140
8.0
141
1.0
290
     0
  0
SCALE
  5
583C
102
{ACAD_REACTORS
330
582C
102
}
330
582C
100
AcDbScale
 70
     0
300
10:1
140
10.0
141
1.0
290
     0
  0
SCALE
  5
583D
102
{ACAD_REACTORS
330
582C
102
}
330
582C
100
AcDbScale
 70
     0
300
100:1
140
100.0
141
1.0
290
     0
  0
SCALE
  5
583E
102
{ACAD_REACTORS
330
582C
102
}
330
582C
100
AcDbScale
 70
     0
300
1/128" = 1'-0"
140
0.0078125
141
12.0
290
     0
  0
SCALE
  5
583F
102
{ACAD_REACTORS
330
582C
102
}
330
582C
100
AcDbScale
 70
     0
300
1/64" = 1'-0"
140
0.015625
141
12.0
290
     0
  0
SCALE
  5
5840
102
{ACAD_REACTORS
330
582C
102
}
330
582C
100
AcDbScale
 70
     0
300
1/32" = 1'-0"
140
0.03125
141
12.0
290
     0
  0
SCALE
  5
5841
102
{ACAD_REACTORS
330
582C
102
}
330
582C
100
AcDbScale
 70
     0
300
1/16" = 1'-0"
140
0.0625
141
12.0
290
     0
  0
SCALE
  5
5842
102
{ACAD_REACTORS
330
582C
102
}
330
582C
100
AcDbScale
 70
     0
300
3/32" = 1'-0"
140
0.09375
141
12.0
290
     0
  0
SCALE
  5
5843
102
{ACAD_REACTORS
330
582C
102
}
330
582C
100
AcDbScale
 70
     0
300
1/8" = 1'-0"
140
0.125
141
12.0
290
     0
  0
SCALE
  5
5844
102
{ACAD_REACTORS
330
582C
102
}
330
582C
100
AcDbScale
 70
     0
300
3/16" = 1'-0"
140
0.1875
141
12.0
290
     0
  0
SCALE
  5
5845
102
{ACAD_REACTORS
330
582C
102
}
330
582C
100
AcDbScale
 70
     0
300
1/4" = 1'-0"
140
0.25
141
12.0
290
     0
  0
SCALE
  5
5846
102
{ACAD_REACTORS
330
582C
102
}
330
582C
100
AcDbScale
 70
     0
300
3/8" = 1'-0"
140
0.375
141
12.0
290
     0
  0
SCALE
  5
5847
102
{ACAD_REACTORS
330
582C
102
}
330
582C
100
AcDbScale
 70
     0
300
1/2" = 1'-0"
140
0.5
141
12.0
290
     0
  0
SCALE
  5
5848
102
{ACAD_REACTORS
330
582C
102
}
330
582C
100
AcDbScale
 70
     0
300
3/4" = 1'-0"
140
0.75
141
12.0
290
     0
  0
SCALE
  5
5849
102
{ACAD_REACTORS
330
582C
102
}
330
582C
100
AcDbScale
 70
     0
300
1" = 1'-0"
140
1.0
141
12.0
290
     0
  0
SCALE
  5
584A
102
{ACAD_REACTORS
330
582C
102
}
330
582C
100
AcDbScale
 70
     0
300
1-1/2" = 1'-0"
140
1.5
141
12.0
290
     0
  0
SCALE
  5
584B
102
{ACAD_REACTORS
330
582C
102
}
330
582C
100
AcDbScale
 70
     0
300
3" = 1'-0"
140
3.0
141
12.0
290
     0
  0
SCALE
  5
584C
102
{ACAD_REACTORS
330
582C
102
}
330
582C
100
AcDbScale
 70
     0
300
6" = 1'-0"
140
6.0
141
12.0
290
     0
  0
SCALE
  5
584D
102
{ACAD_REACTORS
330
582C
102
}
330
582C
100
AcDbScale
 70
     0
300
1'-0" = 1'-0"
140
12.0
141
12.0
290
     0
  0
TABLESTYLE
  5
582B
102
{ACAD_XDICTIONARY
360
AB8E
102
}
102
{ACAD_REACTORS
330
582A
102
}
330
582A
100
AcDbTableStyle
  3
Standard
 70
     0
 71
     0
 40
1.5
 41
1.5
280
     0
281
     0
  7
Standard
140
4.5
170
     2
 62
     0
 63
     7
283
     0
274
    -2
284
     1
 64
     0
275
    -2
285
     1
 65
     0
276
    -2
286
     1
 66
     0
277
    -2
287
     1
 67
     0
278
    -2
288
     1
 68
     0
279
    -2
289
     1
 69
     0
  7
Standard
140
6.0
170
     5
 62
     0
 63
     7
283
     0
274
    -2
284
     1
 64
     0
275
    -2
285
     1
 65
     0
276
    -2
286
     1
 66
     0
277
    -2
287
     1
 67
     0
278
    -2
288
     1
 68
     0
279
    -2
289
     1
 69
     0
  7
Standard
140
4.5
170
     5
 62
     0
 63
     7
283
     0
274
    -2
284
     1
 64
     0
275
    -2
285
     1
 65
     0
276
    -2
286
     1
 66
     0
277
    -2
287
     1
 67
     0
278
    -2
288
     1
 68
     0
279
    -2
289
     1
 69
     0
  0
VISUALSTYLE
  5
581E
102
{ACAD_REACTORS
330
5818
102
}
330
5818
100
AcDbVisualStyle
  2
2dWireframe
 70
     4
 71
     0
 72
     2
 73
     0
 90
        0
 40
-0.6
 41
-30.0
 62
     5
 63
     7
 74
     1
 91
        4
 64
     7
 65
   257
 75
     1
175
     1
 42
1.0
 92
        0
 66
   257
 43
1.0
 76
     1
 77
     6
 78
     2
 67
     7
 79
     5
170
     0
171
     0
290
     0
174
     0
 93
        1
 44
0.0
173
     0
291
     0
 45
0.0
1001
ACAD
1000
AcDbSavedByObjectVersion
1070
     0
1000
AcDbSavedByObjectVersion
1070
     0
1000
AcDbSavedByObjectVersion
1070
     0
1000
AcDbSavedByObjectVersion
1070
     0
  0
VISUALSTYLE
  5
5820
102
{ACAD_REACTORS
330
5818
102
}
330
5818
100
AcDbVisualStyle
  2
3D Hidden
 70
     6
 71
     1
 72
     2
 73
     2
 90
        0
 40
-0.6
 41
-30.0
 62
     5
 63
     7
 74
     2
 91
        2
 64
     7
 65
   257
 75
     2
175
     1
 42
40.0
 92
        0
 66
   257
 43
1.0
 76
     1
 77
     6
 78
     2
 67
     7
 79
     3
170
     0
171
     0
290
     0
174
     0
 93
        1
 44
0.0
173
     0
291
     0
 45
0.0
1001
ACAD
1000
AcDbSavedByObjectVersion
1070
     0
1000
AcDbSavedByObjectVersion
1070
     0
1000
AcDbSavedByObjectVersion
1070
     0
1000
AcDbSavedByObjectVersion
1070
     0
  0
VISUALSTYLE
  5
581F
102
{ACAD_REACTORS
330
5818
102
}
330
5818
100
AcDbVisualStyle
  2
3dWireframe
 70
     5
 71
     0
 72
     2
 73
     0
 90
        0
 40
-0.6
 41
-30.0
 62
     5
 63
     7
 74
     1
 91
        4
 64
     7
 65
   257
 75
     1
175
     1
 42
1.0
 92
        0
 66
   257
 43
1.0
 76
     1
 77
     6
 78
     2
 67
     7
 79
     5
170
     0
171
     0
290
     0
174
     0
 93
        1
 44
0.0
173
     0
291
     0
 45
0.0
1001
ACAD
1000
AcDbSavedByObjectVersion
1070
     0
1000
AcDbSavedByObjectVersion
1070
     0
1000
AcDbSavedByObjectVersion
1070
     0
1000
AcDbSavedByObjectVersion
1070
     0
  0
VISUALSTYLE
  5
581D
102
{ACAD_REACTORS
330
5818
102
}
330
5818
100
AcDbVisualStyle
  2
Basic
 70
     7
 71
     1
 72
     0
 73
     1
 90
        0
 40
-0.6
 41
-30.0
 62
     5
 63
     7
 74
     0
 91
        4
 64
     7
 65
   257
 75
     1
175
     1
 42
1.0
 92
        8
 66
     7
 43
1.0
 76
     1
 77
     6
 78
     2
 67
     7
 79
     5
170
     0
171
     0
290
     0
174
     0
 93
        1
 44
0.0
173
     0
291
     1
 45
0.0
1001
ACAD
1000
AcDbSavedByObjectVersion
1070
     0
1000
AcDbSavedByObjectVersion
1070
     0
1000
AcDbSavedByObjectVersion
1070
     0
1000
AcDbSavedByObjectVersion
1070
     0
  0
VISUALSTYLE
  5
5824
102
{ACAD_REACTORS
330
5818
102
}
330
5818
100
AcDbVisualStyle
  2
Brighten
 70
    12
 71
     2
 72
     2
 73
     0
 90
        0
 40
-0.6
 41
-30.0
 62
     5
 63
     7
 74
     1
 91
        4
 64
     7
 65
   257
 75
     1
175
     1
 42
1.0
 92
        8
 66
     7
 43
1.0
 76
     1
 77
     6
 78
     2
 67
     7
 79
     5
170
     0
171
     0
290
     0
174
     0
 93
        1
 44
50.0
173
     0
291
     1
 45
0.0
1001
ACAD
1000
AcDbSavedByObjectVersion
1070
     0
1000
AcDbSavedByObjectVersion
1070
     0
1000
AcDbSavedByObjectVersion
1070
     0
1000
AcDbSavedByObjectVersion
1070
     0
  0
VISUALSTYLE
  5
5828
102
{ACAD_REACTORS
330
5818
102
}
330
5818
100
AcDbVisualStyle
  2
ColorChange
 70
    16
 71
     2
 72
     2
 73
     3
 90
        0
 40
-0.6
 41
-30.0
 62
     5
 63
     8
 74
     1
 91
        4
 64
     7
 65
   257
 75
     1
175
     1
 42
1.0
 92
        8
 66
     8
 43
1.0
 76
     1
 77
     6
 78
     2
 67
     7
 79
     5
170
     0
171
     0
290
     0
174
     0
 93
        1
 44
0.0
173
     0
291
     1
 45
0.0
1001
ACAD
1000
AcDbSavedByObjectVersion
1070
     0
1000
AcDbSavedByObjectVersion
1070
     0
1000
AcDbSavedByObjectVersion
1070
     0
1000
AcDbSavedByObjectVersion
1070
     0
  0
VISUALSTYLE
  5
5821
102
{ACAD_REACTORS
330
5818
102
}
330
5818
100
AcDbVisualStyle
  2
Conceptual
 70
     9
 71
     3
 72
     2
 73
     0
 90
        0
 40
-0.6
 41
-30.0
 62
     5
 63
     7
 74
     2
 91
        2
 64
     7
 65
   257
 75
     1
175
     1
 42
40.0
 92
        8
 66
     7
 43
1.0
 76
     1
 77
     6
 78
     2
 67
     7
 79
     3
170
     0
171
     0
290
     0
174
     0
 93
        1
 44
0.0
173
     0
291
     0
 45
0.0
1001
ACAD
1000
AcDbSavedByObjectVersion
1070
     0
1000
AcDbSavedByObjectVersion
1070
     0
1000
AcDbSavedByObjectVersion
1070
     0
1000
AcDbSavedByObjectVersion
1070
     0
  0
VISUALSTYLE
  5
5823
102
{ACAD_REACTORS
330
5818
102
}
330
5818
100
AcDbVisualStyle
  2
Dim
 70
    11
 71
     2
 72
     2
 73
     0
 90
        0
 40
-0.6
 41
-30.0
 62
     5
 63
     7
 74
     1
 91
        4
 64
     7
 65
   257
 75
     1
175
     1
 42
1.0
 92
        8
 66
     7
 43
1.0
 76
     1
 77
     6
 78
     2
 67
     7
 79
     5
170
     0
171
     0
290
     0
174
     0
 93
        1
 44
-50.0
173
     0
291
     1
 45
0.0
1001
ACAD
1000
AcDbSavedByObjectVersion
1070
     0
1000
AcDbSavedByObjectVersion
1070
     0
1000
AcDbSavedByObjectVersion
1070
     0
1000
AcDbSavedByObjectVersion
1070
     0
  0
VISUALSTYLE
  5
5827
102
{ACAD_REACTORS
330
5818
102
}
330
5818
100
AcDbVisualStyle
  2
Facepattern
 70
    15
 71
     2
 72
     2
 73
     0
 90
        0
 40
-0.6
 41
-30.0
 62
     5
 63
     7
 74
     1
 91
        4
 64
     7
 65
   257
 75
     1
175
     1
 42
1.0
 92
        8
 66
     7
 43
1.0
 76
     1
 77
     6
 78
     2
 67
     7
 79
     5
170
     0
171
     0
290
     0
174
     0
 93
        1
 44
0.0
173
     0
291
     1
 45
0.0
1001
ACAD
1000
AcDbSavedByObjectVersion
1070
     0
1000
AcDbSavedByObjectVersion
1070
     0
1000
AcDbSavedByObjectVersion
1070
     0
1000
AcDbSavedByObjectVersion
1070
     0
  0
VISUALSTYLE
  5
5819
102
{ACAD_REACTORS
330
5818
102
}
330
5818
100
AcDbVisualStyle
  2
Flat
 70
     0
 71
     2
 72
     1
 73
     1
 90
        2
 40
-0.6
 41
30.0
 62
     5
 63
     7
 74
     0
 91
        4
 64
     7
 65
   257
 75
     1
175
     1
 42
1.0
 92
        8
 66
     7
 43
1.0
 76
     1
 77
     6
 78
     2
 67
     7
 79
     5
170
     0
171
     0
290
     0
174
     0
 93
       13
 44
0.0
173
     0
291
     1
 45
0.0
1001
ACAD
1000
AcDbSavedByObjectVersion
1070
     0
1000
AcDbSavedByObjectVersion
1070
     0
1000
AcDbSavedByObjectVersion
1070
     0
1000
AcDbSavedByObjectVersion
1070
     0
  0
VISUALSTYLE
  5
581A
102
{ACAD_REACTORS
330
5818
102
}
330
5818
100
AcDbVisualStyle
  2
FlatWithEdges
 70
     1
 71
     2
 72
     1
 73
     1
 90
        2
 40
-0.6
 41
30.0
 62
     5
 63
     7
 74
     1
 91
        4
 64
     7
 65
   257
 75
     1
175
     1
 42
1.0
 92
        0
 66
   257
 43
1.0
 76
     1
 77
     6
 78
     2
 67
     7
 79
     5
170
     0
171
     0
290
     0
174
     0
 93
       13
 44
0.0
173
     0
291
     1
 45
0.0
1001
ACAD
1000
AcDbSavedByObjectVersion
1070
     0
1000
AcDbSavedByObjectVersion
1070
     0
1000
AcDbSavedByObjectVersion
1070
     0
1000
AcDbSavedByObjectVersion
1070
     0
  0
VISUALSTYLE
  5
581B
102
{ACAD_REACTORS
330
5818
102
}
330
5818
100
AcDbVisualStyle
  2
Gouraud
 70
     2
 71
     2
 72
     2
 73
     1
 90
        2
 40
-0.6
 41
30.0
 62
     5
 63
     7
 74
     0
 91
        4
 64
     7
 65
   257
 75
     1
175
     1
 42
1.0
 92
        0
 66
     7
 43
1.0
 76
     1
 77
     6
 78
     2
 67
     7
 79
     5
170
     0
171
     0
290
     0
174
     0
 93
       13
 44
0.0
173
     0
291
     1
 45
0.0
1001
ACAD
1000
AcDbSavedByObjectVersion
1070
     0
1000
AcDbSavedByObjectVersion
1070
     0
1000
AcDbSavedByObjectVersion
1070
     0
1000
AcDbSavedByObjectVersion
1070
     0
  0
VISUALSTYLE
  5
581C
102
{ACAD_REACTORS
330
5818
102
}
330
5818
100
AcDbVisualStyle
  2
GouraudWithEdges
 70
     3
 71
     2
 72
     2
 73
     1
 90
        2
 40
-0.6
 41
30.0
 62
     5
 63
     7
 74
     1
 91
        4
 64
     7
 65
   257
 75
     1
175
     1
 42
1.0
 92
        0
 66
   257
 43
1.0
 76
     1
 77
     6
 78
     2
 67
     7
 79
     5
170
     0
171
     0
290
     0
174
     0
 93
       13
 44
0.0
173
     0
291
     1
 45
0.0
1001
ACAD
1000
AcDbSavedByObjectVersion
1070
     0
1000
AcDbSavedByObjectVersion
1070
     0
1000
AcDbSavedByObjectVersion
1070
     0
1000
AcDbSavedByObjectVersion
1070
     0
  0
VISUALSTYLE
  5
5826
102
{ACAD_REACTORS
330
5818
102
}
330
5818
100
AcDbVisualStyle
  2
Linepattern
 70
    14
 71
     2
 72
     2
 73
     0
 90
        0
 40
-0.6
 41
-30.0
 62
     5
 63
     7
 74
     1
 91
        4
 64
     7
 65
   257
 75
     7
175
     7
 42
1.0
 92
        8
 66
     7
 43
1.0
 76
     1
 77
     6
 78
     2
 67
     7
 79
     5
170
     0
171
     0
290
     0
174
     0
 93
        1
 44
0.0
173
     0
291
     1
 45
0.0
1001
ACAD
1000
AcDbSavedByObjectVersion
1070
     0
1000
AcDbSavedByObjectVersion
1070
     0
1000
AcDbSavedByObjectVersion
1070
     0
1000
AcDbSavedByObjectVersion
1070
     0
  0
VISUALSTYLE
  5
5822
102
{ACAD_REACTORS
330
5818
102
}
330
5818
100
AcDbVisualStyle
  2
Realistic
 70
     8
 71
     2
 72
     2
 73
     0
 90
        0
 40
-0.6
 41
-30.0
 62
     5
 63
     7
 74
     1
 91
        0
 64
     7
 65
   257
 75
     1
175
     1
 42
1.0
 92
        8
 66
     8
 43
1.0
 76
     1
 77
     6
 78
     2
 67
     7
 79
     5
170
     0
171
     0
290
     0
174
     0
 93
       13
 44
0.0
173
     0
291
     0
 45
0.0
1001
ACAD
1000
AcDbSavedByObjectVersion
1070
     0
1000
AcDbSavedByObjectVersion
1070
     0
1000
AcDbSavedByObjectVersion
1070
     0
1000
AcDbSavedByObjectVersion
1070
     0
  0
VISUALSTYLE
  5
5825
102
{ACAD_REACTORS
330
5818
102
}
330
5818
100
AcDbVisualStyle
  2
Thicken
 70
    13
 71
     2
 72
     2
 73
     0
 90
        0
 40
-0.6
 41
-30.0
 62
     5
 63
     7
 74
     1
 91
        4
 64
     7
 65
   257
 75
     1
175
     1
 42
1.0
 92
       12
 66
     7
 43
1.0
 76
     1
 77
     6
 78
     2
 67
     7
 79
     5
170
     0
171
     0
290
     0
174
     0
 93
        1
 44
0.0
173
     0
291
     1
 45
0.0
1001
ACAD
1000
AcDbSavedByObjectVersion
1070
     0
1000
AcDbSavedByObjectVersion
1070
     0
1000
AcDbSavedByObjectVersion
1070
     0
1000
AcDbSavedByObjectVersion
1070
     0
  0
DICTIONARYVAR
  5
AB95
102
{ACAD_REACTORS
330
AB91
102
}
330
AB91
100
DictionaryVariables
280
     0
  1
1:1
  0
DICTIONARYVAR
  5
AB93
102
{ACAD_REACTORS
330
AB91
102
}
330
AB91
100
DictionaryVariables
280
     0
  1
STANDARD
  0
DICTIONARYVAR
  5
AB92
102
{ACAD_REACTORS
330
AB91
102
}
330
AB91
100
DictionaryVariables
280
     0
  1
STANDARD
  0
DICTIONARYVAR
  5
B616
102
{ACAD_REACTORS
330
AB91
102
}
330
AB91
100
DictionaryVariables
280
     0
  1
1
  0
DICTIONARYVAR
  5
B615
102
{ACAD_REACTORS
330
AB91
102
}
330
AB91
100
DictionaryVariables
280
     0
  1
0
  0
DICTIONARYVAR
  5
AB96
102
{ACAD_REACTORS
330
AB91
102
}
330
AB91
100
DictionaryVariables
280
     0
  1
0
  0
DICTIONARYVAR
  5
AB94
102
{ACAD_REACTORS
330
AB91
102
}
330
AB91
100
DictionaryVariables
280
     0
  1
0
  0
DICTIONARYVAR
  5
B614
102
{ACAD_REACTORS
330
AB91
102
}
330
AB91
100
DictionaryVariables
280
     0
  1
127
  0
XRECORD
  5
B60D
102
{ACAD_REACTORS
330
B60C
102
}
330
B60C
100
AcDbXrecord
280
     1
  0
DICTIONARY
  5
B65C
330
21
100
AcDbDictionary
280
     1
281
     1
  3
ACAD_XREC_ROUNDTRIP
360
B65D
  0
DICTIONARY
  5
B65A
330
20
100
AcDbDictionary
280
     1
281
     1
  3
ACAD_XREC_ROUNDTRIP
360
B65B
  0
DICTIONARY
  5
5809
330
5808
100
AcDbDictionary
280
     1
281
     1
  3
ACAD_XREC_ROUNDTRIP
360
B61E
  3
BUMPTILE
360
580B
  3
DIFFUSETILE
360
580A
  3
OPACITYTILE
360
580E
  3
REFLECTIONTILE
360
580D
  3
REFRACTIONTILE
360
580F
  3
SPECULARTILE
360
580C
  0
DICTIONARY
  5
5801
330
5800
100
AcDbDictionary
280
     1
281
     1
  3
ACAD_XREC_ROUNDTRIP
360
B61D
  3
BUMPTILE
360
5803
  3
DIFFUSETILE
360
5802
  3
OPACITYTILE
360
5806
  3
REFLECTIONTILE
360
5805
  3
REFRACTIONTILE
360
5807
  3
SPECULARTILE
360
5804
  0
DICTIONARY
  5
5811
330
5810
100
AcDbDictionary
280
     1
281
     1
  3
ACAD_XREC_ROUNDTRIP
360
B61F
  3
BUMPTILE
360
5813
  3
DIFFUSETILE
360
5812
  3
OPACITYTILE
360
5816
  3
REFLECTIONTILE
360
5815
  3
REFRACTIONTILE
360
5817
  3
SPECULARTILE
360
5814
  0
DICTIONARY
  5
AB8E
330
582B
100
AcDbDictionary
280
     1
281
     1
  3
ACAD_ROUNDTRIP_2008_TABLESTYLE_CELLSTYLEMAP
360
B658
  3
ACAD_XREC_ROUNDTRIP
360
B65E
  0
XRECORD
  5
B65D
102
{ACAD_REACTORS
330
B65C
102
}
330
B65C
100
AcDbXrecord
280
     1
102
SHADEPLOT
 70
     0
102
SHADEPLOTRESLEVEL
 70
     2
102
SHADEPLOTCUSTOMDPI
 70
   300
  0
XRECORD
  5
B65B
102
{ACAD_REACTORS
330
B65A
102
}
330
B65A
100
AcDbXrecord
280
     1
102
SHADEPLOT
 70
     0
102
SHADEPLOTRESLEVEL
 70
     2
102
SHADEPLOTCUSTOMDPI
 70
   300
  0
XRECORD
  5
B61E
102
{ACAD_REACTORS
330
5809
102
}
330
5809
100
AcDbXrecord
280
     1
102
MATERIAL
148
0.0
149
0.0
149
0.0
 93
        0
 94
      127
282
     0
 72
     0
 77
     0
171
     0
175
     0
179
     0
273
     0
  0
XRECORD
  5
580B
102
{ACAD_REACTORS
330
5809
102
}
330
5809
100
AcDbXrecord
280
     1
270
     1
271
     1
  0
XRECORD
  5
580A
102
{ACAD_REACTORS
330
5809
102
}
330
5809
100
AcDbXrecord
280
     1
270
     1
271
     1
  0
XRECORD
  5
580E
102
{ACAD_REACTORS
330
5809
102
}
330
5809
100
AcDbXrecord
280
     1
270
     1
271
     1
  0
XRECORD
  5
580D
102
{ACAD_REACTORS
330
5809
102
}
330
5809
100
AcDbXrecord
280
     1
270
     1
271
     1
  0
XRECORD
  5
580F
102
{ACAD_REACTORS
330
5809
102
}
330
5809
100
AcDbXrecord
280
     1
270
     1
271
     1
  0
XRECORD
  5
580C
102
{ACAD_REACTORS
330
5809
102
}
330
5809
100
AcDbXrecord
280
     1
270
     1
271
     1
  0
XRECORD
  5
B61D
102
{ACAD_REACTORS
330
5801
102
}
330
5801
100
AcDbXrecord
280
     1
102
MATERIAL
148
0.0
149
0.0
149
0.0
 93
        0
 94
      127
282
     0
 72
     0
 77
     0
171
     0
175
     0
179
     0
273
     0
  0
XRECORD
  5
5803
102
{ACAD_REACTORS
330
5801
102
}
330
5801
100
AcDbXrecord
280
     1
270
     1
271
     1
  0
XRECORD
  5
5802
102
{ACAD_REACTORS
330
5801
102
}
330
5801
100
AcDbXrecord
280
     1
270
     1
271
     1
  0
XRECORD
  5
5806
102
{ACAD_REACTORS
330
5801
102
}
330
5801
100
AcDbXrecord
280
     1
270
     1
271
     1
  0
XRECORD
  5
5805
102
{ACAD_REACTORS
330
5801
102
}
330
5801
100
AcDbXrecord
280
     1
270
     1
271
     1
  0
XRECORD
  5
5807
102
{ACAD_REACTORS
330
5801
102
}
330
5801
100
AcDbXrecord
280
     1
270
     1
271
     1
  0
XRECORD
  5
5804
102
{ACAD_REACTORS
330
5801
102
}
330
5801
100
AcDbXrecord
280
     1
270
     1
271
     1
  0
XRECORD
  5
B61F
102
{ACAD_REACTORS
330
5811
102
}
330
5811
100
AcDbXrecord
280
     1
102
MATERIAL
148
0.0
149
0.0
149
0.0
 93
        0
 94
      127
282
     0
 72
     0
 77
     0
171
     0
175
     0
179
     0
273
     0
  0
XRECORD
  5
5813
102
{ACAD_REACTORS
330
5811
102
}
330
5811
100
AcDbXrecord
280
     1
270
     1
271
     1
  0
XRECORD
  5
5812
102
{ACAD_REACTORS
330
5811
102
}
330
5811
100
AcDbXrecord
280
     1
270
     1
271
     1
  0
XRECORD
  5
5816
102
{ACAD_REACTORS
330
5811
102
}
330
5811
100
AcDbXrecord
280
     1
270
     1
271
     1
  0
XRECORD
  5
5815
102
{ACAD_REACTORS
330
5811
102
}
330
5811
100
AcDbXrecord
280
     1
270
     1
271
     1
  0
XRECORD
  5
5817
102
{ACAD_REACTORS
330
5811
102
}
330
5811
100
AcDbXrecord
280
     1
270
     1
271
     1
  0
XRECORD
  5
5814
102
{ACAD_REACTORS
330
5811
102
}
330
5811
100
AcDbXrecord
280
     1
270
     1
271
     1
  0
CELLSTYLEMAP
  5
B658
102
{ACAD_REACTORS
330
AB8E
102
}
330
AB8E
100
AcDbCellStyleMap
 90
        3
300
CELLSTYLE
  1
TABLEFORMAT_BEGIN
 90
        5
170
     1
 91
        0
 92
    32768
 62
   257
 93
        1
300
CONTENTFORMAT
  1
CONTENTFORMAT_BEGIN
 90
        0
 91
        0
 92
      512
 93
        0
300

 40
0.0
140
1.0
 94
        5
 62
     0
340
17
144
6.0
309
CONTENTFORMAT_END
171
     1
301
MARGIN
  1
CELLMARGIN_BEGIN
 40
1.5
 40
1.5
 40
1.5
 40
1.5
 40
0.18
 40
0.18
309
CELLMARGIN_END
 94
        6
 95
        1
302
GRIDFORMAT
  1
GRIDFORMAT_BEGIN
 90
        0
 91
        1
 62
     0
 92
       -2
340
0
 93
        0
 40
1.125
309
GRIDFORMAT_END
 95
        2
302
GRIDFORMAT
  1
GRIDFORMAT_BEGIN
 90
        0
 91
        1
 62
     0
 92
       -2
340
0
 93
        0
 40
1.125
309
GRIDFORMAT_END
 95
        4
302
GRIDFORMAT
  1
GRIDFORMAT_BEGIN
 90
        0
 91
        1
 62
     0
 92
       -2
340
0
 93
        0
 40
1.125
309
GRIDFORMAT_END
 95
        8
302
GRIDFORMAT
  1
GRIDFORMAT_BEGIN
 90
        0
 91
        1
 62
     0
 92
       -2
340
0
 93
        0
 40
1.125
309
GRIDFORMAT_END
 95
       16
302
GRIDFORMAT
  1
GRIDFORMAT_BEGIN
 90
        0
 91
        1
 62
     0
 92
       -2
340
0
 93
        0
 40
1.125
309
GRIDFORMAT_END
 95
       32
302
GRIDFORMAT
  1
GRIDFORMAT_BEGIN
 90
        0
 91
        1
 62
     0
 92
       -2
340
0
 93
        0
 40
1.125
309
GRIDFORMAT_END
309
TABLEFORMAT_END
  1
CELLSTYLE_BEGIN
 90
        1
 91
        1
300
_TITLE
309
CELLSTYLE_END
300
CELLSTYLE
  1
TABLEFORMAT_BEGIN
 90
        5
170
     1
 91
        0
 92
        0
 62
   257
 93
        1
300
CONTENTFORMAT
  1
CONTENTFORMAT_BEGIN
 90
        0
 91
        0
 92
      512
 93
        0
300

 40
0.0
140
1.0
 94
        5
 62
     0
340
17
144
4.5
309
CONTENTFORMAT_END
171
     1
301
MARGIN
  1
CELLMARGIN_BEGIN
 40
1.5
 40
1.5
 40
1.5
 40
1.5
 40
0.18
 40
0.18
309
CELLMARGIN_END
 94
        6
 95
        1
302
GRIDFORMAT
  1
GRIDFORMAT_BEGIN
 90
        0
 91
        1
 62
     0
 92
       -2
340
0
 93
        0
 40
1.125
309
GRIDFORMAT_END
 95
        2
302
GRIDFORMAT
  1
GRIDFORMAT_BEGIN
 90
        0
 91
        1
 62
     0
 92
       -2
340
0
 93
        0
 40
1.125
309
GRIDFORMAT_END
 95
        4
302
GRIDFORMAT
  1
GRIDFORMAT_BEGIN
 90
        0
 91
        1
 62
     0
 92
       -2
340
0
 93
        0
 40
1.125
309
GRIDFORMAT_END
 95
        8
302
GRIDFORMAT
  1
GRIDFORMAT_BEGIN
 90
        0
 91
        1
 62
     0
 92
       -2
340
0
 93
        0
 40
1.125
309
GRIDFORMAT_END
 95
       16
302
GRIDFORMAT
  1
GRIDFORMAT_BEGIN
 90
        0
 91
        1
 62
     0
 92
       -2
340
0
 93
        0
 40
1.125
309
GRIDFORMAT_END
 95
       32
302
GRIDFORMAT
  1
GRIDFORMAT_BEGIN
 90
        0
 91
        1
 62
     0
 92
       -2
340
0
 93
        0
 40
1.125
309
GRIDFORMAT_END
309
TABLEFORMAT_END
  1
CELLSTYLE_BEGIN
 90
        2
 91
        1
300
_HEADER
309
CELLSTYLE_END
300
CELLSTYLE
  1
TABLEFORMAT_BEGIN
 90
        5
170
     1
 91
        0
 92
        0
 62
   257
 93
        1
300
CONTENTFORMAT
  1
CONTENTFORMAT_BEGIN
 90
        0
 91
        0
 92
      512
 93
        0
300

 40
0.0
140
1.0
 94
        2
 62
     0
340
17
144
4.5
309
CONTENTFORMAT_END
171
     1
301
MARGIN
  1
CELLMARGIN_BEGIN
 40
1.5
 40
1.5
 40
1.5
 40
1.5
 40
0.18
 40
0.18
309
CELLMARGIN_END
 94
        6
 95
        1
302
GRIDFORMAT
  1
GRIDFORMAT_BEGIN
 90
        0
 91
        1
 62
     0
 92
       -2
340
0
 93
        0
 40
1.125
309
GRIDFORMAT_END
 95
        2
302
GRIDFORMAT
  1
GRIDFORMAT_BEGIN
 90
        0
 91
        1
 62
     0
 92
       -2
340
0
 93
        0
 40
1.125
309
GRIDFORMAT_END
 95
        4
302
GRIDFORMAT
  1
GRIDFORMAT_BEGIN
 90
        0
 91
        1
 62
     0
 92
       -2
340
0
 93
        0
 40
1.125
309
GRIDFORMAT_END
 95
        8
302
GRIDFORMAT
  1
GRIDFORMAT_BEGIN
 90
        0
 91
        1
 62
     0
 92
       -2
340
0
 93
        0
 40
1.125
309
GRIDFORMAT_END
 95
       16
302
GRIDFORMAT
  1
GRIDFORMAT_BEGIN
 90
        0
 91
        1
 62
     0
 92
       -2
340
0
 93
        0
 40
1.125
309
GRIDFORMAT_END
 95
       32
302
GRIDFORMAT
  1
GRIDFORMAT_BEGIN
 90
        0
 91
        1
 62
     0
 92
       -2
340
0
 93
        0
 40
1.125
309
GRIDFORMAT_END
309
TABLEFORMAT_END
  1
CELLSTYLE_BEGIN
 90
        3
 91
        2
300
_DATA
309
CELLSTYLE_END
  0
XRECORD
  5
B65E
102
{ACAD_REACTORS
330
AB8E
102
}
330
AB8E
100
AcDbXrecord
280
     1
102
ACAD_ROUNDTRIP_PRE2007_TABLESTYLE
 90
      512
 91
        0
  1

 92
      512
 93
        0
  2

 94
      512
 95
        0
  3

  0
ENDSEC
  0
EOF
