  0
SECTION
  2
HEADER
  9
$ACADVER
  1
AC1015
  9
$ACADMAINTVER
 70
     6
  9
$DWGCODEPAGE
  3
ANSI_1252
  9
$INSBASE
 10
0.0
 20
0.0
 30
0.0
  9
$EXTMIN
 10
10.24127774830001
 20
4.438181022000009
 30
0.0
  9
$EXTMAX
 10
811.5440371005346
 20
442.8686381212
 30
0.0
  9
$LIMMIN
 10
0.0
 20
0.0
  9
$LIMMAX
 10
315.0
 20
445.5
  9
$ORTHOMODE
 70
     1
  9
$REGENMODE
 70
     1
  9
$FILLMODE
 70
     1
  9
$QTEXTMODE
 70
     0
  9
$MIRRTEXT
 70
     1
  9
$LTSCALE
 40
1.5
  9
$ATTMODE
 70
     1
  9
$TEXTSIZE
 40
4.2
  9
$TRACEWID
 40
1.0
  9
$TEXTSTYLE
  7
Standard
  9
$CLAYER
  8
0
  9
$CELTYPE
  6
ByLayer
  9
$CECOLOR
 62
   256
  9
$CELTSCALE
 40
1.0
  9
$DISPSILH
 70
     0
  9
$DIMSCALE
 40
1.0
  9
$DIMASZ
 40
4.8
  9
$DIMEXO
 40
0.15
  9
$DIMDLI
 40
3.75
  9
$DIMRND
 40
0.0
  9
$DIMDLE
 40
0.0
  9
$DIMEXE
 40
1.5
  9
$DIMTP
 40
0.0
  9
$DIMTM
 40
0.0
  9
$DIMTXT
 40
4.8
  9
$DIMCEN
 40
2.5
  9
$DIMTSZ
 40
0.0
  9
$DIMTOL
 70
     0
  9
$DIMLIM
 70
     0
  9
$DIMTIH
 70
     1
  9
$DIMTOH
 70
     1
  9
$DIMSE1
 70
     0
  9
$DIMSE2
 70
     0
  9
$DIMTAD
 70
     1
  9
$DIMZIN
 70
     0
  9
$DIMBLK
  1

  9
$DIMASO
 70
     1
  9
$DIMSHO
 70
     1
  9
$DIMPOST
  1

  9
$DIMAPOST
  1

  9
$DIMALT
 70
     0
  9
$DIMALTD
 70
     3
  9
$DIMALTF
 40
0.0393700787
  9
$DIMLFAC
 40
1.0
  9
$DIMTOFL
 70
     1
  9
$DIMTVP
 40
0.0
  9
$DIMTIX
 70
     0
  9
$DIMSOXD
 70
     0
  9
$DIMSAH
 70
     0
  9
$DIMBLK1
  1

  9
$DIMBLK2
  1

  9
$DIMSTYLE
  2
ISO-25
  9
$DIMCLRD
 70
     0
  9
$DIMCLRE
 70
     0
  9
$DIMCLRT
 70
     0
  9
$DIMTFAC
 40
1.0
  9
$DIMGAP
 40
3.0
  9
$DIMJUST
 70
     0
  9
$DIMSD1
 70
     0
  9
$DIMSD2
 70
     0
  9
$DIMTOLJ
 70
     0
  9
$DIMTZIN
 70
     0
  9
$DIMALTZ
 70
     0
  9
$DIMALTTZ
 70
     0
  9
$DIMUPT
 70
     0
  9
$DIMDEC
 70
     2
  9
$DIMTDEC
 70
     2
  9
$DIMALTU
 70
     2
  9
$DIMALTTD
 70
     3
  9
$DIMTXSTY
  7
Standard
  9
$DIMAUNIT
 70
     0
  9
$DIMADEC
 70
     2
  9
$DIMALTRND
 40
0.0
  9
$DIMAZIN
 70
     0
  9
$DIMDSEP
 70
    44
  9
$DIMATFIT
 70
     3
  9
$DIMFRAC
 70
     0
  9
$DIMLDRBLK
  1

  9
$DIMLUNIT
 70
     2
  9
$DIMLWD
 70
    -2
  9
$DIMLWE
 70
    -2
  9
$DIMTMOVE
 70
     0
  9
$LUNITS
 70
     2
  9
$LUPREC
 70
     2
  9
$SKETCHINC
 40
1.0
  9
$FILLETRAD
 40
10.0
  9
$AUNITS
 70
     0
  9
$AUPREC
 70
     2
  9
$MENU
  1
.
  9
$ELEVATION
 40
0.0
  9
$PELEVATION
 40
0.0
  9
$THICKNESS
 40
0.0
  9
$LIMCHECK
 70
     0
  9
$CHAMFERA
 40
0.0
  9
$CHAMFERB
 40
0.0
  9
$CHAMFERC
 40
0.0
  9
$CHAMFERD
 40
0.0
  9
$SKPOLY
 70
     0
  9
$TDCREATE
 40
2458282.720118113
  9
$TDUCREATE
 40
2458282.63678478
  9
$TDUPDATE
 40
2458282.723034086
  9
$TDUUPDATE
 40
2458282.639700752
  9
$TDINDWG
 40
0.0008188194
  9
$TDUSRTIMER
 40
2458282.638881979
  9
$USRTIMER
 70
     1
  9
$ANGBASE
 50
0.0
  9
$ANGDIR
 70
     0
  9
$PDMODE
 70
     0
  9
$PDSIZE
 40
-1.0
  9
$PLINEWID
 40
0.0
  9
$SPLFRAME
 70
     0
  9
$SPLINETYPE
 70
     6
  9
$SPLINESEGS
 70
     8
  9
$HANDSEED
  5
3EC
  9
$SURFTAB1
 70
     6
  9
$SURFTAB2
 70
     6
  9
$SURFTYPE
 70
     6
  9
$SURFU
 70
     6
  9
$SURFV
 70
     6
  9
$UCSBASE
  2

  9
$UCSNAME
  2

  9
$UCSORG
 10
0.0
 20
0.0
 30
0.0
  9
$UCSXDIR
 10
1.0
 20
0.0
 30
0.0
  9
$UCSYDIR
 10
0.0
 20
1.0
 30
0.0
  9
$UCSORTHOREF
  2

  9
$UCSORTHOVIEW
 70
     0
  9
$UCSORGTOP
 10
0.0
 20
0.0
 30
0.0
  9
$UCSORGBOTTOM
 10
0.0
 20
0.0
 30
0.0
  9
$UCSORGLEFT
 10
0.0
 20
0.0
 30
0.0
  9
$UCSORGRIGHT
 10
0.0
 20
0.0
 30
0.0
  9
$UCSORGFRONT
 10
0.0
 20
0.0
 30
0.0
  9
$UCSORGBACK
 10
0.0
 20
0.0
 30
0.0
  9
$PUCSBASE
  2

  9
$PUCSNAME
  2

  9
$PUCSORG
 10
0.0
 20
0.0
 30
0.0
  9
$PUCSXDIR
 10
1.0
 20
0.0
 30
0.0
  9
$PUCSYDIR
 10
0.0
 20
1.0
 30
0.0
  9
$PUCSORTHOREF
  2

  9
$PUCSORTHOVIEW
 70
     0
  9
$PUCSORGTOP
 10
0.0
 20
0.0
 30
0.0
  9
$PUCSORGBOTTOM
 10
0.0
 20
0.0
 30
0.0
  9
$PUCSORGLEFT
 10
0.0
 20
0.0
 30
0.0
  9
$PUCSORGRIGHT
 10
0.0
 20
0.0
 30
0.0
  9
$PUCSORGFRONT
 10
0.0
 20
0.0
 30
0.0
  9
$PUCSORGBACK
 10
0.0
 20
0.0
 30
0.0
  9
$USERI1
 70
     0
  9
$USERI2
 70
     0
  9
$USERI3
 70
     0
  9
$USERI4
 70
     0
  9
$USERI5
 70
     0
  9
$USERR1
 40
0.0
  9
$USERR2
 40
0.0
  9
$USERR3
 40
0.0
  9
$USERR4
 40
0.0
  9
$USERR5
 40
0.0
  9
$WORLDVIEW
 70
     1
  9
$SHADEDGE
 70
     3
  9
$SHADEDIF
 70
    70
  9
$TILEMODE
 70
     1
  9
$MAXACTVP
 70
    64
  9
$PINSBASE
 10
0.0
 20
0.0
 30
0.0
  9
$PLIMCHECK
 70
     0
  9
$PEXTMIN
 10
1.000000000000000E+20
 20
1.000000000000000E+20
 30
1.000000000000000E+20
  9
$PEXTMAX
 10
-1.000000000000000E+20
 20
-1.000000000000000E+20
 30
-1.000000000000000E+20
  9
$PLIMMIN
 10
0.0
 20
0.0
  9
$PLIMMAX
 10
0.0
 20
0.0
  9
$UNITMODE
 70
     0
  9
$VISRETAIN
 70
     1
  9
$PLINEGEN
 70
     0
  9
$PSLTSCALE
 70
     1
  9
$TREEDEPTH
 70
  3020
  9
$CMLSTYLE
  2
Standard
  9
$CMLJUST
 70
     0
  9
$CMLSCALE
 40
20.0
  9
$PROXYGRAPHICS
 70
     1
  9
$MEASUREMENT
 70
     1
  9
$CELWEIGHT
370
    -1
  9
$ENDCAPS
280
     0
  9
$JOINSTYLE
280
     0
  9
$LWDISPLAY
290
     1
  9
$INSUNITS
 70
     4
  9
$HYPERLINKBASE
  1

  9
$STYLESHEET
  1

  9
$XEDIT
290
     1
  9
$CEPSNTYPE
380
     0
  9
$PSTYLEMODE
290
     1
  9
$FINGERPRINTGUID
  2
{002BD23E-1A2F-418B-89EE-9E912475B7E8}
  9
$VERSIONGUID
  2
{FAEB1C32-E019-11D5-929B-00C0DF256EC4}
  9
$EXTNAMES
290
     1
  9
$PSVPSCALE
 40
0.0
  9
$OLESTARTUP
290
     0
  0
ENDSEC
  0
SECTION
  2
CLASSES
  0
CLASS
  1
ACDBDICTIONARYWDFLT
  2
AcDbDictionaryWithDefault
  3
ObjectDBX Classes
 90
        0
280
     0
281
     0
  0
CLASS
  1
VISUALSTYLE
  2
AcDbVisualStyle
  3
ObjectDBX Classes
 90
     4095
280
     0
281
     0
  0
CLASS
  1
MATERIAL
  2
AcDbMaterial
  3
ObjectDBX Classes
 90
     1153
280
     0
281
     0
  0
CLASS
  1
SCALE
  2
AcDbScale
  3
ObjectDBX Classes
 90
     1153
280
     0
281
     0
  0
CLASS
  1
TABLESTYLE
  2
AcDbTableStyle
  3
ObjectDBX Classes
 90
     4095
280
     0
281
     0
  0
CLASS
  1
MLEADERSTYLE
  2
AcDbMLeaderStyle
  3
ACDB_MLEADERSTYLE_CLASS
 90
     4095
280
     0
281
     0
  0
CLASS
  1
SUN
  2
AcDbSun
  3
SCENEOE
 90
     1153
280
     0
281
     0
  0
CLASS
  1
ACDBPLACEHOLDER
  2
AcDbPlaceHolder
  3
ObjectDBX Classes
 90
        0
280
     0
281
     0
  0
CLASS
  1
LAYOUT
  2
AcDbLayout
  3
ObjectDBX Classes
 90
        0
280
     0
281
     0
  0
CLASS
  1
RASTERVARIABLES
  2
AcDbRasterVariables
  3
ISM
 90
        0
280
     0
281
     0
  0
ENDSEC
  0
SECTION
  2
TABLES
  0
TABLE
  2
VPORT
  5
8
330
0
100
AcDbSymbolTable
 70
     1
  0
VPORT
  5
29
330
8
100
AcDbSymbolTableRecord
100
AcDbViewportTableRecord
  2
*Active
 70
     0
 10
0.0
 20
0.0
 11
1.0
 21
1.0
 12
410.8926574244173
 22
223.6554031512033
 13
0.0
 23
0.0
 14
10.0
 24
10.0
 15
10.0
 25
10.0
 16
0.0
 26
0.0
 36
1.0
 17
0.0
 27
0.0
 37
0.0
 40
447.1949993387933
 41
2.307692307692307
 42
50.0
 43
0.0
 44
0.0
 50
0.0
 51
0.0
 71
    16
 72
  2000
 73
     1
 74
     3
 75
     0
 76
     0
 77
     0
 78
     0
281
     0
 65
     1
110
0.0
120
0.0
130
0.0
111
1.0
121
0.0
131
0.0
112
0.0
122
1.0
132
0.0
 79
     0
146
0.0
  0
ENDTAB
  0
TABLE
  2
LTYPE
  5
5
330
0
100
AcDbSymbolTable
 70
     6
  0
LTYPE
  5
14
330
5
100
AcDbSymbolTableRecord
100
AcDbLinetypeTableRecord
  2
ByBlock
 70
     0
  3

 72
    65
 73
     0
 40
0.0
  0
LTYPE
  5
15
330
5
100
AcDbSymbolTableRecord
100
AcDbLinetypeTableRecord
  2
ByLayer
 70
     0
  3

 72
    65
 73
     0
 40
0.0
  0
LTYPE
  5
16
330
5
100
AcDbSymbolTableRecord
100
AcDbLinetypeTableRecord
  2
Continuous
 70
     0
  3
Solid line
 72
    65
 73
     0
 40
0.0
  0
LTYPE
  5
6E
330
5
100
AcDbSymbolTableRecord
100
AcDbLinetypeTableRecord
  2
HIDDEN
 70
     0
  3
Hidden __ __ __ __ __ __ __ __ __ __ __ __ __ __
 72
    65
 73
     2
 40
1.905
 49
1.27
 74
     0
 49
-0.635
 74
     0
  0
LTYPE
  5
6F
330
5
100
AcDbSymbolTableRecord
100
AcDbLinetypeTableRecord
  2
PHANTOM
 70
     0
  3
Phantom ______  __  __  ______  __  __  ______
 72
    65
 73
     6
 40
12.7
 49
6.35
 74
     0
 49
-1.27
 74
     0
 49
1.27
 74
     0
 49
-1.27
 74
     0
 49
1.27
 74
     0
 49
-1.27
 74
     0
  0
LTYPE
  5
70
330
5
100
AcDbSymbolTableRecord
100
AcDbLinetypeTableRecord
  2
CENTER
 70
     0
  3
Center ____ _ ____ _ ____ _ ____ _ ____ _ ____
 72
    65
 73
     4
 40
10.16
 49
6.35
 74
     0
 49
-1.27
 74
     0
 49
1.27
 74
     0
 49
-1.27
 74
     0
  0
LTYPE
  5
71
330
5
100
AcDbSymbolTableRecord
100
AcDbLinetypeTableRecord
  2
CENTERX2
 70
     0
  3
Center (2x) ________  __  ________  __  _____
 72
    65
 73
     4
 40
20.32
 49
12.7
 74
     0
 49
-2.54
 74
     0
 49
2.54
 74
     0
 49
-2.54
 74
     0
  0
LTYPE
  5
72
330
5
100
AcDbSymbolTableRecord
100
AcDbLinetypeTableRecord
  2
DOT2
 70
     0
  3
Dot (.5x) ........................................
 72
    65
 73
     2
 40
0.635
 49
0.0
 74
     0
 49
-0.635
 74
     0
  0
ENDTAB
  0
TABLE
  2
LAYER
  5
2
330
0
100
AcDbSymbolTable
 70
     3
  0
LAYER
  5
10
330
2
100
AcDbSymbolTableRecord
100
AcDbLayerTableRecord
  2
0
 70
     0
 62
     7
  6
Continuous
370
    -3
390
F
  0
LAYER
  5
73
330
2
100
AcDbSymbolTableRecord
100
AcDbLayerTableRecord
  2
FORMAT
 70
     0
 62
     7
  6
Continuous
370
    -3
390
F
  0
LAYER
  5
2B8
330
2
100
AcDbSymbolTableRecord
100
AcDbLayerTableRecord
  2
Defpoints
 70
     0
 62
     7
  6
Continuous
290
     0
370
    -3
390
F
  0
ENDTAB
  0
TABLE
  2
STYLE
  5
3
330
0
100
AcDbSymbolTable
 70
     2
  0
STYLE
  5
11
330
3
100
AcDbSymbolTableRecord
100
AcDbTextStyleTableRecord
  2
Standard
 70
     0
 40
0.0
 41
1.0
 50
0.0
 71
     0
 42
4.2
  3
txt
  4

  0
STYLE
  5
8D
330
3
100
AcDbSymbolTableRecord
100
AcDbTextStyleTableRecord
  2
SLDTEXTSTYLE0
 70
     0
 40
0.0
 41
0.75
 50
0.0
 71
     0
 42
4.2
  3
TXT
  4

  0
ENDTAB
  0
TABLE
  2
VIEW
  5
6
330
0
100
AcDbSymbolTable
 70
     0
  0
ENDTAB
  0
TABLE
  2
UCS
  5
7
330
0
100
AcDbSymbolTable
 70
     0
  0
ENDTAB
  0
TABLE
  2
APPID
  5
9
330
0
100
AcDbSymbolTable
 70
     1
  0
APPID
  5
12
330
9
100
AcDbSymbolTableRecord
100
AcDbRegAppTableRecord
  2
ACAD
 70
     0
  0
ENDTAB
  0
TABLE
  2
DIMSTYLE
  5
A
330
0
100
AcDbSymbolTable
 70
     4
100
AcDbDimStyleTable
  0
DIMSTYLE
105
27
330
A
100
AcDbSymbolTableRecord
100
AcDbDimStyleTableRecord
  2
ISO-25
 70
     0
 41
2.5
 42
0.625
 43
3.75
 44
1.25
 73
     0
 74
     0
 77
     1
 78
     8
140
2.5
141
2.5
143
0.0393700787
147
0.625
171
     3
172
     1
178
     0
271
     2
272
     2
274
     3
278
    44
283
     0
284
     8
340
11
  0
DIMSTYLE
105
8E
330
A
100
AcDbSymbolTableRecord
100
AcDbDimStyleTableRecord
  2
SLDDIMSTYLE0
 70
     0
 41
4.8
 44
0.0
 45
0.000000001
 73
     0
 74
     0
 77
     1
 78
    12
 79
     3
140
4.8
147
1.2
173
     1
178
     0
271
     2
272
     2
276
     2
284
    12
340
8D
  0
DIMSTYLE
105
113
330
A
100
AcDbSymbolTableRecord
100
AcDbDimStyleTableRecord
  2
SLDDIMSTYLE1
 70
     0
 41
4.8
 44
0.0
 45
0.000000001
 73
     0
 74
     0
 77
     1
 78
    12
 79
     3
140
4.8
147
1.2
172
     1
173
     1
178
     0
271
     2
272
     2
276
     2
284
    12
289
     0
340
8D
  0
DIMSTYLE
105
16E
330
A
100
AcDbSymbolTableRecord
100
AcDbDimStyleTableRecord
  2
SLDDIMSTYLE2
 70
     0
 41
4.8
 44
0.0
 45
0.000000001
 73
     0
 74
     0
 77
     1
 78
    12
 79
     3
140
4.8
147
1.2
172
     1
173
     1
178
     0
271
     0
272
     0
276
     2
284
    12
289
     0
340
8D
  0
ENDTAB
  0
TABLE
  2
BLOCK_RECORD
  5
1
330
0
100
AcDbSymbolTable
 70
    22
  0
BLOCK_RECORD
  5
1F
330
1
100
AcDbSymbolTableRecord
100
AcDbBlockTableRecord
  2
*Model_Space
340
22
  0
BLOCK_RECORD
  5
1B
330
1
100
AcDbSymbolTableRecord
100
AcDbBlockTableRecord
  2
*Paper_Space
340
1E
  0
BLOCK_RECORD
  5
23
330
1
100
AcDbSymbolTableRecord
100
AcDbBlockTableRecord
  2
*Paper_Space0
340
26
  0
BLOCK_RECORD
  5
8F
330
1
100
AcDbSymbolTableRecord
100
AcDbBlockTableRecord
  2
_D
340
0
  0
BLOCK_RECORD
  5
109
330
1
100
AcDbSymbolTableRecord
100
AcDbBlockTableRecord
  2
_D_1
340
0
  0
BLOCK_RECORD
  5
114
330
1
100
AcDbSymbolTableRecord
100
AcDbBlockTableRecord
  2
_D_2
340
0
  0
BLOCK_RECORD
  5
120
330
1
100
AcDbSymbolTableRecord
100
AcDbBlockTableRecord
  2
_D_3
340
0
  0
BLOCK_RECORD
  5
12C
330
1
100
AcDbSymbolTableRecord
100
AcDbBlockTableRecord
  2
_D_4
340
0
  0
BLOCK_RECORD
  5
138
330
1
100
AcDbSymbolTableRecord
100
AcDbBlockTableRecord
  2
_D_5
340
0
  0
BLOCK_RECORD
  5
142
330
1
100
AcDbSymbolTableRecord
100
AcDbBlockTableRecord
  2
_D_6
340
0
  0
BLOCK_RECORD
  5
14C
330
1
100
AcDbSymbolTableRecord
100
AcDbBlockTableRecord
  2
_D_7
340
0
  0
BLOCK_RECORD
  5
156
330
1
100
AcDbSymbolTableRecord
100
AcDbBlockTableRecord
  2
_D_8
340
0
  0
BLOCK_RECORD
  5
162
330
1
100
AcDbSymbolTableRecord
100
AcDbBlockTableRecord
  2
_D_9
340
0
  0
BLOCK_RECORD
  5
16F
330
1
100
AcDbSymbolTableRecord
100
AcDbBlockTableRecord
  2
_D_10
340
0
  0
BLOCK_RECORD
  5
17B
330
1
100
AcDbSymbolTableRecord
100
AcDbBlockTableRecord
  2
_D_11
340
0
  0
BLOCK_RECORD
  5
1C1
330
1
100
AcDbSymbolTableRecord
100
AcDbBlockTableRecord
  2
_D_12
340
0
  0
BLOCK_RECORD
  5
1CD
330
1
100
AcDbSymbolTableRecord
100
AcDbBlockTableRecord
  2
_D_13
340
0
  0
BLOCK_RECORD
  5
1D9
330
1
100
AcDbSymbolTableRecord
100
AcDbBlockTableRecord
  2
_D_14
340
0
  0
BLOCK_RECORD
  5
1E3
330
1
100
AcDbSymbolTableRecord
100
AcDbBlockTableRecord
  2
_D_15
340
0
  0
BLOCK_RECORD
  5
1EF
330
1
100
AcDbSymbolTableRecord
100
AcDbBlockTableRecord
  2
_D_16
340
0
  0
BLOCK_RECORD
  5
1F9
330
1
100
AcDbSymbolTableRecord
100
AcDbBlockTableRecord
  2
_D_17
340
0
  0
BLOCK_RECORD
  5
203
330
1
100
AcDbSymbolTableRecord
100
AcDbBlockTableRecord
  2
_D_18
340
0
  0
BLOCK_RECORD
  5
20E
330
1
100
AcDbSymbolTableRecord
100
AcDbBlockTableRecord
  2
SW_NOTE_0
340
0
102
{BLKREFS
331
0
102
}
  0
BLOCK_RECORD
  5
216
330
1
100
AcDbSymbolTableRecord
100
AcDbBlockTableRecord
  2
SW_NOTE_1
340
0
102
{BLKREFS
331
0
102
}
  0
ENDTAB
  0
ENDSEC
  0
SECTION
  2
BLOCKS
  0
BLOCK
  5
20
330
1F
100
AcDbEntity
  8
0
100
AcDbBlockBegin
  2
*Model_Space
 70
     0
 10
0.0
 20
0.0
 30
0.0
  3
*Model_Space
  1

  0
ENDBLK
  5
21
330
1F
100
AcDbEntity
  8
0
100
AcDbBlockEnd
  0
BLOCK
  5
1C
330
1B
100
AcDbEntity
 67
     1
  8
0
100
AcDbBlockBegin
  2
*Paper_Space
 70
     0
 10
0.0
 20
0.0
 30
0.0
  3
*Paper_Space
  1

  0
ENDBLK
  5
1D
330
1B
100
AcDbEntity
 67
     1
  8
0
100
AcDbBlockEnd
  0
BLOCK
  5
24
330
23
100
AcDbEntity
  8
0
100
AcDbBlockBegin
  2
*Paper_Space0
 70
     0
 10
0.0
 20
0.0
 30
0.0
  3
*Paper_Space0
  1

  0
ENDBLK
  5
25
330
23
100
AcDbEntity
  8
0
100
AcDbBlockEnd
  0
BLOCK
  5
90
330
8F
100
AcDbEntity
  8
0
100
AcDbBlockBegin
  2
_D
 70
     0
 10
0.0
 20
0.0
 30
0.0
  3
_D
  1

  0
ARC
  5
92
330
8F
100
AcDbEntity
  8
0
  6
Continuous
 62
     7
370
    18
100
AcDbCircle
 10
182.4220217872
 20
37.4904017077
 30
0.0
 40
4.785000026458874
100
AcDbArc
 50
180.0
 51
0.0
  0
ARC
  5
93
330
8F
100
AcDbEntity
  8
0
  6
Continuous
 62
     7
370
    18
100
AcDbCircle
 10
182.4220217872
 20
44.5837353469
 30
0.0
 40
4.785000026458874
100
AcDbArc
 50
0.0
 51
180.0
  0
SOLID
  5
94
330
8F
100
AcDbEntity
  8
0
  6
Continuous
 62
     7
370
    18
100
AcDbTrace
 10
189.1210222957
 20
18.5381810221
 30
0.0
 11
189.8594838342
 21
23.3381810221
 31
0.0
 12
188.3825607572
 22
23.3381810221
 32
0.0
 13
188.3825607572
 23
23.3381810221
 33
0.0
  0
SOLID
  5
95
330
8F
100
AcDbEntity
  8
0
  6
Continuous
 62
     7
370
    18
100
AcDbTrace
 10
189.1210222957
 20
65.538181022
 30
0.0
 11
188.3825607572
 21
60.738181022
 31
0.0
 12
189.8594838342
 22
60.738181022
 32
0.0
 13
189.8594838342
 23
60.738181022
 33
0.0
  0
LINE
  5
96
330
8F
100
AcDbEntity
  8
0
  6
Continuous
 62
     7
370
    18
100
AcDbLine
 10
177.6370217607
 20
37.4904017077
 30
0.0
 11
177.6370217607
 21
44.5837353469
 31
0.0
  0
LINE
  5
97
330
8F
100
AcDbEntity
  8
0
  6
Continuous
 62
     7
370
    18
100
AcDbLine
 10
187.2070218136
 20
44.5837353469
 30
0.0
 11
187.2070218136
 21
37.4904017077
 31
0.0
  0
LINE
  5
98
330
8F
100
AcDbEntity
  8
0
  6
Continuous
 62
     7
370
    18
100
AcDbLine
 10
146.1666679985
 20
18.5381810221
 30
0.0
 11
190.6210222957
 21
18.5381810221
 31
0.0
  0
LINE
  5
99
330
8F
100
AcDbEntity
  8
0
  6
Continuous
 62
     7
370
    18
100
AcDbLine
 10
148.2666679985
 20
65.538181022
 30
0.0
 11
190.6210222957
 21
65.538181022
 31
0.0
  0
LINE
  5
9A
330
8F
100
AcDbEntity
  8
0
  6
Continuous
 62
     7
370
    18
100
AcDbLine
 10
189.1210222957
 20
18.5381810221
 30
0.0
 11
189.1210222957
 21
65.538181022
 31
0.0
  0
MTEXT
  5
9B
330
8F
100
AcDbEntity
  8
0
  6
Continuous
 62
     7
370
    18
100
AcDbMText
 10
180.044496922
 20
37.4904017077
 30
0.0
 40
4.8
 41
0.0
 71
     1
 72
     1
  1
47
  7
SLDTEXTSTYLE0
 11
6.123233995736766E-17
 21
1.0
 31
0.0
 73
     1
 44
1.0
  0
ENDBLK
  5
91
330
8F
100
AcDbEntity
  8
0
100
AcDbBlockEnd
  0
BLOCK
  5
10A
330
109
100
AcDbEntity
  8
0
100
AcDbBlockBegin
  2
_D_1
 70
     0
 10
0.0
 20
0.0
 30
0.0
  3
_D_1
  1

  0
SOLID
  5
10C
330
109
100
AcDbEntity
  8
0
  6
Continuous
 62
     7
370
    18
100
AcDbTrace
 10
291.4215633092
 20
88.2015022791
 30
0.0
 11
292.1600248476
 21
93.0015022791
 31
0.0
 12
290.6831017707
 22
93.0015022791
 32
0.0
 13
290.6831017707
 23
93.0015022791
 33
0.0
  0
SOLID
  5
10D
330
109
100
AcDbEntity
  8
0
  6
Continuous
 62
     7
370
    18
100
AcDbTrace
 10
291.4215633092
 20
271.825438889
 30
0.0
 11
290.6831017707
 21
267.025438889
 31
0.0
 12
292.1600248476
 22
267.025438889
 32
0.0
 13
292.1600248476
 23
267.025438889
 33
0.0
  0
LINE
  5
10E
330
109
100
AcDbEntity
  8
0
  6
Continuous
 62
     7
370
    18
100
AcDbLine
 10
248.9256196514
 20
88.2015022791
 30
0.0
 11
292.9215633092
 21
88.2015022791
 31
0.0
  0
LINE
  5
10F
330
109
100
AcDbEntity
  8
0
  6
Continuous
 62
     7
370
    18
100
AcDbLine
 10
282.6734047754
 20
271.825438889
 30
0.0
 11
292.9215633092
 21
271.825438889
 31
0.0
  0
LINE
  5
110
330
109
100
AcDbEntity
  8
0
  6
Continuous
 62
     7
370
    18
100
AcDbLine
 10
291.4215633092
 20
88.2015022791
 30
0.0
 11
291.4215633092
 21
271.825438889
 31
0.0
  0
MTEXT
  5
111
330
109
100
AcDbEntity
  8
0
  6
Continuous
 62
     7
370
    18
100
AcDbMText
 10
285.2340384202
 20
169.1514793996
 30
0.0
 40
4.8
 41
0.0
 71
     1
 72
     1
  1
184.5
  7
SLDTEXTSTYLE0
 11
6.123233995736766E-17
 21
1.0
 31
0.0
 73
     1
 44
1.0
  0
ENDBLK
  5
10B
330
109
100
AcDbEntity
  8
0
100
AcDbBlockEnd
  0
BLOCK
  5
115
330
114
100
AcDbEntity
  8
0
100
AcDbBlockBegin
  2
_D_2
 70
     0
 10
0.0
 20
0.0
 30
0.0
  3
_D_2
  1

  0
SOLID
  5
117
330
114
100
AcDbEntity
  8
0
  6
Continuous
 62
     7
370
    18
100
AcDbTrace
 10
191.079476366
 20
266.825438889
 30
0.0
 11
191.8179379045
 21
271.625438889
 31
0.0
 12
190.3410148275
 22
271.625438889
 32
0.0
 13
190.3410148275
 23
271.625438889
 33
0.0
  0
SOLID
  5
118
330
114
100
AcDbEntity
  8
0
  6
Continuous
 62
     7
370
    18
100
AcDbTrace
 10
191.079476366
 20
256.825438889
 30
0.0
 11
190.3410148275
 21
252.025438889
 31
0.0
 12
191.8179379045
 22
252.025438889
 32
0.0
 13
191.8179379045
 23
252.025438889
 33
0.0
  0
LINE
  5
119
330
114
100
AcDbEntity
  8
0
  6
Continuous
 62
     7
370
    18
100
AcDbLine
 10
202.9845704268
 20
266.825438889
 30
0.0
 11
189.579476366
 21
266.825438889
 31
0.0
  0
LINE
  5
11A
330
114
100
AcDbEntity
  8
0
  6
Continuous
 62
     7
370
    18
100
AcDbLine
 10
224.4845704268
 20
256.825438889
 30
0.0
 11
189.579476366
 21
256.825438889
 31
0.0
  0
LINE
  5
11B
330
114
100
AcDbEntity
  8
0
  6
Continuous
 62
     7
370
    18
100
AcDbLine
 10
191.079476366
 20
266.825438889
 30
0.0
 11
191.079476366
 21
276.0562081198
 31
0.0
  0
LINE
  5
11C
330
114
100
AcDbEntity
  8
0
  6
Continuous
 62
     7
370
    18
100
AcDbLine
 10
191.079476366
 20
266.825438889
 30
0.0
 11
191.079476366
 21
256.825438889
 31
0.0
  0
LINE
  5
11D
330
114
100
AcDbEntity
  8
0
  6
Continuous
 62
     7
370
    18
100
AcDbLine
 10
191.079476366
 20
256.825438889
 30
0.0
 11
191.079476366
 21
247.5946696583
 31
0.0
  0
MTEXT
  5
11E
330
114
100
AcDbEntity
  8
0
  6
Continuous
 62
     7
370
    18
100
AcDbMText
 10
184.891951477
 20
256.9536144946
 30
0.0
 40
4.8
 41
0.0
 71
     1
 72
     1
  1
10
  7
SLDTEXTSTYLE0
 11
-1.059690869644414E-14
 21
1.0
 31
0.0
 73
     1
 44
1.0
  0
ENDBLK
  5
116
330
114
100
AcDbEntity
  8
0
100
AcDbBlockEnd
  0
BLOCK
  5
121
330
120
100
AcDbEntity
  8
0
100
AcDbBlockBegin
  2
_D_3
 70
     0
 10
0.0
 20
0.0
 30
0.0
  3
_D_3
  1

  0
SOLID
  5
123
330
120
100
AcDbEntity
  8
0
  6
Continuous
 62
     7
370
    18
100
AcDbTrace
 10
191.079476366
 20
191.825438889
 30
0.0
 11
191.8179379045
 21
196.625438889
 31
0.0
 12
190.3410148275
 22
196.625438889
 32
0.0
 13
190.3410148275
 23
196.625438889
 33
0.0
  0
SOLID
  5
124
330
120
100
AcDbEntity
  8
0
  6
Continuous
 62
     7
370
    18
100
AcDbTrace
 10
191.079476366
 20
181.825438889
 30
0.0
 11
190.3410148275
 21
177.025438889
 31
0.0
 12
191.8179379045
 22
177.025438889
 32
0.0
 13
191.8179379045
 23
177.025438889
 33
0.0
  0
LINE
  5
125
330
120
100
AcDbEntity
  8
0
  6
Continuous
 62
     7
370
    18
100
AcDbLine
 10
224.4845704268
 20
191.825438889
 30
0.0
 11
189.579476366
 21
191.825438889
 31
0.0
  0
LINE
  5
126
330
120
100
AcDbEntity
  8
0
  6
Continuous
 62
     7
370
    18
100
AcDbLine
 10
202.9845704268
 20
181.825438889
 30
0.0
 11
189.579476366
 21
181.825438889
 31
0.0
  0
LINE
  5
127
330
120
100
AcDbEntity
  8
0
  6
Continuous
 62
     7
370
    18
100
AcDbLine
 10
191.079476366
 20
191.825438889
 30
0.0
 11
191.079476366
 21
201.0562081198
 31
0.0
  0
LINE
  5
128
330
120
100
AcDbEntity
  8
0
  6
Continuous
 62
     7
370
    18
100
AcDbLine
 10
191.079476366
 20
191.825438889
 30
0.0
 11
191.079476366
 21
181.825438889
 31
0.0
  0
LINE
  5
129
330
120
100
AcDbEntity
  8
0
  6
Continuous
 62
     7
370
    18
100
AcDbLine
 10
191.079476366
 20
181.825438889
 30
0.0
 11
191.079476366
 21
172.5946696583
 31
0.0
  0
MTEXT
  5
12A
330
120
100
AcDbEntity
  8
0
  6
Continuous
 62
     7
370
    18
100
AcDbMText
 10
184.891951477
 20
182.8976351067
 30
0.0
 40
4.8
 41
0.0
 71
     1
 72
     1
  1
10
  7
SLDTEXTSTYLE0
 11
-1.059690869644414E-14
 21
1.0
 31
0.0
 73
     1
 44
1.0
  0
ENDBLK
  5
122
330
120
100
AcDbEntity
  8
0
100
AcDbBlockEnd
  0
BLOCK
  5
12D
330
12C
100
AcDbEntity
  8
0
100
AcDbBlockBegin
  2
_D_4
 70
     0
 10
0.0
 20
0.0
 30
0.0
  3
_D_4
  1

  0
SOLID
  5
12F
330
12C
100
AcDbEntity
  8
0
  6
Continuous
 62
     7
370
    18
100
AcDbTrace
 10
276.3441098896
 20
266.825438889
 30
0.0
 11
275.6056483511
 21
262.025438889
 31
0.0
 12
277.082571428
 22
262.025438889
 32
0.0
 13
277.082571428
 23
262.025438889
 33
0.0
  0
SOLID
  5
130
330
12C
100
AcDbEntity
  8
0
  6
Continuous
 62
     7
370
    18
100
AcDbTrace
 10
276.3441098896
 20
271.825438889
 30
0.0
 11
277.082571428
 21
276.625438889
 31
0.0
 12
275.6056483511
 22
276.625438889
 32
0.0
 13
275.6056483511
 23
276.625438889
 33
0.0
  0
LINE
  5
131
330
12C
100
AcDbEntity
  8
0
  6
Continuous
 62
     7
370
    18
100
AcDbLine
 10
239.2371572713
 20
266.825438889
 30
0.0
 11
277.8441098896
 21
266.825438889
 31
0.0
  0
LINE
  5
132
330
12C
100
AcDbEntity
  8
0
  6
Continuous
 62
     7
370
    18
100
AcDbLine
 10
250.2845704267
 20
271.825438889
 30
0.0
 11
277.8441098896
 21
271.825438889
 31
0.0
  0
LINE
  5
133
330
12C
100
AcDbEntity
  8
0
  6
Continuous
 62
     7
370
    18
100
AcDbLine
 10
276.3441098896
 20
266.825438889
 30
0.0
 11
276.3441098896
 21
257.5946696583
 31
0.0
  0
LINE
  5
134
330
12C
100
AcDbEntity
  8
0
  6
Continuous
 62
     7
370
    18
100
AcDbLine
 10
276.3441098896
 20
266.825438889
 30
0.0
 11
276.3441098896
 21
271.825438889
 31
0.0
  0
LINE
  5
135
330
12C
100
AcDbEntity
  8
0
  6
Continuous
 62
     7
370
    18
100
AcDbLine
 10
276.3441098896
 20
271.825438889
 30
0.0
 11
276.3441098896
 21
286.6482425125
 31
0.0
  0
MTEXT
  5
136
330
12C
100
AcDbEntity
  8
0
  6
Continuous
 62
     7
370
    18
100
AcDbMText
 10
270.1565850006
 20
283.1015756929
 30
0.0
 40
4.8
 41
0.0
 71
     1
 72
     1
  1
5
  7
SLDTEXTSTYLE0
 11
1.005323956158378E-14
 21
1.0
 31
0.0
 73
     1
 44
1.0
  0
ENDBLK
  5
12E
330
12C
100
AcDbEntity
  8
0
100
AcDbBlockEnd
  0
BLOCK
  5
139
330
138
100
AcDbEntity
  8
0
100
AcDbBlockBegin
  2
_D_5
 70
     0
 10
0.0
 20
0.0
 30
0.0
  3
_D_5
  1

  0
SOLID
  5
13B
330
138
100
AcDbEntity
  8
0
  6
Continuous
 62
     7
370
    18
100
AcDbTrace
 10
250.1345704268
 20
306.1317043225
 30
0.0
 11
245.3345704268
 21
306.870165861
 31
0.0
 12
245.3345704268
 22
305.393242784
 32
0.0
 13
245.3345704268
 23
305.393242784
 33
0.0
  0
SOLID
  5
13C
330
138
100
AcDbEntity
  8
0
  6
Continuous
 62
     7
370
    18
100
AcDbTrace
 10
203.1345704268
 20
306.1317043225
 30
0.0
 11
207.9345704268
 21
305.393242784
 31
0.0
 12
207.9345704268
 22
306.870165861
 32
0.0
 13
207.9345704268
 23
306.870165861
 33
0.0
  0
LINE
  5
13D
330
138
100
AcDbEntity
  8
0
  6
Continuous
 62
     7
370
    18
100
AcDbLine
 10
250.1345704268
 20
289.3600226104
 30
0.0
 11
250.1345704268
 21
307.6317043225
 31
0.0
  0
LINE
  5
13E
330
138
100
AcDbEntity
  8
0
  6
Continuous
 62
     7
370
    18
100
AcDbLine
 10
203.1345704268
 20
266.975438889
 30
0.0
 11
203.1345704268
 21
307.6317043225
 31
0.0
  0
LINE
  5
13F
330
138
100
AcDbEntity
  8
0
  6
Continuous
 62
     7
370
    18
100
AcDbLine
 10
250.1345704268
 20
306.1317043225
 30
0.0
 11
203.1345704268
 21
306.1317043225
 31
0.0
  0
MTEXT
  5
140
330
138
100
AcDbEntity
  8
0
  6
Continuous
 62
     7
370
    18
100
AcDbMText
 10
229.1086458373
 20
312.3192292115
 30
0.0
 40
4.8
 41
0.0
 71
     1
 72
     1
  1
47
  7
SLDTEXTSTYLE0
 73
     1
 44
1.0
  0
ENDBLK
  5
13A
330
138
100
AcDbEntity
  8
0
100
AcDbBlockEnd
  0
BLOCK
  5
143
330
142
100
AcDbEntity
  8
0
100
AcDbBlockBegin
  2
_D_6
 70
     0
 10
0.0
 20
0.0
 30
0.0
  3
_D_6
  1

  0
SOLID
  5
145
330
142
100
AcDbEntity
  8
0
  6
Continuous
 62
     7
370
    18
100
AcDbTrace
 10
191.079476366
 20
256.825438889
 30
0.0
 11
190.3410148275
 21
252.025438889
 31
0.0
 12
191.8179379045
 22
252.025438889
 32
0.0
 13
191.8179379045
 23
252.025438889
 33
0.0
  0
SOLID
  5
146
330
142
100
AcDbEntity
  8
0
  6
Continuous
 62
     7
370
    18
100
AcDbTrace
 10
191.079476366
 20
224.325438889
 30
0.0
 11
191.8179379045
 21
229.125438889
 31
0.0
 12
190.3410148275
 22
229.125438889
 32
0.0
 13
190.3410148275
 23
229.125438889
 33
0.0
  0
LINE
  5
147
330
142
100
AcDbEntity
  8
0
  6
Continuous
 62
     7
370
    18
100
AcDbLine
 10
224.4845704268
 20
256.825438889
 30
0.0
 11
189.579476366
 21
256.825438889
 31
0.0
  0
LINE
  5
148
330
142
100
AcDbEntity
  8
0
  6
Continuous
 62
     7
370
    18
100
AcDbLine
 10
212.9845704268
 20
224.325438889
 30
0.0
 11
189.579476366
 21
224.325438889
 31
0.0
  0
LINE
  5
149
330
142
100
AcDbEntity
  8
0
  6
Continuous
 62
     7
370
    18
100
AcDbLine
 10
191.079476366
 20
256.825438889
 30
0.0
 11
191.079476366
 21
224.325438889
 31
0.0
  0
MTEXT
  5
14A
330
142
100
AcDbEntity
  8
0
  6
Continuous
 62
     7
370
    18
100
AcDbMText
 10
184.891951477
 20
236.3642354707
 30
0.0
 40
4.8
 41
0.0
 71
     1
 72
     1
  1
32,5
  7
SLDTEXTSTYLE0
 11
-7.044195017643634E-15
 21
1.0
 31
0.0
 73
     1
 44
1.0
  0
ENDBLK
  5
144
330
142
100
AcDbEntity
  8
0
100
AcDbBlockEnd
  0
BLOCK
  5
14D
330
14C
100
AcDbEntity
  8
0
100
AcDbBlockBegin
  2
_D_7
 70
     0
 10
0.0
 20
0.0
 30
0.0
  3
_D_7
  1

  0
SOLID
  5
14F
330
14C
100
AcDbEntity
  8
0
  6
Continuous
 62
     7
370
    18
100
AcDbTrace
 10
191.079476366
 20
224.325438889
 30
0.0
 11
190.3410148275
 21
219.525438889
 31
0.0
 12
191.8179379045
 22
219.525438889
 32
0.0
 13
191.8179379045
 23
219.525438889
 33
0.0
  0
SOLID
  5
150
330
14C
100
AcDbEntity
  8
0
  6
Continuous
 62
     7
370
    18
100
AcDbTrace
 10
191.079476366
 20
191.825438889
 30
0.0
 11
191.8179379045
 21
196.625438889
 31
0.0
 12
190.3410148275
 22
196.625438889
 32
0.0
 13
190.3410148275
 23
196.625438889
 33
0.0
  0
LINE
  5
151
330
14C
100
AcDbEntity
  8
0
  6
Continuous
 62
     7
370
    18
100
AcDbLine
 10
212.9845704268
 20
224.325438889
 30
0.0
 11
189.579476366
 21
224.325438889
 31
0.0
  0
LINE
  5
152
330
14C
100
AcDbEntity
  8
0
  6
Continuous
 62
     7
370
    18
100
AcDbLine
 10
224.4845704268
 20
191.825438889
 30
0.0
 11
189.579476366
 21
191.825438889
 31
0.0
  0
LINE
  5
153
330
14C
100
AcDbEntity
  8
0
  6
Continuous
 62
     7
370
    18
100
AcDbLine
 10
191.079476366
 20
224.325438889
 30
0.0
 11
191.079476366
 21
191.825438889
 31
0.0
  0
MTEXT
  5
154
330
14C
100
AcDbEntity
  8
0
  6
Continuous
 62
     7
370
    18
100
AcDbMText
 10
184.891951477
 20
202.3673947302
 30
0.0
 40
4.8
 41
0.0
 71
     1
 72
     1
  1
32,5
  7
SLDTEXTSTYLE0
 11
-7.044195017643634E-15
 21
1.0
 31
0.0
 73
     1
 44
1.0
  0
ENDBLK
  5
14E
330
14C
100
AcDbEntity
  8
0
100
AcDbBlockEnd
  0
BLOCK
  5
157
330
156
100
AcDbEntity
  8
0
100
AcDbBlockBegin
  2
_D_8
 70
     0
 10
0.0
 20
0.0
 30
0.0
  3
_D_8
  1

  0
SOLID
  5
159
330
156
100
AcDbEntity
  8
0
  6
Continuous
 62
     7
370
    18
100
AcDbTrace
 10
203.1345704268
 20
280.3184501298
 30
0.0
 11
198.3345704268
 21
281.0569116683
 31
0.0
 12
198.3345704268
 22
279.5799885914
 32
0.0
 13
198.3345704268
 23
279.5799885914
 33
0.0
  0
SOLID
  5
15A
330
156
100
AcDbEntity
  8
0
  6
Continuous
 62
     7
370
    18
100
AcDbTrace
 10
213.1345704268
 20
280.3184501298
 30
0.0
 11
217.9345704268
 21
279.5799885914
 31
0.0
 12
217.9345704268
 22
281.0569116683
 32
0.0
 13
217.9345704268
 23
281.0569116683
 33
0.0
  0
LINE
  5
15B
330
156
100
AcDbEntity
  8
0
  6
Continuous
 62
     7
370
    18
100
AcDbLine
 10
203.1345704268
 20
266.975438889
 30
0.0
 11
203.1345704268
 21
281.8184501298
 31
0.0
  0
LINE
  5
15C
330
156
100
AcDbEntity
  8
0
  6
Continuous
 62
     7
370
    18
100
AcDbLine
 10
213.1345704268
 20
224.475438889
 30
0.0
 11
213.1345704268
 21
281.8184501298
 31
0.0
  0
LINE
  5
15D
330
156
100
AcDbEntity
  8
0
  6
Continuous
 62
     7
370
    18
100
AcDbLine
 10
203.1345704268
 20
280.3184501298
 30
0.0
 11
193.903801196
 21
280.3184501298
 31
0.0
  0
LINE
  5
15E
330
156
100
AcDbEntity
  8
0
  6
Continuous
 62
     7
370
    18
100
AcDbLine
 10
203.1345704268
 20
280.3184501298
 30
0.0
 11
213.1345704268
 21
280.3184501298
 31
0.0
  0
LINE
  5
15F
330
156
100
AcDbEntity
  8
0
  6
Continuous
 62
     7
370
    18
100
AcDbLine
 10
213.1345704268
 20
280.3184501298
 30
0.0
 11
222.3653396576
 21
280.3184501298
 31
0.0
  0
MTEXT
  5
160
330
156
100
AcDbEntity
  8
0
  6
Continuous
 62
     7
370
    18
100
AcDbMText
 10
207.2159205603
 20
286.5059750188
 30
0.0
 40
4.8
 41
0.0
 71
     1
 72
     1
  1
10
  7
SLDTEXTSTYLE0
 73
     1
 44
1.0
  0
ENDBLK
  5
158
330
156
100
AcDbEntity
  8
0
100
AcDbBlockEnd
  0
BLOCK
  5
163
330
162
100
AcDbEntity
  8
0
100
AcDbBlockBegin
  2
_D_9
 70
     0
 10
0.0
 20
0.0
 30
0.0
  3
_D_9
  1

  0
SOLID
  5
165
330
162
100
AcDbEntity
  8
0
  6
Continuous
 62
     7
370
    18
100
AcDbTrace
 10
203.1345704268
 20
292.6766742439
 30
0.0
 11
198.3345704268
 21
293.4151357824
 31
0.0
 12
198.3345704268
 22
291.9382127054
 32
0.0
 13
198.3345704268
 23
291.9382127054
 33
0.0
  0
SOLID
  5
166
330
162
100
AcDbEntity
  8
0
  6
Continuous
 62
     7
370
    18
100
AcDbTrace
 10
224.6345704268
 20
292.6766742439
 30
0.0
 11
229.4345704268
 21
291.9382127054
 31
0.0
 12
229.4345704268
 22
293.4151357824
 32
0.0
 13
229.4345704268
 23
293.4151357824
 33
0.0
  0
LINE
  5
167
330
162
100
AcDbEntity
  8
0
  6
Continuous
 62
     7
370
    18
100
AcDbLine
 10
203.1345704268
 20
266.975438889
 30
0.0
 11
203.1345704268
 21
294.1766742439
 31
0.0
  0
LINE
  5
168
330
162
100
AcDbEntity
  8
0
  6
Continuous
 62
     7
370
    18
100
AcDbLine
 10
224.6345704268
 20
256.975438889
 30
0.0
 11
224.6345704268
 21
294.1766742439
 31
0.0
  0
LINE
  5
169
330
162
100
AcDbEntity
  8
0
  6
Continuous
 62
     7
370
    18
100
AcDbLine
 10
203.1345704268
 20
292.6766742439
 30
0.0
 11
193.903801196
 21
292.6766742439
 31
0.0
  0
LINE
  5
16A
330
162
100
AcDbEntity
  8
0
  6
Continuous
 62
     7
370
    18
100
AcDbLine
 10
203.1345704268
 20
292.6766742439
 30
0.0
 11
224.6345704268
 21
292.6766742439
 31
0.0
  0
LINE
  5
16B
330
162
100
AcDbEntity
  8
0
  6
Continuous
 62
     7
370
    18
100
AcDbLine
 10
224.6345704268
 20
292.6766742439
 30
0.0
 11
233.8653396576
 21
292.6766742439
 31
0.0
  0
MTEXT
  5
16C
330
162
100
AcDbEntity
  8
0
  6
Continuous
 62
     7
370
    18
100
AcDbMText
 10
210.5232462946
 20
298.8641991329
 30
0.0
 40
4.8
 41
0.0
 71
     1
 72
     1
  1
21,5
  7
SLDTEXTSTYLE0
 73
     1
 44
1.0
  0
ENDBLK
  5
164
330
162
100
AcDbEntity
  8
0
100
AcDbBlockEnd
  0
BLOCK
  5
170
330
16F
100
AcDbEntity
  8
0
100
AcDbBlockBegin
  2
_D_10
 70
     0
 10
0.0
 20
0.0
 30
0.0
  3
_D_10
  1

  0
SOLID
  5
172
330
16F
100
AcDbEntity
  8
0
  6
Continuous
 62
     7
370
    18
100
AcDbTrace
 10
281.6536582666
 20
88.2015022791
 30
0.0
 11
280.9151967282
 21
83.4015022791
 31
0.0
 12
282.3921198051
 22
83.4015022791
 32
0.0
 13
282.3921198051
 23
83.4015022791
 33
0.0
  0
SOLID
  5
173
330
16F
100
AcDbEntity
  8
0
  6
Continuous
 62
     7
370
    18
100
AcDbTrace
 10
281.6536582666
 20
93.025438889
 30
0.0
 11
282.3921198051
 21
97.825438889
 31
0.0
 12
280.9151967282
 22
97.825438889
 32
0.0
 13
280.9151967282
 23
97.825438889
 33
0.0
  0
LINE
  5
174
330
16F
100
AcDbEntity
  8
0
  6
Continuous
 62
     7
370
    18
100
AcDbLine
 10
248.9256196514
 20
88.2015022791
 30
0.0
 11
283.1536582666
 21
88.2015022791
 31
0.0
  0
LINE
  5
175
330
16F
100
AcDbEntity
  8
0
  6
Continuous
 62
     7
370
    18
100
AcDbLine
 10
264.3845704268
 20
93.025438889
 30
0.0
 11
283.1536582666
 21
93.025438889
 31
0.0
  0
LINE
  5
176
330
16F
100
AcDbEntity
  8
0
  6
Continuous
 62
     7
370
    18
100
AcDbLine
 10
281.6536582666
 20
88.2015022791
 30
0.0
 11
281.6536582666
 21
76.4936632425
 31
0.0
  0
LINE
  5
177
330
16F
100
AcDbEntity
  8
0
  6
Continuous
 62
     7
370
    18
100
AcDbLine
 10
281.6536582666
 20
88.2015022791
 30
0.0
 11
281.6536582666
 21
93.025438889
 31
0.0
  0
LINE
  5
178
330
16F
100
AcDbEntity
  8
0
  6
Continuous
 62
     7
370
    18
100
AcDbLine
 10
281.6536582666
 20
93.025438889
 30
0.0
 11
281.6536582666
 21
102.2562081198
 31
0.0
  0
MTEXT
  5
179
330
16F
100
AcDbEntity
  8
0
  6
Continuous
 62
     7
370
    18
100
AcDbMText
 10
275.4661333777
 20
76.4936632425
 30
0.0
 40
4.8
 41
0.0
 71
     1
 72
     1
  1
5
  7
SLDTEXTSTYLE0
 11
-3.491481338843133E-15
 21
1.0
 31
0.0
 73
     1
 44
1.0
  0
ENDBLK
  5
171
330
16F
100
AcDbEntity
  8
0
100
AcDbBlockEnd
  0
BLOCK
  5
17C
330
17B
100
AcDbEntity
  8
0
100
AcDbBlockBegin
  2
_D_11
 70
     0
 10
0.0
 20
0.0
 30
0.0
  3
_D_11
  1

  0
SOLID
  5
17E
330
17B
100
AcDbEntity
  8
0
  6
Continuous
 62
     7
370
    18
100
AcDbTrace
 10
250.1345704268
 20
63.9811169748
 30
0.0
 11
245.3345704268
 21
64.7195785133
 31
0.0
 12
245.3345704268
 22
63.2426554363
 32
0.0
 13
245.3345704268
 23
63.2426554363
 33
0.0
  0
SOLID
  5
17F
330
17B
100
AcDbEntity
  8
0
  6
Continuous
 62
     7
370
    18
100
AcDbTrace
 10
203.1345704268
 20
63.9811169748
 30
0.0
 11
207.9345704268
 21
63.2426554363
 31
0.0
 12
207.9345704268
 22
64.7195785133
 32
0.0
 13
207.9345704268
 23
64.7195785133
 33
0.0
  0
LINE
  5
180
330
17B
100
AcDbEntity
  8
0
  6
Continuous
 62
     7
370
    18
100
AcDbLine
 10
250.1345704268
 20
70.5607366515
 30
0.0
 11
250.1345704268
 21
62.4811169748
 31
0.0
  0
LINE
  5
181
330
17B
100
AcDbEntity
  8
0
  6
Continuous
 62
     7
370
    18
100
AcDbLine
 10
203.1345704268
 20
92.875438889
 30
0.0
 11
203.1345704268
 21
62.4811169748
 31
0.0
  0
LINE
  5
182
330
17B
100
AcDbEntity
  8
0
  6
Continuous
 62
     7
370
    18
100
AcDbLine
 10
250.1345704268
 20
63.9811169748
 30
0.0
 11
203.1345704268
 21
63.9811169748
 31
0.0
  0
MTEXT
  5
183
330
17B
100
AcDbEntity
  8
0
  6
Continuous
 62
     7
370
    18
100
AcDbMText
 10
225.765059996
 20
70.1686418638
 30
0.0
 40
4.8
 41
0.0
 71
     1
 72
     1
  1
47
  7
SLDTEXTSTYLE0
 73
     1
 44
1.0
  0
ENDBLK
  5
17D
330
17B
100
AcDbEntity
  8
0
100
AcDbBlockEnd
  0
BLOCK
  5
1C2
330
1C1
100
AcDbEntity
  8
0
100
AcDbBlockBegin
  2
_D_12
 70
     0
 10
0.0
 20
0.0
 30
0.0
  3
_D_12
  1

  0
SOLID
  5
1C4
330
1C1
100
AcDbEntity
  8
0
  6
Continuous
 62
     7
370
    18
100
AcDbTrace
 10
89.8900528507
 20
74.3227659971
 30
0.0
 11
94.6900528507
 21
73.5843044586
 31
0.0
 12
94.6900528507
 22
75.0612275355
 32
0.0
 13
94.6900528507
 23
75.0612275355
 33
0.0
  0
SOLID
  5
1C5
330
1C1
100
AcDbEntity
  8
0
  6
Continuous
 62
     7
370
    18
100
AcDbTrace
 10
79.8900528507
 20
74.3227659971
 30
0.0
 11
75.0900528507
 21
75.0612275355
 31
0.0
 12
75.0900528507
 22
73.5843044586
 32
0.0
 13
75.0900528507
 23
73.5843044586
 33
0.0
  0
LINE
  5
1C6
330
1C1
100
AcDbEntity
  8
0
  6
Continuous
 62
     7
370
    18
100
AcDbLine
 10
89.8900528507
 20
92.875438889
 30
0.0
 11
89.8900528507
 21
72.8227659971
 31
0.0
  0
LINE
  5
1C7
330
1C1
100
AcDbEntity
  8
0
  6
Continuous
 62
     7
370
    18
100
AcDbLine
 10
79.8900528507
 20
135.375438889
 30
0.0
 11
79.8900528507
 21
72.8227659971
 31
0.0
  0
LINE
  5
1C8
330
1C1
100
AcDbEntity
  8
0
  6
Continuous
 62
     7
370
    18
100
AcDbLine
 10
89.8900528507
 20
74.3227659971
 30
0.0
 11
107.9874891304
 21
74.3227659971
 31
0.0
  0
LINE
  5
1C9
330
1C1
100
AcDbEntity
  8
0
  6
Continuous
 62
     7
370
    18
100
AcDbLine
 10
89.8900528507
 20
74.3227659971
 30
0.0
 11
79.8900528507
 21
74.3227659971
 31
0.0
  0
LINE
  5
1CA
330
1C1
100
AcDbEntity
  8
0
  6
Continuous
 62
     7
370
    18
100
AcDbLine
 10
79.8900528507
 20
74.3227659971
 30
0.0
 11
70.6592836199
 21
74.3227659971
 31
0.0
  0
MTEXT
  5
1CB
330
1C1
100
AcDbEntity
  8
0
  6
Continuous
 62
     7
370
    18
100
AcDbMText
 10
100.8941554912
 20
80.5102908861
 30
0.0
 40
4.8
 41
0.0
 71
     1
 72
     1
  1
10
  7
SLDTEXTSTYLE0
 73
     1
 44
1.0
  0
ENDBLK
  5
1C3
330
1C1
100
AcDbEntity
  8
0
100
AcDbBlockEnd
  0
BLOCK
  5
1CE
330
1CD
100
AcDbEntity
  8
0
100
AcDbBlockBegin
  2
_D_13
 70
     0
 10
0.0
 20
0.0
 30
0.0
  3
_D_13
  1

  0
SOLID
  5
1D0
330
1CD
100
AcDbEntity
  8
0
  6
Continuous
 62
     7
370
    18
100
AcDbTrace
 10
89.8900528507
 20
60.7372541905
 30
0.0
 11
94.6900528507
 21
59.998792652
 31
0.0
 12
94.6900528507
 22
61.4757157289
 32
0.0
 13
94.6900528507
 23
61.4757157289
 33
0.0
  0
SOLID
  5
1D1
330
1CD
100
AcDbEntity
  8
0
  6
Continuous
 62
     7
370
    18
100
AcDbTrace
 10
68.3900528507
 20
60.7372541905
 30
0.0
 11
63.5900528507
 21
61.4757157289
 31
0.0
 12
63.5900528507
 22
59.998792652
 32
0.0
 13
63.5900528507
 23
59.998792652
 33
0.0
  0
LINE
  5
1D2
330
1CD
100
AcDbEntity
  8
0
  6
Continuous
 62
     7
370
    18
100
AcDbLine
 10
89.8900528507
 20
92.875438889
 30
0.0
 11
89.8900528507
 21
59.2372541905
 31
0.0
  0
LINE
  5
1D3
330
1CD
100
AcDbEntity
  8
0
  6
Continuous
 62
     7
370
    18
100
AcDbLine
 10
68.3900528507
 20
102.875438889
 30
0.0
 11
68.3900528507
 21
59.2372541905
 31
0.0
  0
LINE
  5
1D4
330
1CD
100
AcDbEntity
  8
0
  6
Continuous
 62
     7
370
    18
100
AcDbLine
 10
89.8900528507
 20
60.7372541905
 30
0.0
 11
99.1208220814
 21
60.7372541905
 31
0.0
  0
LINE
  5
1D5
330
1CD
100
AcDbEntity
  8
0
  6
Continuous
 62
     7
370
    18
100
AcDbLine
 10
89.8900528507
 20
60.7372541905
 30
0.0
 11
68.3900528507
 21
60.7372541905
 31
0.0
  0
LINE
  5
1D6
330
1CD
100
AcDbEntity
  8
0
  6
Continuous
 62
     7
370
    18
100
AcDbLine
 10
68.3900528507
 20
60.7372541905
 30
0.0
 11
59.1592836199
 21
60.7372541905
 31
0.0
  0
MTEXT
  5
1D7
330
1CD
100
AcDbEntity
  8
0
  6
Continuous
 62
     7
370
    18
100
AcDbMText
 10
70.7597043765
 20
66.9247790795
 30
0.0
 40
4.8
 41
0.0
 71
     1
 72
     1
  1
21,5
  7
SLDTEXTSTYLE0
 73
     1
 44
1.0
  0
ENDBLK
  5
1CF
330
1CD
100
AcDbEntity
  8
0
100
AcDbBlockEnd
  0
BLOCK
  5
1DA
330
1D9
100
AcDbEntity
  8
0
100
AcDbBlockBegin
  2
_D_14
 70
     0
 10
0.0
 20
0.0
 30
0.0
  3
_D_14
  1

  0
SOLID
  5
1DC
330
1D9
100
AcDbEntity
  8
0
  6
Continuous
 62
     7
370
    18
100
AcDbTrace
 10
89.8900528507
 20
47.8326242617
 30
0.0
 11
85.0900528507
 21
48.5710858002
 31
0.0
 12
85.0900528507
 22
47.0941627232
 32
0.0
 13
85.0900528507
 23
47.0941627232
 33
0.0
  0
SOLID
  5
1DD
330
1D9
100
AcDbEntity
  8
0
  6
Continuous
 62
     7
370
    18
100
AcDbTrace
 10
42.8900528507
 20
47.8326242617
 30
0.0
 11
47.6900528507
 21
47.0941627232
 31
0.0
 12
47.6900528507
 22
48.5710858002
 32
0.0
 13
47.6900528507
 23
48.5710858002
 33
0.0
  0
LINE
  5
1DE
330
1D9
100
AcDbEntity
  8
0
  6
Continuous
 62
     7
370
    18
100
AcDbLine
 10
89.8900528507
 20
92.875438889
 30
0.0
 11
89.8900528507
 21
46.3326242617
 31
0.0
  0
LINE
  5
1DF
330
1D9
100
AcDbEntity
  8
0
  6
Continuous
 62
     7
370
    18
100
AcDbLine
 10
42.8900528507
 20
70.5607366515
 30
0.0
 11
42.8900528507
 21
46.3326242617
 31
0.0
  0
LINE
  5
1E0
330
1D9
100
AcDbEntity
  8
0
  6
Continuous
 62
     7
370
    18
100
AcDbLine
 10
89.8900528507
 20
47.8326242617
 30
0.0
 11
42.8900528507
 21
47.8326242617
 31
0.0
  0
MTEXT
  5
1E1
330
1D9
100
AcDbEntity
  8
0
  6
Continuous
 62
     7
370
    18
100
AcDbMText
 10
63.7752303352
 20
54.0201491507
 30
0.0
 40
4.8
 41
0.0
 71
     1
 72
     1
  1
47
  7
SLDTEXTSTYLE0
 73
     1
 44
1.0
  0
ENDBLK
  5
1DB
330
1D9
100
AcDbEntity
  8
0
100
AcDbBlockEnd
  0
BLOCK
  5
1E4
330
1E3
100
AcDbEntity
  8
0
100
AcDbBlockBegin
  2
_D_15
 70
     0
 10
0.0
 20
0.0
 30
0.0
  3
_D_15
  1

  0
SOLID
  5
1E6
330
1E3
100
AcDbEntity
  8
0
  6
Continuous
 62
     7
370
    18
100
AcDbTrace
 10
104.4408223108
 20
93.025438889
 30
0.0
 11
103.7023607724
 21
88.225438889
 31
0.0
 12
105.1792838493
 22
88.225438889
 32
0.0
 13
105.1792838493
 23
88.225438889
 33
0.0
  0
SOLID
  5
1E7
330
1E3
100
AcDbEntity
  8
0
  6
Continuous
 62
     7
370
    18
100
AcDbTrace
 10
104.4408223108
 20
103.025438889
 30
0.0
 11
105.1792838493
 21
107.825438889
 31
0.0
 12
103.7023607724
 22
107.825438889
 32
0.0
 13
103.7023607724
 23
107.825438889
 33
0.0
  0
LINE
  5
1E8
330
1E3
100
AcDbEntity
  8
0
  6
Continuous
 62
     7
370
    18
100
AcDbLine
 10
90.0400528507
 20
93.025438889
 30
0.0
 11
105.9408223108
 21
93.025438889
 31
0.0
  0
LINE
  5
1E9
330
1E3
100
AcDbEntity
  8
0
  6
Continuous
 62
     7
370
    18
100
AcDbLine
 10
68.5400528507
 20
103.025438889
 30
0.0
 11
105.9408223108
 21
103.025438889
 31
0.0
  0
LINE
  5
1EA
330
1E3
100
AcDbEntity
  8
0
  6
Continuous
 62
     7
370
    18
100
AcDbLine
 10
104.4408223108
 20
93.025438889
 30
0.0
 11
104.4408223108
 21
83.7946696583
 31
0.0
  0
LINE
  5
1EB
330
1E3
100
AcDbEntity
  8
0
  6
Continuous
 62
     7
370
    18
100
AcDbLine
 10
104.4408223108
 20
93.025438889
 30
0.0
 11
104.4408223108
 21
103.025438889
 31
0.0
  0
LINE
  5
1EC
330
1E3
100
AcDbEntity
  8
0
  6
Continuous
 62
     7
370
    18
100
AcDbLine
 10
104.4408223108
 20
103.025438889
 30
0.0
 11
104.4408223108
 21
112.2562081198
 31
0.0
  0
MTEXT
  5
1ED
330
1E3
100
AcDbEntity
  8
0
  6
Continuous
 62
     7
370
    18
100
AcDbMText
 10
98.2532974219
 20
94.0774606429
 30
0.0
 40
4.8
 41
0.0
 71
     1
 72
     1
  1
10
  7
SLDTEXTSTYLE0
 11
6.123233995736766E-17
 21
1.0
 31
0.0
 73
     1
 44
1.0
  0
ENDBLK
  5
1E5
330
1E3
100
AcDbEntity
  8
0
100
AcDbBlockEnd
  0
BLOCK
  5
1F0
330
1EF
100
AcDbEntity
  8
0
100
AcDbBlockBegin
  2
_D_16
 70
     0
 10
0.0
 20
0.0
 30
0.0
  3
_D_16
  1

  0
SOLID
  5
1F2
330
1EF
100
AcDbEntity
  8
0
  6
Continuous
 62
     7
370
    18
100
AcDbTrace
 10
104.4408223108
 20
103.025438889
 30
0.0
 11
105.1792838493
 21
107.825438889
 31
0.0
 12
103.7023607724
 22
107.825438889
 32
0.0
 13
103.7023607724
 23
107.825438889
 33
0.0
  0
SOLID
  5
1F3
330
1EF
100
AcDbEntity
  8
0
  6
Continuous
 62
     7
370
    18
100
AcDbTrace
 10
104.4408223108
 20
135.525438889
 30
0.0
 11
103.7023607724
 21
130.725438889
 31
0.0
 12
105.1792838493
 22
130.725438889
 32
0.0
 13
105.1792838493
 23
130.725438889
 33
0.0
  0
LINE
  5
1F4
330
1EF
100
AcDbEntity
  8
0
  6
Continuous
 62
     7
370
    18
100
AcDbLine
 10
68.5400528507
 20
103.025438889
 30
0.0
 11
105.9408223108
 21
103.025438889
 31
0.0
  0
LINE
  5
1F5
330
1EF
100
AcDbEntity
  8
0
  6
Continuous
 62
     7
370
    18
100
AcDbLine
 10
80.0400528507
 20
135.525438889
 30
0.0
 11
105.9408223108
 21
135.525438889
 31
0.0
  0
LINE
  5
1F6
330
1EF
100
AcDbEntity
  8
0
  6
Continuous
 62
     7
370
    18
100
AcDbLine
 10
104.4408223108
 20
103.025438889
 30
0.0
 11
104.4408223108
 21
135.525438889
 31
0.0
  0
MTEXT
  5
1F7
330
1EF
100
AcDbEntity
  8
0
  6
Continuous
 62
     7
370
    18
100
AcDbMText
 10
98.2532974219
 20
114.2486682191
 30
0.0
 40
4.8
 41
0.0
 71
     1
 72
     1
  1
32,5
  7
SLDTEXTSTYLE0
 11
6.123233995736766E-17
 21
1.0
 31
0.0
 73
     1
 44
1.0
  0
ENDBLK
  5
1F1
330
1EF
100
AcDbEntity
  8
0
100
AcDbBlockEnd
  0
BLOCK
  5
1FA
330
1F9
100
AcDbEntity
  8
0
100
AcDbBlockBegin
  2
_D_17
 70
     0
 10
0.0
 20
0.0
 30
0.0
  3
_D_17
  1

  0
SOLID
  5
1FC
330
1F9
100
AcDbEntity
  8
0
  6
Continuous
 62
     7
370
    18
100
AcDbTrace
 10
104.4408223108
 20
135.525438889
 30
0.0
 11
105.1792838493
 21
140.325438889
 31
0.0
 12
103.7023607724
 22
140.325438889
 32
0.0
 13
103.7023607724
 23
140.325438889
 33
0.0
  0
SOLID
  5
1FD
330
1F9
100
AcDbEntity
  8
0
  6
Continuous
 62
     7
370
    18
100
AcDbTrace
 10
104.4408223108
 20
168.025438889
 30
0.0
 11
103.7023607724
 21
163.225438889
 31
0.0
 12
105.1792838493
 22
163.225438889
 32
0.0
 13
105.1792838493
 23
163.225438889
 33
0.0
  0
LINE
  5
1FE
330
1F9
100
AcDbEntity
  8
0
  6
Continuous
 62
     7
370
    18
100
AcDbLine
 10
80.0400528507
 20
135.525438889
 30
0.0
 11
105.9408223108
 21
135.525438889
 31
0.0
  0
LINE
  5
1FF
330
1F9
100
AcDbEntity
  8
0
  6
Continuous
 62
     7
370
    18
100
AcDbLine
 10
68.5400528507
 20
168.025438889
 30
0.0
 11
105.9408223108
 21
168.025438889
 31
0.0
  0
LINE
  5
200
330
1F9
100
AcDbEntity
  8
0
  6
Continuous
 62
     7
370
    18
100
AcDbLine
 10
104.4408223108
 20
135.525438889
 30
0.0
 11
104.4408223108
 21
168.025438889
 31
0.0
  0
MTEXT
  5
201
330
1F9
100
AcDbEntity
  8
0
  6
Continuous
 62
     7
370
    18
100
AcDbMText
 10
98.2532974219
 20
147.0803217517
 30
0.0
 40
4.8
 41
0.0
 71
     1
 72
     1
  1
32,5
  7
SLDTEXTSTYLE0
 11
6.123233995736766E-17
 21
1.0
 31
0.0
 73
     1
 44
1.0
  0
ENDBLK
  5
1FB
330
1F9
100
AcDbEntity
  8
0
100
AcDbBlockEnd
  0
BLOCK
  5
204
330
203
100
AcDbEntity
  8
0
100
AcDbBlockBegin
  2
_D_18
 70
     0
 10
0.0
 20
0.0
 30
0.0
  3
_D_18
  1

  0
SOLID
  5
206
330
203
100
AcDbEntity
  8
0
  6
Continuous
 62
     7
370
    18
100
AcDbTrace
 10
104.4408223108
 20
178.025438889
 30
0.0
 11
105.1792838493
 21
182.825438889
 31
0.0
 12
103.7023607724
 22
182.825438889
 32
0.0
 13
103.7023607724
 23
182.825438889
 33
0.0
  0
SOLID
  5
207
330
203
100
AcDbEntity
  8
0
  6
Continuous
 62
     7
370
    18
100
AcDbTrace
 10
104.4408223108
 20
168.025438889
 30
0.0
 11
103.7023607724
 21
163.225438889
 31
0.0
 12
105.1792838493
 22
163.225438889
 32
0.0
 13
105.1792838493
 23
163.225438889
 33
0.0
  0
LINE
  5
208
330
203
100
AcDbEntity
  8
0
  6
Continuous
 62
     7
370
    18
100
AcDbLine
 10
90.0400528507
 20
178.025438889
 30
0.0
 11
105.9408223108
 21
178.025438889
 31
0.0
  0
LINE
  5
209
330
203
100
AcDbEntity
  8
0
  6
Continuous
 62
     7
370
    18
100
AcDbLine
 10
68.5400528507
 20
168.025438889
 30
0.0
 11
105.9408223108
 21
168.025438889
 31
0.0
  0
LINE
  5
20A
330
203
100
AcDbEntity
  8
0
  6
Continuous
 62
     7
370
    18
100
AcDbLine
 10
104.4408223108
 20
178.025438889
 30
0.0
 11
104.4408223108
 21
187.2562081198
 31
0.0
  0
LINE
  5
20B
330
203
100
AcDbEntity
  8
0
  6
Continuous
 62
     7
370
    18
100
AcDbLine
 10
104.4408223108
 20
178.025438889
 30
0.0
 11
104.4408223108
 21
168.025438889
 31
0.0
  0
LINE
  5
20C
330
203
100
AcDbEntity
  8
0
  6
Continuous
 62
     7
370
    18
100
AcDbLine
 10
104.4408223108
 20
168.025438889
 30
0.0
 11
104.4408223108
 21
158.7946696583
 31
0.0
  0
MTEXT
  5
20D
330
203
100
AcDbEntity
  8
0
  6
Continuous
 62
     7
370
    18
100
AcDbMText
 10
98.2532974219
 20
169.1751509072
 30
0.0
 40
4.8
 41
0.0
 71
     1
 72
     1
  1
10
  7
SLDTEXTSTYLE0
 11
-7.044195017643634E-15
 21
1.0
 31
0.0
 73
     1
 44
1.0
  0
ENDBLK
  5
205
330
203
100
AcDbEntity
  8
0
100
AcDbBlockEnd
  0
BLOCK
  5
20F
330
20E
100
AcDbEntity
  8
0
100
AcDbBlockBegin
  2
SW_NOTE_0
 70
     0
 10
0.0
 20
0.0
 30
0.0
  3
SW_NOTE_0
  1

  0
MTEXT
  5
211
330
20E
100
AcDbEntity
  8
0
  6
Continuous
 62
     0
370
     0
100
AcDbMText
 10
0.0
 20
9.208777666
 30
0.0
 40
7.14375
 41
0.0
 71
     1
 72
     1
  1
835EBMC40SOL
  7
SLDTEXTSTYLE0
 73
     1
 44
1.0
  0
MTEXT
  5
212
330
20E
100
AcDbEntity
  8
0
  6
Continuous
 62
     0
370
     0
100
AcDbMText
 10
0.0
 20
-1.8162224648
 30
0.0
 40
7.14375
 41
0.0
 71
     1
 72
     1
  1
FREE HINGE
  7
SLDTEXTSTYLE0
 73
     1
 44
1.0
  0
MTEXT
  5
213
330
20E
100
AcDbEntity
  8
0
  6
Continuous
 62
     0
370
     0
100
AcDbMText
 10
0.0
 20
-23.8662227263
 30
0.0
 40
7.14375
 41
0.0
 71
     1
 72
     1
  1
WIDTH DOOR 600÷1000mm
  7
SLDTEXTSTYLE0
 73
     1
 44
1.0
  0
MTEXT
  5
214
330
20E
100
AcDbEntity
  8
0
  6
Continuous
 62
     0
370
     0
100
AcDbMText
 10
0.0
 20
-34.891222857
 30
0.0
 40
7.14375
 41
0.0
 71
     1
 72
     1
  1
MAX WEIGHT 100 Kg
  7
SLDTEXTSTYLE0
 73
     1
 44
1.0
  0
ENDBLK
  5
210
330
20E
100
AcDbEntity
  8
0
100
AcDbBlockEnd
  0
BLOCK
  5
217
330
216
100
AcDbEntity
  8
0
100
AcDbBlockBegin
  2
SW_NOTE_1
 70
     0
 10
0.0
 20
0.0
 30
0.0
  3
SW_NOTE_1
  1

  0
MTEXT
  5
219
330
216
100
AcDbEntity
  8
0
  6
Continuous
 62
     0
370
     0
100
AcDbMText
 10
0.0
 20
5.414084507
 30
0.0
 40
4.2
 41
0.0
 71
     1
 72
     1
  1
835EBMC40SOLR = destra
  7
SLDTEXTSTYLE0
 73
     1
 44
1.0
  0
MTEXT
  5
21A
330
216
100
AcDbEntity
  8
0
  6
Continuous
 62
     0
370
     0
100
AcDbMText
 10
0.0
 20
-0.2859155891
 30
0.0
 40
4.2
 41
0.0
 71
     1
 72
     1
  1
835EBMC40SOLL = sinistra
  7
SLDTEXTSTYLE0
 73
     1
 44
1.0
  0
ENDBLK
  5
218
330
216
100
AcDbEntity
  8
0
100
AcDbBlockEnd
  0
ENDSEC
  0
SECTION
  2
ENTITIES
  0
LINE
  5
74
330
1F
100
AcDbEntity
  8
0
  6
Continuous
 62
     7
370
    25
100
AcDbLine
 10
132.1254825956
 20
20.9558061829
 30
0.0
 11
131.9166651733
 21
20.538181117
 31
0.0
  0
LINE
  5
75
330
1F
100
AcDbEntity
  8
0
  6
Continuous
 62
     7
370
    25
100
AcDbLine
 10
131.9166651733
 20
16.538180927
 30
0.0
 11
132.1254825956
 21
16.1205558611
 31
0.0
  0
LINE
  5
76
330
1F
100
AcDbEntity
  8
0
  6
Continuous
 62
     7
370
    25
100
AcDbLine
 10
131.9166651733
 20
19.5803975726
 30
0.0
 11
131.9166651733
 21
16.538180927
 31
0.0
  0
LINE
  5
77
330
1F
100
AcDbEntity
  8
0
  6
Continuous
 62
     7
370
    25
100
AcDbLine
 10
131.9166651733
 20
20.538181117
 30
0.0
 11
131.9166651733
 21
19.5803975726
 31
0.0
  0
CIRCLE
  5
78
330
1F
100
AcDbEntity
  8
0
  6
Continuous
 62
     7
370
    25
100
AcDbCircle
 10
146.0166679985
 20
18.5381810221
 30
0.0
 40
13.99999999999996
  0
ARC
  5
79
330
1F
100
AcDbEntity
  8
0
  6
Continuous
 62
     7
370
    25
100
AcDbCircle
 10
151.2885071622
 20
35.038181022
 30
0.0
 40
0.5000000000000071
100
AcDbArc
 50
5.5051472564
 51
90.0
  0
ARC
  5
7A
330
1F
100
AcDbEntity
  8
0
  6
Continuous
 62
     7
370
    25
100
AcDbCircle
 10
146.0166679985
 20
18.538181022
 30
0.0
 40
14.1
100
AcDbArc
 50
111.8019540847
 51
51.5825716569
  0
LINE
  5
7B
330
1F
100
AcDbEntity
  8
0
  6
Continuous
 62
     7
370
    25
100
AcDbLine
 10
144.3166664607
 20
65.5381794127
 30
0.0
 11
144.3166664607
 21
35.5381819459
 31
0.0
  0
ARC
  5
7C
330
1F
100
AcDbEntity
  8
0
  6
Continuous
 62
     7
370
    25
100
AcDbCircle
 10
149.658410429
 20
35.738181022
 30
0.0
 40
0.5000000000000134
100
AcDbArc
 50
270.0
 51
336.4218215217999
  0
LINE
  5
7D
330
1F
100
AcDbEntity
  8
0
  6
Continuous
 62
     7
370
    25
100
AcDbLine
 10
148.1166711814
 20
65.5381794127
 30
0.0
 11
148.1166711814
 21
35.7381816061
 31
0.0
  0
ARC
  5
7E
330
1F
100
AcDbEntity
  8
0
  6
Continuous
 62
     7
370
    25
100
AcDbCircle
 10
138.5515380175
 20
37.2004915533
 30
0.0
 40
6.000000000000001
100
AcDbArc
 50
291.8019540847
 51
343.9156772302
  0
ARC
  5
7F
330
1F
100
AcDbEntity
  8
0
  6
Continuous
 62
     7
370
    25
100
AcDbCircle
 10
159.7493016253
 20
35.8536300105
 30
0.0
 40
7.999999999999997
100
AcDbArc
 50
185.5051472564
 51
231.5825716569
  0
LINE
  5
80
330
1F
100
AcDbEntity
  8
0
  6
Continuous
 62
     7
370
    25
100
AcDbLine
 10
150.1166677839
 20
35.5381819459
 30
0.0
 11
151.2885100014
 21
35.5381819459
 31
0.0
  0
ARC
  5
81
330
1F
100
AcDbEntity
  8
0
  6
Continuous
 62
     7
370
    25
100
AcDbCircle
 10
148.6166679985
 20
35.738181022
 30
0.0
 40
0.5000000000000284
100
AcDbArc
 50
180.0
 51
270.0
  0
LINE
  5
82
330
1F
100
AcDbEntity
  8
0
  6
Continuous
 62
     7
370
    25
100
AcDbLine
 10
148.6166647441
 20
35.2381805929
 30
0.0
 11
149.6584123737
 21
35.2381805929
 31
0.0
  0
LINE
  5
83
330
1F
100
AcDbEntity
  8
0
  6
Continuous
 62
     7
370
    25
100
AcDbLine
 10
144.3166664607
 20
65.5381794127
 30
0.0
 11
148.1166711814
 21
65.5381794127
 31
0.0
  0
ARC
  5
84
330
1F
100
AcDbEntity
  8
0
  6
Continuous
 62
     7
370
    25
100
AcDbCircle
 10
126.6667671654
 20
33.538181022
 30
0.0
 40
2.0
100
AcDbArc
 50
90.0
 51
202.5989132849
  0
LINE
  5
85
330
1F
100
AcDbEntity
  8
0
  6
Continuous
 62
     7
370
    25
100
AcDbLine
 10
141.9166705377
 20
35.5381819459
 30
0.0
 11
126.6667700178
 21
35.5381819459
 31
0.0
  0
ARC
  5
86
330
1F
100
AcDbEntity
  8
0
  6
Continuous
 62
     7
370
    25
100
AcDbCircle
 10
142.374925568
 20
35.738181022
 30
0.0
 40
0.5000000000000163
100
AcDbArc
 50
203.5781784782
 51
270.0
  0
LINE
  5
87
330
1F
100
AcDbEntity
  8
0
  6
Continuous
 62
     7
370
    25
100
AcDbLine
 10
142.3749259479
 20
35.2381805929
 30
0.0
 11
143.4166661269
 21
35.2381805929
 31
0.0
  0
ARC
  5
88
330
1F
100
AcDbEntity
  8
0
  6
Continuous
 62
     7
370
    25
100
AcDbCircle
 10
143.4166679985
 20
35.738181022
 30
0.0
 40
0.5
100
AcDbArc
 50
270.0
 51
0.0
  0
LINE
  5
89
330
1F
100
AcDbEntity
  8
0
  6
Continuous
 62
     7
370
    25
100
AcDbLine
 10
143.9166671402
 20
35.7381816061
 30
0.0
 11
143.9166671402
 21
65.5381794127
 31
0.0
  0
LINE
  5
8A
330
1F
100
AcDbEntity
  8
0
  6
Continuous
 62
     7
370
    25
100
AcDbLine
 10
143.9166671402
 20
65.5381794127
 30
0.0
 11
144.3166664607
 21
65.5381794127
 31
0.0
  0
LINE
  5
8B
330
1F
100
AcDbEntity
  8
0
  6
Continuous
 62
     7
370
    25
100
AcDbLine
 10
132.9993015892
 20
13.1198640952
 30
0.0
 11
124.8203298814
 21
32.7696253585
 31
0.0
  0
LINE
  5
9C
330
1F
100
AcDbEntity
  8
0
  6
Continuous
 62
     7
370
    25
100
AcDbLine
 10
134.6166661746
 20
178.2254357181
 30
0.0
 11
134.8166695602
 21
178.0254397831
 31
0.0
  0
LINE
  5
9D
330
1F
100
AcDbEntity
  8
0
  6
Continuous
 62
     7
370
    25
100
AcDbLine
 10
157.2166687615
 20
178.0254397831
 30
0.0
 11
157.4166646964
 21
178.2254357181
 31
0.0
  0
LINE
  5
9E
330
1F
100
AcDbEntity
  8
0
  6
Continuous
 62
     7
370
    25
100
AcDbLine
 10
131.9772607452
 20
257.4466247401
 30
0.0
 11
131.9166651733
 21
257.3254335962
 31
0.0
  0
LINE
  5
9F
330
1F
100
AcDbEntity
  8
0
  6
Continuous
 62
     7
370
    25
100
AcDbLine
 10
131.9166651733
 20
253.3254403911
 30
0.0
 11
131.9773352511
 21
253.2041002355
 31
0.0
  0
LINE
  5
A0
330
1F
100
AcDbEntity
  8
0
  6
Continuous
 62
     7
370
    25
100
AcDbLine
 10
132.016666866
 20
268.8254345498
 30
0.0
 11
132.016666866
 21
266.8254453979
 31
0.0
  0
LINE
  5
A1
330
1F
100
AcDbEntity
  8
0
  6
Continuous
 62
     7
370
    25
100
AcDbLine
 10
160.0166714556
 20
266.8254453979
 30
0.0
 11
160.0166714556
 21
268.8254345498
 31
0.0
  0
ARC
  5
A2
330
1F
100
AcDbEntity
  8
0
  6
Continuous
 62
     7
370
    25
100
AcDbCircle
 10
146.0166679985
 20
237.6587722224
 30
0.0
 40
34.16666666666672
100
AcDbArc
 50
65.810485846
 51
114.189514154
  0
ARC
  5
A3
330
1F
100
AcDbEntity
  8
0
  6
Continuous
 62
     7
370
    25
100
AcDbCircle
 10
146.0166679985
 20
122.1921055557
 30
0.0
 40
34.16666666666681
100
AcDbArc
 50
275.0742097408
 51
294.189514154
  0
ARC
  5
A4
330
1F
100
AcDbEntity
  8
0
  6
Continuous
 62
     7
370
    25
100
AcDbCircle
 10
146.0166679985
 20
122.1921055557
 30
0.0
 40
34.16666666666681
100
AcDbArc
 50
245.810485846
 51
264.9257902592
  0
LINE
  5
A5
330
1F
100
AcDbEntity
  8
0
  6
Continuous
 62
     7
370
    25
100
AcDbLine
 10
160.0166714556
 20
91.0254387941
 30
0.0
 11
160.0166714556
 21
93.025438889
 31
0.0
  0
LINE
  5
A6
330
1F
100
AcDbEntity
  8
0
  6
Continuous
 62
     7
370
    25
100
AcDbLine
 10
132.016666866
 20
93.025438889
 30
0.0
 11
132.016666866
 21
91.0254387941
 31
0.0
  0
LINE
  5
A7
330
1F
100
AcDbEntity
  8
0
  6
Continuous
 62
     7
370
    25
100
AcDbLine
 10
132.016666866
 20
181.8254370532
 30
0.0
 11
132.016666866
 21
178.2254357181
 31
0.0
  0
LINE
  5
A8
330
1F
100
AcDbEntity
  8
0
  6
Continuous
 62
     7
370
    25
100
AcDbLine
 10
160.0166714556
 20
178.2254357181
 30
0.0
 11
160.0166714556
 21
181.8254370532
 31
0.0
  0
LINE
  5
A9
330
1F
100
AcDbEntity
  8
0
  6
Continuous
 62
     7
370
    25
100
AcDbLine
 10
131.9166651733
 20
252.8310198627
 30
0.0
 11
131.9166651733
 21
181.8254370532
 31
0.0
  0
LINE
  5
AA
330
1F
100
AcDbEntity
  8
0
  6
Continuous
 62
     7
370
    25
100
AcDbLine
 10
131.9166651733
 20
266.8254453979
 30
0.0
 11
131.9166651733
 21
257.7945817552
 31
0.0
  0
LINE
  5
AB
330
1F
100
AcDbEntity
  8
0
  6
Continuous
 62
     7
370
    25
100
AcDbLine
 10
160.1166656978
 20
181.8254370532
 30
0.0
 11
160.1166656978
 21
266.8254453979
 31
0.0
  0
LINE
  5
AC
330
1F
100
AcDbEntity
  8
0
  6
Continuous
 62
     7
370
    25
100
AcDbLine
 10
160.1166656978
 20
93.025438889
 30
0.0
 11
160.1166656978
 21
178.0254397831
 31
0.0
  0
LINE
  5
AD
330
1F
100
AcDbEntity
  8
0
  6
Continuous
 62
     7
370
    25
100
AcDbLine
 10
124.6667659647
 20
178.0254397831
 30
0.0
 11
124.6667659647
 21
93.025438889
 31
0.0
  0
LINE
  5
AE
330
1F
100
AcDbEntity
  8
0
  6
Continuous
 62
     7
370
    25
100
AcDbLine
 10
131.9166651733
 20
257.3254335962
 30
0.0
 11
131.9166651733
 21
253.3254403911
 31
0.0
  0
LINE
  5
AF
330
1F
100
AcDbEntity
  8
0
  6
Continuous
 62
     7
370
    25
100
AcDbLine
 10
159.8003140456
 20
268.8254345498
 30
0.0
 11
160.0166714556
 21
268.8254345498
 31
0.0
  0
LINE
  5
B0
330
1F
100
AcDbEntity
  8
0
  6
Continuous
 62
     7
370
    25
100
AcDbLine
 10
132.016666866
 20
268.8254345498
 30
0.0
 11
159.8003140456
 21
268.8254345498
 31
0.0
  0
LINE
  5
B1
330
1F
100
AcDbEntity
  8
0
  6
Continuous
 62
     7
370
    25
100
AcDbLine
 10
158.8944203026
 20
91.0254387941
 30
0.0
 11
132.016666866
 21
91.0254387941
 31
0.0
  0
LINE
  5
B2
330
1F
100
AcDbEntity
  8
0
  6
Continuous
 62
     7
370
    25
100
AcDbLine
 10
160.0166714556
 20
91.0254387941
 30
0.0
 11
158.8944203026
 21
91.0254387941
 31
0.0
  0
ARC
  5
B3
330
1F
100
AcDbEntity
  8
0
  6
Continuous
 62
     7
370
    25
100
AcDbCircle
 10
144.8397829003
 20
116.9581896952
 30
0.0
 40
28.80078778527026
100
AcDbArc
 50
266.8288851899999
 51
273.1711148099999
  0
ARC
  5
B4
330
1F
100
AcDbEntity
  8
0
  6
Continuous
 62
     7
370
    25
100
AcDbCircle
 10
143.0374573831
 20
88.6773937189
 30
0.0
 40
0.5198111266644745
100
AcDbArc
 50
265.288637803
 51
293.7219720926
  0
ARC
  5
B5
330
1F
100
AcDbEntity
  8
0
  6
Continuous
 62
     7
370
    25
100
AcDbCircle
 10
144.2153039961
 20
109.9260395966
 30
0.0
 40
21.76863790067394
100
AcDbArc
 50
267.3061115222001
 51
270.7644006653
  0
ARC
  5
B6
330
1F
100
AcDbEntity
  8
0
  6
Continuous
 62
     7
370
    25
100
AcDbCircle
 10
147.1935499028
 20
116.9563286783
 30
0.0
 40
28.79892740177523
100
AcDbArc
 50
267.6579233586
 51
270.6646526502
  0
ARC
  5
B7
330
1F
100
AcDbEntity
  8
0
  6
Continuous
 62
     7
370
    25
100
AcDbCircle
 10
148.9954585459
 20
88.6729269817
 30
0.0
 40
0.515121361319193
100
AcDbArc
 50
252.5699179064
 51
293.7698179394999
  0
ARC
  5
B8
330
1F
100
AcDbEntity
  8
0
  6
Continuous
 62
     7
370
    25
100
AcDbCircle
 10
147.8180370099
 20
109.930283314
 30
0.0
 40
21.77287954169132
100
AcDbArc
 50
266.3527549759
 51
273.6472450241
  0
LINE
  5
B9
330
1F
100
AcDbEntity
  8
0
  6
Continuous
 62
     7
370
    25
100
AcDbLine
 10
132.016666866
 20
178.2254357181
 30
0.0
 11
160.0166714556
 21
178.2254357181
 31
0.0
  0
LINE
  5
BA
330
1F
100
AcDbEntity
  8
0
  6
Continuous
 62
     7
370
    25
100
AcDbLine
 10
132.016666866
 20
182.0254404388
 30
0.0
 11
160.0166714556
 21
182.0254404388
 31
0.0
  0
LINE
  5
BB
330
1F
100
AcDbEntity
  8
0
  6
Continuous
 62
     7
370
    25
100
AcDbLine
 10
160.1166656978
 20
266.8254453979
 30
0.0
 11
131.9166651733
 21
266.8254453979
 31
0.0
  0
LINE
  5
BC
330
1F
100
AcDbEntity
  8
0
  6
Continuous
 62
     7
370
    25
100
AcDbLine
 10
160.1166656978
 20
181.8254370532
 30
0.0
 11
131.9166651733
 21
181.8254370532
 31
0.0
  0
SPLINE
  5
BD
330
1F
100
AcDbEntity
  8
0
  6
Continuous
 62
     7
370
    25
100
AcDbSpline
210
0.0
220
0.0
230
1.0
 70
     8
 71
     3
 72
    18
 73
    14
 74
     0
 42
0.000000001
 43
0.00000001
 40
0.0
 40
0.0
 40
0.0
 40
0.0
 40
0.0346106963553093
 40
0.1402276097664146
 40
0.2463973752293766
 40
0.3540208616710289
 40
0.4617765154690296
 40
0.5680751248859947
 40
0.6736155210236672
 40
0.7802613958118352
 40
0.8881599743131421
 40
0.9955223345867094
 40
1.0
 40
1.0
 40
1.0
 40
1.0
 10
131.9220891959254
 20
257.7945817551804
 30
0.0
 10
131.9205663331423
 20
257.803254328205
 30
0.0
 10
131.9143963501439
 20
257.8383918525495
 30
0.0
 10
131.9538817013402
 20
257.6155951207069
 30
0.0
 10
132.0248019198241
 20
257.1481310521475
 30
0.0
 10
132.1013522548007
 20
256.45441238934
 30
0.0
 10
132.1453086202239
 20
255.6359979824691
 30
0.0
 10
132.1377647003166
 20
254.7852970391296
 30
0.0
 10
132.083399240436
 20
254.0021553475499
 30
0.0
 10
132.0039565362693
 20
253.354183974507
 30
0.0
 10
131.9398614008487
 20
252.9540621582344
 30
0.0
 10
131.9093068725197
 20
252.7829771211929
 30
0.0
 10
131.9173132044909
 20
252.8291704507729
 30
0.0
 10
131.9176337487284
 20
252.8310198626709
 30
0.0
  0
LINE
  5
BE
330
1F
100
AcDbEntity
  8
0
  6
Continuous
 62
     7
370
    25
100
AcDbLine
 10
132.9993015892
 20
178.0254397831
 30
0.0
 11
160.1166656978
 21
178.0254397831
 31
0.0
  0
LINE
  5
BF
330
1F
100
AcDbEntity
  8
0
  6
Continuous
 62
     7
370
    25
100
AcDbLine
 10
160.1166656978
 20
93.025438889
 30
0.0
 11
132.9993015892
 21
93.025438889
 31
0.0
  0
LINE
  5
C0
330
1F
100
AcDbEntity
  8
0
  6
Continuous
 62
     7
370
    25
100
AcDbLine
 10
132.9993015892
 20
178.0254397831
 30
0.0
 11
124.8203298814
 21
178.0254397831
 31
0.0
  0
LINE
  5
C1
330
1F
100
AcDbEntity
  8
0
  6
Continuous
 62
     7
370
    25
100
AcDbLine
 10
132.9993015892
 20
93.025438889
 30
0.0
 11
124.8203298814
 21
93.025438889
 31
0.0
  0
LINE
  5
C2
330
1F
100
AcDbEntity
  8
0
  6
Continuous
 62
     7
370
    25
100
AcDbLine
 10
124.8203298814
 20
178.0254397831
 30
0.0
 11
124.6667659647
 21
178.0254397831
 31
0.0
  0
LINE
  5
C3
330
1F
100
AcDbEntity
  8
0
  6
Continuous
 62
     7
370
    25
100
AcDbLine
 10
124.6667659647
 20
93.025438889
 30
0.0
 11
124.8203298814
 21
93.025438889
 31
0.0
  0
LINE
  5
C4
330
1F
100
AcDbEntity
  8
0
  6
Continuous
 62
     8
370
    18
100
AcDbLine
 10
132.9993015892
 20
178.0254397831
 30
0.0
 11
132.9993015892
 21
93.025438889
 31
0.0
  0
LINE
  5
C5
330
1F
100
AcDbEntity
  8
0
  6
Continuous
 62
     8
370
    18
100
AcDbLine
 10
124.8203298814
 20
93.025438889
 30
0.0
 11
124.8203298814
 21
178.0254397831
 31
0.0
  0
LINE
  5
C6
330
1F
100
AcDbEntity
  8
0
  6
CENTERX2
 62
     7
370
    18
100
AcDbLine
 10
146.0166679985
 20
70.7107366515
 30
0.0
 11
146.0166679985
 21
289.2100226104
 31
0.0
  0
LINE
  5
C7
330
1F
100
AcDbEntity
  8
0
  6
Continuous
 62
     7
370
    25
100
AcDbLine
 10
238.7345702346
 20
178.2254357181
 30
0.0
 11
238.9345708262
 21
178.0254397831
 31
0.0
  0
LINE
  5
C8
330
1F
100
AcDbEntity
  8
0
  6
Continuous
 62
     7
370
    25
100
AcDbLine
 10
261.3345700275
 20
178.0254397831
 30
0.0
 11
261.534570619
 21
178.2254357181
 31
0.0
  0
ARC
  5
C9
330
1F
100
AcDbEntity
  8
0
  6
Continuous
 62
     7
370
    25
100
AcDbCircle
 10
250.1345704267
 20
237.6587722224
 30
0.0
 40
34.16666666666675
100
AcDbArc
 50
65.810485846
 51
114.189514154
  0
LINE
  5
CA
330
1F
100
AcDbEntity
  8
0
  6
Continuous
 62
     7
370
    25
100
AcDbLine
 10
236.1345699947
 20
268.8254345498
 30
0.0
 11
236.1345699947
 21
266.8254453979
 31
0.0
  0
LINE
  5
CB
330
1F
100
AcDbEntity
  8
0
  6
Continuous
 62
     7
370
    25
100
AcDbLine
 10
264.1345708589
 20
266.8254453979
 30
0.0
 11
264.1345708589
 21
268.8254345498
 31
0.0
  0
ARC
  5
CC
330
1F
100
AcDbEntity
  8
0
  6
Continuous
 62
     7
370
    25
100
AcDbCircle
 10
250.1345704268
 20
122.1921055557
 30
0.0
 40
34.16666666666685
100
AcDbArc
 50
275.4776094312
 51
294.189514154
  0
ARC
  5
CD
330
1F
100
AcDbEntity
  8
0
  6
Continuous
 62
     7
370
    25
100
AcDbCircle
 10
250.1345704268
 20
122.1921055557
 30
0.0
 40
34.16666666666685
100
AcDbArc
 50
245.810485846
 51
264.5223905688
  0
LINE
  5
CE
330
1F
100
AcDbEntity
  8
0
  6
Continuous
 62
     7
370
    25
100
AcDbLine
 10
264.1345708589
 20
91.0254387941
 30
0.0
 11
264.1345708589
 21
93.025438889
 31
0.0
  0
LINE
  5
CF
330
1F
100
AcDbEntity
  8
0
  6
Continuous
 62
     7
370
    25
100
AcDbLine
 10
236.1345699947
 20
93.025438889
 30
0.0
 11
236.1345699947
 21
91.0254387941
 31
0.0
  0
LINE
  5
D0
330
1F
100
AcDbEntity
  8
0
  6
Continuous
 62
     7
370
    25
100
AcDbLine
 10
236.1345699947
 20
181.8254370532
 30
0.0
 11
236.1345699947
 21
178.2254357181
 31
0.0
  0
LINE
  5
D1
330
1F
100
AcDbEntity
  8
0
  6
Continuous
 62
     7
370
    25
100
AcDbLine
 10
264.1345708589
 20
178.2254357181
 30
0.0
 11
264.1345708589
 21
181.8254370532
 31
0.0
  0
LINE
  5
D2
330
1F
100
AcDbEntity
  8
0
  6
Continuous
 62
     7
370
    25
100
AcDbLine
 10
264.2345706891
 20
181.8254370532
 30
0.0
 11
264.2345706891
 21
266.8254453979
 31
0.0
  0
LINE
  5
D3
330
1F
100
AcDbEntity
  8
0
  6
Continuous
 62
     7
370
    25
100
AcDbLine
 10
264.2345706891
 20
93.025438889
 30
0.0
 11
264.2345706891
 21
178.0254397831
 31
0.0
  0
CIRCLE
  5
D4
330
1F
100
AcDbEntity
  8
0
  6
Continuous
 62
     7
370
    25
100
AcDbCircle
 10
250.1345704268
 20
255.325438889
 30
0.0
 40
1.99999999989588
  0
LINE
  5
D5
330
1F
100
AcDbEntity
  8
0
  6
Continuous
 62
     7
370
    25
100
AcDbLine
 10
248.6137635033
 20
256.1543811403
 30
0.0
 11
248.6562814056
 21
254.4228513084
 31
0.0
  0
LINE
  5
D6
330
1F
100
AcDbEntity
  8
0
  6
Continuous
 62
     7
370
    25
100
AcDbLine
 10
248.6562814056
 20
254.4228513084
 30
0.0
 11
250.1770883619
 21
253.5939146123
 31
0.0
  0
LINE
  5
D7
330
1F
100
AcDbEntity
  8
0
  6
Continuous
 62
     7
370
    25
100
AcDbLine
 10
250.1770883619
 20
253.5939146123
 30
0.0
 11
251.6553773503
 21
254.496492847
 31
0.0
  0
LINE
  5
D8
330
1F
100
AcDbEntity
  8
0
  6
Continuous
 62
     7
370
    25
100
AcDbLine
 10
251.6553773503
 20
254.496492847
 30
0.0
 11
251.612859448
 21
256.2280226789
 31
0.0
  0
LINE
  5
D9
330
1F
100
AcDbEntity
  8
0
  6
Continuous
 62
     7
370
    25
100
AcDbLine
 10
250.0920524917
 20
257.0569742761
 30
0.0
 11
251.612859448
 21
256.2280226789
 31
0.0
  0
LINE
  5
DA
330
1F
100
AcDbEntity
  8
0
  6
Continuous
 62
     7
370
    25
100
AcDbLine
 10
250.0920524917
 20
257.0569742761
 30
0.0
 11
248.6137635033
 21
256.1543811403
 31
0.0
  0
LINE
  5
DB
330
1F
100
AcDbEntity
  8
0
  6
Continuous
 62
     7
370
    25
100
AcDbLine
 10
236.1345699947
 20
268.8254345498
 30
0.0
 11
264.1345708589
 21
268.8254345498
 31
0.0
  0
LINE
  5
DC
330
1F
100
AcDbEntity
  8
0
  6
Continuous
 62
     7
370
    25
100
AcDbLine
 10
264.1345708589
 20
91.0254387941
 30
0.0
 11
236.1345699947
 21
91.0254387941
 31
0.0
  0
ARC
  5
DD
330
1F
100
AcDbEntity
  8
0
  6
Continuous
 62
     7
370
    25
100
AcDbCircle
 10
252.8939479713
 20
93.4157617865
 30
0.0
 40
5.25832656014287
100
AcDbArc
 50
262.5770831561
 51
275.4789087556
  0
ARC
  5
DE
330
1F
100
AcDbEntity
  8
0
  6
Continuous
 62
     7
370
    25
100
AcDbCircle
 10
250.4951163619
 20
121.7009056768
 30
0.0
 40
33.54350454525152
100
AcDbArc
 50
267.0616337561
 51
272.9383662439
  0
ARC
  5
DF
330
1F
100
AcDbEntity
  8
0
  6
Continuous
 62
     7
370
    25
100
AcDbCircle
 10
247.7355983765
 20
100.4450062752
 30
0.0
 40
12.28759677675993
100
AcDbArc
 50
265.1446803503
 51
274.8553196497
  0
ARC
  5
E0
330
1F
100
AcDbEntity
  8
0
  6
Continuous
 62
     7
370
    25
100
AcDbCircle
 10
247.3752997719
 20
93.4195119215
 30
0.0
 40
5.262095365343592
100
AcDbArc
 50
262.5781716320001
 51
271.5487996454
  0
ARC
  5
E1
330
1F
100
AcDbEntity
  8
0
  6
Continuous
 62
     7
370
    25
100
AcDbCircle
 10
249.7740163686
 20
121.7003005196
 30
0.0
 40
33.54289940838851
100
AcDbArc
 50
267.8298678789
 51
270.6158866413
  0
ARC
  5
E2
330
1F
100
AcDbEntity
  8
0
  6
Continuous
 62
     7
370
    25
100
AcDbCircle
 10
252.5335631656
 20
100.4378559956
 30
0.0
 40
12.28045304550044
100
AcDbArc
 50
266.4131960515
 51
271.0173990847
  0
LINE
  5
E3
330
1F
100
AcDbEntity
  8
0
  6
Continuous
 62
     7
370
    25
100
AcDbLine
 10
236.1345699947
 20
178.2254357181
 30
0.0
 11
264.1345708589
 21
178.2254357181
 31
0.0
  0
LINE
  5
E4
330
1F
100
AcDbEntity
  8
0
  6
Continuous
 62
     7
370
    25
100
AcDbLine
 10
236.1345699947
 20
182.0254404388
 30
0.0
 11
264.1345708589
 21
182.0254404388
 31
0.0
  0
SPLINE
  5
E5
330
1F
100
AcDbEntity
  8
0
  6
Continuous
 62
     7
370
    25
100
AcDbSpline
210
0.0
220
0.0
230
1.0
 70
    11
 71
     3
 72
    26
 73
    22
 74
     0
 42
0.000000001
 43
0.00000001
 40
0.0
 40
0.0
 40
0.0
 40
0.0
 40
0.0531109593447348
 40
0.1062028068880605
 40
0.1598217986337525
 40
0.2137970204089722
 40
0.2672058659427129
 40
0.3200215725810457
 40
0.3731137431951019
 40
0.4269328740872497
 40
0.4808180977300243
 40
0.5339746991654042
 40
0.586752141914594
 40
0.6400823998731459
 40
0.69403909567845
 40
0.7477276455618961
 40
0.8006832549426295
 40
0.853570843411544
 40
0.9071454450314657
 40
0.9611288069365436
 40
1.0
 40
1.0
 40
1.0
 40
1.0
 10
247.6345704826925
 20
255.3254444441986
 30
0.0
 10
247.6617662584048
 20
255.6040872094276
 30
0.0
 10
247.7161480235202
 20
256.1612724712167
 30
0.0
 10
248.1395149131273
 20
256.9045236494696
 30
0.0
 10
248.766498136327
 20
257.4755141983279
 30
0.0
 10
249.5562529949802
 20
257.8069353760823
 30
0.0
 10
250.4074295639121
 20
257.8578384607798
 30
0.0
 10
251.2224319508259
 20
257.627884991178
 30
0.0
 10
251.9173315771415
 20
257.1447736183264
 30
0.0
 10
252.4184656042619
 20
256.4553446349609
 30
0.0
 10
252.6634287581739
 20
255.6356559401651
 30
0.0
 10
252.6234673717426
 20
254.7857381902471
 30
0.0
 10
252.309468250586
 20
254.0007318102671
 30
0.0
 10
251.7548373665707
 20
253.3595267978173
 30
0.0
 10
251.0142963529869
 20
252.9339269783866
 30
0.0
 10
250.1737046473936
 20
252.7782779459551
 30
0.0
 10
249.3350842462254
 20
252.9076695382716
 30
0.0
 10
248.5865012689706
 20
253.3025780207028
 30
0.0
 10
248.009937344754
 20
253.9233869777814
 30
0.0
 10
247.6843936020836
 20
254.6361292683528
 30
0.0
 10
247.6492728785552
 20
255.1220331621814
 30
0.0
 10
247.6345704826925
 20
255.3254444441986
 30
0.0
  0
LINE
  5
E6
330
1F
100
AcDbEntity
  8
0
  6
Continuous
 62
     7
370
    25
100
AcDbLine
 10
264.2345706891
 20
266.8254453979
 30
0.0
 11
237.0430984493
 21
266.8254453979
 31
0.0
  0
LINE
  5
E7
330
1F
100
AcDbEntity
  8
0
  6
Continuous
 62
     7
370
    25
100
AcDbLine
 10
264.2345706891
 20
181.8254370532
 30
0.0
 11
237.0430984493
 21
181.8254370532
 31
0.0
  0
LINE
  5
E8
330
1F
100
AcDbEntity
  8
0
  6
Continuous
 62
     7
370
    25
100
AcDbLine
 10
233.1345695029
 20
181.8254370532
 30
0.0
 11
233.1345695029
 21
266.8254453979
 31
0.0
  0
LINE
  5
E9
330
1F
100
AcDbEntity
  8
0
  6
Continuous
 62
     7
370
    25
100
AcDbLine
 10
233.1345695029
 20
266.8254453979
 30
0.0
 11
237.0430984493
 21
266.8254453979
 31
0.0
  0
LINE
  5
EA
330
1F
100
AcDbEntity
  8
0
  6
Continuous
 62
     7
370
    25
100
AcDbLine
 10
233.1345695029
 20
181.8254370532
 30
0.0
 11
237.0430984493
 21
181.8254370532
 31
0.0
  0
LINE
  5
EB
330
1F
100
AcDbEntity
  8
0
  6
Continuous
 62
     7
370
    25
100
AcDbLine
 10
203.1345720361
 20
181.8254370532
 30
0.0
 11
203.1345720361
 21
266.8254453979
 31
0.0
  0
CIRCLE
  5
EC
330
1F
100
AcDbEntity
  8
0
  6
Continuous
 62
     7
370
    25
100
AcDbCircle
 10
224.6345704268
 20
256.825438889
 30
0.0
 40
6.199999999999989
  0
CIRCLE
  5
ED
330
1F
100
AcDbEntity
  8
0
  6
Continuous
 62
     7
370
    25
100
AcDbCircle
 10
213.1345704268
 20
224.325438889
 30
0.0
 40
6.200000000000045
  0
CIRCLE
  5
EE
330
1F
100
AcDbEntity
  8
0
  6
Continuous
 62
     7
370
    25
100
AcDbCircle
 10
224.6345704268
 20
191.825438889
 30
0.0
 40
6.199999999999989
  0
LINE
  5
EF
330
1F
100
AcDbEntity
  8
0
  6
Continuous
 62
     7
370
    25
100
AcDbLine
 10
203.1345720361
 20
266.8254453979
 30
0.0
 11
233.1345695029
 21
266.8254453979
 31
0.0
  0
LINE
  5
F0
330
1F
100
AcDbEntity
  8
0
  6
Continuous
 62
     7
370
    25
100
AcDbLine
 10
203.1345720361
 20
181.8254370532
 30
0.0
 11
233.1345695029
 21
181.8254370532
 31
0.0
  0
CIRCLE
  5
F1
330
1F
100
AcDbEntity
  8
0
  6
Continuous
 62
     7
370
    25
100
AcDbCircle
 10
213.1345704268
 20
224.325438889
 30
0.0
 40
3.199999999999989
  0
CIRCLE
  5
F2
330
1F
100
AcDbEntity
  8
0
  6
Continuous
 62
     7
370
    25
100
AcDbCircle
 10
224.6345704268
 20
256.825438889
 30
0.0
 40
3.199999999999989
  0
CIRCLE
  5
F3
330
1F
100
AcDbEntity
  8
0
  6
Continuous
 62
     7
370
    25
100
AcDbCircle
 10
224.6345704268
 20
191.825438889
 30
0.0
 40
3.199999999999989
  0
LINE
  5
F4
330
1F
100
AcDbEntity
  8
0
  6
Continuous
 62
     7
370
    25
100
AcDbLine
 10
233.1345695029
 20
178.0254397831
 30
0.0
 11
233.1345695029
 21
93.025438889
 31
0.0
  0
LINE
  5
F5
330
1F
100
AcDbEntity
  8
0
  6
Continuous
 62
     7
370
    25
100
AcDbLine
 10
235.9031260903
 20
178.0254397831
 30
0.0
 11
233.1345695029
 21
178.0254397831
 31
0.0
  0
LINE
  5
F6
330
1F
100
AcDbEntity
  8
0
  6
Continuous
 62
     7
370
    25
100
AcDbLine
 10
233.1345695029
 20
93.025438889
 30
0.0
 11
235.9031260903
 21
93.025438889
 31
0.0
  0
LINE
  5
F7
330
1F
100
AcDbEntity
  8
0
  6
Continuous
 62
     7
370
    25
100
AcDbLine
 10
255.5528873536
 20
178.0254397831
 30
0.0
 11
235.9031260903
 21
178.0254397831
 31
0.0
  0
LINE
  5
F8
330
1F
100
AcDbEntity
  8
0
  6
Continuous
 62
     7
370
    25
100
AcDbLine
 10
255.5528873536
 20
93.025438889
 30
0.0
 11
235.9031260903
 21
93.025438889
 31
0.0
  0
LINE
  5
F9
330
1F
100
AcDbEntity
  8
0
  6
Continuous
 62
     7
370
    25
100
AcDbLine
 10
255.5528873536
 20
178.0254397831
 30
0.0
 11
264.2345706891
 21
178.0254397831
 31
0.0
  0
LINE
  5
FA
330
1F
100
AcDbEntity
  8
0
  6
Continuous
 62
     7
370
    25
100
AcDbLine
 10
264.2345706891
 20
93.025438889
 30
0.0
 11
255.5528873536
 21
93.025438889
 31
0.0
  0
LINE
  5
FB
330
1F
100
AcDbEntity
  8
0
  6
Continuous
 62
     7
370
    25
100
AcDbLine
 10
233.1345695029
 20
178.0254397831
 30
0.0
 11
232.9345698427
 21
178.0254397831
 31
0.0
  0
LINE
  5
FC
330
1F
100
AcDbEntity
  8
0
  6
Continuous
 62
     7
370
    25
100
AcDbLine
 10
232.9345698427
 20
93.025438889
 30
0.0
 11
233.1345695029
 21
93.025438889
 31
0.0
  0
LINE
  5
FD
330
1F
100
AcDbEntity
  8
0
  6
Continuous
 62
     7
370
    25
100
AcDbLine
 10
203.1345720361
 20
93.025438889
 30
0.0
 11
203.1345720361
 21
178.0254397831
 31
0.0
  0
CIRCLE
  5
FE
330
1F
100
AcDbEntity
  8
0
  6
Continuous
 62
     7
370
    25
100
AcDbCircle
 10
224.6345704268
 20
168.025438889
 30
0.0
 40
3.200000000000017
  0
CIRCLE
  5
FF
330
1F
100
AcDbEntity
  8
0
  6
Continuous
 62
     7
370
    25
100
AcDbCircle
 10
213.1345704268
 20
135.525438889
 30
0.0
 40
3.19999999999996
  0
CIRCLE
  5
100
330
1F
100
AcDbEntity
  8
0
  6
Continuous
 62
     7
370
    25
100
AcDbCircle
 10
224.6345704268
 20
103.025438889
 30
0.0
 40
3.200000000000017
  0
LINE
  5
101
330
1F
100
AcDbEntity
  8
0
  6
Continuous
 62
     7
370
    25
100
AcDbLine
 10
232.9345698427
 20
178.0254397831
 30
0.0
 11
203.1345720361
 21
178.0254397831
 31
0.0
  0
LINE
  5
102
330
1F
100
AcDbEntity
  8
0
  6
Continuous
 62
     7
370
    25
100
AcDbLine
 10
232.9345698427
 20
93.025438889
 30
0.0
 11
203.1345720361
 21
93.025438889
 31
0.0
  0
LINE
  5
103
330
1F
100
AcDbEntity
  8
0
  6
Continuous
 62
     8
370
    18
100
AcDbLine
 10
237.0430984493
 20
181.8254370532
 30
0.0
 11
237.0430984493
 21
266.8254453979
 31
0.0
  0
LINE
  5
104
330
1F
100
AcDbEntity
  8
0
  6
Continuous
 62
     8
370
    18
100
AcDbLine
 10
235.9031260903
 20
93.025438889
 30
0.0
 11
235.9031260903
 21
178.0254397831
 31
0.0
  0
LINE
  5
105
330
1F
100
AcDbEntity
  8
0
  6
Continuous
 62
     8
370
    18
100
AcDbLine
 10
255.5528873536
 20
178.0254397831
 30
0.0
 11
255.5528873536
 21
93.025438889
 31
0.0
  0
LINE
  5
106
330
1F
100
AcDbEntity
  8
0
  6
Continuous
 62
     8
370
    18
100
AcDbLine
 10
232.9345698427
 20
178.0254397831
 30
0.0
 11
232.9345698427
 21
93.025438889
 31
0.0
  0
LINE
  5
185
330
1F
100
AcDbEntity
  8
0
  6
Continuous
 62
     7
370
    25
100
AcDbLine
 10
31.4900526584
 20
178.2254357181
 30
0.0
 11
31.69005325
 21
178.0254397831
 31
0.0
  0
LINE
  5
186
330
1F
100
AcDbEntity
  8
0
  6
Continuous
 62
     7
370
    25
100
AcDbLine
 10
54.0900524513
 20
178.0254397831
 30
0.0
 11
54.2900530429
 21
178.2254357181
 31
0.0
  0
LINE
  5
187
330
1F
100
AcDbEntity
  8
0
  6
Continuous
 62
     7
370
    25
100
AcDbLine
 10
28.8900524185
 20
268.8254345498
 30
0.0
 11
28.8900524185
 21
266.8254453979
 31
0.0
  0
LINE
  5
188
330
1F
100
AcDbEntity
  8
0
  6
Continuous
 62
     7
370
    25
100
AcDbLine
 10
56.8900532828
 20
266.8254453979
 30
0.0
 11
56.8900532828
 21
268.8254345498
 31
0.0
  0
ARC
  5
189
330
1F
100
AcDbEntity
  8
0
  6
Continuous
 62
     7
370
    25
100
AcDbCircle
 10
42.8900528507
 20
237.6587722224
 30
0.0
 40
34.16666666666673
100
AcDbArc
 50
65.810485846
 51
114.189514154
  0
ARC
  5
18A
330
1F
100
AcDbEntity
  8
0
  6
Continuous
 62
     7
370
    25
100
AcDbCircle
 10
42.8900528507
 20
122.1921055557
 30
0.0
 40
34.16666666666684
100
AcDbArc
 50
275.4776094312
 51
294.189514154
  0
ARC
  5
18B
330
1F
100
AcDbEntity
  8
0
  6
Continuous
 62
     7
370
    25
100
AcDbCircle
 10
42.8900528507
 20
122.1921055557
 30
0.0
 40
34.16666666666686
100
AcDbArc
 50
245.810485846
 51
264.5223905688
  0
LINE
  5
18C
330
1F
100
AcDbEntity
  8
0
  6
Continuous
 62
     7
370
    25
100
AcDbLine
 10
56.8900532828
 20
91.0254387941
 30
0.0
 11
56.8900532828
 21
93.025438889
 31
0.0
  0
LINE
  5
18D
330
1F
100
AcDbEntity
  8
0
  6
Continuous
 62
     7
370
    25
100
AcDbLine
 10
28.8900524185
 20
93.025438889
 30
0.0
 11
28.8900524185
 21
91.0254387941
 31
0.0
  0
LINE
  5
18E
330
1F
100
AcDbEntity
  8
0
  6
Continuous
 62
     7
370
    25
100
AcDbLine
 10
28.8900524185
 20
181.8254370532
 30
0.0
 11
28.8900524185
 21
178.2254357181
 31
0.0
  0
LINE
  5
18F
330
1F
100
AcDbEntity
  8
0
  6
Continuous
 62
     7
370
    25
100
AcDbLine
 10
56.8900532828
 20
178.2254357181
 30
0.0
 11
56.8900532828
 21
181.8254370532
 31
0.0
  0
LINE
  5
190
330
1F
100
AcDbEntity
  8
0
  6
Continuous
 62
     7
370
    25
100
AcDbLine
 10
28.7900525884
 20
266.8254453979
 30
0.0
 11
28.7900525884
 21
181.8254370532
 31
0.0
  0
LINE
  5
191
330
1F
100
AcDbEntity
  8
0
  6
Continuous
 62
     7
370
    25
100
AcDbLine
 10
28.7900525884
 20
178.0254397831
 30
0.0
 11
28.7900525884
 21
93.025438889
 31
0.0
  0
LINE
  5
192
330
1F
100
AcDbEntity
  8
0
  6
Continuous
 62
     7
370
    25
100
AcDbLine
 10
40.438300771
 20
268.8254345498
 30
0.0
 11
56.8900532828
 21
268.8254345498
 31
0.0
  0
LINE
  5
193
330
1F
100
AcDbEntity
  8
0
  6
Continuous
 62
     7
370
    25
100
AcDbLine
 10
28.8900524185
 20
268.8254345498
 30
0.0
 11
40.438300771
 21
268.8254345498
 31
0.0
  0
LINE
  5
194
330
1F
100
AcDbEntity
  8
0
  6
Continuous
 62
     7
370
    25
100
AcDbLine
 10
37.3979188309
 20
91.0254387941
 30
0.0
 11
28.8900524185
 21
91.0254387941
 31
0.0
  0
LINE
  5
195
330
1F
100
AcDbEntity
  8
0
  6
Continuous
 62
     7
370
    25
100
AcDbLine
 10
56.8900532828
 20
91.0254387941
 30
0.0
 11
37.3979188309
 21
91.0254387941
 31
0.0
  0
ARC
  5
196
330
1F
100
AcDbEntity
  8
0
  6
Continuous
 62
     7
370
    25
100
AcDbCircle
 10
40.1307821957
 20
93.4195119215
 30
0.0
 40
5.262095365341607
100
AcDbArc
 50
262.5781716320001
 51
271.5487996454
  0
ARC
  5
197
330
1F
100
AcDbEntity
  8
0
  6
Continuous
 62
     7
370
    25
100
AcDbCircle
 10
42.5294987925
 20
121.7003005196
 30
0.0
 40
33.54289940842698
100
AcDbArc
 50
267.8298678789
 51
270.6158866413
  0
ARC
  5
198
330
1F
100
AcDbEntity
  8
0
  6
Continuous
 62
     7
370
    25
100
AcDbCircle
 10
45.2890455895
 20
100.4378559956
 30
0.0
 40
12.2804530454896
100
AcDbArc
 50
266.4131960515
 51
271.0173990847999
  0
ARC
  5
199
330
1F
100
AcDbEntity
  8
0
  6
Continuous
 62
     7
370
    25
100
AcDbCircle
 10
45.6494303951
 20
93.4157617865
 30
0.0
 40
5.258326560144353
100
AcDbArc
 50
262.5770831561
 51
275.4789087556
  0
ARC
  5
19A
330
1F
100
AcDbEntity
  8
0
  6
Continuous
 62
     7
370
    25
100
AcDbCircle
 10
43.2505987858
 20
121.7009056768
 30
0.0
 40
33.54350454525112
100
AcDbArc
 50
267.0616337561
 51
272.9383662439
  0
ARC
  5
19B
330
1F
100
AcDbEntity
  8
0
  6
Continuous
 62
     7
370
    25
100
AcDbCircle
 10
40.4910808004
 20
100.4450062752
 30
0.0
 40
12.28759677675993
100
AcDbArc
 50
265.1446803503
 51
274.8553196497
  0
LINE
  5
19C
330
1F
100
AcDbEntity
  8
0
  6
Continuous
 62
     7
370
    25
100
AcDbLine
 10
54.3355360435
 20
178.2254357181
 30
0.0
 11
56.8900532828
 21
178.2254357181
 31
0.0
  0
LINE
  5
19D
330
1F
100
AcDbEntity
  8
0
  6
Continuous
 62
     7
370
    25
100
AcDbLine
 10
28.8900524185
 20
178.2254357181
 30
0.0
 11
54.3355360435
 21
178.2254357181
 31
0.0
  0
LINE
  5
19E
330
1F
100
AcDbEntity
  8
0
  6
Continuous
 62
     7
370
    25
100
AcDbLine
 10
28.8900524185
 20
182.0254404388
 30
0.0
 11
54.3355360435
 21
182.0254404388
 31
0.0
  0
LINE
  5
19F
330
1F
100
AcDbEntity
  8
0
  6
Continuous
 62
     7
370
    25
100
AcDbLine
 10
53.9374664233
 20
266.8254453979
 30
0.0
 11
28.7900525884
 21
266.8254453979
 31
0.0
  0
LINE
  5
1A0
330
1F
100
AcDbEntity
  8
0
  6
Continuous
 62
     7
370
    25
100
AcDbLine
 10
53.9374664233
 20
181.8254370532
 30
0.0
 11
28.7900525884
 21
181.8254370532
 31
0.0
  0
LINE
  5
1A1
330
1F
100
AcDbEntity
  8
0
  6
Continuous
 62
     7
370
    25
100
AcDbLine
 10
59.4380195991
 20
266.8254453979
 30
0.0
 11
53.9374664233
 21
266.8254453979
 31
0.0
  0
LINE
  5
1A2
330
1F
100
AcDbEntity
  8
0
  6
Continuous
 62
     7
370
    25
100
AcDbLine
 10
53.9374664233
 20
181.8254370532
 30
0.0
 11
59.4380195991
 21
181.8254370532
 31
0.0
  0
LINE
  5
1A3
330
1F
100
AcDbEntity
  8
0
  6
Continuous
 62
     7
370
    25
100
AcDbLine
 10
59.8900537745
 20
181.8254370532
 30
0.0
 11
59.8900537745
 21
266.8254453979
 31
0.0
  0
LINE
  5
1A4
330
1F
100
AcDbEntity
  8
0
  6
Continuous
 62
     7
370
    25
100
AcDbLine
 10
59.8900537745
 20
266.8254453979
 30
0.0
 11
59.4380195991
 21
266.8254453979
 31
0.0
  0
LINE
  5
1A5
330
1F
100
AcDbEntity
  8
0
  6
Continuous
 62
     7
370
    25
100
AcDbLine
 10
59.4380195991
 20
181.8254370532
 30
0.0
 11
59.8900537745
 21
181.8254370532
 31
0.0
  0
LINE
  5
1A6
330
1F
100
AcDbEntity
  8
0
  6
Continuous
 62
     7
370
    25
100
AcDbLine
 10
60.0900534348
 20
266.8254453979
 30
0.0
 11
59.8900537745
 21
266.8254453979
 31
0.0
  0
LINE
  5
1A7
330
1F
100
AcDbEntity
  8
0
  6
Continuous
 62
     7
370
    25
100
AcDbLine
 10
59.8900537745
 20
181.8254370532
 30
0.0
 11
60.0900534348
 21
181.8254370532
 31
0.0
  0
CIRCLE
  5
1A8
330
1F
100
AcDbEntity
  8
0
  6
Continuous
 62
     7
370
    25
100
AcDbCircle
 10
68.3900528507
 20
191.825438889
 30
0.0
 40
3.199999999999989
  0
CIRCLE
  5
1A9
330
1F
100
AcDbEntity
  8
0
  6
Continuous
 62
     7
370
    25
100
AcDbCircle
 10
79.8900528507
 20
224.325438889
 30
0.0
 40
3.199999999999974
  0
CIRCLE
  5
1AA
330
1F
100
AcDbEntity
  8
0
  6
Continuous
 62
     7
370
    25
100
AcDbCircle
 10
68.3900528507
 20
256.825438889
 30
0.0
 40
3.199999999999989
  0
LINE
  5
1AB
330
1F
100
AcDbEntity
  8
0
  6
Continuous
 62
     7
370
    25
100
AcDbLine
 10
89.8900512413
 20
181.8254370532
 30
0.0
 11
89.8900512413
 21
266.8254453979
 31
0.0
  0
LINE
  5
1AC
330
1F
100
AcDbEntity
  8
0
  6
Continuous
 62
     7
370
    25
100
AcDbLine
 10
89.8900512413
 20
266.8254453979
 30
0.0
 11
60.0900534348
 21
266.8254453979
 31
0.0
  0
LINE
  5
1AD
330
1F
100
AcDbEntity
  8
0
  6
Continuous
 62
     7
370
    25
100
AcDbLine
 10
89.8900512413
 20
181.8254370532
 30
0.0
 11
60.0900534348
 21
181.8254370532
 31
0.0
  0
LINE
  5
1AE
330
1F
100
AcDbEntity
  8
0
  6
Continuous
 62
     7
370
    25
100
AcDbLine
 10
55.9144099982
 20
93.025438889
 30
0.0
 11
28.7900525884
 21
93.025438889
 31
0.0
  0
LINE
  5
1AF
330
1F
100
AcDbEntity
  8
0
  6
Continuous
 62
     7
370
    25
100
AcDbLine
 10
28.7900525884
 20
178.0254397831
 30
0.0
 11
55.9144099982
 21
178.0254397831
 31
0.0
  0
LINE
  5
1B0
330
1F
100
AcDbEntity
  8
0
  6
Continuous
 62
     7
370
    25
100
AcDbLine
 10
55.9144099982
 20
93.025438889
 30
0.0
 11
61.4566892193
 21
93.025438889
 31
0.0
  0
LINE
  5
1B1
330
1F
100
AcDbEntity
  8
0
  6
Continuous
 62
     7
370
    25
100
AcDbLine
 10
61.4566892193
 20
178.0254397831
 30
0.0
 11
55.9144099982
 21
178.0254397831
 31
0.0
  0
CIRCLE
  5
1B2
330
1F
100
AcDbEntity
  8
0
  6
Continuous
 62
     7
370
    25
100
AcDbCircle
 10
68.3900528507
 20
103.025438889
 30
0.0
 40
6.199999999999996
  0
CIRCLE
  5
1B3
330
1F
100
AcDbEntity
  8
0
  6
Continuous
 62
     7
370
    25
100
AcDbCircle
 10
68.3900528507
 20
103.025438889
 30
0.0
 40
3.199999999999989
  0
CIRCLE
  5
1B4
330
1F
100
AcDbEntity
  8
0
  6
Continuous
 62
     7
370
    25
100
AcDbCircle
 10
68.3900528507
 20
168.025438889
 30
0.0
 40
6.199999999999996
  0
CIRCLE
  5
1B5
330
1F
100
AcDbEntity
  8
0
  6
Continuous
 62
     7
370
    25
100
AcDbCircle
 10
68.3900528507
 20
168.025438889
 30
0.0
 40
3.199999999999989
  0
LINE
  5
1B6
330
1F
100
AcDbEntity
  8
0
  6
Continuous
 62
     7
370
    25
100
AcDbLine
 10
89.8900512413
 20
93.025438889
 30
0.0
 11
89.8900512413
 21
178.0254397831
 31
0.0
  0
CIRCLE
  5
1B7
330
1F
100
AcDbEntity
  8
0
  6
Continuous
 62
     7
370
    25
100
AcDbCircle
 10
79.8900528507
 20
135.525438889
 30
0.0
 40
6.200000000000003
  0
LINE
  5
1B8
330
1F
100
AcDbEntity
  8
0
  6
Continuous
 62
     7
370
    25
100
AcDbLine
 10
89.8900512413
 20
93.025438889
 30
0.0
 11
61.4566892193
 21
93.025438889
 31
0.0
  0
LINE
  5
1B9
330
1F
100
AcDbEntity
  8
0
  6
Continuous
 62
     7
370
    25
100
AcDbLine
 10
89.8900512413
 20
178.0254397831
 30
0.0
 11
61.4566892193
 21
178.0254397831
 31
0.0
  0
CIRCLE
  5
1BA
330
1F
100
AcDbEntity
  8
0
  6
Continuous
 62
     7
370
    25
100
AcDbCircle
 10
79.8900528507
 20
135.525438889
 30
0.0
 40
3.200000000000003
  0
LINE
  5
1BB
330
1F
100
AcDbEntity
  8
0
  6
Continuous
 62
     8
370
    18
100
AcDbLine
 10
53.9374664233
 20
266.8254453979
 30
0.0
 11
53.9374664233
 21
181.8254370532
 31
0.0
  0
LINE
  5
1BC
330
1F
100
AcDbEntity
  8
0
  6
Continuous
 62
     8
370
    18
100
AcDbLine
 10
59.4380195991
 20
181.8254370532
 30
0.0
 11
59.4380195991
 21
266.8254453979
 31
0.0
  0
LINE
  5
1BD
330
1F
100
AcDbEntity
  8
0
  6
Continuous
 62
     8
370
    18
100
AcDbLine
 10
60.0900534348
 20
181.8254370532
 30
0.0
 11
60.0900534348
 21
266.8254453979
 31
0.0
  0
LINE
  5
1BE
330
1F
100
AcDbEntity
  8
0
  6
Continuous
 62
     8
370
    18
100
AcDbLine
 10
55.9144099982
 20
178.0254397831
 30
0.0
 11
55.9144099982
 21
93.025438889
 31
0.0
  0
LINE
  5
1BF
330
1F
100
AcDbEntity
  8
0
  6
Continuous
 62
     8
370
    18
100
AcDbLine
 10
61.4566892193
 20
93.025438889
 30
0.0
 11
61.4566892193
 21
178.0254397831
 31
0.0
  0
LINE
  5
21D
330
1F
100
AcDbEntity
  8
0
  6
Continuous
 62
     7
370
    25
100
AcDbLine
 10
287.3177362605
 20
429.9493135521
 30
0.0
 11
287.3177362605
 21
428.9694698925
 31
0.0
  0
LINE
  5
21E
330
1F
100
AcDbEntity
  8
0
  6
Continuous
 62
     7
370
    25
100
AcDbLine
 10
304.1177350753
 20
428.9694689801
 30
0.0
 11
304.1177350753
 21
429.9493126397
 31
0.0
  0
LINE
  5
21F
330
1F
100
AcDbEntity
  8
0
  6
Continuous
 62
     7
370
    25
100
AcDbLine
 10
304.1177350753
 20
342.840740907
 30
0.0
 11
304.1177350753
 21
343.2399636206
 31
0.0
  0
LINE
  5
220
330
1F
100
AcDbEntity
  8
0
  6
Continuous
 62
     7
370
    25
100
AcDbLine
 10
287.3177362605
 20
386.7452582049
 30
0.0
 11
287.3177362605
 21
385.5621555903
 31
0.0
  0
LINE
  5
221
330
1F
100
AcDbEntity
  8
0
  6
Continuous
 62
     7
370
    25
100
AcDbLine
 10
304.1177350753
 20
385.5621546779
 30
0.0
 11
304.1177350753
 21
386.7452572925
 31
0.0
  0
LINE
  5
222
330
1F
100
AcDbEntity
  8
0
  6
Continuous
 62
     7
370
    25
100
AcDbLine
 10
287.257735085
 20
428.9694692082
 30
0.0
 11
287.257735085
 21
387.3258837138
 31
0.0
  0
LINE
  5
223
330
1F
100
AcDbEntity
  8
0
  6
Continuous
 62
     7
370
    25
100
AcDbLine
 10
304.1777362508
 20
387.32588417
 30
0.0
 11
304.1777362508
 21
428.9694696644
 31
0.0
  0
LINE
  5
224
330
1F
100
AcDbEntity
  8
0
  6
Continuous
 62
     7
370
    25
100
AcDbLine
 10
304.1777362508
 20
343.8205906122
 30
0.0
 11
304.1777362508
 21
385.4641724564
 31
0.0
  0
LINE
  5
225
330
1F
100
AcDbEntity
  8
0
  6
Continuous
 62
     7
370
    25
100
AcDbLine
 10
279.9443060618
 20
384.398783578
 30
0.0
 11
279.9443060618
 21
342.7552017338
 31
0.0
  0
LWPOLYLINE
  5
226
330
1F
100
AcDbEntity
  8
0
  6
Continuous
 62
     7
370
    25
100
AcDbPolyline
 90
       20
 70
   128
 43
0.0
 10
289.2934355731
 20
420.9734800248
 10
289.5525446636
 20
420.9443787541
 10
289.8314918189
 20
420.8001516105
 10
290.1000487593
 20
420.5564165972
 10
290.3291131437
 20
420.2395888224
 10
290.4938623593
 20
419.8840012915
 10
290.5764431985
 20
419.5281912577
 10
290.5679067824
 20
419.2107170287
 10
290.4691782014
 20
418.9659698841
 10
290.290956153
 20
418.8204868856
 10
290.0525537886
 20
418.7900282241
 10
289.779805736
 20
418.8778944935
 10
289.5022684577
 20
419.0745644696
 10
289.2500174208
 20
419.3587191142
 10
289.0503879015
 20
419.6995756965
 10
288.9250129633
 20
420.0601892281
 10
288.8874788404
 20
420.4014852445
 10
288.9418529177
 20
420.6864823893
 10
289.0822429671
 20
420.8842919891
 10
289.2934355731
 20
420.9734800248
  0
LINE
  5
227
330
1F
100
AcDbEntity
  8
0
  6
Continuous
 62
     7
370
    25
100
AcDbLine
 10
289.0903868742
 20
420.6605261958
 30
0.0
 11
289.1084256924
 21
419.8017937428
 31
0.0
  0
LINE
  5
228
330
1F
100
AcDbEntity
  8
0
  6
Continuous
 62
     7
370
    25
100
AcDbLine
 10
289.1084256924
 20
419.8017937428
 30
0.0
 11
289.7536494394
 21
419.0231976165
 31
0.0
  0
LINE
  5
229
330
1F
100
AcDbEntity
  8
0
  6
Continuous
 62
     7
370
    25
100
AcDbLine
 10
289.7536494394
 20
419.0231976165
 30
0.0
 11
290.3808343404
 21
419.1033266587
 31
0.0
  0
LINE
  5
22A
330
1F
100
AcDbEntity
  8
0
  6
Continuous
 62
     7
370
    25
100
AcDbLine
 10
290.3808343404
 20
419.1033266587
 30
0.0
 11
290.3627955221
 21
419.9620591116
 31
0.0
  0
LINE
  5
22B
330
1F
100
AcDbEntity
  8
0
  6
Continuous
 62
     7
370
    25
100
AcDbLine
 10
289.7175717752
 20
420.7406625384
 30
0.0
 11
290.3627955221
 21
419.9620591116
 31
0.0
  0
LINE
  5
22C
330
1F
100
AcDbEntity
  8
0
  6
Continuous
 62
     7
370
    25
100
AcDbLine
 10
289.7175717752
 20
420.7406625384
 30
0.0
 11
289.0903868742
 21
420.6605261958
 31
0.0
  0
LINE
  5
22D
330
1F
100
AcDbEntity
  8
0
  6
Continuous
 62
     7
370
    25
100
AcDbLine
 10
290.3662490036
 20
419.7977414616
 30
0.0
 11
289.9569555494
 21
420.2916396026
 31
0.0
  0
LINE
  5
22E
330
1F
100
AcDbEntity
  8
0
  6
Continuous
 62
     7
370
    25
100
AcDbLine
 10
289.9569555494
 20
420.2916396026
 30
0.0
 11
289.9535037719
 21
420.4559576383
 31
0.0
  0
LINE
  5
22F
330
1F
100
AcDbEntity
  8
0
  6
Continuous
 62
     7
370
    25
100
AcDbLine
 10
290.3749846022
 20
419.381886771
 30
0.0
 11
289.7536494394
 21
419.0231976165
 31
0.0
  0
LINE
  5
230
330
1F
100
AcDbEntity
  8
0
  6
Continuous
 62
     7
370
    25
100
AcDbLine
 10
289.1084256924
 20
419.8017937428
 30
0.0
 11
289.9569555494
 21
420.2916396026
 31
0.0
  0
LWPOLYLINE
  5
231
330
1F
100
AcDbEntity
  8
0
  6
Continuous
 62
     7
370
    25
100
AcDbPolyline
 90
       53
 70
   128
 43
0.0
 10
302.6058312412
 20
432.7247478584
 10
301.9761026241
 20
433.1838151309
 10
301.2551129255
 20
433.5957161137
 10
300.4533782205
 20
433.9544456993
 10
299.5825833688
 20
434.254769308
 10
298.6554341635
 20
434.4923118903
 10
297.6854429501
 20
434.6636050446
 10
296.6867605989
 20
434.7661548199
 10
295.6739481216
 20
434.7984640701
 10
294.6617737739
 20
434.760061993
 10
293.664994748
 20
434.6515060694
 10
292.6981521018
 20
434.4743836598
 10
291.7753423755
 20
434.231275964
 10
290.9100196336
 20
433.9257263151
 10
290.1148061985
 20
433.5621925066
 10
289.4012950877
 20
433.1459747117
 10
288.7798891973
 20
432.6831404379
 10
288.2596574752
 20
432.1804433232
 10
287.8481776615
 20
431.6452095409
 10
287.5514544967
 20
431.0852463309
 10
287.3738158035
 20
430.5087195094
 10
287.3178476862
 20
429.9240339429
 10
287.3843724036
 20
429.3397185857
 10
287.5724151781
 20
428.7642923553
 10
287.8792334351
 20
428.2061450637
 10
288.3003543404
 20
427.6734172077
 10
288.8296400946
 20
427.1738783333
 10
289.4593655507
 20
426.7148092361
 10
290.1803552492
 20
426.3029082532
 10
290.9820931153
 20
425.9441804925
 10
291.852884806
 20
425.643855059
 10
292.7800369747
 20
425.4063144154
 10
293.7500252246
 20
425.2350193223
 10
294.7487107369
 20
425.1324713718
 10
295.7615232142
 20
425.1001621217
 10
296.7736975619
 20
425.1385641988
 10
297.7704734268
 20
425.2471182975
 10
298.737319234
 20
425.4242425319
 10
299.6601289603
 20
425.6673502278
 10
300.5254517022
 20
425.9728998766
 10
301.3206651373
 20
426.3364336851
 10
302.034176248
 20
426.7526514801
 10
302.6555789775
 20
427.215483929
 10
303.1758138606
 20
427.7181828685
 10
303.5872936743
 20
428.2534166509
 10
303.8840136781
 20
428.813378036
 10
304.0616555323
 20
429.3899066824
 10
304.1176204885
 20
429.974590424
 10
304.0510989321
 20
430.558907606
 10
303.8630561577
 20
431.1343338364
 10
303.5562379007
 20
431.692481128
 10
303.1351169953
 20
432.2252089841
 10
302.6058312412
 20
432.7247478584
  0
LWPOLYLINE
  5
232
330
1F
100
AcDbEntity
  8
0
  6
Continuous
 62
     7
370
    25
100
AcDbPolyline
 90
       28
 70
   128
 43
0.0
 10
287.3177362605
 20
428.9694698925
 10
287.3178476862
 20
428.9441902834
 10
287.3843724036
 20
428.3598749262
 10
287.5724151781
 20
427.7844486958
 10
287.8792334351
 20
427.2263014042
 10
288.3003543404
 20
426.6935735481
 10
288.8296400946
 20
426.1940346738
 10
289.4593655507
 20
425.7349655765
 10
290.1803552492
 20
425.3230645937
 10
290.9820931153
 20
424.9643368329
 10
291.852884806
 20
424.6640113994
 10
292.7800369747
 20
424.4264707559
 10
293.7500252246
 20
424.2551756627
 10
294.7487107369
 20
424.1526277123
 10
295.7615232142
 20
424.1203184621
 10
296.7736975619
 20
424.1587205392
 10
297.7704734268
 20
424.267274638
 10
298.737319234
 20
424.4443988724
 10
299.6601289603
 20
424.6875065682
 10
300.5254517022
 20
424.9930562171
 10
301.3206651373
 20
425.3565900256
 10
302.034176248
 20
425.7728078205
 10
302.6555789775
 20
426.2356402695
 10
303.1758138606
 20
426.738339209
 10
303.5872936743
 20
427.2735729913
 10
303.8840136781
 20
427.8335343765
 10
304.0616555323
 20
428.4100630228
 10
304.1177350753
 20
428.9694689801
  0
LWPOLYLINE
  5
233
330
1F
100
AcDbEntity
  8
0
  6
Continuous
 62
     7
370
    25
100
AcDbPolyline
 90
       23
 70
   128
 43
0.0
 10
304.1177350753
 20
342.840740907
 10
304.0748871403
 20
342.3515649822
 10
303.9118136077
 20
341.7736043128
 10
303.6292537596
 20
341.21120566
 10
303.2313248162
 20
340.6725688271
 10
302.7238300035
 20
340.1655480429
 10
302.114174391
 20
339.6975399643
 10
301.4112416124
 20
339.2753650629
 10
300.6252844155
 20
338.9051811748
 10
299.7677634503
 20
338.592386785
 10
298.8511880332
 20
338.3415450698
 10
297.8889162127
 20
338.1563095357
 10
296.8949840747
 20
338.0393838731
 10
295.8838864473
 20
337.9924733711
 10
294.8703651126
 20
338.0162611945
 10
293.8692001803
 20
338.1104010848
 10
292.8949911869
 20
338.2735196412
 10
291.9619427399
 20
338.5032378759
 10
291.0836630031
 20
338.7962072547
 10
290.2729586749
 20
339.1481550604
 10
289.5416524403
 20
339.55394963
 10
288.9004068923
 20
340.0076728054
 10
288.6503503645
 20
340.2198228683
  0
LWPOLYLINE
  5
234
330
1F
100
AcDbEntity
  8
0
  6
Continuous
 62
     7
370
    25
100
AcDbPolyline
 90
       28
 70
   128
 43
0.0
 10
287.3177362605
 20
387.4238709542
 10
287.3286105426
 20
387.177210573
 10
287.4412785517
 20
386.5952572098
 10
287.6746360371
 20
386.0253866266
 10
288.0252807604
 20
385.4759095982
 10
288.4880976088
 20
384.9548374015
 10
289.0563392506
 20
384.4697695614
 10
289.7217181561
 20
384.0277786841
 10
290.4745340451
 20
383.6353113359
 10
291.3038069576
 20
383.2980893256
 10
292.1974453683
 20
383.0210309021
 10
293.1424191343
 20
382.808176461
 10
294.1249455449
 20
382.6626285856
 10
295.1306963177
 20
382.586509193
 10
296.1450106716
 20
382.5809314199
 10
297.153092692
 20
382.6459732771
 10
298.140242085
 20
382.7806867736
 10
299.0920679408
 20
382.9831095496
 10
299.994688273
 20
383.2502883713
 10
300.8349422012
 20
383.5783281724
 10
301.600572895
 20
383.9624433775
 10
302.2804219764
 20
384.397035456
 10
302.8645705796
 20
384.875764775
 10
303.3445013534
 20
385.3916505072
 10
303.7132193697
 20
385.9371723646
 10
303.9653422126
 20
386.5043718758
 10
304.097195994
 20
387.0849794384
 10
304.1177350753
 20
387.4238700418
  0
LWPOLYLINE
  5
235
330
1F
100
AcDbEntity
  8
0
  6
Continuous
 62
     7
370
    25
100
AcDbPolyline
 90
       28
 70
   128
 43
0.0
 10
287.3177362605
 20
385.5621555903
 10
287.3286105426
 20
385.3154952091
 10
287.4412785517
 20
384.7335418459
 10
287.6746360371
 20
384.1636712628
 10
288.0252807604
 20
383.6141942343
 10
288.4880976088
 20
383.0931220376
 10
289.0563392506
 20
382.6080541975
 10
289.7217181561
 20
382.1660633202
 10
290.4745340451
 20
381.773595972
 10
291.3038069576
 20
381.4363739618
 10
292.1974453683
 20
381.1593155383
 10
293.1424191343
 20
380.9464610971
 10
294.1249455449
 20
380.8009132217
 10
295.1306963177
 20
380.7247938291
 10
296.1450106716
 20
380.719216056
 10
297.153092692
 20
380.7842579132
 10
298.140242085
 20
380.9189714097
 10
299.0920679408
 20
381.1213941857
 10
299.994688273
 20
381.3885730074
 10
300.8349422012
 20
381.7166128085
 10
301.600572895
 20
382.1007280136
 10
302.2804219764
 20
382.5353200921
 10
302.8645705796
 20
383.0140494111
 10
303.3445013534
 20
383.5299351433
 10
303.7132193697
 20
384.0754570008
 10
303.9653422126
 20
384.642656512
 10
304.097195994
 20
385.2232640745
 10
304.1177350753
 20
385.5621546779
  0
ARC
  5
236
330
1F
100
AcDbEntity
  8
0
  6
Continuous
 62
     7
370
    25
100
AcDbCircle
 10
290.9550409202
 20
434.0092537877
 30
0.0
 40
0.4666141212475534
100
AcDbArc
 50
65.99957264810001
 51
117.1798206242
  0
LWPOLYLINE
  5
237
330
1F
100
AcDbEntity
  8
0
  6
Continuous
 62
     7
370
    25
100
AcDbPolyline
 90
        3
 70
   128
 43
0.0
 10
291.1448331609
 20
434.4355255831
 10
291.5319704037
 20
434.2694556176
 10
291.6995080778
 20
434.2077235174
  0
LWPOLYLINE
  5
238
330
1F
100
AcDbEntity
  8
0
  6
Continuous
 62
     7
370
    25
100
AcDbPolyline
 90
       30
 70
   128
 43
0.0
 10
304.1177354704
 20
429.5500954752
 10
304.1758854773
 20
429.0715634642
 10
304.1371385624
 20
428.4915859188
 10
303.9794758949
 20
427.9183556243
 10
303.7051291504
 20
427.3599711069
 10
303.3179729415
 20
426.8243196701
 10
302.823473451
 20
426.3189647134
 10
302.228613358
 20
425.8510430853
 10
301.5417977977
 20
425.4271660884
 10
300.7727287112
 20
425.0533204822
 10
299.9322622049
 20
424.7347829455
 10
299.0322702556
 20
424.4760539266
 10
298.0854676456
 20
424.2807896691
 10
297.1052246723
 20
424.1517460989
 10
296.1053842047
 20
424.0907457492
 10
295.1000660956
 20
424.0986483358
 10
294.1034767305
 20
424.1753475631
 10
293.1296834104
 20
424.3197553857
 10
292.1924410886
 20
424.5298326876
 10
291.3049903621
 20
424.8026146587
 10
290.4798654403
 20
425.1342486598
 10
289.7287168965
 20
425.5200491005
 10
289.0621533918
 20
425.9545669123
 10
288.4895904963
 20
426.4316658737
 10
288.0191154009
 20
426.9446080093
 10
287.6573727538
 20
427.4861486922
 10
287.4094700617
 20
428.0486386997
 10
287.2789119008
 20
428.6241351855
 10
287.2675373883
 20
429.2045071189
 10
287.3177366556
 20
429.5500963876
  0
ARC
  5
239
330
1F
100
AcDbEntity
  8
0
  6
Continuous
 62
     7
370
    25
100
AcDbCircle
 10
286.6287963244
 20
431.5667087601
 30
0.0
 40
1.630078339260161
100
AcDbArc
 50
18.476931783
 51
44.8725913224
  0
LINE
  5
23A
330
1F
100
AcDbEntity
  8
0
  6
Continuous
 62
     7
370
    25
100
AcDbLine
 10
275.0560750588
 20
440.0644546205
 30
0.0
 11
287.7839960455
 21
432.7167822346
 31
0.0
  0
LINE
  5
23B
330
1F
100
AcDbEntity
  8
0
  6
Continuous
 62
     7
370
    25
100
AcDbLine
 10
275.0560750588
 20
440.0644546205
 30
0.0
 11
276.6682805228
 21
440.9951610242
 31
0.0
  0
LINE
  5
23C
330
1F
100
AcDbEntity
  8
0
  6
Continuous
 62
     7
370
    25
100
AcDbLine
 10
276.6682805228
 20
440.9951610242
 30
0.0
 11
289.3113488398
 21
433.6964730417
 31
0.0
  0
ARC
  5
23D
330
1F
100
AcDbEntity
  8
0
  6
Continuous
 62
     7
370
    25
100
AcDbCircle
 10
289.5234814845
 20
434.1058792391
 30
0.0
 40
0.4611005241498854
100
AcDbArc
 50
242.6091974207
 51
297.3903097036001
  0
LINE
  5
23E
330
1F
100
AcDbEntity
  8
0
  6
Continuous
 62
     7
370
    25
100
AcDbLine
 10
289.7356106073
 20
433.6964712169
 30
0.0
 11
290.1775866952
 21
433.9516185815
 31
0.0
  0
ARC
  5
23F
330
1F
100
AcDbEntity
  8
0
  6
Continuous
 62
     7
370
    25
100
AcDbCircle
 10
290.134599489
 20
434.0721537485
 30
0.0
 40
0.1279711935767283
100
AcDbArc
 50
289.6280754099
 51
30.6188769645
  0
LINE
  5
240
330
1F
100
AcDbEntity
  8
0
  6
Continuous
 62
     7
370
    25
100
AcDbLine
 10
290.2447282054
 20
434.1373326732
 30
0.0
 11
290.7418987524
 21
434.4243431208
 31
0.0
  0
LWPOLYLINE
  5
241
330
1F
100
AcDbEntity
  8
0
  6
Continuous
 62
     7
370
    25
100
AcDbPolyline
 90
       28
 70
   128
 43
0.0
 10
304.1777362508
 20
387.32588417
 10
304.1371385624
 20
386.8480004244
 10
303.9794758949
 20
386.2747701299
 10
303.7051291504
 20
385.7163856125
 10
303.3179729415
 20
385.1807341757
 10
302.823473451
 20
384.6753792189
 10
302.228613358
 20
384.2074575909
 10
301.5417977977
 20
383.783580594
 10
300.7727287112
 20
383.4097349878
 10
299.9322622049
 20
383.0911974511
 10
299.0322702556
 20
382.8324684322
 10
298.0854676456
 20
382.6372041747
 10
297.1052246723
 20
382.5081606044
 10
296.1053842047
 20
382.4471602548
 10
295.1000660956
 20
382.4550628413
 10
294.1034767305
 20
382.5317620687
 10
293.1296834104
 20
382.6761698913
 10
292.1924410886
 20
382.8862471932
 10
291.3049903621
 20
383.1590291643
 10
290.4798654403
 20
383.4906631654
 10
289.7287168965
 20
383.876463606
 10
289.0621533918
 20
384.3109814179
 10
288.4895904963
 20
384.7880803793
 10
288.0191154009
 20
385.3010225149
 10
287.6573727538
 20
385.8425631977
 10
287.4094700617
 20
386.4050532053
 10
287.2789119008
 20
386.980549691
 10
287.257735085
 20
387.3258837138
  0
SPLINE
  5
242
330
1F
100
AcDbEntity
  8
0
  6
Continuous
 62
     7
370
    25
100
AcDbSpline
210
0.0
220
0.0
230
1.0
 70
    11
 71
     3
 72
    26
 73
    22
 74
     0
 42
0.000000001
 43
0.00000001
 40
0.0
 40
0.0
 40
0.0
 40
0.0
 40
0.0531109593447348
 40
0.1062028068880605
 40
0.1598217986337525
 40
0.2137970204089722
 40
0.2672058659427129
 40
0.3200215725810457
 40
0.3731137431951019
 40
0.4269328740872497
 40
0.4808180977300243
 40
0.5339746991654042
 40
0.586752141914594
 40
0.6400823998731459
 40
0.69403909567845
 40
0.7477276455618961
 40
0.8006832549426295
 40
0.853570843411544
 40
0.9071454450314657
 40
0.9611288069365436
 40
1.0
 40
1.0
 40
1.0
 40
1.0
 10
288.7697334531509
 20
420.548953205338
 30
0.0
 10
288.779132425979
 20
420.6775713195663
 30
0.0
 10
288.7979269894462
 20
420.9347612652238
 30
0.0
 10
288.9479083419402
 20
421.1780965116046
 30
0.0
 10
289.1807935668321
 20
421.2851560284291
 30
0.0
 10
289.4917363005588
 20
421.240173434534
 30
0.0
 10
289.8489062310454
 20
421.0543574409125
 30
0.0
 10
290.2120287607336
 20
420.7520990437255
 30
0.0
 10
290.5380987948394
 20
420.3632541610264
 30
0.0
 10
290.7828762618981
 20
419.921315112955
 30
0.0
 10
290.9055296734585
 20
419.4705419133181
 30
0.0
 10
290.8853878691936
 20
419.0620936595096
 30
0.0
 10
290.7289786525937
 20
418.7410175503734
 30
0.0
 10
290.4604586949917
 20
418.5435453331959
 30
0.0
 10
290.1172066076962
 20
418.499628562171
 30
0.0
 10
289.7485734457956
 20
418.6223244274584
 30
0.0
 10
289.4027784545814
 20
418.8968872365867
 30
0.0
 10
289.1126985225189
 20
419.2895925210053
 30
0.0
 10
288.9013573510883
 20
419.7541642484129
 30
0.0
 10
288.7870158328282
 20
420.1968121274667
 30
0.0
 10
288.7748333423303
 20
420.4450392475279
 30
0.0
 10
288.7697334531509
 20
420.548953205338
 30
0.0
  0
LINE
  5
243
330
1F
100
AcDbEntity
  8
0
  6
Continuous
 62
     7
370
    25
100
AcDbLine
 10
287.7839960455
 20
431.5424401525
 30
0.0
 11
287.7839960455
 21
432.7167822346
 31
0.0
  0
LINE
  5
244
330
1F
100
AcDbEntity
  8
0
  6
Continuous
 62
     7
370
    25
100
AcDbLine
 10
275.0560750588
 20
398.4208691261
 30
0.0
 11
287.2577346899
 21
391.3770009541
 31
0.0
  0
LINE
  5
245
330
1F
100
AcDbEntity
  8
0
  6
Continuous
 62
     7
370
    25
100
AcDbLine
 10
275.0560750588
 20
398.4208691261
 30
0.0
 11
275.0560750588
 21
440.0644546205
 31
0.0
  0
LWPOLYLINE
  5
246
330
1F
100
AcDbEntity
  8
0
  6
Continuous
 62
     7
370
    25
100
AcDbPolyline
 90
       36
 70
   128
 43
0.0
 10
281.5473145566
 20
431.4178943228
 10
281.5895867919
 20
431.9358629487
 10
281.7150442622
 20
432.388376301
 10
281.9196558848
 20
432.7608901485
 10
282.1968443805
 20
433.0414398158
 10
282.5377012226
 20
433.220990624
 10
282.9312703379
 20
433.2937924455
 10
283.3649021401
 20
433.2574892442
 10
283.82465972
 20
433.1132496082
 10
284.2957661291
 20
432.8657202524
 10
284.7630793218
 20
432.5228467452
 10
285.2115797419
 20
432.0956504348
 10
285.6268515866
 20
431.5978703163
 10
285.9955490564
 20
431.0454967593
 10
286.3058199306
 20
430.4562860687
 10
286.5476935819
 20
429.849171466
 10
286.7133954973
 20
429.2436726958
 10
286.7975993689
 20
428.6592540665
 10
286.7975993689
 20
428.114684765
 10
286.7133954973
 20
427.6274858563
 10
286.5476935819
 20
427.2133024454
 10
286.3058199306
 20
426.8854492163
 10
285.9955490564
 20
426.6544696519
 10
285.6268515866
 20
426.5277851325
 10
285.2115797419
 20
426.5094603797
 10
284.7630793218
 20
426.6000989325
 10
284.2957661291
 20
426.7967737531
 10
283.82465972
 20
427.0931722794
 10
283.3649021401
 20
427.4797574462
 10
282.9312703379
 20
427.9441148668
 10
282.5377012226
 20
428.4713146162
 10
282.1968443805
 20
429.0444176579
 10
281.9196558848
 20
429.6449950497
 10
281.7150442622
 20
430.2537557486
 10
281.5895867919
 20
430.8511192128
 10
281.5473145566
 20
431.4178943228
  0
LWPOLYLINE
  5
247
330
1F
100
AcDbEntity
  8
0
  6
Continuous
 62
     7
370
    25
100
AcDbPolyline
 90
       36
 70
   128
 43
0.0
 10
276.6682773618
 20
418.3119572944
 10
276.7105495971
 20
418.8299259203
 10
276.8360086479
 20
419.2824383602
 10
277.0406194802
 20
419.654952664
 10
277.3178071857
 20
419.9355027874
 10
277.6586640278
 20
420.1150535956
 10
278.0522339334
 20
420.187854961
 10
278.4858649453
 20
420.1515522158
 10
278.9456233155
 20
420.0073121236
 10
279.4167297246
 20
419.7597827678
 10
279.8840429173
 20
419.4169092606
 10
280.3325433374
 20
418.9897129502
 10
280.7478151821
 20
418.4919328317
 10
281.1165126518
 20
417.9395592747
 10
281.426783526
 20
417.3503485841
 10
281.6686563871
 20
416.7432344377
 10
281.8343590928
 20
416.1377352113
 10
281.9185629643
 20
415.5533165819
 10
281.9185629643
 20
415.0087472804
 10
281.8343590928
 20
414.5215483718
 10
281.6686563871
 20
414.1073654171
 10
281.426783526
 20
413.7795117317
 10
281.1165126518
 20
413.5485321673
 10
280.7478151821
 20
413.4218476479
 10
280.3325433374
 20
413.4035228951
 10
279.8840429173
 20
413.4941614479
 10
279.4167297246
 20
413.6908362685
 10
278.9456233155
 20
413.9872274944
 10
278.4858649453
 20
414.3738204179
 10
278.0522339334
 20
414.8381773822
 10
277.6586640278
 20
415.3653775878
 10
277.3178071857
 20
415.9384806295
 10
277.0406194802
 20
416.5390575651
 10
276.8360086479
 20
417.1478178078
 10
276.7105495971
 20
417.7451821845
 10
276.6682773618
 20
418.3119572944
  0
LWPOLYLINE
  5
248
330
1F
100
AcDbEntity
  8
0
  6
Continuous
 62
     7
370
    25
100
AcDbPolyline
 90
       36
 70
   128
 43
0.0
 10
281.5473145566
 20
399.5728038273
 10
281.5895867919
 20
400.0907724532
 10
281.7150442622
 20
400.5432858055
 10
281.9196558848
 20
400.9158033033
 10
282.1968443805
 20
401.1963456701
 10
282.5377012226
 20
401.3759037787
 10
282.9312703379
 20
401.4486982998
 10
283.3649021401
 20
401.4123950985
 10
283.82465972
 20
401.2681591127
 10
284.2957661291
 20
401.0206297569
 10
284.7630793218
 20
400.6777562497
 10
285.2115797419
 20
400.2505599393
 10
285.6268515866
 20
399.7527798208
 10
285.9955490564
 20
399.2004026136
 10
286.3058199306
 20
398.611191923
 10
286.5476935819
 20
398.0040809706
 10
286.7133954973
 20
397.3985822004
 10
286.7975993689
 20
396.8141599208
 10
286.7975993689
 20
396.2695942695
 10
286.7133954973
 20
395.7823917106
 10
286.5476935819
 20
395.3682082997
 10
286.3058199306
 20
395.0403587209
 10
285.9955490564
 20
394.8093791564
 10
285.6268515866
 20
394.6826909868
 10
285.2115797419
 20
394.6643735345
 10
284.7630793218
 20
394.7550047868
 10
284.2957661291
 20
394.9516832576
 10
283.82465972
 20
395.2480781337
 10
283.3649021401
 20
395.6346669508
 10
282.9312703379
 20
396.0990243713
 10
282.5377012226
 20
396.6262277709
 10
282.1968443805
 20
397.1993271624
 10
281.9196558848
 20
397.7999045542
 10
281.7150442622
 20
398.4086616029
 10
281.5895867919
 20
399.0060250671
 10
281.5473145566
 20
399.5728038273
  0
LINE
  5
249
330
1F
100
AcDbEntity
  8
0
  6
Continuous
 62
     7
370
    25
100
AcDbLine
 10
290.2447282054
 20
434.0108232834
 30
0.0
 11
290.2447282054
 21
434.1373326732
 31
0.0
  0
LWPOLYLINE
  5
24A
330
1F
100
AcDbEntity
  8
0
  6
Continuous
 62
     7
370
    25
100
AcDbPolyline
 90
        6
 70
   128
 43
0.0
 10
284.0928985958
 20
431.4178938666
 10
284.1355517334
 20
431.7831582337
 10
284.2608298161
 20
432.0762239458
 10
284.4608627104
 20
432.2786744391
 10
284.7230806455
 20
432.3777993738
 10
284.9217653675
 20
432.3833540348
  0
LWPOLYLINE
  5
24B
330
1F
100
AcDbEntity
  8
0
  6
Continuous
 62
     7
370
    25
100
AcDbPolyline
 90
       12
 70
   128
 43
0.0
 10
286.7008944786
 20
429.3014798599
 10
286.5489010891
 20
429.0785679929
 10
286.3159391255
 20
428.9265773585
 10
286.028600615
 20
428.8818876506
 10
285.7049404773
 20
428.9472897891
 10
285.3652958839
 20
429.1186869394
 10
285.0310084183
 20
429.3853065617
 10
284.7230806455
 20
429.7303956521
 10
284.4608627104
 20
430.1322709705
 10
284.2608298161
 20
430.5656745275
 10
284.1355517334
 20
431.0033832352
 10
284.0928985958
 20
431.4178938666
  0
LWPOLYLINE
  5
24C
330
1F
100
AcDbEntity
  8
0
  6
Continuous
 62
     7
370
    25
100
AcDbPolyline
 90
       13
 70
   128
 43
0.0
 10
284.6754449602
 20
432.368743905
 10
284.5276509773
 20
432.1359248172
 10
284.4430179982
 20
431.8041445592
 10
284.4430179982
 20
431.4111616718
 10
284.5276509773
 20
430.9816662559
 10
284.6915993204
 20
430.5426443592
 10
284.9245620743
 20
430.1216811106
 10
285.2118997946
 20
429.7452378763
 10
285.5355599322
 20
429.436949974
 10
285.8752045257
 20
429.2162018239
 10
286.2094927815
 20
429.0968608976
 10
286.517419764
 20
429.0864246053
 10
286.5650586103
 20
429.095483907
  0
LWPOLYLINE
  5
24D
330
1F
100
AcDbEntity
  8
0
  6
Continuous
 62
     7
370
    25
100
AcDbPolyline
 90
        6
 70
   128
 43
0.0
 10
279.2138621913
 20
418.311956382
 10
279.2565153288
 20
418.6772207491
 10
279.3817926213
 20
418.9702869175
 10
279.5818263059
 20
419.1727369545
 10
279.8440434507
 20
419.2718623455
 10
280.042728963
 20
419.2774165502
  0
LWPOLYLINE
  5
24E
330
1F
100
AcDbEntity
  8
0
  6
Continuous
 62
     7
370
    25
100
AcDbPolyline
 90
       12
 70
   128
 43
0.0
 10
281.8218580741
 20
416.1955423754
 10
281.6698638943
 20
415.9726309645
 10
281.4369019307
 20
415.8206403301
 10
281.1495642104
 20
415.775950166
 10
280.8259032825
 20
415.8413527607
 10
280.4862586891
 20
416.012749911
 10
280.1519720138
 20
416.2793690772
 10
279.8440434507
 20
416.6244586237
 10
279.5818263059
 20
417.0263261855
 10
279.3817926213
 20
417.4597374991
 10
279.2565153288
 20
417.8974457507
 10
279.2138621913
 20
418.311956382
  0
LWPOLYLINE
  5
24F
330
1F
100
AcDbEntity
  8
0
  6
Continuous
 62
     7
370
    25
100
AcDbPolyline
 90
       13
 70
   128
 43
0.0
 10
279.7964085557
 20
419.2628064204
 10
279.6486137825
 20
419.0299877889
 10
279.5639808034
 20
418.6982075308
 10
279.5639808034
 20
418.3052246434
 10
279.6486137825
 20
417.8757292276
 10
279.8125629159
 20
417.4367068746
 10
280.0455248795
 20
417.0157440822
 10
280.3328641803
 20
416.6392999355
 10
280.6565235277
 20
416.3310124894
 10
280.9961681211
 20
416.1102643393
 10
281.3304563769
 20
415.9909234131
 10
281.6383833595
 20
415.9804871207
 10
281.6860214155
 20
415.9895468786
  0
LWPOLYLINE
  5
250
330
1F
100
AcDbEntity
  8
0
  6
Continuous
 62
     7
370
    25
100
AcDbPolyline
 90
        6
 70
   128
 43
0.0
 10
284.0928985958
 20
399.5728033711
 10
284.1355517334
 20
399.938064088
 10
284.2608298161
 20
400.2311298001
 10
284.4608627104
 20
400.4335839436
 10
284.7230806455
 20
400.5327088783
 10
284.9217653675
 20
400.5382671895
  0
LWPOLYLINE
  5
251
330
1F
100
AcDbEntity
  8
0
  6
Continuous
 62
     7
370
    25
100
AcDbPolyline
 90
       12
 70
   128
 43
0.0
 10
286.7008944786
 20
397.4563893645
 10
286.5489010891
 20
397.2334774974
 10
286.3159391255
 20
397.0814905132
 10
286.028600615
 20
397.0367935049
 10
285.7049404773
 20
397.1021992936
 10
285.3652958839
 20
397.2735964439
 10
285.0310084183
 20
397.5402160663
 10
284.7230806455
 20
397.8853015064
 10
284.4608627104
 20
398.2871768248
 10
284.2608298161
 20
398.720584032
 10
284.1355517334
 20
399.1582927398
 10
284.0928985958
 20
399.5728033711
  0
LWPOLYLINE
  5
252
330
1F
100
AcDbEntity
  8
0
  6
Continuous
 62
     7
370
    25
100
AcDbPolyline
 90
       13
 70
   128
 43
0.0
 10
284.6754449602
 20
400.5236497593
 10
284.5276509773
 20
400.2908343218
 10
284.4430179982
 20
399.9590540637
 10
284.4430179982
 20
399.5660675261
 10
284.5276509773
 20
399.1365721102
 10
284.6915993204
 20
398.6975538637
 10
284.9245620743
 20
398.2765942654
 10
285.2118997946
 20
397.9001437306
 10
285.5355599322
 20
397.5918594785
 10
285.8752045257
 20
397.3711113284
 10
286.2094927815
 20
397.2517704022
 10
286.517419764
 20
397.2413304596
 10
286.5650586103
 20
397.2503897613
  0
LWPOLYLINE
  5
253
330
1F
100
AcDbEntity
  8
0
  6
Continuous
 62
     7
370
    25
100
AcDbPolyline
 90
        9
 70
   128
 43
0.0
 10
280.6870000456
 20
383.7583132094
 10
280.4309227746
 20
383.8417421239
 10
280.2176807945
 20
383.9586178322
 10
280.0600726545
 20
384.1019205016
 10
279.9675663807
 20
384.2630493261
 10
279.9457150836
 20
384.4323277713
 10
279.9958282134
 20
384.5995911653
 10
280.1148996458
 20
384.7547975548
 10
280.2957791683
 20
384.8886294378
  0
LINE
  5
254
330
1F
100
AcDbEntity
  8
0
  6
Continuous
 62
     7
370
    25
100
AcDbLine
 10
286.7657640103
 20
388.6236721845
 30
0.0
 11
280.2957791683
 21
384.8886294378
 31
0.0
  0
ARC
  5
255
330
1F
100
AcDbEntity
  8
0
  6
Continuous
 62
     7
370
    25
100
AcDbCircle
 10
286.8742242795
 20
389.0778825201
 30
0.0
 40
0.4669803625265319
100
AcDbArc
 50
256.5699103984
 51
297.1703551703
  0
LINE
  5
256
330
1F
100
AcDbEntity
  8
0
  6
Continuous
 62
     7
370
    25
100
AcDbLine
 10
287.0874651098
 20
388.6624321533
 30
0.0
 11
287.2577362704
 21
388.7607276021
 31
0.0
  0
LINE
  5
257
330
1F
100
AcDbEntity
  8
0
  6
Continuous
 62
     7
370
    25
100
AcDbLine
 10
287.2577346899
 20
389.3193516264
 30
0.0
 11
274.8863697196
 21
396.4611886055
 31
0.0
  0
LINE
  5
258
330
1F
100
AcDbEntity
  8
0
  6
Continuous
 62
     7
370
    25
100
AcDbLine
 10
274.8863697196
 20
396.4611886055
 30
0.0
 11
276.4985720226
 21
397.3918931843
 31
0.0
  0
LINE
  5
259
330
1F
100
AcDbEntity
  8
0
  6
Continuous
 62
     7
370
    25
100
AcDbLine
 10
276.4985720226
 20
397.3918931843
 30
0.0
 11
287.2577338996
 21
391.1807612403
 31
0.0
  0
LWPOLYLINE
  5
25A
330
1F
100
AcDbEntity
  8
0
  6
Continuous
 62
     7
370
    25
100
AcDbPolyline
 90
       19
 70
   128
 43
0.0
 10
292.493731523
 20
380.9488595168
 10
293.4445719328
 20
380.7599212063
 10
294.4275272534
 20
380.6374468536
 10
295.428715103
 20
380.5831695761
 10
296.4339810554
 20
380.5978518041
 10
297.4291333447
 20
380.6812921237
 10
298.4001026942
 20
380.8323060023
 10
299.3331714902
 20
381.0487613724
 10
300.2151614668
 20
381.3276016701
 10
301.0336091424
 20
381.6648868931
 10
301.7769507389
 20
382.0558510825
 10
302.434682998
 20
382.4949700692
 10
302.9975125399
 20
382.9760394845
 10
303.4574913907
 20
383.492264404
 10
303.8081153699
 20
384.0363485359
 10
304.0444299836
 20
384.6006046215
 10
304.163105104
 20
385.1770646093
 10
304.162453145
 20
385.7575786501
 10
304.1177354704
 20
386.0447982671
  0
LINE
  5
25B
330
1F
100
AcDbEntity
  8
0
  6
Continuous
 62
     7
370
    25
100
AcDbLine
 10
292.493731523
 20
380.9488595168
 30
0.0
 11
280.6870000456
 21
383.7583132094
 31
0.0
  0
LWPOLYLINE
  5
25C
330
1F
100
AcDbEntity
  8
0
  6
Continuous
 62
     7
370
    25
100
AcDbPolyline
 90
       18
 70
   128
 43
0.0
 10
304.1777362508
 20
343.8205906122
 10
304.163105104
 20
343.5334827651
 10
304.0444299836
 20
342.9570227773
 10
303.8081153699
 20
342.3927666917
 10
303.4574913907
 20
341.8486825598
 10
302.9975125399
 20
341.3324576403
 10
302.434682998
 20
340.851388225
 10
301.7769507389
 20
340.4122692383
 10
301.0336091424
 20
340.0213050489
 10
300.2151614668
 20
339.6840198259
 10
299.3331714902
 20
339.4051795282
 10
298.4001026942
 20
339.1887241581
 10
297.4291333447
 20
339.0377102795
 10
296.4339810554
 20
338.9542699599
 10
295.428715103
 20
338.9395877319
 10
294.4275272534
 20
338.9938650094
 10
293.4445719328
 20
339.1163393621
 10
292.493731523
 20
339.3052776726
  0
LINE
  5
25D
330
1F
100
AcDbEntity
  8
0
  6
Continuous
 62
     7
370
    25
100
AcDbLine
 10
292.493731523
 20
339.3052776726
 30
0.0
 11
280.6870000456
 21
342.1147313652
 31
0.0
  0
ARC
  5
25E
330
1F
100
AcDbEntity
  8
0
  6
Continuous
 62
     7
370
    25
100
AcDbCircle
 10
280.7527277378
 20
342.9418014544
 30
0.0
 40
0.829677685519776
100
AcDbArc
 50
192.9973670579
 51
265.4562239062
  0
LINE
  5
25F
330
1F
100
AcDbEntity
  8
0
  6
Continuous
 62
     7
370
    25
100
AcDbLine
 10
279.9443060618
 20
351.8977222624
 30
0.0
 11
274.8863697196
 21
354.8176067613
 31
0.0
  0
LINE
  5
260
330
1F
100
AcDbEntity
  8
0
  6
Continuous
 62
     7
370
    25
100
AcDbLine
 10
274.8863697196
 20
354.8176067613
 30
0.0
 11
274.8863697196
 21
396.4611886055
 31
0.0
  0
LWPOLYLINE
  5
261
330
1F
100
AcDbEntity
  8
0
  6
Continuous
 62
     7
370
    25
100
AcDbPolyline
 90
       10
 70
   128
 43
0.0
 10
282.6504016321
 20
387.0798645369
 10
282.6930547696
 20
387.4451252537
 10
282.8183328524
 20
387.7381909659
 10
283.0183657467
 20
387.9406451093
 10
283.2805836818
 20
388.0397700441
 10
283.5885114546
 20
388.0293296453
 10
283.9227989202
 20
387.9099891753
 10
284.2624435136
 20
387.6892410251
 10
284.5861036513
 20
387.3809567731
 10
284.5952484637
 20
387.3706585302
  0
LWPOLYLINE
  5
262
330
1F
100
AcDbEntity
  8
0
  6
Continuous
 62
     7
370
    25
100
AcDbPolyline
 90
        3
 70
   128
 43
0.0
 10
282.7838619987
 20
386.3249696543
 10
282.6930547696
 20
386.6653539055
 10
282.6504016321
 20
387.0798645369
  0
LWPOLYLINE
  5
263
330
1F
100
AcDbEntity
  8
0
  6
Continuous
 62
     7
370
    25
100
AcDbPolyline
 90
       10
 70
   128
 43
0.0
 10
277.7713652276
 20
373.9739252272
 10
277.8140183651
 20
374.3391877691
 10
277.9392956576
 20
374.6322539375
 10
278.1393293422
 20
374.8347076248
 10
278.401546487
 20
374.9338311906
 10
278.7094750501
 20
374.9233921607
 10
279.0437617254
 20
374.8040503218
 10
279.3834063188
 20
374.5833021717
 10
279.7070672467
 20
374.2750174634
 10
279.9443060618
 20
373.9731052338
  0
LWPOLYLINE
  5
264
330
1F
100
AcDbEntity
  8
0
  6
Continuous
 62
     7
370
    25
100
AcDbPolyline
 90
       10
 70
   128
 43
0.0
 10
279.9443060618
 20
371.4659211352
 10
279.7070672467
 20
371.437917186
 10
279.3834063188
 20
371.5033252561
 10
279.0437617254
 20
371.6747205813
 10
278.7094750501
 20
371.9413397474
 10
278.401546487
 20
372.2864274689
 10
278.1393293422
 20
372.6882986809
 10
277.9392956576
 20
373.1217081694
 10
277.8140183651
 20
373.5594164209
 10
277.7713652276
 20
373.9739252272
  0
ARC
  5
265
330
1F
100
AcDbEntity
  8
0
  6
Continuous
 62
     7
370
    25
100
AcDbCircle
 10
284.6446660266
 20
387.1692773152
 30
0.0
 40
1.653790023395699
100
AcDbArc
 50
148.6084725054
 51
203.0821794907
  0
LWPOLYLINE
  5
266
330
1F
100
AcDbEntity
  8
0
  6
Continuous
 62
     7
370
    25
100
AcDbPolyline
 90
        3
 70
   128
 43
0.0
 10
283.0971058062
 20
387.8247077188
 10
283.2503067029
 20
387.2770177083
 10
283.4690844081
 20
386.7205377289
  0
LWPOLYLINE
  5
267
330
1F
100
AcDbEntity
  8
0
  6
Continuous
 62
     7
370
    25
100
AcDbPolyline
 90
       12
 70
   128
 43
0.0
 10
278.353908431
 20
374.9247716156
 10
278.2061136578
 20
374.6919548092
 10
278.1214806787
 20
374.3601745511
 10
278.1214806787
 20
373.9671898387
 10
278.2061136578
 20
373.5376944228
 10
278.3700627912
 20
373.098673895
 10
278.6030247548
 20
372.6777147528
 10
278.8903640555
 20
372.3012651307
 10
279.214023403
 20
371.99298316
 10
279.5536679964
 20
371.7722331847
 10
279.8879562522
 20
371.6528922585
 10
279.9443060618
 20
371.6430976128
  0
ARC
  5
268
330
1F
100
AcDbEntity
  8
0
  6
Continuous
 62
     7
370
    25
100
AcDbCircle
 10
284.164746104
 20
376.0961253386
 30
0.0
 40
6.104103458124443
100
AcDbArc
 50
193.040753714
 51
226.2581286905
  0
LINE
  5
269
330
1F
100
AcDbEntity
  8
0
  6
Continuous
 62
     8
370
    18
100
AcDbLine
 10
292.493731523
 20
380.9488595168
 30
0.0
 11
292.493731523
 21
339.3052776726
 31
0.0
  0
LINE
  5
26A
330
1F
100
AcDbEntity
  8
0
  6
Continuous
 62
     8
370
    18
100
AcDbLine
 10
280.6870000456
 20
342.1147313652
 30
0.0
 11
280.6870000456
 21
383.7583132094
 31
0.0
  0
LINE
  5
26B
330
1F
100
AcDbEntity
  8
0
  6
Continuous
 62
     7
370
    18
100
AcDbLine
 10
260.1695732967
 20
442.8686381212
 30
0.0
 11
312.9830993636
 21
442.8686381212
 31
0.0
  0
LINE
  5
26C
330
1F
100
AcDbEntity
  8
0
  6
Continuous
 62
     7
370
    18
100
AcDbLine
 10
260.1695732967
 20
442.8686381212
 30
0.0
 11
260.1695732967
 21
318.0652461655
 31
0.0
  0
LINE
  5
26D
330
1F
100
AcDbEntity
  8
0
  6
Continuous
 62
     7
370
    18
100
AcDbLine
 10
260.1695732967
 20
318.0652461655
 30
0.0
 11
312.9830993636
 21
318.0652461655
 31
0.0
  0
LINE
  5
26E
330
1F
100
AcDbEntity
  8
0
  6
Continuous
 62
     7
370
    18
100
AcDbLine
 10
312.9830993636
 20
442.8686381212
 30
0.0
 11
312.9830993636
 21
318.0652461655
 31
0.0
  0
MTEXT
  5
26F
330
1F
100
AcDbEntity
  8
0
  6
Continuous
 62
     7
370
     0
100
AcDbMText
 10
265.7074425848
 20
333.8731982016
 30
0.0
 40
4.2
 41
0.0
 71
     1
 72
     1
  1
{835EBMC40SOLL}
  7
SLDTEXTSTYLE0
 73
     1
 44
1.0
1001
ACAD
1000
ACAD_MTEXT_DEFINED_HEIGHT_BEGIN
1070
    46
1040
4.2
1000
ACAD_MTEXT_DEFINED_HEIGHT_END
  0
CIRCLE
  5
270
330
1F
100
AcDbEntity
  8
0
  6
Continuous
 62
     7
370
    25
100
AcDbCircle
 10
146.0166679985
 20
348.5107449709
 30
0.0
 40
14.00000000000001
  0
LWPOLYLINE
  5
271
330
1F
100
AcDbEntity
  8
0
  6
Continuous
 62
     7
370
    25
100
AcDbPolyline
 90
        9
 70
   128
 43
0.0
 10
146.4329889781
 20
351.9497383281
 10
146.0349119074
 20
351.7799659061
 10
145.6366411216
 20
351.6101108293
 10
145.2382436759
 20
351.4402005716
 10
144.839779175
 20
351.2702630728
 10
144.4413221247
 20
351.1003253411
 10
144.0429172284
 20
350.9304150834
 10
143.6446464426
 20
350.7605600066
 10
143.2465768225
 20
350.5907875846
  0
LWPOLYLINE
  5
272
330
1F
100
AcDbEntity
  8
0
  6
Continuous
 62
     7
370
    25
100
AcDbPolyline
 90
        9
 70
   128
 43
0.0
 10
143.2465768225
 20
350.5907875846
 10
143.1945643193
 20
350.1611571887
 10
143.1425294644
 20
349.7313178272
 10
143.0904722578
 20
349.301339233
 10
143.0384150512
 20
348.8712908769
 10
142.986350394
 20
348.4412425573
 10
142.9343006379
 20
348.0112638685
 10
142.8822583324
 20
347.5814245652
 10
142.8302532799
 20
347.1517942275
  0
LWPOLYLINE
  5
273
330
1F
100
AcDbEntity
  8
0
  6
Continuous
 62
     7
370
    25
100
AcDbPolyline
 90
        9
 70
   128
 43
0.0
 10
142.8302532799
 20
347.1517942275
 10
143.1763178474
 20
346.8919363699
 10
143.5225537784
 20
346.6319520853
 10
143.8688940174
 20
346.3718835159
 10
144.2153013117
 20
346.1117728042
 10
144.5617011554
 20
345.8516623254
 10
144.908048845
 20
345.5915937561
 10
145.2542773254
 20
345.3316094714
 10
145.6003418929
 20
345.0717516138
  0
LWPOLYLINE
  5
274
330
1F
100
AcDbEntity
  8
0
  6
Continuous
 62
     7
370
    25
100
AcDbPolyline
 90
        9
 70
   128
 43
0.0
 10
145.6003418929
 20
345.0717516138
 10
145.9984189636
 20
345.2415240358
 10
146.3966897494
 20
345.4113791126
 10
146.7950871951
 20
345.5812893703
 10
147.193551696
 20
345.7512268691
 10
147.5920161969
 20
345.9211646008
 10
147.9904136426
 20
346.0910748585
 10
148.3886844284
 20
346.2609299353
 10
148.7867614991
 20
346.4307023573
  0
LWPOLYLINE
  5
275
330
1F
100
AcDbEntity
  8
0
  6
Continuous
 62
     7
370
    25
100
AcDbPolyline
 90
        9
 70
   128
 43
0.0
 10
148.7867614991
 20
346.4307023573
 10
148.8387740023
 20
346.8603327532
 10
148.8908088572
 20
347.2901721147
 10
148.9428586132
 20
347.7201507089
 10
148.9949232704
 20
348.1501990649
 10
149.0469879276
 20
348.5802473846
 10
149.0990376837
 20
349.0102260734
 10
149.1510725386
 20
349.4400653766
 10
149.2030850417
 20
349.8696957144
  0
LWPOLYLINE
  5
276
330
1F
100
AcDbEntity
  8
0
  6
Continuous
 62
     7
370
    25
100
AcDbPolyline
 90
        9
 70
   128
 43
0.0
 10
149.2030850417
 20
349.8696957144
 10
148.8570204742
 20
350.129553572
 10
148.5107845432
 20
350.3895378566
 10
148.1644368536
 20
350.649606426
 10
147.8180370099
 20
350.9097171376
 10
147.4716371662
 20
351.1698276165
 10
147.1252894766
 20
351.4298961858
 10
146.7790535457
 20
351.6898804705
 10
146.4329889781
 20
351.9497383281
  0
ARC
  5
277
330
1F
100
AcDbEntity
  8
0
  6
Continuous
 62
     7
370
    25
100
AcDbCircle
 10
146.0166679985
 20
348.5107449709
 30
0.0
 40
3.000000000000003
100
AcDbArc
 50
233.0973951396
 51
293.0973951396001
  0
ARC
  5
278
330
1F
100
AcDbEntity
  8
0
  6
Continuous
 62
     7
370
    25
100
AcDbCircle
 10
146.0166679985
 20
348.5107449709
 30
0.0
 40
3.000000000000003
100
AcDbArc
 50
173.0973951396
 51
233.0973951396
  0
ARC
  5
279
330
1F
100
AcDbEntity
  8
0
  6
Continuous
 62
     7
370
    25
100
AcDbCircle
 10
146.0166679985
 20
348.5107449709
 30
0.0
 40
2.999999999999986
100
AcDbArc
 50
293.0973951396001
 51
353.0973951396
  0
ARC
  5
27A
330
1F
100
AcDbEntity
  8
0
  6
Continuous
 62
     7
370
    25
100
AcDbCircle
 10
146.0166679985
 20
348.5107449709
 30
0.0
 40
3.000000000000061
100
AcDbArc
 50
113.0973951396
 51
173.0973951396
  0
ARC
  5
27B
330
1F
100
AcDbEntity
  8
0
  6
Continuous
 62
     7
370
    25
100
AcDbCircle
 10
146.0166679985
 20
348.5107449709
 30
0.0
 40
2.999999999999986
100
AcDbArc
 50
353.0973951396
 51
53.0973951396
  0
ARC
  5
27C
330
1F
100
AcDbEntity
  8
0
  6
Continuous
 62
     7
370
    25
100
AcDbCircle
 10
146.0166679985
 20
348.5107449709
 30
0.0
 40
3.000000000000061
100
AcDbArc
 50
53.0973951396
 51
113.0973951396
  0
ARC
  5
27D
330
1F
100
AcDbEntity
  8
0
  6
Continuous
 62
     7
370
    25
100
AcDbCircle
 10
159.7493016253
 20
331.1952959825
 30
0.0
 40
8.0
100
AcDbArc
 50
128.4174283431
 51
174.4948527436
  0
ARC
  5
27E
330
1F
100
AcDbEntity
  8
0
  6
Continuous
 62
     7
370
    25
100
AcDbCircle
 10
151.2885071622
 20
332.0107449709
 30
0.0
 40
0.5
100
AcDbArc
 50
270.0
 51
354.4948527436
  0
LINE
  5
27F
330
1F
100
AcDbEntity
  8
0
  6
Continuous
 62
     7
370
    25
100
AcDbLine
 10
150.1166677839
 20
331.5107440471
 30
0.0
 11
151.2885100014
 21
331.5107440471
 31
0.0
  0
ARC
  5
280
330
1F
100
AcDbEntity
  8
0
  6
Continuous
 62
     7
370
    25
100
AcDbCircle
 10
149.658410429
 20
331.3107449709
 30
0.0
 40
0.5000000000000568
100
AcDbArc
 50
23.5781784782
 51
90.0
  0
LINE
  5
281
330
1F
100
AcDbEntity
  8
0
  6
Continuous
 62
     7
370
    25
100
AcDbLine
 10
148.6166647441
 20
331.8107454001
 30
0.0
 11
149.6584123737
 21
331.8107454001
 31
0.0
  0
ARC
  5
282
330
1F
100
AcDbEntity
  8
0
  6
Continuous
 62
     7
370
    25
100
AcDbCircle
 10
148.6166679985
 20
331.3107449709
 30
0.0
 40
0.5000000000000568
100
AcDbArc
 50
90.0
 51
180.0
  0
LINE
  5
283
330
1F
100
AcDbEntity
  8
0
  6
Continuous
 62
     7
370
    25
100
AcDbLine
 10
147.7166644103
 20
301.5107465803
 30
0.0
 11
148.1166711814
 21
301.5107465803
 31
0.0
  0
LINE
  5
284
330
1F
100
AcDbEntity
  8
0
  6
Continuous
 62
     7
370
    25
100
AcDbLine
 10
148.1166711814
 20
301.5107465803
 30
0.0
 11
148.1166711814
 21
331.3107443868
 31
0.0
  0
ARC
  5
285
330
1F
100
AcDbEntity
  8
0
  6
Continuous
 62
     7
370
    25
100
AcDbCircle
 10
153.7166679985
 20
329.9441082265
 30
0.0
 40
6.0
100
AcDbArc
 50
112.5248798336
 51
180.0
  0
LINE
  5
286
330
1F
100
AcDbEntity
  8
0
  6
Continuous
 62
     7
370
    25
100
AcDbLine
 10
147.7166644103
 20
301.5107465803
 30
0.0
 11
147.7166644103
 21
329.9441086023
 31
0.0
  0
LINE
  5
287
330
1F
100
AcDbEntity
  8
0
  6
Continuous
 62
     7
370
    25
100
AcDbLine
 10
143.9166671402
 20
301.5107465803
 30
0.0
 11
147.7166644103
 21
301.5107465803
 31
0.0
  0
LINE
  5
288
330
1F
100
AcDbEntity
  8
0
  6
Continuous
 62
     7
370
    25
100
AcDbLine
 10
143.9166671402
 20
331.3107443868
 30
0.0
 11
143.9166671402
 21
301.5107465803
 31
0.0
  0
ARC
  5
289
330
1F
100
AcDbEntity
  8
0
  6
Continuous
 62
     7
370
    25
100
AcDbCircle
 10
143.4166679985
 20
331.3107449709
 30
0.0
 40
0.5
100
AcDbArc
 50
0.0
 51
90.0
  0
LINE
  5
28A
330
1F
100
AcDbEntity
  8
0
  6
Continuous
 62
     7
370
    25
100
AcDbLine
 10
142.3749259479
 20
331.8107454001
 30
0.0
 11
143.4166661269
 21
331.8107454001
 31
0.0
  0
ARC
  5
28B
330
1F
100
AcDbEntity
  8
0
  6
Continuous
 62
     7
370
    25
100
AcDbCircle
 10
142.374925568
 20
331.3107449709
 30
0.0
 40
0.5000000000000107
100
AcDbArc
 50
90.0
 51
156.4218215218
  0
LINE
  5
28C
330
1F
100
AcDbEntity
  8
0
  6
Continuous
 62
     7
370
    25
100
AcDbLine
 10
141.9166705377
 20
331.5107440471
 30
0.0
 11
126.6667700178
 21
331.5107440471
 31
0.0
  0
ARC
  5
28D
330
1F
100
AcDbEntity
  8
0
  6
Continuous
 62
     7
370
    25
100
AcDbCircle
 10
126.6667671654
 20
333.5107449709
 30
0.0
 40
2.000000000000011
100
AcDbArc
 50
157.4010867151
 51
270.0
  0
LINE
  5
28E
330
1F
100
AcDbEntity
  8
0
  6
Continuous
 62
     7
370
    25
100
AcDbLine
 10
132.9993015892
 20
353.9290618977
 30
0.0
 11
124.8203298814
 21
334.2793006345
 31
0.0
  0
ARC
  5
28F
330
1F
100
AcDbEntity
  8
0
  6
Continuous
 62
     7
370
    25
100
AcDbCircle
 10
146.0166679985
 20
348.5107449709
 30
0.0
 40
14.09999999999999
100
AcDbArc
 50
292.5248798336
 51
157.4010867151
  0
MTEXT
  5
2B4
330
1F
100
AcDbEntity
  8
0
  6
Continuous
 62
     0
370
     0
100
AcDbMText
 10
10.2412777483
 20
438.1686662736
 30
0.0
 40
7.14375
 41
0.0
 71
     1
 72
     1
  1
{835EBMC40SOLL}
  7
SLDTEXTSTYLE0
 73
     1
 44
1.0
1001
ACAD
1000
ACAD_MTEXT_DEFINED_HEIGHT_BEGIN
1070
    46
1040
7.14375
1000
ACAD_MTEXT_DEFINED_HEIGHT_END
  0
LINE
  5
2B9
330
1F
100
AcDbEntity
  8
0
  6
Continuous
 62
     7
370
    25
100
AcDbLine
 10
683.6391399461271
 20
20.9558061829
 30
0.0
 11
683.8479573684272
 21
20.538181117
 31
0.0
  0
LINE
  5
2BA
330
1F
100
AcDbEntity
  8
0
  6
Continuous
 62
     7
370
    25
100
AcDbLine
 10
683.8479573684272
 20
16.538180927
 30
0.0
 11
683.6391399461271
 21
16.1205558611
 31
0.0
  0
LINE
  5
2BB
330
1F
100
AcDbEntity
  8
0
  6
Continuous
 62
     7
370
    25
100
AcDbLine
 10
683.8479573684272
 20
19.5803975726
 30
0.0
 11
683.8479573684272
 21
16.538180927
 31
0.0
  0
LINE
  5
2BC
330
1F
100
AcDbEntity
  8
0
  6
Continuous
 62
     7
370
    25
100
AcDbLine
 10
683.8479573684272
 20
20.538181117
 30
0.0
 11
683.8479573684272
 21
19.5803975726
 31
0.0
  0
CIRCLE
  5
2BD
330
1F
100
AcDbEntity
  8
0
  6
Continuous
 62
     7
370
    25
100
AcDbCircle
 10
669.7479545432271
 20
18.5381810221
 30
0.0
 40
13.99999999999996
  0
ARC
  5
2BE
330
1F
100
AcDbEntity
  8
0
  6
Continuous
 62
     7
370
    25
100
AcDbCircle
 10
664.4761153795271
 20
35.038181022
 30
0.0
 40
0.5000000000000071
100
AcDbArc
 50
90.0
 51
174.4948527435991
  0
ARC
  5
2BF
330
1F
100
AcDbEntity
  8
0
  6
Continuous
 62
     7
370
    25
100
AcDbCircle
 10
669.7479545432271
 20
18.538181022
 30
0.0
 40
14.1
100
AcDbArc
 50
128.4174283431002
 51
68.19804591530014
  0
LINE
  5
2C0
330
1F
100
AcDbEntity
  8
0
  6
Continuous
 62
     7
370
    25
100
AcDbLine
 10
671.4479560810271
 20
65.5381794127
 30
0.0
 11
671.4479560810271
 21
35.5381819459
 31
0.0
  0
ARC
  5
2C1
330
1F
100
AcDbEntity
  8
0
  6
Continuous
 62
     7
370
    25
100
AcDbCircle
 10
666.1062121127271
 20
35.738181022
 30
0.0
 40
0.5000000000000134
100
AcDbArc
 50
203.5781784782012
 51
270.0
  0
LINE
  5
2C2
330
1F
100
AcDbEntity
  8
0
  6
Continuous
 62
     7
370
    25
100
AcDbLine
 10
667.6479513603272
 20
65.5381794127
 30
0.0
 11
667.6479513603272
 21
35.7381816061
 31
0.0
  0
ARC
  5
2C3
330
1F
100
AcDbEntity
  8
0
  6
Continuous
 62
     7
370
    25
100
AcDbCircle
 10
677.2130845242272
 20
37.2004915533
 30
0.0
 40
6.000000000000001
100
AcDbArc
 50
196.0843227697999
 51
248.1980459152993
  0
ARC
  5
2C4
330
1F
100
AcDbEntity
  8
0
  6
Continuous
 62
     7
370
    25
100
AcDbCircle
 10
656.0153209164271
 20
35.8536300105
 30
0.0
 40
7.999999999999997
100
AcDbArc
 50
308.4174283431005
 51
354.4948527436
  0
LINE
  5
2C5
330
1F
100
AcDbEntity
  8
0
  6
Continuous
 62
     7
370
    25
100
AcDbLine
 10
665.6479547578272
 20
35.5381819459
 30
0.0
 11
664.4761125403271
 21
35.5381819459
 31
0.0
  0
ARC
  5
2C6
330
1F
100
AcDbEntity
  8
0
  6
Continuous
 62
     7
370
    25
100
AcDbCircle
 10
667.1479545432271
 20
35.738181022
 30
0.0
 40
0.5000000000000284
100
AcDbArc
 50
270.0
 51
0.0
  0
LINE
  5
2C7
330
1F
100
AcDbEntity
  8
0
  6
Continuous
 62
     7
370
    25
100
AcDbLine
 10
667.1479577976271
 20
35.2381805929
 30
0.0
 11
666.1062101680271
 21
35.2381805929
 31
0.0
  0
LINE
  5
2C8
330
1F
100
AcDbEntity
  8
0
  6
Continuous
 62
     7
370
    25
100
AcDbLine
 10
671.4479560810271
 20
65.5381794127
 30
0.0
 11
667.6479513603272
 21
65.5381794127
 31
0.0
  0
ARC
  5
2C9
330
1F
100
AcDbEntity
  8
0
  6
Continuous
 62
     7
370
    25
100
AcDbCircle
 10
689.0978553763272
 20
33.538181022
 30
0.0
 40
2.0
100
AcDbArc
 50
337.401086715099
 51
90.0
  0
LINE
  5
2CA
330
1F
100
AcDbEntity
  8
0
  6
Continuous
 62
     7
370
    25
100
AcDbLine
 10
673.8479520040271
 20
35.5381819459
 30
0.0
 11
689.0978525239271
 21
35.5381819459
 31
0.0
  0
ARC
  5
2CB
330
1F
100
AcDbEntity
  8
0
  6
Continuous
 62
     7
370
    25
100
AcDbCircle
 10
673.3896969737272
 20
35.738181022
 30
0.0
 40
0.5000000000000163
100
AcDbArc
 50
270.0
 51
336.4218215217988
  0
LINE
  5
2CC
330
1F
100
AcDbEntity
  8
0
  6
Continuous
 62
     7
370
    25
100
AcDbLine
 10
673.3896965938271
 20
35.2381805929
 30
0.0
 11
672.3479564148272
 21
35.2381805929
 31
0.0
  0
ARC
  5
2CD
330
1F
100
AcDbEntity
  8
0
  6
Continuous
 62
     7
370
    25
100
AcDbCircle
 10
672.3479545432272
 20
35.738181022
 30
0.0
 40
0.5
100
AcDbArc
 50
180.0
 51
270.0
  0
LINE
  5
2CE
330
1F
100
AcDbEntity
  8
0
  6
Continuous
 62
     7
370
    25
100
AcDbLine
 10
671.8479554015271
 20
35.7381816061
 30
0.0
 11
671.8479554015271
 21
65.5381794127
 31
0.0
  0
LINE
  5
2CF
330
1F
100
AcDbEntity
  8
0
  6
Continuous
 62
     7
370
    25
100
AcDbLine
 10
671.8479554015271
 20
65.5381794127
 30
0.0
 11
671.4479560810271
 21
65.5381794127
 31
0.0
  0
LINE
  5
2D0
330
1F
100
AcDbEntity
  8
0
  6
Continuous
 62
     7
370
    25
100
AcDbLine
 10
682.7653209525272
 20
13.1198640952
 30
0.0
 11
690.9442926603272
 21
32.7696253585
 31
0.0
  0
LINE
  5
2D1
330
1F
100
AcDbEntity
  8
0
  6
Continuous
 62
     7
370
    25
100
AcDbLine
 10
681.1479563671271
 20
178.2254357181
 30
0.0
 11
680.9479529815271
 21
178.0254397831
 31
0.0
  0
LINE
  5
2D2
330
1F
100
AcDbEntity
  8
0
  6
Continuous
 62
     7
370
    25
100
AcDbLine
 10
658.5479537802271
 20
178.0254397831
 30
0.0
 11
658.3479578453271
 21
178.2254357181
 31
0.0
  0
LINE
  5
2D3
330
1F
100
AcDbEntity
  8
0
  6
Continuous
 62
     7
370
    25
100
AcDbLine
 10
683.7873617965272
 20
257.4466247401
 30
0.0
 11
683.8479573684272
 21
257.3254335962
 31
0.0
  0
LINE
  5
2D4
330
1F
100
AcDbEntity
  8
0
  6
Continuous
 62
     7
370
    25
100
AcDbLine
 10
683.8479573684272
 20
253.3254403911
 30
0.0
 11
683.7872872906271
 21
253.2041002355
 31
0.0
  0
LINE
  5
2D5
330
1F
100
AcDbEntity
  8
0
  6
Continuous
 62
     7
370
    25
100
AcDbLine
 10
683.7479556757271
 20
268.8254345498
 30
0.0
 11
683.7479556757271
 21
266.8254453979
 31
0.0
  0
LINE
  5
2D6
330
1F
100
AcDbEntity
  8
0
  6
Continuous
 62
     7
370
    25
100
AcDbLine
 10
655.7479510861272
 20
266.8254453979
 30
0.0
 11
655.7479510861272
 21
268.8254345498
 31
0.0
  0
ARC
  5
2D7
330
1F
100
AcDbEntity
  8
0
  6
Continuous
 62
     7
370
    25
100
AcDbCircle
 10
669.7479545432271
 20
237.6587722224
 30
0.0
 40
34.16666666666672
100
AcDbArc
 50
65.81048584600009
 51
114.1895141540001
  0
ARC
  5
2D8
330
1F
100
AcDbEntity
  8
0
  6
Continuous
 62
     7
370
    25
100
AcDbCircle
 10
669.7479545432271
 20
122.1921055557
 30
0.0
 40
34.16666666666681
100
AcDbArc
 50
245.8104858459999
 51
264.9257902592001
  0
ARC
  5
2D9
330
1F
100
AcDbEntity
  8
0
  6
Continuous
 62
     7
370
    25
100
AcDbCircle
 10
669.7479545432271
 20
122.1921055557
 30
0.0
 40
34.16666666666681
100
AcDbArc
 50
275.0742097407999
 51
294.1895141540001
  0
LINE
  5
2DA
330
1F
100
AcDbEntity
  8
0
  6
Continuous
 62
     7
370
    25
100
AcDbLine
 10
655.7479510861272
 20
91.0254387941
 30
0.0
 11
655.7479510861272
 21
93.025438889
 31
0.0
  0
LINE
  5
2DB
330
1F
100
AcDbEntity
  8
0
  6
Continuous
 62
     7
370
    25
100
AcDbLine
 10
683.7479556757271
 20
93.025438889
 30
0.0
 11
683.7479556757271
 21
91.0254387941
 31
0.0
  0
LINE
  5
2DC
330
1F
100
AcDbEntity
  8
0
  6
Continuous
 62
     7
370
    25
100
AcDbLine
 10
683.7479556757271
 20
181.8254370532
 30
0.0
 11
683.7479556757271
 21
178.2254357181
 31
0.0
  0
LINE
  5
2DD
330
1F
100
AcDbEntity
  8
0
  6
Continuous
 62
     7
370
    25
100
AcDbLine
 10
655.7479510861272
 20
178.2254357181
 30
0.0
 11
655.7479510861272
 21
181.8254370532
 31
0.0
  0
LINE
  5
2DE
330
1F
100
AcDbEntity
  8
0
  6
Continuous
 62
     7
370
    25
100
AcDbLine
 10
683.8479573684272
 20
252.8310198627
 30
0.0
 11
683.8479573684272
 21
181.8254370532
 31
0.0
  0
LINE
  5
2DF
330
1F
100
AcDbEntity
  8
0
  6
Continuous
 62
     7
370
    25
100
AcDbLine
 10
683.8479573684272
 20
266.8254453979
 30
0.0
 11
683.8479573684272
 21
257.7945817552
 31
0.0
  0
LINE
  5
2E0
330
1F
100
AcDbEntity
  8
0
  6
Continuous
 62
     7
370
    25
100
AcDbLine
 10
655.6479568439272
 20
181.8254370532
 30
0.0
 11
655.6479568439272
 21
266.8254453979
 31
0.0
  0
LINE
  5
2E1
330
1F
100
AcDbEntity
  8
0
  6
Continuous
 62
     7
370
    25
100
AcDbLine
 10
655.6479568439272
 20
93.025438889
 30
0.0
 11
655.6479568439272
 21
178.0254397831
 31
0.0
  0
LINE
  5
2E2
330
1F
100
AcDbEntity
  8
0
  6
Continuous
 62
     7
370
    25
100
AcDbLine
 10
691.0978565770272
 20
178.0254397831
 30
0.0
 11
691.0978565770272
 21
93.025438889
 31
0.0
  0
LINE
  5
2E3
330
1F
100
AcDbEntity
  8
0
  6
Continuous
 62
     7
370
    25
100
AcDbLine
 10
683.8479573684272
 20
257.3254335962
 30
0.0
 11
683.8479573684272
 21
253.3254403911
 31
0.0
  0
LINE
  5
2E4
330
1F
100
AcDbEntity
  8
0
  6
Continuous
 62
     7
370
    25
100
AcDbLine
 10
655.9643084961272
 20
268.8254345498
 30
0.0
 11
655.7479510861272
 21
268.8254345498
 31
0.0
  0
LINE
  5
2E5
330
1F
100
AcDbEntity
  8
0
  6
Continuous
 62
     7
370
    25
100
AcDbLine
 10
683.7479556757271
 20
268.8254345498
 30
0.0
 11
655.9643084961272
 21
268.8254345498
 31
0.0
  0
LINE
  5
2E6
330
1F
100
AcDbEntity
  8
0
  6
Continuous
 62
     7
370
    25
100
AcDbLine
 10
656.8702022391271
 20
91.0254387941
 30
0.0
 11
683.7479556757271
 21
91.0254387941
 31
0.0
  0
LINE
  5
2E7
330
1F
100
AcDbEntity
  8
0
  6
Continuous
 62
     7
370
    25
100
AcDbLine
 10
655.7479510861272
 20
91.0254387941
 30
0.0
 11
656.8702022391271
 21
91.0254387941
 31
0.0
  0
ARC
  5
2E8
330
1F
100
AcDbEntity
  8
0
  6
Continuous
 62
     7
370
    25
100
AcDbCircle
 10
670.9248396414271
 20
116.9581896952
 30
0.0
 40
28.80078778527026
100
AcDbArc
 50
266.8288851900002
 51
273.1711148100001
  0
ARC
  5
2E9
330
1F
100
AcDbEntity
  8
0
  6
Continuous
 62
     7
370
    25
100
AcDbCircle
 10
672.7271651586271
 20
88.6773937189
 30
0.0
 40
0.5198111266644745
100
AcDbArc
 50
246.2780279074042
 51
274.7113621969959
  0
ARC
  5
2EA
330
1F
100
AcDbEntity
  8
0
  6
Continuous
 62
     7
370
    25
100
AcDbCircle
 10
671.5493185456271
 20
109.9260395966
 30
0.0
 40
21.76863790067394
100
AcDbArc
 50
269.2355993347
 51
272.6938884778002
  0
ARC
  5
2EB
330
1F
100
AcDbEntity
  8
0
  6
Continuous
 62
     7
370
    25
100
AcDbCircle
 10
668.5710726389271
 20
116.9563286783
 30
0.0
 40
28.79892740177523
100
AcDbArc
 50
269.3353473497999
 51
272.3420766413999
  0
ARC
  5
2EC
330
1F
100
AcDbEntity
  8
0
  6
Continuous
 62
     7
370
    25
100
AcDbCircle
 10
666.7691639958272
 20
88.6729269817
 30
0.0
 40
0.515121361319193
100
AcDbArc
 50
246.2301820604972
 51
287.4300820935969
  0
ARC
  5
2ED
330
1F
100
AcDbEntity
  8
0
  6
Continuous
 62
     7
370
    25
100
AcDbCircle
 10
667.9465855318272
 20
109.930283314
 30
0.0
 40
21.77287954169132
100
AcDbArc
 50
266.3527549758999
 51
273.6472450240998
  0
LINE
  5
2EE
330
1F
100
AcDbEntity
  8
0
  6
Continuous
 62
     7
370
    25
100
AcDbLine
 10
683.7479556757271
 20
178.2254357181
 30
0.0
 11
655.7479510861272
 21
178.2254357181
 31
0.0
  0
LINE
  5
2EF
330
1F
100
AcDbEntity
  8
0
  6
Continuous
 62
     7
370
    25
100
AcDbLine
 10
683.7479556757271
 20
182.0254404388
 30
0.0
 11
655.7479510861272
 21
182.0254404388
 31
0.0
  0
LINE
  5
2F0
330
1F
100
AcDbEntity
  8
0
  6
Continuous
 62
     7
370
    25
100
AcDbLine
 10
655.6479568439272
 20
266.8254453979
 30
0.0
 11
683.8479573684272
 21
266.8254453979
 31
0.0
  0
LINE
  5
2F1
330
1F
100
AcDbEntity
  8
0
  6
Continuous
 62
     7
370
    25
100
AcDbLine
 10
655.6479568439272
 20
181.8254370532
 30
0.0
 11
683.8479573684272
 21
181.8254370532
 31
0.0
  0
SPLINE
  5
2F2
330
1F
100
AcDbEntity
  8
0
  6
Continuous
 62
     7
370
    25
100
AcDbSpline
210
0.0
220
0.0
230
1.0
 70
     8
 71
     3
 72
    18
 73
    14
 74
     0
 42
0.000000001
 43
0.00000001
 40
0.0
 40
0.0
 40
0.0
 40
0.0
 40
0.0346106963553093
 40
0.1402276097664146
 40
0.2463973752293766
 40
0.3540208616710289
 40
0.4617765154690296
 40
0.5680751248859947
 40
0.6736155210236672
 40
0.7802613958118352
 40
0.8881599743131421
 40
0.9955223345867094
 40
1.0
 40
1.0
 40
1.0
 40
1.0
 10
683.8425333458017
 20
257.7945817551804
 30
0.0
 10
683.8440562085848
 20
257.803254328205
 30
0.0
 10
683.8502261915833
 20
257.8383918525495
 30
0.0
 10
683.8107408403869
 20
257.6155951207069
 30
0.0
 10
683.739820621903
 20
257.1481310521475
 30
0.0
 10
683.6632702869265
 20
256.45441238934
 30
0.0
 10
683.6193139215032
 20
255.6359979824691
 30
0.0
 10
683.6268578414106
 20
254.7852970391296
 30
0.0
 10
683.6812233012911
 20
254.0021553475499
 30
0.0
 10
683.7606660054578
 20
253.354183974507
 30
0.0
 10
683.8247611408784
 20
252.9540621582344
 30
0.0
 10
683.8553156692075
 20
252.7829771211929
 30
0.0
 10
683.8473093372362
 20
252.8291704507729
 30
0.0
 10
683.8469887929987
 20
252.8310198626709
 30
0.0
  0
LINE
  5
2F3
330
1F
100
AcDbEntity
  8
0
  6
Continuous
 62
     7
370
    25
100
AcDbLine
 10
682.7653209525272
 20
178.0254397831
 30
0.0
 11
655.6479568439272
 21
178.0254397831
 31
0.0
  0
LINE
  5
2F4
330
1F
100
AcDbEntity
  8
0
  6
Continuous
 62
     7
370
    25
100
AcDbLine
 10
655.6479568439272
 20
93.025438889
 30
0.0
 11
682.7653209525272
 21
93.025438889
 31
0.0
  0
LINE
  5
2F5
330
1F
100
AcDbEntity
  8
0
  6
Continuous
 62
     7
370
    25
100
AcDbLine
 10
682.7653209525272
 20
178.0254397831
 30
0.0
 11
690.9442926603272
 21
178.0254397831
 31
0.0
  0
LINE
  5
2F6
330
1F
100
AcDbEntity
  8
0
  6
Continuous
 62
     7
370
    25
100
AcDbLine
 10
682.7653209525272
 20
93.025438889
 30
0.0
 11
690.9442926603272
 21
93.025438889
 31
0.0
  0
LINE
  5
2F7
330
1F
100
AcDbEntity
  8
0
  6
Continuous
 62
     7
370
    25
100
AcDbLine
 10
690.9442926603272
 20
178.0254397831
 30
0.0
 11
691.0978565770272
 21
178.0254397831
 31
0.0
  0
LINE
  5
2F8
330
1F
100
AcDbEntity
  8
0
  6
Continuous
 62
     7
370
    25
100
AcDbLine
 10
691.0978565770272
 20
93.025438889
 30
0.0
 11
690.9442926603272
 21
93.025438889
 31
0.0
  0
LINE
  5
2F9
330
1F
100
AcDbEntity
  8
0
  6
Continuous
 62
     8
370
    18
100
AcDbLine
 10
682.7653209525272
 20
178.0254397831
 30
0.0
 11
682.7653209525272
 21
93.025438889
 31
0.0
  0
LINE
  5
2FA
330
1F
100
AcDbEntity
  8
0
  6
Continuous
 62
     8
370
    18
100
AcDbLine
 10
690.9442926603272
 20
93.025438889
 30
0.0
 11
690.9442926603272
 21
178.0254397831
 31
0.0
  0
LINE
  5
2FB
330
1F
100
AcDbEntity
  8
0
  6
CENTERX2
 62
     7
370
    18
100
AcDbLine
 10
669.7479545432271
 20
70.7107366515
 30
0.0
 11
669.7479545432271
 21
289.2100226104
 31
0.0
  0
LINE
  5
2FC
330
1F
100
AcDbEntity
  8
0
  6
Continuous
 62
     7
370
    25
100
AcDbLine
 10
577.0300523071271
 20
178.2254357181
 30
0.0
 11
576.8300517155271
 21
178.0254397831
 31
0.0
  0
LINE
  5
2FD
330
1F
100
AcDbEntity
  8
0
  6
Continuous
 62
     7
370
    25
100
AcDbLine
 10
554.4300525142271
 20
178.0254397831
 30
0.0
 11
554.2300519227272
 21
178.2254357181
 31
0.0
  0
ARC
  5
2FE
330
1F
100
AcDbEntity
  8
0
  6
Continuous
 62
     7
370
    25
100
AcDbCircle
 10
565.6300521150272
 20
237.6587722224
 30
0.0
 40
34.16666666666675
100
AcDbArc
 50
65.81048584600009
 51
114.1895141540001
  0
LINE
  5
2FF
330
1F
100
AcDbEntity
  8
0
  6
Continuous
 62
     7
370
    25
100
AcDbLine
 10
579.6300525470272
 20
268.8254345498
 30
0.0
 11
579.6300525470272
 21
266.8254453979
 31
0.0
  0
LINE
  5
300
330
1F
100
AcDbEntity
  8
0
  6
Continuous
 62
     7
370
    25
100
AcDbLine
 10
551.6300516828271
 20
266.8254453979
 30
0.0
 11
551.6300516828271
 21
268.8254345498
 31
0.0
  0
ARC
  5
301
330
1F
100
AcDbEntity
  8
0
  6
Continuous
 62
     7
370
    25
100
AcDbCircle
 10
565.6300521149271
 20
122.1921055557
 30
0.0
 40
34.16666666666685
100
AcDbArc
 50
245.8104858459999
 51
264.5223905688
  0
ARC
  5
302
330
1F
100
AcDbEntity
  8
0
  6
Continuous
 62
     7
370
    25
100
AcDbCircle
 10
565.6300521149271
 20
122.1921055557
 30
0.0
 40
34.16666666666685
100
AcDbArc
 50
275.4776094312
 51
294.1895141540001
  0
LINE
  5
303
330
1F
100
AcDbEntity
  8
0
  6
Continuous
 62
     7
370
    25
100
AcDbLine
 10
551.6300516828271
 20
91.0254387941
 30
0.0
 11
551.6300516828271
 21
93.025438889
 31
0.0
  0
LINE
  5
304
330
1F
100
AcDbEntity
  8
0
  6
Continuous
 62
     7
370
    25
100
AcDbLine
 10
579.6300525470272
 20
93.025438889
 30
0.0
 11
579.6300525470272
 21
91.0254387941
 31
0.0
  0
LINE
  5
305
330
1F
100
AcDbEntity
  8
0
  6
Continuous
 62
     7
370
    25
100
AcDbLine
 10
579.6300525470272
 20
181.8254370532
 30
0.0
 11
579.6300525470272
 21
178.2254357181
 31
0.0
  0
LINE
  5
306
330
1F
100
AcDbEntity
  8
0
  6
Continuous
 62
     7
370
    25
100
AcDbLine
 10
551.6300516828271
 20
178.2254357181
 30
0.0
 11
551.6300516828271
 21
181.8254370532
 31
0.0
  0
LINE
  5
307
330
1F
100
AcDbEntity
  8
0
  6
Continuous
 62
     7
370
    25
100
AcDbLine
 10
551.5300518526271
 20
181.8254370532
 30
0.0
 11
551.5300518526271
 21
266.8254453979
 31
0.0
  0
LINE
  5
308
330
1F
100
AcDbEntity
  8
0
  6
Continuous
 62
     7
370
    25
100
AcDbLine
 10
551.5300518526271
 20
93.025438889
 30
0.0
 11
551.5300518526271
 21
178.0254397831
 31
0.0
  0
CIRCLE
  5
309
330
1F
100
AcDbEntity
  8
0
  6
Continuous
 62
     7
370
    25
100
AcDbCircle
 10
565.6300521149271
 20
255.325438889
 30
0.0
 40
1.99999999989588
  0
LINE
  5
30A
330
1F
100
AcDbEntity
  8
0
  6
Continuous
 62
     7
370
    25
100
AcDbLine
 10
567.1508590384271
 20
256.1543811403
 30
0.0
 11
567.1083411361271
 21
254.4228513084
 31
0.0
  0
LINE
  5
30B
330
1F
100
AcDbEntity
  8
0
  6
Continuous
 62
     7
370
    25
100
AcDbLine
 10
567.1083411361271
 20
254.4228513084
 30
0.0
 11
565.5875341798271
 21
253.5939146123
 31
0.0
  0
LINE
  5
30C
330
1F
100
AcDbEntity
  8
0
  6
Continuous
 62
     7
370
    25
100
AcDbLine
 10
565.5875341798271
 20
253.5939146123
 30
0.0
 11
564.1092451914271
 21
254.496492847
 31
0.0
  0
LINE
  5
30D
330
1F
100
AcDbEntity
  8
0
  6
Continuous
 62
     7
370
    25
100
AcDbLine
 10
564.1092451914271
 20
254.496492847
 30
0.0
 11
564.1517630937271
 21
256.2280226789
 31
0.0
  0
LINE
  5
30E
330
1F
100
AcDbEntity
  8
0
  6
Continuous
 62
     7
370
    25
100
AcDbLine
 10
565.6725700500272
 20
257.0569742761
 30
0.0
 11
564.1517630937271
 21
256.2280226789
 31
0.0
  0
LINE
  5
30F
330
1F
100
AcDbEntity
  8
0
  6
Continuous
 62
     7
370
    25
100
AcDbLine
 10
565.6725700500272
 20
257.0569742761
 30
0.0
 11
567.1508590384271
 21
256.1543811403
 31
0.0
  0
LINE
  5
310
330
1F
100
AcDbEntity
  8
0
  6
Continuous
 62
     7
370
    25
100
AcDbLine
 10
579.6300525470272
 20
268.8254345498
 30
0.0
 11
551.6300516828271
 21
268.8254345498
 31
0.0
  0
LINE
  5
311
330
1F
100
AcDbEntity
  8
0
  6
Continuous
 62
     7
370
    25
100
AcDbLine
 10
551.6300516828271
 20
91.0254387941
 30
0.0
 11
579.6300525470272
 21
91.0254387941
 31
0.0
  0
ARC
  5
312
330
1F
100
AcDbEntity
  8
0
  6
Continuous
 62
     7
370
    25
100
AcDbCircle
 10
562.8706745704271
 20
93.4157617865
 30
0.0
 40
5.25832656014287
100
AcDbArc
 50
264.5210912444003
 51
277.4229168438999
  0
ARC
  5
313
330
1F
100
AcDbEntity
  8
0
  6
Continuous
 62
     7
370
    25
100
AcDbCircle
 10
565.2695061798272
 20
121.7009056768
 30
0.0
 40
33.54350454525152
100
AcDbArc
 50
267.0616337560999
 51
272.9383662438999
  0
ARC
  5
314
330
1F
100
AcDbEntity
  8
0
  6
Continuous
 62
     7
370
    25
100
AcDbCircle
 10
568.0290241652272
 20
100.4450062752
 30
0.0
 40
12.28759677675993
100
AcDbArc
 50
265.1446803502997
 51
274.8553196496997
  0
ARC
  5
315
330
1F
100
AcDbEntity
  8
0
  6
Continuous
 62
     7
370
    25
100
AcDbCircle
 10
568.3893227698271
 20
93.4195119215
 30
0.0
 40
5.262095365343592
100
AcDbArc
 50
268.4512003546002
 51
277.4218283679997
  0
ARC
  5
316
330
1F
100
AcDbEntity
  8
0
  6
Continuous
 62
     7
370
    25
100
AcDbCircle
 10
565.9906061731272
 20
121.7003005196
 30
0.0
 40
33.54289940838851
100
AcDbArc
 50
269.3841133586999
 51
272.1701321211
  0
ARC
  5
317
330
1F
100
AcDbEntity
  8
0
  6
Continuous
 62
     7
370
    25
100
AcDbCircle
 10
563.2310593761272
 20
100.4378559956
 30
0.0
 40
12.28045304550044
100
AcDbArc
 50
268.9826009152998
 51
273.5868039484998
  0
LINE
  5
318
330
1F
100
AcDbEntity
  8
0
  6
Continuous
 62
     7
370
    25
100
AcDbLine
 10
579.6300525470272
 20
178.2254357181
 30
0.0
 11
551.6300516828271
 21
178.2254357181
 31
0.0
  0
LINE
  5
319
330
1F
100
AcDbEntity
  8
0
  6
Continuous
 62
     7
370
    25
100
AcDbLine
 10
579.6300525470272
 20
182.0254404388
 30
0.0
 11
551.6300516828271
 21
182.0254404388
 31
0.0
  0
SPLINE
  5
31A
330
1F
100
AcDbEntity
  8
0
  6
Continuous
 62
     7
370
    25
100
AcDbSpline
210
0.0
220
0.0
230
1.0
 70
    11
 71
     3
 72
    26
 73
    22
 74
     0
 42
0.000000001
 43
0.00000001
 40
0.0
 40
0.0
 40
0.0
 40
0.0
 40
0.0531109593447348
 40
0.1062028068880605
 40
0.1598217986337525
 40
0.2137970204089722
 40
0.2672058659427129
 40
0.3200215725810457
 40
0.3731137431951019
 40
0.4269328740872497
 40
0.4808180977300243
 40
0.5339746991654042
 40
0.586752141914594
 40
0.6400823998731459
 40
0.69403909567845
 40
0.7477276455618961
 40
0.8006832549426295
 40
0.853570843411544
 40
0.9071454450314657
 40
0.9611288069365436
 40
1.0
 40
1.0
 40
1.0
 40
1.0
 10
568.1300520590346
 20
255.3254444441986
 30
0.0
 10
568.1028562833224
 20
255.6040872094276
 30
0.0
 10
568.048474518207
 20
256.1612724712167
 30
0.0
 10
567.6251076285998
 20
256.9045236494696
 30
0.0
 10
566.9981244054002
 20
257.4755141983279
 30
0.0
 10
566.2083695467469
 20
257.8069353760823
 30
0.0
 10
565.357192977815
 20
257.8578384607798
 30
0.0
 10
564.5421905909012
 20
257.627884991178
 30
0.0
 10
563.8472909645857
 20
257.1447736183264
 30
0.0
 10
563.3461569374653
 20
256.4553446349609
 30
0.0
 10
563.1011937835533
 20
255.6356559401651
 30
0.0
 10
563.1411551699846
 20
254.7857381902471
 30
0.0
 10
563.4551542911411
 20
254.0007318102671
 30
0.0
 10
564.0097851751564
 20
253.3595267978173
 30
0.0
 10
564.7503261887402
 20
252.9339269783866
 30
0.0
 10
565.5909178943335
 20
252.7782779459551
 30
0.0
 10
566.4295382955017
 20
252.9076695382716
 30
0.0
 10
567.1781212727565
 20
253.3025780207028
 30
0.0
 10
567.7546851969731
 20
253.9233869777814
 30
0.0
 10
568.0802289396436
 20
254.6361292683528
 30
0.0
 10
568.115349663172
 20
255.1220331621814
 30
0.0
 10
568.1300520590346
 20
255.3254444441986
 30
0.0
  0
LINE
  5
31B
330
1F
100
AcDbEntity
  8
0
  6
Continuous
 62
     7
370
    25
100
AcDbLine
 10
551.5300518526271
 20
266.8254453979
 30
0.0
 11
578.7215240924271
 21
266.8254453979
 31
0.0
  0
LINE
  5
31C
330
1F
100
AcDbEntity
  8
0
  6
Continuous
 62
     7
370
    25
100
AcDbLine
 10
551.5300518526271
 20
181.8254370532
 30
0.0
 11
578.7215240924271
 21
181.8254370532
 31
0.0
  0
LINE
  5
31D
330
1F
100
AcDbEntity
  8
0
  6
Continuous
 62
     7
370
    25
100
AcDbLine
 10
582.6300530388271
 20
181.8254370532
 30
0.0
 11
582.6300530388271
 21
266.8254453979
 31
0.0
  0
LINE
  5
31E
330
1F
100
AcDbEntity
  8
0
  6
Continuous
 62
     7
370
    25
100
AcDbLine
 10
582.6300530388271
 20
266.8254453979
 30
0.0
 11
578.7215240924271
 21
266.8254453979
 31
0.0
  0
LINE
  5
31F
330
1F
100
AcDbEntity
  8
0
  6
Continuous
 62
     7
370
    25
100
AcDbLine
 10
582.6300530388271
 20
181.8254370532
 30
0.0
 11
578.7215240924271
 21
181.8254370532
 31
0.0
  0
LINE
  5
320
330
1F
100
AcDbEntity
  8
0
  6
Continuous
 62
     7
370
    25
100
AcDbLine
 10
612.6300505056272
 20
181.8254370532
 30
0.0
 11
612.6300505056272
 21
266.8254453979
 31
0.0
  0
CIRCLE
  5
321
330
1F
100
AcDbEntity
  8
0
  6
Continuous
 62
     7
370
    25
100
AcDbCircle
 10
591.1300521149271
 20
256.825438889
 30
0.0
 40
6.199999999999989
  0
CIRCLE
  5
322
330
1F
100
AcDbEntity
  8
0
  6
Continuous
 62
     7
370
    25
100
AcDbCircle
 10
602.6300521149271
 20
224.325438889
 30
0.0
 40
6.200000000000045
  0
CIRCLE
  5
323
330
1F
100
AcDbEntity
  8
0
  6
Continuous
 62
     7
370
    25
100
AcDbCircle
 10
591.1300521149271
 20
191.825438889
 30
0.0
 40
6.199999999999989
  0
LINE
  5
324
330
1F
100
AcDbEntity
  8
0
  6
Continuous
 62
     7
370
    25
100
AcDbLine
 10
612.6300505056272
 20
266.8254453979
 30
0.0
 11
582.6300530388271
 21
266.8254453979
 31
0.0
  0
LINE
  5
325
330
1F
100
AcDbEntity
  8
0
  6
Continuous
 62
     7
370
    25
100
AcDbLine
 10
612.6300505056272
 20
181.8254370532
 30
0.0
 11
582.6300530388271
 21
181.8254370532
 31
0.0
  0
CIRCLE
  5
326
330
1F
100
AcDbEntity
  8
0
  6
Continuous
 62
     7
370
    25
100
AcDbCircle
 10
602.6300521149271
 20
224.325438889
 30
0.0
 40
3.199999999999989
  0
CIRCLE
  5
327
330
1F
100
AcDbEntity
  8
0
  6
Continuous
 62
     7
370
    25
100
AcDbCircle
 10
591.1300521149271
 20
256.825438889
 30
0.0
 40
3.199999999999989
  0
CIRCLE
  5
328
330
1F
100
AcDbEntity
  8
0
  6
Continuous
 62
     7
370
    25
100
AcDbCircle
 10
591.1300521149271
 20
191.825438889
 30
0.0
 40
3.199999999999989
  0
LINE
  5
329
330
1F
100
AcDbEntity
  8
0
  6
Continuous
 62
     7
370
    25
100
AcDbLine
 10
582.6300530388271
 20
178.0254397831
 30
0.0
 11
582.6300530388271
 21
93.025438889
 31
0.0
  0
LINE
  5
32A
330
1F
100
AcDbEntity
  8
0
  6
Continuous
 62
     7
370
    25
100
AcDbLine
 10
579.8614964514271
 20
178.0254397831
 30
0.0
 11
582.6300530388271
 21
178.0254397831
 31
0.0
  0
LINE
  5
32B
330
1F
100
AcDbEntity
  8
0
  6
Continuous
 62
     7
370
    25
100
AcDbLine
 10
582.6300530388271
 20
93.025438889
 30
0.0
 11
579.8614964514271
 21
93.025438889
 31
0.0
  0
LINE
  5
32C
330
1F
100
AcDbEntity
  8
0
  6
Continuous
 62
     7
370
    25
100
AcDbLine
 10
560.2117351881271
 20
178.0254397831
 30
0.0
 11
579.8614964514271
 21
178.0254397831
 31
0.0
  0
LINE
  5
32D
330
1F
100
AcDbEntity
  8
0
  6
Continuous
 62
     7
370
    25
100
AcDbLine
 10
560.2117351881271
 20
93.025438889
 30
0.0
 11
579.8614964514271
 21
93.025438889
 31
0.0
  0
LINE
  5
32E
330
1F
100
AcDbEntity
  8
0
  6
Continuous
 62
     7
370
    25
100
AcDbLine
 10
560.2117351881271
 20
178.0254397831
 30
0.0
 11
551.5300518526271
 21
178.0254397831
 31
0.0
  0
LINE
  5
32F
330
1F
100
AcDbEntity
  8
0
  6
Continuous
 62
     7
370
    25
100
AcDbLine
 10
551.5300518526271
 20
93.025438889
 30
0.0
 11
560.2117351881271
 21
93.025438889
 31
0.0
  0
LINE
  5
330
330
1F
100
AcDbEntity
  8
0
  6
Continuous
 62
     7
370
    25
100
AcDbLine
 10
582.6300530388271
 20
178.0254397831
 30
0.0
 11
582.8300526990272
 21
178.0254397831
 31
0.0
  0
LINE
  5
331
330
1F
100
AcDbEntity
  8
0
  6
Continuous
 62
     7
370
    25
100
AcDbLine
 10
582.8300526990272
 20
93.025438889
 30
0.0
 11
582.6300530388271
 21
93.025438889
 31
0.0
  0
LINE
  5
332
330
1F
100
AcDbEntity
  8
0
  6
Continuous
 62
     7
370
    25
100
AcDbLine
 10
612.6300505056272
 20
93.025438889
 30
0.0
 11
612.6300505056272
 21
178.0254397831
 31
0.0
  0
CIRCLE
  5
333
330
1F
100
AcDbEntity
  8
0
  6
Continuous
 62
     7
370
    25
100
AcDbCircle
 10
591.1300521149271
 20
168.025438889
 30
0.0
 40
3.200000000000017
  0
CIRCLE
  5
334
330
1F
100
AcDbEntity
  8
0
  6
Continuous
 62
     7
370
    25
100
AcDbCircle
 10
602.6300521149271
 20
135.525438889
 30
0.0
 40
3.19999999999996
  0
CIRCLE
  5
335
330
1F
100
AcDbEntity
  8
0
  6
Continuous
 62
     7
370
    25
100
AcDbCircle
 10
591.1300521149271
 20
103.025438889
 30
0.0
 40
3.200000000000017
  0
LINE
  5
336
330
1F
100
AcDbEntity
  8
0
  6
Continuous
 62
     7
370
    25
100
AcDbLine
 10
582.8300526990272
 20
178.0254397831
 30
0.0
 11
612.6300505056272
 21
178.0254397831
 31
0.0
  0
LINE
  5
337
330
1F
100
AcDbEntity
  8
0
  6
Continuous
 62
     7
370
    25
100
AcDbLine
 10
582.8300526990272
 20
93.025438889
 30
0.0
 11
612.6300505056272
 21
93.025438889
 31
0.0
  0
LINE
  5
338
330
1F
100
AcDbEntity
  8
0
  6
Continuous
 62
     8
370
    18
100
AcDbLine
 10
578.7215240924271
 20
181.8254370532
 30
0.0
 11
578.7215240924271
 21
266.8254453979
 31
0.0
  0
LINE
  5
339
330
1F
100
AcDbEntity
  8
0
  6
Continuous
 62
     8
370
    18
100
AcDbLine
 10
579.8614964514271
 20
93.025438889
 30
0.0
 11
579.8614964514271
 21
178.0254397831
 31
0.0
  0
LINE
  5
33A
330
1F
100
AcDbEntity
  8
0
  6
Continuous
 62
     8
370
    18
100
AcDbLine
 10
560.2117351881271
 20
178.0254397831
 30
0.0
 11
560.2117351881271
 21
93.025438889
 31
0.0
  0
LINE
  5
33B
330
1F
100
AcDbEntity
  8
0
  6
Continuous
 62
     8
370
    18
100
AcDbLine
 10
582.8300526990272
 20
178.0254397831
 30
0.0
 11
582.8300526990272
 21
93.025438889
 31
0.0
  0
LINE
  5
33C
330
1F
100
AcDbEntity
  8
0
  6
Continuous
 62
     7
370
    25
100
AcDbLine
 10
784.2745698833271
 20
178.2254357181
 30
0.0
 11
784.0745692917271
 21
178.0254397831
 31
0.0
  0
LINE
  5
33D
330
1F
100
AcDbEntity
  8
0
  6
Continuous
 62
     7
370
    25
100
AcDbLine
 10
761.6745700904271
 20
178.0254397831
 30
0.0
 11
761.4745694988271
 21
178.2254357181
 31
0.0
  0
LINE
  5
33E
330
1F
100
AcDbEntity
  8
0
  6
Continuous
 62
     7
370
    25
100
AcDbLine
 10
786.8745701232272
 20
268.8254345498
 30
0.0
 11
786.8745701232272
 21
266.8254453979
 31
0.0
  0
LINE
  5
33F
330
1F
100
AcDbEntity
  8
0
  6
Continuous
 62
     7
370
    25
100
AcDbLine
 10
758.8745692589272
 20
266.8254453979
 30
0.0
 11
758.8745692589272
 21
268.8254345498
 31
0.0
  0
ARC
  5
340
330
1F
100
AcDbEntity
  8
0
  6
Continuous
 62
     7
370
    25
100
AcDbCircle
 10
772.8745696910271
 20
237.6587722224
 30
0.0
 40
34.16666666666673
100
AcDbArc
 50
65.8104858459999
 51
114.1895141539999
  0
ARC
  5
341
330
1F
100
AcDbEntity
  8
0
  6
Continuous
 62
     7
370
    25
100
AcDbCircle
 10
772.8745696910271
 20
122.1921055557
 30
0.0
 40
34.16666666666684
100
AcDbArc
 50
245.8104858460001
 51
264.5223905688
  0
ARC
  5
342
330
1F
100
AcDbEntity
  8
0
  6
Continuous
 62
     7
370
    25
100
AcDbCircle
 10
772.8745696910271
 20
122.1921055557
 30
0.0
 40
34.16666666666686
100
AcDbArc
 50
275.4776094312
 51
294.1895141540001
  0
LINE
  5
343
330
1F
100
AcDbEntity
  8
0
  6
Continuous
 62
     7
370
    25
100
AcDbLine
 10
758.8745692589272
 20
91.0254387941
 30
0.0
 11
758.8745692589272
 21
93.025438889
 31
0.0
  0
LINE
  5
344
330
1F
100
AcDbEntity
  8
0
  6
Continuous
 62
     7
370
    25
100
AcDbLine
 10
786.8745701232272
 20
93.025438889
 30
0.0
 11
786.8745701232272
 21
91.0254387941
 31
0.0
  0
LINE
  5
345
330
1F
100
AcDbEntity
  8
0
  6
Continuous
 62
     7
370
    25
100
AcDbLine
 10
786.8745701232272
 20
181.8254370532
 30
0.0
 11
786.8745701232272
 21
178.2254357181
 31
0.0
  0
LINE
  5
346
330
1F
100
AcDbEntity
  8
0
  6
Continuous
 62
     7
370
    25
100
AcDbLine
 10
758.8745692589272
 20
178.2254357181
 30
0.0
 11
758.8745692589272
 21
181.8254370532
 31
0.0
  0
LINE
  5
347
330
1F
100
AcDbEntity
  8
0
  6
Continuous
 62
     7
370
    25
100
AcDbLine
 10
786.9745699533271
 20
266.8254453979
 30
0.0
 11
786.9745699533271
 21
181.8254370532
 31
0.0
  0
LINE
  5
348
330
1F
100
AcDbEntity
  8
0
  6
Continuous
 62
     7
370
    25
100
AcDbLine
 10
786.9745699533271
 20
178.0254397831
 30
0.0
 11
786.9745699533271
 21
93.025438889
 31
0.0
  0
LINE
  5
349
330
1F
100
AcDbEntity
  8
0
  6
Continuous
 62
     7
370
    25
100
AcDbLine
 10
775.3263217707272
 20
268.8254345498
 30
0.0
 11
758.8745692589272
 21
268.8254345498
 31
0.0
  0
LINE
  5
34A
330
1F
100
AcDbEntity
  8
0
  6
Continuous
 62
     7
370
    25
100
AcDbLine
 10
786.8745701232272
 20
268.8254345498
 30
0.0
 11
775.3263217707272
 21
268.8254345498
 31
0.0
  0
LINE
  5
34B
330
1F
100
AcDbEntity
  8
0
  6
Continuous
 62
     7
370
    25
100
AcDbLine
 10
778.3667037108271
 20
91.0254387941
 30
0.0
 11
786.8745701232272
 21
91.0254387941
 31
0.0
  0
LINE
  5
34C
330
1F
100
AcDbEntity
  8
0
  6
Continuous
 62
     7
370
    25
100
AcDbLine
 10
758.8745692589272
 20
91.0254387941
 30
0.0
 11
778.3667037108271
 21
91.0254387941
 31
0.0
  0
ARC
  5
34D
330
1F
100
AcDbEntity
  8
0
  6
Continuous
 62
     7
370
    25
100
AcDbCircle
 10
775.6338403460271
 20
93.4195119215
 30
0.0
 40
5.262095365341607
100
AcDbArc
 50
268.4512003546009
 51
277.421828368
  0
ARC
  5
34E
330
1F
100
AcDbEntity
  8
0
  6
Continuous
 62
     7
370
    25
100
AcDbCircle
 10
773.2351237492271
 20
121.7003005196
 30
0.0
 40
33.54289940842698
100
AcDbArc
 50
269.3841133587
 51
272.1701321211
  0
ARC
  5
34F
330
1F
100
AcDbEntity
  8
0
  6
Continuous
 62
     7
370
    25
100
AcDbCircle
 10
770.4755769522271
 20
100.4378559956
 30
0.0
 40
12.2804530454896
100
AcDbArc
 50
268.9826009152002
 51
273.5868039485003
  0
ARC
  5
350
330
1F
100
AcDbEntity
  8
0
  6
Continuous
 62
     7
370
    25
100
AcDbCircle
 10
770.1151921466271
 20
93.4157617865
 30
0.0
 40
5.258326560144353
100
AcDbArc
 50
264.5210912444006
 51
277.4229168439003
  0
ARC
  5
351
330
1F
100
AcDbEntity
  8
0
  6
Continuous
 62
     7
370
    25
100
AcDbCircle
 10
772.5140237559272
 20
121.7009056768
 30
0.0
 40
33.54350454525112
100
AcDbArc
 50
267.0616337560999
 51
272.9383662438999
  0
ARC
  5
352
330
1F
100
AcDbEntity
  8
0
  6
Continuous
 62
     7
370
    25
100
AcDbCircle
 10
775.2735417413271
 20
100.4450062752
 30
0.0
 40
12.28759677675993
100
AcDbArc
 50
265.1446803503003
 51
274.8553196497003
  0
LINE
  5
353
330
1F
100
AcDbEntity
  8
0
  6
Continuous
 62
     7
370
    25
100
AcDbLine
 10
761.4290864982271
 20
178.2254357181
 30
0.0
 11
758.8745692589272
 21
178.2254357181
 31
0.0
  0
LINE
  5
354
330
1F
100
AcDbEntity
  8
0
  6
Continuous
 62
     7
370
    25
100
AcDbLine
 10
786.8745701232272
 20
178.2254357181
 30
0.0
 11
761.4290864982271
 21
178.2254357181
 31
0.0
  0
LINE
  5
355
330
1F
100
AcDbEntity
  8
0
  6
Continuous
 62
     7
370
    25
100
AcDbLine
 10
786.8745701232272
 20
182.0254404388
 30
0.0
 11
761.4290864982271
 21
182.0254404388
 31
0.0
  0
LINE
  5
356
330
1F
100
AcDbEntity
  8
0
  6
Continuous
 62
     7
370
    25
100
AcDbLine
 10
761.8271561184272
 20
266.8254453979
 30
0.0
 11
786.9745699533271
 21
266.8254453979
 31
0.0
  0
LINE
  5
357
330
1F
100
AcDbEntity
  8
0
  6
Continuous
 62
     7
370
    25
100
AcDbLine
 10
761.8271561184272
 20
181.8254370532
 30
0.0
 11
786.9745699533271
 21
181.8254370532
 31
0.0
  0
LINE
  5
358
330
1F
100
AcDbEntity
  8
0
  6
Continuous
 62
     7
370
    25
100
AcDbLine
 10
756.3266029426271
 20
266.8254453979
 30
0.0
 11
761.8271561184272
 21
266.8254453979
 31
0.0
  0
LINE
  5
359
330
1F
100
AcDbEntity
  8
0
  6
Continuous
 62
     7
370
    25
100
AcDbLine
 10
761.8271561184272
 20
181.8254370532
 30
0.0
 11
756.3266029426271
 21
181.8254370532
 31
0.0
  0
LINE
  5
35A
330
1F
100
AcDbEntity
  8
0
  6
Continuous
 62
     7
370
    25
100
AcDbLine
 10
755.8745687672272
 20
181.8254370532
 30
0.0
 11
755.8745687672272
 21
266.8254453979
 31
0.0
  0
LINE
  5
35B
330
1F
100
AcDbEntity
  8
0
  6
Continuous
 62
     7
370
    25
100
AcDbLine
 10
755.8745687672272
 20
266.8254453979
 30
0.0
 11
756.3266029426271
 21
266.8254453979
 31
0.0
  0
LINE
  5
35C
330
1F
100
AcDbEntity
  8
0
  6
Continuous
 62
     7
370
    25
100
AcDbLine
 10
756.3266029426271
 20
181.8254370532
 30
0.0
 11
755.8745687672272
 21
181.8254370532
 31
0.0
  0
LINE
  5
35D
330
1F
100
AcDbEntity
  8
0
  6
Continuous
 62
     7
370
    25
100
AcDbLine
 10
755.6745691069272
 20
266.8254453979
 30
0.0
 11
755.8745687672272
 21
266.8254453979
 31
0.0
  0
LINE
  5
35E
330
1F
100
AcDbEntity
  8
0
  6
Continuous
 62
     7
370
    25
100
AcDbLine
 10
755.8745687672272
 20
181.8254370532
 30
0.0
 11
755.6745691069272
 21
181.8254370532
 31
0.0
  0
CIRCLE
  5
35F
330
1F
100
AcDbEntity
  8
0
  6
Continuous
 62
     7
370
    25
100
AcDbCircle
 10
747.3745696910271
 20
191.825438889
 30
0.0
 40
3.199999999999989
  0
CIRCLE
  5
360
330
1F
100
AcDbEntity
  8
0
  6
Continuous
 62
     7
370
    25
100
AcDbCircle
 10
735.8745696910271
 20
224.325438889
 30
0.0
 40
3.199999999999974
  0
CIRCLE
  5
361
330
1F
100
AcDbEntity
  8
0
  6
Continuous
 62
     7
370
    25
100
AcDbCircle
 10
747.3745696910271
 20
256.825438889
 30
0.0
 40
3.199999999999989
  0
LINE
  5
362
330
1F
100
AcDbEntity
  8
0
  6
Continuous
 62
     7
370
    25
100
AcDbLine
 10
725.8745713004271
 20
181.8254370532
 30
0.0
 11
725.8745713004271
 21
266.8254453979
 31
0.0
  0
LINE
  5
363
330
1F
100
AcDbEntity
  8
0
  6
Continuous
 62
     7
370
    25
100
AcDbLine
 10
725.8745713004271
 20
266.8254453979
 30
0.0
 11
755.6745691069272
 21
266.8254453979
 31
0.0
  0
LINE
  5
364
330
1F
100
AcDbEntity
  8
0
  6
Continuous
 62
     7
370
    25
100
AcDbLine
 10
725.8745713004271
 20
181.8254370532
 30
0.0
 11
755.6745691069272
 21
181.8254370532
 31
0.0
  0
LINE
  5
365
330
1F
100
AcDbEntity
  8
0
  6
Continuous
 62
     7
370
    25
100
AcDbLine
 10
759.8502125435272
 20
93.025438889
 30
0.0
 11
786.9745699533271
 21
93.025438889
 31
0.0
  0
LINE
  5
366
330
1F
100
AcDbEntity
  8
0
  6
Continuous
 62
     7
370
    25
100
AcDbLine
 10
786.9745699533271
 20
178.0254397831
 30
0.0
 11
759.8502125435272
 21
178.0254397831
 31
0.0
  0
LINE
  5
367
330
1F
100
AcDbEntity
  8
0
  6
Continuous
 62
     7
370
    25
100
AcDbLine
 10
759.8502125435272
 20
93.025438889
 30
0.0
 11
754.3079333224272
 21
93.025438889
 31
0.0
  0
LINE
  5
368
330
1F
100
AcDbEntity
  8
0
  6
Continuous
 62
     7
370
    25
100
AcDbLine
 10
754.3079333224272
 20
178.0254397831
 30
0.0
 11
759.8502125435272
 21
178.0254397831
 31
0.0
  0
CIRCLE
  5
369
330
1F
100
AcDbEntity
  8
0
  6
Continuous
 62
     7
370
    25
100
AcDbCircle
 10
747.3745696910271
 20
103.025438889
 30
0.0
 40
6.199999999999996
  0
CIRCLE
  5
36A
330
1F
100
AcDbEntity
  8
0
  6
Continuous
 62
     7
370
    25
100
AcDbCircle
 10
747.3745696910271
 20
103.025438889
 30
0.0
 40
3.199999999999989
  0
CIRCLE
  5
36B
330
1F
100
AcDbEntity
  8
0
  6
Continuous
 62
     7
370
    25
100
AcDbCircle
 10
747.3745696910271
 20
168.025438889
 30
0.0
 40
6.199999999999996
  0
CIRCLE
  5
36C
330
1F
100
AcDbEntity
  8
0
  6
Continuous
 62
     7
370
    25
100
AcDbCircle
 10
747.3745696910271
 20
168.025438889
 30
0.0
 40
3.199999999999989
  0
LINE
  5
36D
330
1F
100
AcDbEntity
  8
0
  6
Continuous
 62
     7
370
    25
100
AcDbLine
 10
725.8745713004271
 20
93.025438889
 30
0.0
 11
725.8745713004271
 21
178.0254397831
 31
0.0
  0
CIRCLE
  5
36E
330
1F
100
AcDbEntity
  8
0
  6
Continuous
 62
     7
370
    25
100
AcDbCircle
 10
735.8745696910271
 20
135.525438889
 30
0.0
 40
6.200000000000003
  0
LINE
  5
36F
330
1F
100
AcDbEntity
  8
0
  6
Continuous
 62
     7
370
    25
100
AcDbLine
 10
725.8745713004271
 20
93.025438889
 30
0.0
 11
754.3079333224272
 21
93.025438889
 31
0.0
  0
LINE
  5
370
330
1F
100
AcDbEntity
  8
0
  6
Continuous
 62
     7
370
    25
100
AcDbLine
 10
725.8745713004271
 20
178.0254397831
 30
0.0
 11
754.3079333224272
 21
178.0254397831
 31
0.0
  0
CIRCLE
  5
371
330
1F
100
AcDbEntity
  8
0
  6
Continuous
 62
     7
370
    25
100
AcDbCircle
 10
735.8745696910271
 20
135.525438889
 30
0.0
 40
3.200000000000003
  0
LINE
  5
372
330
1F
100
AcDbEntity
  8
0
  6
Continuous
 62
     8
370
    18
100
AcDbLine
 10
761.8271561184272
 20
266.8254453979
 30
0.0
 11
761.8271561184272
 21
181.8254370532
 31
0.0
  0
LINE
  5
373
330
1F
100
AcDbEntity
  8
0
  6
Continuous
 62
     8
370
    18
100
AcDbLine
 10
756.3266029426271
 20
181.8254370532
 30
0.0
 11
756.3266029426271
 21
266.8254453979
 31
0.0
  0
LINE
  5
374
330
1F
100
AcDbEntity
  8
0
  6
Continuous
 62
     8
370
    18
100
AcDbLine
 10
755.6745691069272
 20
181.8254370532
 30
0.0
 11
755.6745691069272
 21
266.8254453979
 31
0.0
  0
LINE
  5
375
330
1F
100
AcDbEntity
  8
0
  6
Continuous
 62
     8
370
    18
100
AcDbLine
 10
759.8502125435272
 20
178.0254397831
 30
0.0
 11
759.8502125435272
 21
93.025438889
 31
0.0
  0
LINE
  5
376
330
1F
100
AcDbEntity
  8
0
  6
Continuous
 62
     8
370
    18
100
AcDbLine
 10
754.3079333224272
 20
93.025438889
 30
0.0
 11
754.3079333224272
 21
178.0254397831
 31
0.0
  0
LINE
  5
377
330
1F
100
AcDbEntity
  8
0
  6
Continuous
 62
     7
370
    25
100
AcDbLine
 10
528.4468862812271
 20
429.9493135521
 30
0.0
 11
528.4468862812271
 21
428.9694698925
 31
0.0
  0
LINE
  5
378
330
1F
100
AcDbEntity
  8
0
  6
Continuous
 62
     7
370
    25
100
AcDbLine
 10
511.6468874664271
 20
428.9694689801
 30
0.0
 11
511.6468874664271
 21
429.9493126397
 31
0.0
  0
LINE
  5
379
330
1F
100
AcDbEntity
  8
0
  6
Continuous
 62
     7
370
    25
100
AcDbLine
 10
511.6468874664271
 20
342.840740907
 30
0.0
 11
511.6468874664271
 21
343.2399636206
 31
0.0
  0
LINE
  5
37A
330
1F
100
AcDbEntity
  8
0
  6
Continuous
 62
     7
370
    25
100
AcDbLine
 10
528.4468862812271
 20
386.7452582049
 30
0.0
 11
528.4468862812271
 21
385.5621555903
 31
0.0
  0
LINE
  5
37B
330
1F
100
AcDbEntity
  8
0
  6
Continuous
 62
     7
370
    25
100
AcDbLine
 10
511.6468874664271
 20
385.5621546779
 30
0.0
 11
511.6468874664271
 21
386.7452572925
 31
0.0
  0
LINE
  5
37C
330
1F
100
AcDbEntity
  8
0
  6
Continuous
 62
     7
370
    25
100
AcDbLine
 10
528.5068874567271
 20
428.9694692082
 30
0.0
 11
528.5068874567271
 21
387.3258837138
 31
0.0
  0
LINE
  5
37D
330
1F
100
AcDbEntity
  8
0
  6
Continuous
 62
     7
370
    25
100
AcDbLine
 10
511.5868862909271
 20
387.32588417
 30
0.0
 11
511.5868862909271
 21
428.9694696644
 31
0.0
  0
LINE
  5
37E
330
1F
100
AcDbEntity
  8
0
  6
Continuous
 62
     7
370
    25
100
AcDbLine
 10
511.5868862909271
 20
343.8205906122
 30
0.0
 11
511.5868862909271
 21
385.4641724564
 31
0.0
  0
LINE
  5
37F
330
1F
100
AcDbEntity
  8
0
  6
Continuous
 62
     7
370
    25
100
AcDbLine
 10
535.8203164799272
 20
384.398783578
 30
0.0
 11
535.8203164799272
 21
342.7552017338
 31
0.0
  0
LWPOLYLINE
  5
380
330
1F
100
AcDbEntity
  8
0
  6
Continuous
 62
     7
370
    25
100
AcDbPolyline
 90
       20
 70
   128
 43
0.0
 10
526.4711869686271
 20
420.9734800248
 10
526.2120778781272
 20
420.9443787541
 10
525.9331307228272
 20
420.8001516105
 10
525.6645737824272
 20
420.5564165972
 10
525.4355093980271
 20
420.2395888224
 10
525.2707601824271
 20
419.8840012915
 10
525.1881793432271
 20
419.5281912577
 10
525.1967157593272
 20
419.2107170287
 10
525.2954443403271
 20
418.9659698841
 10
525.4736663887271
 20
418.8204868856
 10
525.7120687531271
 20
418.7900282241
 10
525.9848168057272
 20
418.8778944935
 10
526.2623540840272
 20
419.0745644696
 10
526.5146051209272
 20
419.3587191142
 10
526.7142346402271
 20
419.6995756965
 10
526.8396095784271
 20
420.0601892281
 10
526.8771437013272
 20
420.4014852445
 10
526.8227696240272
 20
420.6864823893
 10
526.6823795746271
 20
420.8842919891
 10
526.4711869686271
 20
420.9734800248
  0
LINE
  5
381
330
1F
100
AcDbEntity
  8
0
  6
Continuous
 62
     7
370
    25
100
AcDbLine
 10
526.6742356675271
 20
420.6605261958
 30
0.0
 11
526.6561968493272
 21
419.8017937428
 31
0.0
  0
LINE
  5
382
330
1F
100
AcDbEntity
  8
0
  6
Continuous
 62
     7
370
    25
100
AcDbLine
 10
526.6561968493272
 20
419.8017937428
 30
0.0
 11
526.0109731023272
 21
419.0231976165
 31
0.0
  0
LINE
  5
383
330
1F
100
AcDbEntity
  8
0
  6
Continuous
 62
     7
370
    25
100
AcDbLine
 10
526.0109731023272
 20
419.0231976165
 30
0.0
 11
525.3837882013272
 21
419.1033266587
 31
0.0
  0
LINE
  5
384
330
1F
100
AcDbEntity
  8
0
  6
Continuous
 62
     7
370
    25
100
AcDbLine
 10
525.3837882013272
 20
419.1033266587
 30
0.0
 11
525.4018270196271
 21
419.9620591116
 31
0.0
  0
LINE
  5
385
330
1F
100
AcDbEntity
  8
0
  6
Continuous
 62
     7
370
    25
100
AcDbLine
 10
526.0470507665271
 20
420.7406625384
 30
0.0
 11
525.4018270196271
 21
419.9620591116
 31
0.0
  0
LINE
  5
386
330
1F
100
AcDbEntity
  8
0
  6
Continuous
 62
     7
370
    25
100
AcDbLine
 10
526.0470507665271
 20
420.7406625384
 30
0.0
 11
526.6742356675271
 21
420.6605261958
 31
0.0
  0
LINE
  5
387
330
1F
100
AcDbEntity
  8
0
  6
Continuous
 62
     7
370
    25
100
AcDbLine
 10
525.3983735381271
 20
419.7977414616
 30
0.0
 11
525.8076669923271
 21
420.2916396026
 31
0.0
  0
LINE
  5
388
330
1F
100
AcDbEntity
  8
0
  6
Continuous
 62
     7
370
    25
100
AcDbLine
 10
525.8076669923271
 20
420.2916396026
 30
0.0
 11
525.8111187698271
 21
420.4559576383
 31
0.0
  0
LINE
  5
389
330
1F
100
AcDbEntity
  8
0
  6
Continuous
 62
     7
370
    25
100
AcDbLine
 10
525.3896379395271
 20
419.381886771
 30
0.0
 11
526.0109731023272
 21
419.0231976165
 31
0.0
  0
LINE
  5
38A
330
1F
100
AcDbEntity
  8
0
  6
Continuous
 62
     7
370
    25
100
AcDbLine
 10
526.6561968493272
 20
419.8017937428
 30
0.0
 11
525.8076669923271
 21
420.2916396026
 31
0.0
  0
LWPOLYLINE
  5
38B
330
1F
100
AcDbEntity
  8
0
  6
Continuous
 62
     7
370
    25
100
AcDbPolyline
 90
       53
 70
   128
 43
0.0
 10
513.1587913005271
 20
432.7247478584
 10
513.7885199176271
 20
433.1838151309
 10
514.5095096162272
 20
433.5957161137
 10
515.3112443212272
 20
433.9544456993
 10
516.1820391729271
 20
434.254769308
 10
517.1091883782271
 20
434.4923118903
 10
518.079179591627
 20
434.6636050446
 10
519.0778619428272
 20
434.7661548199
 10
520.0906744201271
 20
434.7984640701
 10
521.1028487678271
 20
434.760061993
 10
522.0996277937271
 20
434.6515060694
 10
523.0664704399271
 20
434.4743836598
 10
523.9892801662272
 20
434.231275964
 10
524.8546029081272
 20
433.9257263151
 10
525.6498163432271
 20
433.5621925066
 10
526.3633274540271
 20
433.1459747117
 10
526.9847333444271
 20
432.6831404379
 10
527.5049650665271
 20
432.1804433232
 10
527.9164448802271
 20
431.6452095409
 10
528.2131680450271
 20
431.0852463309
 10
528.3908067382272
 20
430.5087195094
 10
528.4467748555271
 20
429.9240339429
 10
528.3802501381272
 20
429.3397185857
 10
528.1922073636272
 20
428.7642923553
 10
527.8853891066271
 20
428.2061450637
 10
527.4642682013271
 20
427.6734172077
 10
526.9349824471271
 20
427.1738783333
 10
526.3052569910271
 20
426.7148092361
 10
525.5842672925271
 20
426.3029082532
 10
524.7825294264271
 20
425.9441804925
 10
523.9117377357271
 20
425.643855059
 10
522.9845855670271
 20
425.4063144154
 10
522.0145973171271
 20
425.2350193223
 10
521.015911804827
 20
425.1324713718
 10
520.0030993275271
 20
425.1001621217
 10
518.9909249798271
 20
425.1385641988
 10
517.9941491149272
 20
425.2471182975
 10
517.0273033077272
 20
425.4242425319
 10
516.104493581427
 20
425.6673502278
 10
515.2391708395271
 20
425.9728998766
 10
514.4439574044271
 20
426.3364336851
 10
513.7304462937271
 20
426.7526514801
 10
513.1090435642271
 20
427.215483929
 10
512.5888086811271
 20
427.7181828685
 10
512.1773288674271
 20
428.2534166509
 10
511.8806088636271
 20
428.813378036
 10
511.7029670094271
 20
429.3899066824
 10
511.6470020532271
 20
429.974590424
 10
511.7135236096271
 20
430.558907606
 10
511.9015663840271
 20
431.1343338364
 10
512.2083846410271
 20
431.692481128
 10
512.6295055464271
 20
432.2252089841
 10
513.1587913005271
 20
432.7247478584
  0
LWPOLYLINE
  5
38C
330
1F
100
AcDbEntity
  8
0
  6
Continuous
 62
     7
370
    25
100
AcDbPolyline
 90
       28
 70
   128
 43
0.0
 10
528.4468862812271
 20
428.9694698925
 10
528.4467748555271
 20
428.9441902834
 10
528.3802501381272
 20
428.3598749262
 10
528.1922073636272
 20
427.7844486958
 10
527.8853891066271
 20
427.2263014042
 10
527.4642682013271
 20
426.6935735481
 10
526.9349824471271
 20
426.1940346738
 10
526.3052569910271
 20
425.7349655765
 10
525.5842672925271
 20
425.3230645937
 10
524.7825294264271
 20
424.9643368329
 10
523.9117377357271
 20
424.6640113994
 10
522.9845855670271
 20
424.4264707559
 10
522.0145973171271
 20
424.2551756627
 10
521.015911804827
 20
424.1526277123
 10
520.0030993275271
 20
424.1203184621
 10
518.9909249798271
 20
424.1587205392
 10
517.9941491149272
 20
424.267274638
 10
517.0273033077272
 20
424.4443988724
 10
516.104493581427
 20
424.6875065682
 10
515.2391708395271
 20
424.9930562171
 10
514.4439574044271
 20
425.3565900256
 10
513.7304462937271
 20
425.7728078205
 10
513.1090435642271
 20
426.2356402695
 10
512.5888086811271
 20
426.738339209
 10
512.1773288674271
 20
427.2735729913
 10
511.8806088636271
 20
427.8335343765
 10
511.7029670094271
 20
428.4100630228
 10
511.6468874664271
 20
428.9694689801
  0
LWPOLYLINE
  5
38D
330
1F
100
AcDbEntity
  8
0
  6
Continuous
 62
     7
370
    25
100
AcDbPolyline
 90
       23
 70
   128
 43
0.0
 10
511.6468874664271
 20
342.840740907
 10
511.6897354014271
 20
342.3515649822
 10
511.8528089340271
 20
341.7736043128
 10
512.1353687821272
 20
341.21120566
 10
512.5332977255271
 20
340.6725688271
 10
513.0407925382272
 20
340.1655480429
 10
513.6504481507271
 20
339.6975399643
 10
514.3533809293272
 20
339.2753650629
 10
515.1393381262271
 20
338.9051811748
 10
515.9968590914272
 20
338.592386785
 10
516.9134345085272
 20
338.3415450698
 10
517.8757063290271
 20
338.1563095357
 10
518.8696384670271
 20
338.0393838731
 10
519.8807360944272
 20
337.9924733711
 10
520.8942574291272
 20
338.0162611945
 10
521.8954223614271
 20
338.1104010848
 10
522.8696313548271
 20
338.2735196412
 10
523.8026798018271
 20
338.5032378759
 10
524.6809595386271
 20
338.7962072547
 10
525.4916638668271
 20
339.1481550604
 10
526.2229701014271
 20
339.55394963
 10
526.8642156494271
 20
340.0076728054
 10
527.1142721772271
 20
340.2198228683
  0
LWPOLYLINE
  5
38E
330
1F
100
AcDbEntity
  8
0
  6
Continuous
 62
     7
370
    25
100
AcDbPolyline
 90
       28
 70
   128
 43
0.0
 10
528.4468862812271
 20
387.4238709542
 10
528.4360119991271
 20
387.177210573
 10
528.3233439900271
 20
386.5952572098
 10
528.0899865046272
 20
386.0253866266
 10
527.7393417813271
 20
385.4759095982
 10
527.2765249329271
 20
384.9548374015
 10
526.7082832911271
 20
384.4697695614
 10
526.0429043856271
 20
384.0277786841
 10
525.2900884966272
 20
383.6353113359
 10
524.4608155841272
 20
383.2980893256
 10
523.5671771734271
 20
383.0210309021
 10
522.6222034074272
 20
382.808176461
 10
521.6396769968271
 20
382.6626285856
 10
520.6339262240272
 20
382.586509193
 10
519.6196118701271
 20
382.5809314199
 10
518.6115298497272
 20
382.6459732771
 10
517.6243804567271
 20
382.7806867736
 10
516.6725546009271
 20
382.9831095496
 10
515.7699342687272
 20
383.2502883713
 10
514.929680340527
 20
383.5783281724
 10
514.1640496467271
 20
383.9624433775
 10
513.4842005653271
 20
384.397035456
 10
512.9000519621271
 20
384.875764775
 10
512.4201211883271
 20
385.3916505072
 10
512.0514031720271
 20
385.9371723646
 10
511.7992803291272
 20
386.5043718758
 10
511.6674265477271
 20
387.0849794384
 10
511.6468874664271
 20
387.4238700418
  0
LWPOLYLINE
  5
38F
330
1F
100
AcDbEntity
  8
0
  6
Continuous
 62
     7
370
    25
100
AcDbPolyline
 90
       28
 70
   128
 43
0.0
 10
528.4468862812271
 20
385.5621555903
 10
528.4360119991271
 20
385.3154952091
 10
528.3233439900271
 20
384.7335418459
 10
528.0899865046272
 20
384.1636712628
 10
527.7393417813271
 20
383.6141942343
 10
527.2765249329271
 20
383.0931220376
 10
526.7082832911271
 20
382.6080541975
 10
526.0429043856271
 20
382.1660633202
 10
525.2900884966272
 20
381.773595972
 10
524.4608155841272
 20
381.4363739618
 10
523.5671771734271
 20
381.1593155383
 10
522.6222034074272
 20
380.9464610971
 10
521.6396769968271
 20
380.8009132217
 10
520.6339262240272
 20
380.7247938291
 10
519.6196118701271
 20
380.719216056
 10
518.6115298497272
 20
380.7842579132
 10
517.6243804567271
 20
380.9189714097
 10
516.6725546009271
 20
381.1213941857
 10
515.7699342687272
 20
381.3885730074
 10
514.929680340527
 20
381.7166128085
 10
514.1640496467271
 20
382.1007280136
 10
513.4842005653271
 20
382.5353200921
 10
512.9000519621271
 20
383.0140494111
 10
512.4201211883271
 20
383.5299351433
 10
512.0514031720271
 20
384.0754570008
 10
511.7992803291272
 20
384.642656512
 10
511.6674265477271
 20
385.2232640745
 10
511.6468874664271
 20
385.5621546779
  0
ARC
  5
390
330
1F
100
AcDbEntity
  8
0
  6
Continuous
 62
     7
370
    25
100
AcDbCircle
 10
524.8095816215271
 20
434.0092537877
 30
0.0
 40
0.4666141212475534
100
AcDbArc
 50
62.82017937579312
 51
114.0004273518879
  0
LWPOLYLINE
  5
391
330
1F
100
AcDbEntity
  8
0
  6
Continuous
 62
     7
370
    25
100
AcDbPolyline
 90
        3
 70
   128
 43
0.0
 10
524.6197893808271
 20
434.4355255831
 10
524.2326521380271
 20
434.2694556176
 10
524.0651144639271
 20
434.2077235174
  0
LWPOLYLINE
  5
392
330
1F
100
AcDbEntity
  8
0
  6
Continuous
 62
     7
370
    25
100
AcDbPolyline
 90
       30
 70
   128
 43
0.0
 10
511.6468870713271
 20
429.5500954752
 10
511.5887370644271
 20
429.0715634642
 10
511.6274839793271
 20
428.4915859188
 10
511.7851466468271
 20
427.9183556243
 10
512.0594933913271
 20
427.3599711069
 10
512.4466496002271
 20
426.8243196701
 10
512.9411490907271
 20
426.3189647134
 10
513.5360091837272
 20
425.8510430853
 10
514.2228247440271
 20
425.4271660884
 10
514.9918938305271
 20
425.0533204822
 10
515.8323603368272
 20
424.7347829455
 10
516.7323522861271
 20
424.4760539266
 10
517.6791548961271
 20
424.2807896691
 10
518.6593978694272
 20
424.1517460989
 10
519.6592383370271
 20
424.0907457492
 10
520.6645564461271
 20
424.0986483358
 10
521.6611458112271
 20
424.1753475631
 10
522.6349391313272
 20
424.3197553857
 10
523.5721814531271
 20
424.5298326876
 10
524.4596321796271
 20
424.8026146587
 10
525.2847571014272
 20
425.1342486598
 10
526.0359056452271
 20
425.5200491005
 10
526.7024691499271
 20
425.9545669123
 10
527.2750320454271
 20
426.4316658737
 10
527.7455071408272
 20
426.9446080093
 10
528.1072497879271
 20
427.4861486922
 10
528.3551524800271
 20
428.0486386997
 10
528.4857106409272
 20
428.6241351855
 10
528.4970851534272
 20
429.2045071189
 10
528.4468858861271
 20
429.5500963876
  0
ARC
  5
393
330
1F
100
AcDbEntity
  8
0
  6
Continuous
 62
     7
370
    25
100
AcDbCircle
 10
529.1358262173271
 20
431.5667087601
 30
0.0
 40
1.630078339260161
100
AcDbArc
 50
135.1274086776
 51
161.5230682170009
  0
LINE
  5
394
330
1F
100
AcDbEntity
  8
0
  6
Continuous
 62
     7
370
    25
100
AcDbLine
 10
540.7085474829271
 20
440.0644546205
 30
0.0
 11
527.9806264962272
 21
432.7167822346
 31
0.0
  0
LINE
  5
395
330
1F
100
AcDbEntity
  8
0
  6
Continuous
 62
     7
370
    25
100
AcDbLine
 10
540.7085474829271
 20
440.0644546205
 30
0.0
 11
539.0963420189271
 21
440.9951610242
 31
0.0
  0
LINE
  5
396
330
1F
100
AcDbEntity
  8
0
  6
Continuous
 62
     7
370
    25
100
AcDbLine
 10
539.0963420189271
 20
440.9951610242
 30
0.0
 11
526.4532737019272
 21
433.6964730417
 31
0.0
  0
ARC
  5
397
330
1F
100
AcDbEntity
  8
0
  6
Continuous
 62
     7
370
    25
100
AcDbCircle
 10
526.2411410572272
 20
434.1058792391
 30
0.0
 40
0.4611005241498854
100
AcDbArc
 50
242.6096902963882
 51
297.3908025792844
  0
LINE
  5
398
330
1F
100
AcDbEntity
  8
0
  6
Continuous
 62
     7
370
    25
100
AcDbLine
 10
526.0290119344272
 20
433.6964712169
 30
0.0
 11
525.5870358465272
 21
433.9516185815
 31
0.0
  0
ARC
  5
399
330
1F
100
AcDbEntity
  8
0
  6
Continuous
 62
     7
370
    25
100
AcDbCircle
 10
525.6300230527272
 20
434.0721537485
 30
0.0
 40
0.1279711935767283
100
AcDbArc
 50
149.3811230355066
 51
250.3719245901079
  0
LINE
  5
39A
330
1F
100
AcDbEntity
  8
0
  6
Continuous
 62
     7
370
    25
100
AcDbLine
 10
525.5198943363271
 20
434.1373326732
 30
0.0
 11
525.0227237893271
 21
434.4243431208
 31
0.0
  0
LWPOLYLINE
  5
39B
330
1F
100
AcDbEntity
  8
0
  6
Continuous
 62
     7
370
    25
100
AcDbPolyline
 90
       28
 70
   128
 43
0.0
 10
511.5868862909271
 20
387.32588417
 10
511.6274839793271
 20
386.8480004244
 10
511.7851466468271
 20
386.2747701299
 10
512.0594933913271
 20
385.7163856125
 10
512.4466496002271
 20
385.1807341757
 10
512.9411490907271
 20
384.6753792189
 10
513.5360091837272
 20
384.2074575909
 10
514.2228247440271
 20
383.783580594
 10
514.9918938305271
 20
383.4097349878
 10
515.8323603368272
 20
383.0911974511
 10
516.7323522861271
 20
382.8324684322
 10
517.6791548961271
 20
382.6372041747
 10
518.6593978694272
 20
382.5081606044
 10
519.6592383370271
 20
382.4471602548
 10
520.6645564461271
 20
382.4550628413
 10
521.6611458112271
 20
382.5317620687
 10
522.6349391313272
 20
382.6761698913
 10
523.5721814531271
 20
382.8862471932
 10
524.4596321796271
 20
383.1590291643
 10
525.2847571014272
 20
383.4906631654
 10
526.0359056452271
 20
383.876463606
 10
526.7024691499271
 20
384.3109814179
 10
527.2750320454271
 20
384.7880803793
 10
527.7455071408272
 20
385.3010225149
 10
528.1072497879271
 20
385.8425631977
 10
528.3551524800271
 20
386.4050532053
 10
528.4857106409272
 20
386.980549691
 10
528.5068874567271
 20
387.3258837138
  0
SPLINE
  5
39C
330
1F
100
AcDbEntity
  8
0
  6
Continuous
 62
     7
370
    25
100
AcDbSpline
210
0.0
220
0.0
230
1.0
 70
    11
 71
     3
 72
    26
 73
    22
 74
     0
 42
0.000000001
 43
0.00000001
 40
0.0
 40
0.0
 40
0.0
 40
0.0
 40
0.0531109593447348
 40
0.1062028068880605
 40
0.1598217986337525
 40
0.2137970204089722
 40
0.2672058659427129
 40
0.3200215725810457
 40
0.3731137431951019
 40
0.4269328740872497
 40
0.4808180977300243
 40
0.5339746991654042
 40
0.586752141914594
 40
0.6400823998731459
 40
0.69403909567845
 40
0.7477276455618961
 40
0.8006832549426295
 40
0.853570843411544
 40
0.9071454450314657
 40
0.9611288069365436
 40
1.0
 40
1.0
 40
1.0
 40
1.0
 10
526.9948890885762
 20
420.548953205338
 30
0.0
 10
526.9854901157481
 20
420.6775713195663
 30
0.0
 10
526.966695552281
 20
420.9347612652238
 30
0.0
 10
526.8167141997869
 20
421.1780965116046
 30
0.0
 10
526.583828974895
 20
421.2851560284291
 30
0.0
 10
526.2728862411684
 20
421.240173434534
 30
0.0
 10
525.9157163106818
 20
421.0543574409125
 30
0.0
 10
525.5525937809936
 20
420.7520990437255
 30
0.0
 10
525.2265237468878
 20
420.3632541610264
 30
0.0
 10
524.981746279829
 20
419.921315112955
 30
0.0
 10
524.8590928682686
 20
419.4705419133181
 30
0.0
 10
524.8792346725336
 20
419.0620936595096
 30
0.0
 10
525.0356438891334
 20
418.7410175503734
 30
0.0
 10
525.3041638467355
 20
418.5435453331959
 30
0.0
 10
525.647415934031
 20
418.499628562171
 30
0.0
 10
526.0160490959315
 20
418.6223244274584
 30
0.0
 10
526.3618440871458
 20
418.8968872365867
 30
0.0
 10
526.6519240192083
 20
419.2895925210053
 30
0.0
 10
526.8632651906389
 20
419.7541642484129
 30
0.0
 10
526.977606708899
 20
420.1968121274667
 30
0.0
 10
526.9897891993969
 20
420.4450392475279
 30
0.0
 10
526.9948890885762
 20
420.548953205338
 30
0.0
  0
LINE
  5
39D
330
1F
100
AcDbEntity
  8
0
  6
Continuous
 62
     7
370
    25
100
AcDbLine
 10
527.9806264962272
 20
431.5424401525
 30
0.0
 11
527.9806264962272
 21
432.7167822346
 31
0.0
  0
LINE
  5
39E
330
1F
100
AcDbEntity
  8
0
  6
Continuous
 62
     7
370
    25
100
AcDbLine
 10
540.7085474829271
 20
398.4208691261
 30
0.0
 11
528.5068878518271
 21
391.3770009541
 31
0.0
  0
LINE
  5
39F
330
1F
100
AcDbEntity
  8
0
  6
Continuous
 62
     7
370
    25
100
AcDbLine
 10
540.7085474829271
 20
398.4208691261
 30
0.0
 11
540.7085474829271
 21
440.0644546205
 31
0.0
  0
LWPOLYLINE
  5
3A0
330
1F
100
AcDbEntity
  8
0
  6
Continuous
 62
     7
370
    25
100
AcDbPolyline
 90
       36
 70
   128
 43
0.0
 10
534.2173079851271
 20
431.4178943228
 10
534.1750357498272
 20
431.9358629487
 10
534.0495782795272
 20
432.388376301
 10
533.8449666569271
 20
432.7608901485
 10
533.5677781612271
 20
433.0414398158
 10
533.2269213191271
 20
433.220990624
 10
532.8333522038272
 20
433.2937924455
 10
532.3997204016271
 20
433.2574892442
 10
531.9399628217271
 20
433.1132496082
 10
531.4688564126271
 20
432.8657202524
 10
531.0015432199272
 20
432.5228467452
 10
530.5530427998272
 20
432.0956504348
 10
530.137770955127
 20
431.5978703163
 10
529.7690734853271
 20
431.0454967593
 10
529.4588026111271
 20
430.4562860687
 10
529.2169289598271
 20
429.849171466
 10
529.0512270444272
 20
429.2436726958
 10
528.9670231728271
 20
428.6592540665
 10
528.9670231728271
 20
428.114684765
 10
529.0512270444272
 20
427.6274858563
 10
529.2169289598271
 20
427.2133024454
 10
529.4588026111271
 20
426.8854492163
 10
529.7690734853271
 20
426.6544696519
 10
530.137770955127
 20
426.5277851325
 10
530.5530427998272
 20
426.5094603797
 10
531.0015432199272
 20
426.6000989325
 10
531.4688564126271
 20
426.7967737531
 10
531.9399628217271
 20
427.0931722794
 10
532.3997204016271
 20
427.4797574462
 10
532.8333522038272
 20
427.9441148668
 10
533.2269213191271
 20
428.4713146162
 10
533.5677781612271
 20
429.0444176579
 10
533.8449666569271
 20
429.6449950497
 10
534.0495782795272
 20
430.2537557486
 10
534.1750357498272
 20
430.8511192128
 10
534.2173079851271
 20
431.4178943228
  0
LWPOLYLINE
  5
3A1
330
1F
100
AcDbEntity
  8
0
  6
Continuous
 62
     7
370
    25
100
AcDbPolyline
 90
       36
 70
   128
 43
0.0
 10
539.0963451799271
 20
418.3119572944
 10
539.0540729446271
 20
418.8299259203
 10
538.9286138938271
 20
419.2824383602
 10
538.7240030615271
 20
419.654952664
 10
538.4468153560272
 20
419.9355027874
 10
538.1059585139271
 20
420.1150535956
 10
537.7123886083272
 20
420.187854961
 10
537.2787575964271
 20
420.1515522158
 10
536.8189992262271
 20
420.0073121236
 10
536.3478928171271
 20
419.7597827678
 10
535.8805796244271
 20
419.4169092606
 10
535.4320792043271
 20
418.9897129502
 10
535.0168073596271
 20
418.4919328317
 10
534.6481098899271
 20
417.9395592747
 10
534.3378390157271
 20
417.3503485841
 10
534.0959661546271
 20
416.7432344377
 10
533.9302634489271
 20
416.1377352113
 10
533.8460595774271
 20
415.5533165819
 10
533.8460595774271
 20
415.0087472804
 10
533.9302634489271
 20
414.5215483718
 10
534.0959661546271
 20
414.1073654171
 10
534.3378390157271
 20
413.7795117317
 10
534.6481098899271
 20
413.5485321673
 10
535.0168073596271
 20
413.4218476479
 10
535.4320792043271
 20
413.4035228951
 10
535.8805796244271
 20
413.4941614479
 10
536.3478928171271
 20
413.6908362685
 10
536.8189992262271
 20
413.9872274944
 10
537.2787575964271
 20
414.3738204179
 10
537.7123886083272
 20
414.8381773822
 10
538.1059585139271
 20
415.3653775878
 10
538.4468153560272
 20
415.9384806295
 10
538.7240030615271
 20
416.5390575651
 10
538.9286138938271
 20
417.1478178078
 10
539.0540729446271
 20
417.7451821845
 10
539.0963451799271
 20
418.3119572944
  0
LWPOLYLINE
  5
3A2
330
1F
100
AcDbEntity
  8
0
  6
Continuous
 62
     7
370
    25
100
AcDbPolyline
 90
       36
 70
   128
 43
0.0
 10
534.2173079851271
 20
399.5728038273
 10
534.1750357498272
 20
400.0907724532
 10
534.0495782795272
 20
400.5432858055
 10
533.8449666569271
 20
400.9158033033
 10
533.5677781612271
 20
401.1963456701
 10
533.2269213191271
 20
401.3759037787
 10
532.8333522038272
 20
401.4486982998
 10
532.3997204016271
 20
401.4123950985
 10
531.9399628217271
 20
401.2681591127
 10
531.4688564126271
 20
401.0206297569
 10
531.0015432199272
 20
400.6777562497
 10
530.5530427998272
 20
400.2505599393
 10
530.137770955127
 20
399.7527798208
 10
529.7690734853271
 20
399.2004026136
 10
529.4588026111271
 20
398.611191923
 10
529.2169289598271
 20
398.0040809706
 10
529.0512270444272
 20
397.3985822004
 10
528.9670231728271
 20
396.8141599208
 10
528.9670231728271
 20
396.2695942695
 10
529.0512270444272
 20
395.7823917106
 10
529.2169289598271
 20
395.3682082997
 10
529.4588026111271
 20
395.0403587209
 10
529.7690734853271
 20
394.8093791564
 10
530.137770955127
 20
394.6826909868
 10
530.5530427998272
 20
394.6643735345
 10
531.0015432199272
 20
394.7550047868
 10
531.4688564126271
 20
394.9516832576
 10
531.9399628217271
 20
395.2480781337
 10
532.3997204016271
 20
395.6346669508
 10
532.8333522038272
 20
396.0990243713
 10
533.2269213191271
 20
396.6262277709
 10
533.5677781612271
 20
397.1993271624
 10
533.8449666569271
 20
397.7999045542
 10
534.0495782795272
 20
398.4086616029
 10
534.1750357498272
 20
399.0060250671
 10
534.2173079851271
 20
399.5728038273
  0
LINE
  5
3A3
330
1F
100
AcDbEntity
  8
0
  6
Continuous
 62
     7
370
    25
100
AcDbLine
 10
525.5198943363271
 20
434.0108232834
 30
0.0
 11
525.5198943363271
 21
434.1373326732
 31
0.0
  0
LWPOLYLINE
  5
3A4
330
1F
100
AcDbEntity
  8
0
  6
Continuous
 62
     7
370
    25
100
AcDbPolyline
 90
        6
 70
   128
 43
0.0
 10
531.6717239459272
 20
431.4178938666
 10
531.6290708083271
 20
431.7831582337
 10
531.5037927256271
 20
432.0762239458
 10
531.3037598313272
 20
432.2786744391
 10
531.0415418962272
 20
432.3777993738
 10
530.8428571742272
 20
432.3833540348
  0
LWPOLYLINE
  5
3A5
330
1F
100
AcDbEntity
  8
0
  6
Continuous
 62
     7
370
    25
100
AcDbPolyline
 90
       12
 70
   128
 43
0.0
 10
529.0637280631272
 20
429.3014798599
 10
529.2157214526271
 20
429.0785679929
 10
529.4486834162271
 20
428.9265773585
 10
529.7360219267271
 20
428.8818876506
 10
530.0596820644271
 20
428.9472897891
 10
530.3993266578271
 20
429.1186869394
 10
530.7336141234271
 20
429.3853065617
 10
531.0415418962272
 20
429.7303956521
 10
531.3037598313272
 20
430.1322709705
 10
531.5037927256271
 20
430.5656745275
 10
531.6290708083271
 20
431.0033832352
 10
531.6717239459272
 20
431.4178938666
  0
LWPOLYLINE
  5
3A6
330
1F
100
AcDbEntity
  8
0
  6
Continuous
 62
     7
370
    25
100
AcDbPolyline
 90
       13
 70
   128
 43
0.0
 10
531.0891775815271
 20
432.368743905
 10
531.2369715644271
 20
432.1359248172
 10
531.3216045435272
 20
431.8041445592
 10
531.3216045435272
 20
431.4111616718
 10
531.2369715644271
 20
430.9816662559
 10
531.0730232213272
 20
430.5426443592
 10
530.8400604674271
 20
430.1216811106
 10
530.5527227471271
 20
429.7452378763
 10
530.2290626095271
 20
429.436949974
 10
529.8894180160271
 20
429.2162018239
 10
529.5551297602271
 20
429.0968608976
 10
529.2472027777271
 20
429.0864246053
 10
529.1995639314271
 20
429.095483907
  0
LWPOLYLINE
  5
3A7
330
1F
100
AcDbEntity
  8
0
  6
Continuous
 62
     7
370
    25
100
AcDbPolyline
 90
        6
 70
   128
 43
0.0
 10
536.5507603504271
 20
418.311956382
 10
536.5081072129271
 20
418.6772207491
 10
536.3828299204272
 20
418.9702869175
 10
536.1827962358271
 20
419.1727369545
 10
535.9205790910271
 20
419.2718623455
 10
535.7218935787271
 20
419.2774165502
  0
LWPOLYLINE
  5
3A8
330
1F
100
AcDbEntity
  8
0
  6
Continuous
 62
     7
370
    25
100
AcDbPolyline
 90
       12
 70
   128
 43
0.0
 10
533.9427644676271
 20
416.1955423754
 10
534.0947586474272
 20
415.9726309645
 10
534.3277206110272
 20
415.8206403301
 10
534.6150583313272
 20
415.775950166
 10
534.9387192592271
 20
415.8413527607
 10
535.2783638526271
 20
416.012749911
 10
535.6126505279271
 20
416.2793690772
 10
535.9205790910271
 20
416.6244586237
 10
536.1827962358271
 20
417.0263261855
 10
536.3828299204272
 20
417.4597374991
 10
536.5081072129271
 20
417.8974457507
 10
536.5507603504271
 20
418.311956382
  0
LWPOLYLINE
  5
3A9
330
1F
100
AcDbEntity
  8
0
  6
Continuous
 62
     7
370
    25
100
AcDbPolyline
 90
       13
 70
   128
 43
0.0
 10
535.9682139860272
 20
419.2628064204
 10
536.1160087592272
 20
419.0299877889
 10
536.2006417383271
 20
418.6982075308
 10
536.2006417383271
 20
418.3052246434
 10
536.1160087592272
 20
417.8757292276
 10
535.9520596258271
 20
417.4367068746
 10
535.7190976622271
 20
417.0157440822
 10
535.4317583614271
 20
416.6392999355
 10
535.1080990140272
 20
416.3310124894
 10
534.7684544206271
 20
416.1102643393
 10
534.4341661648272
 20
415.9909234131
 10
534.1262391822272
 20
415.9804871207
 10
534.0786011262271
 20
415.9895468786
  0
LWPOLYLINE
  5
3AA
330
1F
100
AcDbEntity
  8
0
  6
Continuous
 62
     7
370
    25
100
AcDbPolyline
 90
        6
 70
   128
 43
0.0
 10
531.6717239459272
 20
399.5728033711
 10
531.6290708083271
 20
399.938064088
 10
531.5037927256271
 20
400.2311298001
 10
531.3037598313272
 20
400.4335839436
 10
531.0415418962272
 20
400.5327088783
 10
530.8428571742272
 20
400.5382671895
  0
LWPOLYLINE
  5
3AB
330
1F
100
AcDbEntity
  8
0
  6
Continuous
 62
     7
370
    25
100
AcDbPolyline
 90
       12
 70
   128
 43
0.0
 10
529.0637280631272
 20
397.4563893645
 10
529.2157214526271
 20
397.2334774974
 10
529.4486834162271
 20
397.0814905132
 10
529.7360219267271
 20
397.0367935049
 10
530.0596820644271
 20
397.1021992936
 10
530.3993266578271
 20
397.2735964439
 10
530.7336141234271
 20
397.5402160663
 10
531.0415418962272
 20
397.8853015064
 10
531.3037598313272
 20
398.2871768248
 10
531.5037927256271
 20
398.720584032
 10
531.6290708083271
 20
399.1582927398
 10
531.6717239459272
 20
399.5728033711
  0
LWPOLYLINE
  5
3AC
330
1F
100
AcDbEntity
  8
0
  6
Continuous
 62
     7
370
    25
100
AcDbPolyline
 90
       13
 70
   128
 43
0.0
 10
531.0891775815271
 20
400.5236497593
 10
531.2369715644271
 20
400.2908343218
 10
531.3216045435272
 20
399.9590540637
 10
531.3216045435272
 20
399.5660675261
 10
531.2369715644271
 20
399.1365721102
 10
531.0730232213272
 20
398.6975538637
 10
530.8400604674271
 20
398.2765942654
 10
530.5527227471271
 20
397.9001437306
 10
530.2290626095271
 20
397.5918594785
 10
529.8894180160271
 20
397.3711113284
 10
529.5551297602271
 20
397.2517704022
 10
529.2472027777271
 20
397.2413304596
 10
529.1995639314271
 20
397.2503897613
  0
LWPOLYLINE
  5
3AD
330
1F
100
AcDbEntity
  8
0
  6
Continuous
 62
     7
370
    25
100
AcDbPolyline
 90
        9
 70
   128
 43
0.0
 10
535.0776224961271
 20
383.7583132094
 10
535.3336997671272
 20
383.8417421239
 10
535.5469417472272
 20
383.9586178322
 10
535.7045498872271
 20
384.1019205016
 10
535.7970561610271
 20
384.2630493261
 10
535.8189074581271
 20
384.4323277713
 10
535.7687943283272
 20
384.5995911653
 10
535.6497228959272
 20
384.7547975548
 10
535.4688433734271
 20
384.8886294378
  0
LINE
  5
3AE
330
1F
100
AcDbEntity
  8
0
  6
Continuous
 62
     7
370
    25
100
AcDbLine
 10
528.9988585314271
 20
388.6236721845
 30
0.0
 11
535.4688433734271
 21
384.8886294378
 31
0.0
  0
ARC
  5
3AF
330
1F
100
AcDbEntity
  8
0
  6
Continuous
 62
     7
370
    25
100
AcDbCircle
 10
528.8903982622271
 20
389.0778825201
 30
0.0
 40
0.4669803625265319
100
AcDbArc
 50
242.8296448296907
 51
283.4300896015912
  0
LINE
  5
3B0
330
1F
100
AcDbEntity
  8
0
  6
Continuous
 62
     7
370
    25
100
AcDbLine
 10
528.6771574319271
 20
388.6624321533
 30
0.0
 11
528.5068862713272
 21
388.7607276021
 31
0.0
  0
LINE
  5
3B1
330
1F
100
AcDbEntity
  8
0
  6
Continuous
 62
     7
370
    25
100
AcDbLine
 10
528.5068878518271
 20
389.3193516264
 30
0.0
 11
540.8782528221271
 21
396.4611886055
 31
0.0
  0
LINE
  5
3B2
330
1F
100
AcDbEntity
  8
0
  6
Continuous
 62
     7
370
    25
100
AcDbLine
 10
540.8782528221271
 20
396.4611886055
 30
0.0
 11
539.2660505191271
 21
397.3918931843
 31
0.0
  0
LINE
  5
3B3
330
1F
100
AcDbEntity
  8
0
  6
Continuous
 62
     7
370
    25
100
AcDbLine
 10
539.2660505191271
 20
397.3918931843
 30
0.0
 11
528.5068886421271
 21
391.1807612403
 31
0.0
  0
LWPOLYLINE
  5
3B4
330
1F
100
AcDbEntity
  8
0
  6
Continuous
 62
     7
370
    25
100
AcDbPolyline
 90
       19
 70
   128
 43
0.0
 10
523.2708910187271
 20
380.9488595168
 10
522.3200506089272
 20
380.7599212063
 10
521.3370952883272
 20
380.6374468536
 10
520.3359074387272
 20
380.5831695761
 10
519.3306414863271
 20
380.5978518041
 10
518.3354891970271
 20
380.6812921237
 10
517.3645198475272
 20
380.8323060023
 10
516.4314510515271
 20
381.0487613724
 10
515.5494610749272
 20
381.3276016701
 10
514.7310133993271
 20
381.6648868931
 10
513.9876718028272
 20
382.0558510825
 10
513.329939543727
 20
382.4949700692
 10
512.7671100018272
 20
382.9760394845
 10
512.3071311510271
 20
383.492264404
 10
511.9565071718271
 20
384.0363485359
 10
511.7201925581271
 20
384.6006046215
 10
511.6015174377271
 20
385.1770646093
 10
511.6021693967272
 20
385.7575786501
 10
511.6468870713271
 20
386.0447982671
  0
LINE
  5
3B5
330
1F
100
AcDbEntity
  8
0
  6
Continuous
 62
     7
370
    25
100
AcDbLine
 10
523.2708910187271
 20
380.9488595168
 30
0.0
 11
535.0776224961271
 21
383.7583132094
 31
0.0
  0
LWPOLYLINE
  5
3B6
330
1F
100
AcDbEntity
  8
0
  6
Continuous
 62
     7
370
    25
100
AcDbPolyline
 90
       18
 70
   128
 43
0.0
 10
511.5868862909271
 20
343.8205906122
 10
511.6015174377271
 20
343.5334827651
 10
511.7201925581271
 20
342.9570227773
 10
511.9565071718271
 20
342.3927666917
 10
512.3071311510271
 20
341.8486825598
 10
512.7671100018272
 20
341.3324576403
 10
513.329939543727
 20
340.851388225
 10
513.9876718028272
 20
340.4122692383
 10
514.7310133993271
 20
340.0213050489
 10
515.5494610749272
 20
339.6840198259
 10
516.4314510515271
 20
339.4051795282
 10
517.3645198475272
 20
339.1887241581
 10
518.3354891970271
 20
339.0377102795
 10
519.3306414863271
 20
338.9542699599
 10
520.3359074387272
 20
338.9395877319
 10
521.3370952883272
 20
338.9938650094
 10
522.3200506089272
 20
339.1163393621
 10
523.2708910187271
 20
339.3052776726
  0
LINE
  5
3B7
330
1F
100
AcDbEntity
  8
0
  6
Continuous
 62
     7
370
    25
100
AcDbLine
 10
523.2708910187271
 20
339.3052776726
 30
0.0
 11
535.0776224961271
 21
342.1147313652
 31
0.0
  0
ARC
  5
3B8
330
1F
100
AcDbEntity
  8
0
  6
Continuous
 62
     7
370
    25
100
AcDbCircle
 10
535.0118948039271
 20
342.9418014544
 30
0.0
 40
0.829677685519776
100
AcDbArc
 50
274.5437760937949
 51
347.0026329421007
  0
LINE
  5
3B9
330
1F
100
AcDbEntity
  8
0
  6
Continuous
 62
     7
370
    25
100
AcDbLine
 10
535.8203164799272
 20
351.8977222624
 30
0.0
 11
540.8782528221271
 21
354.8176067613
 31
0.0
  0
LINE
  5
3BA
330
1F
100
AcDbEntity
  8
0
  6
Continuous
 62
     7
370
    25
100
AcDbLine
 10
540.8782528221271
 20
354.8176067613
 30
0.0
 11
540.8782528221271
 21
396.4611886055
 31
0.0
  0
LWPOLYLINE
  5
3BB
330
1F
100
AcDbEntity
  8
0
  6
Continuous
 62
     7
370
    25
100
AcDbPolyline
 90
       10
 70
   128
 43
0.0
 10
533.1142209096272
 20
387.0798645369
 10
533.0715677721271
 20
387.4451252537
 10
532.9462896893272
 20
387.7381909659
 10
532.7462567950272
 20
387.9406451093
 10
532.4840388599271
 20
388.0397700441
 10
532.1761110871271
 20
388.0293296453
 10
531.841823621527
 20
387.9099891753
 10
531.5021790281271
 20
387.6892410251
 10
531.1785188904271
 20
387.3809567731
 10
531.1693740780272
 20
387.3706585302
  0
LWPOLYLINE
  5
3BC
330
1F
100
AcDbEntity
  8
0
  6
Continuous
 62
     7
370
    25
100
AcDbPolyline
 90
        3
 70
   128
 43
0.0
 10
532.9807605430271
 20
386.3249696543
 10
533.0715677721271
 20
386.6653539055
 10
533.1142209096272
 20
387.0798645369
  0
LWPOLYLINE
  5
3BD
330
1F
100
AcDbEntity
  8
0
  6
Continuous
 62
     7
370
    25
100
AcDbPolyline
 90
       10
 70
   128
 43
0.0
 10
537.9932573141272
 20
373.9739252272
 10
537.9506041766272
 20
374.3391877691
 10
537.8253268841272
 20
374.6322539375
 10
537.625293199527
 20
374.8347076248
 10
537.3630760547271
 20
374.9338311906
 10
537.0551474916272
 20
374.9233921607
 10
536.7208608163271
 20
374.8040503218
 10
536.3812162229272
 20
374.5833021717
 10
536.0575552950272
 20
374.2750174634
 10
535.8203164799272
 20
373.9731052338
  0
LWPOLYLINE
  5
3BE
330
1F
100
AcDbEntity
  8
0
  6
Continuous
 62
     7
370
    25
100
AcDbPolyline
 90
       10
 70
   128
 43
0.0
 10
535.8203164799272
 20
371.4659211352
 10
536.0575552950272
 20
371.437917186
 10
536.3812162229272
 20
371.5033252561
 10
536.7208608163271
 20
371.6747205813
 10
537.0551474916272
 20
371.9413397474
 10
537.3630760547271
 20
372.2864274689
 10
537.625293199527
 20
372.6882986809
 10
537.8253268841272
 20
373.1217081694
 10
537.9506041766272
 20
373.5594164209
 10
537.9932573141272
 20
373.9739252272
  0
ARC
  5
3BF
330
1F
100
AcDbEntity
  8
0
  6
Continuous
 62
     7
370
    25
100
AcDbCircle
 10
531.1199565151271
 20
387.1692773152
 30
0.0
 40
1.653790023395699
100
AcDbArc
 50
336.9178205093003
 51
31.39152749460057
  0
LWPOLYLINE
  5
3C0
330
1F
100
AcDbEntity
  8
0
  6
Continuous
 62
     7
370
    25
100
AcDbPolyline
 90
        3
 70
   128
 43
0.0
 10
532.6675167355272
 20
387.8247077188
 10
532.5143158388271
 20
387.2770177083
 10
532.2955381336271
 20
386.7205377289
  0
LWPOLYLINE
  5
3C1
330
1F
100
AcDbEntity
  8
0
  6
Continuous
 62
     7
370
    25
100
AcDbPolyline
 90
       12
 70
   128
 43
0.0
 10
537.4107141107272
 20
374.9247716156
 10
537.5585088839271
 20
374.6919548092
 10
537.6431418630272
 20
374.3601745511
 10
537.6431418630272
 20
373.9671898387
 10
537.5585088839271
 20
373.5376944228
 10
537.3945597505272
 20
373.098673895
 10
537.1615977869271
 20
372.6777147528
 10
536.8742584862271
 20
372.3012651307
 10
536.5505991387272
 20
371.99298316
 10
536.2109545453271
 20
371.7722331847
 10
535.8766662895271
 20
371.6528922585
 10
535.8203164799272
 20
371.6430976128
  0
ARC
  5
3C2
330
1F
100
AcDbEntity
  8
0
  6
Continuous
 62
     7
370
    25
100
AcDbCircle
 10
531.5998764377271
 20
376.0961253386
 30
0.0
 40
6.104103458124443
100
AcDbArc
 50
313.7418713095003
 51
346.9592462860002
  0
LINE
  5
3C3
330
1F
100
AcDbEntity
  8
0
  6
Continuous
 62
     8
370
    18
100
AcDbLine
 10
523.2708910187271
 20
380.9488595168
 30
0.0
 11
523.2708910187271
 21
339.3052776726
 31
0.0
  0
LINE
  5
3C4
330
1F
100
AcDbEntity
  8
0
  6
Continuous
 62
     8
370
    18
100
AcDbLine
 10
535.0776224961271
 20
342.1147313652
 30
0.0
 11
535.0776224961271
 21
383.7583132094
 31
0.0
  0
LINE
  5
3C5
330
1F
100
AcDbEntity
  8
0
  6
Continuous
 62
     7
370
    18
100
AcDbLine
 10
555.5950492450272
 20
442.8686381212
 30
0.0
 11
502.7815231781271
 21
442.8686381212
 31
0.0
  0
LINE
  5
3C6
330
1F
100
AcDbEntity
  8
0
  6
Continuous
 62
     7
370
    18
100
AcDbLine
 10
555.5950492450272
 20
442.8686381212
 30
0.0
 11
555.5950492450272
 21
318.0652461655
 31
0.0
  0
LINE
  5
3C7
330
1F
100
AcDbEntity
  8
0
  6
Continuous
 62
     7
370
    18
100
AcDbLine
 10
555.5950492450272
 20
318.0652461655
 30
0.0
 11
502.7815231781271
 21
318.0652461655
 31
0.0
  0
LINE
  5
3C8
330
1F
100
AcDbEntity
  8
0
  6
Continuous
 62
     7
370
    18
100
AcDbLine
 10
502.7815231781271
 20
442.8686381212
 30
0.0
 11
502.7815231781271
 21
318.0652461655
 31
0.0
  0
MTEXT
  5
3C9
330
1F
100
AcDbEntity
  8
0
  6
Continuous
 62
     7
370
     0
100
AcDbMText
 10
509.3860386995167
 20
333.8731982016
 30
0.0
 40
4.2
 41
0.0
 71
     1
 72
     1
  1
{835EBMC40SOLR}
  7
SLDTEXTSTYLE0
 73
     1
 44
1.0
1001
ACAD
1000
ACAD_MTEXT_DEFINED_HEIGHT_BEGIN
1070
    46
1040
4.2
1000
ACAD_MTEXT_DEFINED_HEIGHT_END
  0
CIRCLE
  5
3CA
330
1F
100
AcDbEntity
  8
0
  6
Continuous
 62
     7
370
    25
100
AcDbCircle
 10
669.7479545432271
 20
348.5107449709
 30
0.0
 40
14.00000000000001
  0
LWPOLYLINE
  5
3CB
330
1F
100
AcDbEntity
  8
0
  6
Continuous
 62
     7
370
    25
100
AcDbPolyline
 90
        9
 70
   128
 43
0.0
 10
669.3316335636271
 20
351.9497383281
 10
669.7297106343271
 20
351.7799659061
 10
670.1279814201271
 20
351.6101108293
 10
670.5263788658272
 20
351.4402005716
 10
670.9248433667271
 20
351.2702630728
 10
671.3233004170271
 20
351.1003253411
 10
671.7217053133271
 20
350.9304150834
 10
672.1199760991271
 20
350.7605600066
 10
672.5180457192271
 20
350.5907875846
  0
LWPOLYLINE
  5
3CC
330
1F
100
AcDbEntity
  8
0
  6
Continuous
 62
     7
370
    25
100
AcDbPolyline
 90
        9
 70
   128
 43
0.0
 10
672.5180457192271
 20
350.5907875846
 10
672.5700582224272
 20
350.1611571887
 10
672.6220930773271
 20
349.7313178272
 10
672.6741502839271
 20
349.301339233
 10
672.7262074905271
 20
348.8712908769
 10
672.7782721477272
 20
348.4412425573
 10
672.8303219038271
 20
348.0112638685
 10
672.8823642093271
 20
347.5814245652
 10
672.9343692618271
 20
347.1517942275
  0
LWPOLYLINE
  5
3CD
330
1F
100
AcDbEntity
  8
0
  6
Continuous
 62
     7
370
    25
100
AcDbPolyline
 90
        9
 70
   128
 43
0.0
 10
672.9343692618271
 20
347.1517942275
 10
672.5883046943271
 20
346.8919363699
 10
672.2420687633271
 20
346.6319520853
 10
671.8957285243271
 20
346.3718835159
 10
671.5493212300271
 20
346.1117728042
 10
671.2029213863271
 20
345.8516623254
 10
670.8565736967271
 20
345.5915937561
 10
670.5103452163271
 20
345.3316094714
 10
670.1642806488271
 20
345.0717516138
  0
LWPOLYLINE
  5
3CE
330
1F
100
AcDbEntity
  8
0
  6
Continuous
 62
     7
370
    25
100
AcDbPolyline
 90
        9
 70
   128
 43
0.0
 10
670.1642806488271
 20
345.0717516138
 10
669.7662035781271
 20
345.2415240358
 10
669.3679327923271
 20
345.4113791126
 10
668.9695353466271
 20
345.5812893703
 10
668.5710708457271
 20
345.7512268691
 10
668.1726063448272
 20
345.9211646008
 10
667.7742088991272
 20
346.0910748585
 10
667.3759381133272
 20
346.2609299353
 10
666.9778610426272
 20
346.4307023573
  0
LWPOLYLINE
  5
3CF
330
1F
100
AcDbEntity
  8
0
  6
Continuous
 62
     7
370
    25
100
AcDbPolyline
 90
        9
 70
   128
 43
0.0
 10
666.9778610426272
 20
346.4307023573
 10
666.9258485394271
 20
346.8603327532
 10
666.8738136845271
 20
347.2901721147
 10
666.8217639285272
 20
347.7201507089
 10
666.7696992713271
 20
348.1501990649
 10
666.7176346141272
 20
348.5802473846
 10
666.6655848580272
 20
349.0102260734
 10
666.6135500031271
 20
349.4400653766
 10
666.5615375000272
 20
349.8696957144
  0
LWPOLYLINE
  5
3D0
330
1F
100
AcDbEntity
  8
0
  6
Continuous
 62
     7
370
    25
100
AcDbPolyline
 90
        9
 70
   128
 43
0.0
 10
666.5615375000272
 20
349.8696957144
 10
666.9076020675271
 20
350.129553572
 10
667.2538379985272
 20
350.3895378566
 10
667.6001856881271
 20
350.649606426
 10
667.9465855318272
 20
350.9097171376
 10
668.2929853755271
 20
351.1698276165
 10
668.6393330651272
 20
351.4298961858
 10
668.9855689960272
 20
351.6898804705
 10
669.3316335636271
 20
351.9497383281
  0
ARC
  5
3D1
330
1F
100
AcDbEntity
  8
0
  6
Continuous
 62
     7
370
    25
100
AcDbCircle
 10
669.7479545432271
 20
348.5107449709
 30
0.0
 40
3.000000000000003
100
AcDbArc
 50
246.9026048604007
 51
306.9026048603997
  0
ARC
  5
3D2
330
1F
100
AcDbEntity
  8
0
  6
Continuous
 62
     7
370
    25
100
AcDbCircle
 10
669.7479545432271
 20
348.5107449709
 30
0.0
 40
3.000000000000003
100
AcDbArc
 50
306.9026048603997
 51
6.902604860400355
  0
ARC
  5
3D3
330
1F
100
AcDbEntity
  8
0
  6
Continuous
 62
     7
370
    25
100
AcDbCircle
 10
669.7479545432271
 20
348.5107449709
 30
0.0
 40
2.999999999999986
100
AcDbArc
 50
186.9026048603995
 51
246.9026048604002
  0
ARC
  5
3D4
330
1F
100
AcDbEntity
  8
0
  6
Continuous
 62
     7
370
    25
100
AcDbCircle
 10
669.7479545432271
 20
348.5107449709
 30
0.0
 40
3.000000000000061
100
AcDbArc
 50
6.902604860400355
 51
66.90260486039865
  0
ARC
  5
3D5
330
1F
100
AcDbEntity
  8
0
  6
Continuous
 62
     7
370
    25
100
AcDbCircle
 10
669.7479545432271
 20
348.5107449709
 30
0.0
 40
2.999999999999986
100
AcDbArc
 50
126.9026048603997
 51
186.9026048603995
  0
ARC
  5
3D6
330
1F
100
AcDbEntity
  8
0
  6
Continuous
 62
     7
370
    25
100
AcDbCircle
 10
669.7479545432271
 20
348.5107449709
 30
0.0
 40
3.000000000000061
100
AcDbArc
 50
66.90260486039865
 51
126.9026048604008
  0
ARC
  5
3D7
330
1F
100
AcDbEntity
  8
0
  6
Continuous
 62
     7
370
    25
100
AcDbCircle
 10
656.0153209164271
 20
331.1952959825
 30
0.0
 40
8.0
100
AcDbArc
 50
5.5051472564001
 51
51.58257165689948
  0
ARC
  5
3D8
330
1F
100
AcDbEntity
  8
0
  6
Continuous
 62
     7
370
    25
100
AcDbCircle
 10
664.4761153795271
 20
332.0107449709
 30
0.0
 40
0.5
100
AcDbArc
 50
185.5051472564001
 51
270.0
  0
LINE
  5
3D9
330
1F
100
AcDbEntity
  8
0
  6
Continuous
 62
     7
370
    25
100
AcDbLine
 10
665.6479547578272
 20
331.5107440471
 30
0.0
 11
664.4761125403271
 21
331.5107440471
 31
0.0
  0
ARC
  5
3DA
330
1F
100
AcDbEntity
  8
0
  6
Continuous
 62
     7
370
    25
100
AcDbCircle
 10
666.1062121127271
 20
331.3107449709
 30
0.0
 40
0.5000000000000568
100
AcDbArc
 50
90.0
 51
156.421821521804
  0
LINE
  5
3DB
330
1F
100
AcDbEntity
  8
0
  6
Continuous
 62
     7
370
    25
100
AcDbLine
 10
667.1479577976271
 20
331.8107454001
 30
0.0
 11
666.1062101680271
 21
331.8107454001
 31
0.0
  0
ARC
  5
3DC
330
1F
100
AcDbEntity
  8
0
  6
Continuous
 62
     7
370
    25
100
AcDbCircle
 10
667.1479545432271
 20
331.3107449709
 30
0.0
 40
0.5000000000000568
100
AcDbArc
 50
0.0
 51
90.0
  0
LINE
  5
3DD
330
1F
100
AcDbEntity
  8
0
  6
Continuous
 62
     7
370
    25
100
AcDbLine
 10
668.0479581314271
 20
301.5107465803
 30
0.0
 11
667.6479513603272
 21
301.5107465803
 31
0.0
  0
LINE
  5
3DE
330
1F
100
AcDbEntity
  8
0
  6
Continuous
 62
     7
370
    25
100
AcDbLine
 10
667.6479513603272
 20
301.5107465803
 30
0.0
 11
667.6479513603272
 21
331.3107443868
 31
0.0
  0
ARC
  5
3DF
330
1F
100
AcDbEntity
  8
0
  6
Continuous
 62
     7
370
    25
100
AcDbCircle
 10
662.0479545432272
 20
329.9441082265
 30
0.0
 40
6.0
100
AcDbArc
 50
0.0
 51
67.47512016640063
  0
LINE
  5
3E0
330
1F
100
AcDbEntity
  8
0
  6
Continuous
 62
     7
370
    25
100
AcDbLine
 10
668.0479581314271
 20
301.5107465803
 30
0.0
 11
668.0479581314271
 21
329.9441086023
 31
0.0
  0
LINE
  5
3E1
330
1F
100
AcDbEntity
  8
0
  6
Continuous
 62
     7
370
    25
100
AcDbLine
 10
671.8479554015271
 20
301.5107465803
 30
0.0
 11
668.0479581314271
 21
301.5107465803
 31
0.0
  0
LINE
  5
3E2
330
1F
100
AcDbEntity
  8
0
  6
Continuous
 62
     7
370
    25
100
AcDbLine
 10
671.8479554015271
 20
331.3107443868
 30
0.0
 11
671.8479554015271
 21
301.5107465803
 31
0.0
  0
ARC
  5
3E3
330
1F
100
AcDbEntity
  8
0
  6
Continuous
 62
     7
370
    25
100
AcDbCircle
 10
672.3479545432272
 20
331.3107449709
 30
0.0
 40
0.5
100
AcDbArc
 50
90.0
 51
180.0
  0
LINE
  5
3E4
330
1F
100
AcDbEntity
  8
0
  6
Continuous
 62
     7
370
    25
100
AcDbLine
 10
673.3896965938271
 20
331.8107454001
 30
0.0
 11
672.3479564148272
 21
331.8107454001
 31
0.0
  0
ARC
  5
3E5
330
1F
100
AcDbEntity
  8
0
  6
Continuous
 62
     7
370
    25
100
AcDbCircle
 10
673.3896969737272
 20
331.3107449709
 30
0.0
 40
0.5000000000000107
100
AcDbArc
 50
23.57817847820118
 51
90.0
  0
LINE
  5
3E6
330
1F
100
AcDbEntity
  8
0
  6
Continuous
 62
     7
370
    25
100
AcDbLine
 10
673.8479520040271
 20
331.5107440471
 30
0.0
 11
689.0978525239271
 21
331.5107440471
 31
0.0
  0
ARC
  5
3E7
330
1F
100
AcDbEntity
  8
0
  6
Continuous
 62
     7
370
    25
100
AcDbCircle
 10
689.0978553763272
 20
333.5107449709
 30
0.0
 40
2.000000000000011
100
AcDbArc
 50
270.0
 51
22.59891328490134
  0
LINE
  5
3E8
330
1F
100
AcDbEntity
  8
0
  6
Continuous
 62
     7
370
    25
100
AcDbLine
 10
682.7653209525272
 20
353.9290618977
 30
0.0
 11
690.9442926603272
 21
334.2793006345
 31
0.0
  0
ARC
  5
3E9
330
1F
100
AcDbEntity
  8
0
  6
Continuous
 62
     7
370
    25
100
AcDbCircle
 10
669.7479545432271
 20
348.5107449709
 30
0.0
 40
14.09999999999999
100
AcDbArc
 50
22.59891328490015
 51
247.4751201664
  0
MTEXT
  5
3EA
330
1F
100
AcDbEntity
  8
0
  6
Continuous
 62
     0
370
     0
100
AcDbMText
 10
744.5713808505346
 20
438.1686662736
 30
0.0
 40
7.14375
 41
0.0
 71
     1
 72
     1
  1
{835EBMC40SOLR}
  7
SLDTEXTSTYLE0
 73
     1
 44
1.0
1001
ACAD
1000
ACAD_MTEXT_DEFINED_HEIGHT_BEGIN
1070
    46
1040
7.14375
1000
ACAD_MTEXT_DEFINED_HEIGHT_END
  0
ENDSEC
  0
SECTION
  2
OBJECTS
  0
DICTIONARY
  5
C
330
0
100
AcDbDictionary
281
     1
  3
ACAD_GROUP
350
D
  3
ACAD_IMAGE_VARS
350
2B3
  3
ACAD_LAYOUT
350
1A
  3
ACAD_MLINESTYLE
350
17
  3
ACAD_PLOTSETTINGS
350
19
  3
ACAD_PLOTSTYLENAME
350
E
  3
ACAD_SCALELIST
350
47
  3
APPDATA
350
2B1
  3
DWGPROPS
350
3EB
  0
DICTIONARY
  5
D
102
{ACAD_REACTORS
330
C
102
}
330
C
100
AcDbDictionary
281
     1
  0
RASTERVARIABLES
  5
2B3
102
{ACAD_REACTORS
330
C
102
}
330
C
100
AcDbRasterVariables
 90
        0
 70
     1
 71
     1
 72
     1
  0
DICTIONARY
  5
1A
102
{ACAD_REACTORS
330
C
102
}
330
C
100
AcDbDictionary
281
     1
  3
Layout1
350
1E
  3
Layout2
350
26
  3
Model
350
22
  0
DICTIONARY
  5
17
102
{ACAD_REACTORS
330
C
102
}
330
C
100
AcDbDictionary
281
     1
  3
Standard
350
18
  0
DICTIONARY
  5
19
102
{ACAD_REACTORS
330
C
102
}
330
C
100
AcDbDictionary
281
     1
  0
ACDBDICTIONARYWDFLT
  5
E
102
{ACAD_REACTORS
330
C
102
}
330
C
100
AcDbDictionary
281
     1
  3
Normal
350
F
100
AcDbDictionaryWithDefault
340
F
  0
DICTIONARY
  5
47
102
{ACAD_REACTORS
330
C
102
}
330
C
100
AcDbDictionary
281
     1
  3
A0
350
48
  3
A1
350
49
  3
A2
350
4A
  3
A3
350
4B
  3
A4
350
4C
  3
A5
350
4D
  3
A6
350
4E
  3
A7
350
4F
  3
A8
350
50
  3
A9
350
51
  3
B0
350
52
  3
B1
350
53
  3
B2
350
54
  3
B3
350
55
  3
B4
350
56
  3
B5
350
57
  3
B6
350
58
  3
B7
350
59
  3
B8
350
5A
  3
B9
350
5B
  3
C0
350
5C
  3
C1
350
5D
  3
C2
350
5E
  3
C3
350
5F
  3
C4
350
60
  3
C5
350
61
  3
C6
350
62
  3
C7
350
63
  3
C8
350
64
  3
C9
350
65
  3
D0
350
66
  3
D1
350
67
  3
D2
350
68
  0
DICTIONARY
  5
2B1
102
{ACAD_REACTORS
330
C
102
}
330
C
100
AcDbDictionary
281
     1
  0
XRECORD
  5
3EB
102
{ACAD_REACTORS
330
C
102
}
330
C
100
AcDbXrecord
280
     1
  1
DWGPROPS COOKIE
  2

  3

  4

  6

  7

  8
emilio
  9

300
=
301
=
302
=
303
=
304
=
305
=
306
=
307
=
308
=
309
=
 40
0.0
 41
2458282.63678478
 42
2458282.639700752
  1

 90
        0
  0
LAYOUT
  5
1E
102
{ACAD_REACTORS
330
1A
102
}
330
1A
100
AcDbPlotSettings
  1

  2
none_device
  4

  6

 40
0.0
 41
0.0
 42
0.0
 43
0.0
 44
0.0
 45
0.0
 46
0.0
 47
0.0
 48
0.0
 49
0.0
140
0.0
141
0.0
142
1.0
143
1.0
 70
   688
 72
     1
 73
     0
 74
     5
  7

 75
    16
147
1.0
148
0.0
149
0.0
100
AcDbLayout
  1
Layout1
 70
     1
 71
     1
 10
0.0
 20
0.0
 11
420.0
 21
297.0
 12
0.0
 22
0.0
 32
0.0
 14
1.000000000000000E+20
 24
1.000000000000000E+20
 34
1.000000000000000E+20
 15
-1.000000000000000E+20
 25
-1.000000000000000E+20
 35
-1.000000000000000E+20
146
0.0
 13
0.0
 23
0.0
 33
0.0
 16
1.0
 26
0.0
 36
0.0
 17
0.0
 27
1.0
 37
0.0
 76
     0
330
1B
  0
LAYOUT
  5
26
102
{ACAD_REACTORS
330
1A
102
}
330
1A
100
AcDbPlotSettings
  1

  2
none_device
  4

  6

 40
0.0
 41
0.0
 42
0.0
 43
0.0
 44
0.0
 45
0.0
 46
0.0
 47
0.0
 48
0.0
 49
0.0
140
0.0
141
0.0
142
1.0
143
1.0
 70
   688
 72
     1
 73
     0
 74
     5
  7

 75
    16
147
1.0
148
0.0
149
0.0
100
AcDbLayout
  1
Layout2
 70
     1
 71
     2
 10
0.0
 20
0.0
 11
0.0
 21
0.0
 12
0.0
 22
0.0
 32
0.0
 14
0.0
 24
0.0
 34
0.0
 15
0.0
 25
0.0
 35
0.0
146
0.0
 13
0.0
 23
0.0
 33
0.0
 16
1.0
 26
0.0
 36
0.0
 17
0.0
 27
1.0
 37
0.0
 76
     0
330
23
  0
LAYOUT
  5
22
102
{ACAD_REACTORS
330
1A
102
}
330
1A
100
AcDbPlotSettings
  1

  2
none_device
  4
Letter_(8.50_x_11.00_Inches)
  6

 40
6.35
 41
6.35
 42
6.35000508
 43
6.35000508
 44
215.9
 45
279.4
 46
0.0
 47
0.0
 48
0.0
 49
0.0
140
0.0
141
0.0
142
1.0
143
1.0
 70
  1712
 72
     1
 73
     0
 74
     0
  7

 75
     0
147
1.0
148
0.0
149
0.0
100
AcDbLayout
  1
Model
 70
     1
 71
     0
 10
0.0
 20
0.0
 11
315.0
 21
445.5
 12
0.0
 22
0.0
 32
0.0
 14
10.24127774830001
 24
4.438181022000009
 34
0.0
 15
811.5440371005346
 25
442.8686381212
 35
0.0
146
0.0
 13
0.0
 23
0.0
 33
0.0
 16
1.0
 26
0.0
 36
0.0
 17
0.0
 27
1.0
 37
0.0
 76
     0
330
1F
331
29
  0
MLINESTYLE
  5
18
102
{ACAD_REACTORS
330
17
102
}
330
17
100
AcDbMlineStyle
  2
Standard
 70
     0
  3

 62
   256
 51
90.0
 52
90.0
 71
     2
 49
0.5
 62
   256
  6
BYLAYER
 49
-0.5
 62
   256
  6
BYLAYER
  0
ACDBPLACEHOLDER
  5
F
102
{ACAD_REACTORS
330
E
102
}
330
E
  0
SCALE
  5
48
102
{ACAD_REACTORS
330
47
102
}
330
47
100
AcDbScale
 70
     0
300
1:1
140
1.0
141
1.0
290
     1
  0
SCALE
  5
49
102
{ACAD_REACTORS
330
47
102
}
330
47
100
AcDbScale
 70
     0
300
1:2
140
1.0
141
2.0
290
     0
  0
SCALE
  5
4A
102
{ACAD_REACTORS
330
47
102
}
330
47
100
AcDbScale
 70
     0
300
1:4
140
1.0
141
4.0
290
     0
  0
SCALE
  5
4B
102
{ACAD_REACTORS
330
47
102
}
330
47
100
AcDbScale
 70
     0
300
1:5
140
1.0
141
5.0
290
     0
  0
SCALE
  5
4C
102
{ACAD_REACTORS
330
47
102
}
330
47
100
AcDbScale
 70
     0
300
1:8
140
1.0
141
8.0
290
     0
  0
SCALE
  5
4D
102
{ACAD_REACTORS
330
47
102
}
330
47
100
AcDbScale
 70
     0
300
1:10
140
1.0
141
10.0
290
     0
  0
SCALE
  5
4E
102
{ACAD_REACTORS
330
47
102
}
330
47
100
AcDbScale
 70
     0
300
1:16
140
1.0
141
16.0
290
     0
  0
SCALE
  5
4F
102
{ACAD_REACTORS
330
47
102
}
330
47
100
AcDbScale
 70
     0
300
1:20
140
1.0
141
20.0
290
     0
  0
SCALE
  5
50
102
{ACAD_REACTORS
330
47
102
}
330
47
100
AcDbScale
 70
     0
300
1:30
140
1.0
141
30.0
290
     0
  0
SCALE
  5
51
102
{ACAD_REACTORS
330
47
102
}
330
47
100
AcDbScale
 70
     0
300
1:40
140
1.0
141
40.0
290
     0
  0
SCALE
  5
52
102
{ACAD_REACTORS
330
47
102
}
330
47
100
AcDbScale
 70
     0
300
1:50
140
1.0
141
50.0
290
     0
  0
SCALE
  5
53
102
{ACAD_REACTORS
330
47
102
}
330
47
100
AcDbScale
 70
     0
300
1:100
140
1.0
141
100.0
290
     0
  0
SCALE
  5
54
102
{ACAD_REACTORS
330
47
102
}
330
47
100
AcDbScale
 70
     0
300
2:1
140
2.0
141
1.0
290
     0
  0
SCALE
  5
55
102
{ACAD_REACTORS
330
47
102
}
330
47
100
AcDbScale
 70
     0
300
4:1
140
4.0
141
1.0
290
     0
  0
SCALE
  5
56
102
{ACAD_REACTORS
330
47
102
}
330
47
100
AcDbScale
 70
     0
300
8:1
140
8.0
141
1.0
290
     0
  0
SCALE
  5
57
102
{ACAD_REACTORS
330
47
102
}
330
47
100
AcDbScale
 70
     0
300
10:1
140
10.0
141
1.0
290
     0
  0
SCALE
  5
58
102
{ACAD_REACTORS
330
47
102
}
330
47
100
AcDbScale
 70
     0
300
100:1
140
100.0
141
1.0
290
     0
  0
SCALE
  5
59
102
{ACAD_REACTORS
330
47
102
}
330
47
100
AcDbScale
 70
     0
300
1/128" = 1'-0"
140
0.0078125
141
12.0
290
     0
  0
SCALE
  5
5A
102
{ACAD_REACTORS
330
47
102
}
330
47
100
AcDbScale
 70
     0
300
1/64" = 1'-0"
140
0.015625
141
12.0
290
     0
  0
SCALE
  5
5B
102
{ACAD_REACTORS
330
47
102
}
330
47
100
AcDbScale
 70
     0
300
1/32" = 1'-0"
140
0.03125
141
12.0
290
     0
  0
SCALE
  5
5C
102
{ACAD_REACTORS
330
47
102
}
330
47
100
AcDbScale
 70
     0
300
1/16" = 1'-0"
140
0.0625
141
12.0
290
     0
  0
SCALE
  5
5D
102
{ACAD_REACTORS
330
47
102
}
330
47
100
AcDbScale
 70
     0
300
3/32" = 1'-0"
140
0.09375
141
12.0
290
     0
  0
SCALE
  5
5E
102
{ACAD_REACTORS
330
47
102
}
330
47
100
AcDbScale
 70
     0
300
1/8" = 1'-0"
140
0.125
141
12.0
290
     0
  0
SCALE
  5
5F
102
{ACAD_REACTORS
330
47
102
}
330
47
100
AcDbScale
 70
     0
300
3/16" = 1'-0"
140
0.1875
141
12.0
290
     0
  0
SCALE
  5
60
102
{ACAD_REACTORS
330
47
102
}
330
47
100
AcDbScale
 70
     0
300
1/4" = 1'-0"
140
0.25
141
12.0
290
     0
  0
SCALE
  5
61
102
{ACAD_REACTORS
330
47
102
}
330
47
100
AcDbScale
 70
     0
300
3/8" = 1'-0"
140
0.375
141
12.0
290
     0
  0
SCALE
  5
62
102
{ACAD_REACTORS
330
47
102
}
330
47
100
AcDbScale
 70
     0
300
1/2" = 1'-0"
140
0.5
141
12.0
290
     0
  0
SCALE
  5
63
102
{ACAD_REACTORS
330
47
102
}
330
47
100
AcDbScale
 70
     0
300
3/4" = 1'-0"
140
0.75
141
12.0
290
     0
  0
SCALE
  5
64
102
{ACAD_REACTORS
330
47
102
}
330
47
100
AcDbScale
 70
     0
300
1" = 1'-0"
140
1.0
141
12.0
290
     0
  0
SCALE
  5
65
102
{ACAD_REACTORS
330
47
102
}
330
47
100
AcDbScale
 70
     0
300
1-1/2" = 1'-0"
140
1.5
141
12.0
290
     0
  0
SCALE
  5
66
102
{ACAD_REACTORS
330
47
102
}
330
47
100
AcDbScale
 70
     0
300
3" = 1'-0"
140
3.0
141
12.0
290
     0
  0
SCALE
  5
67
102
{ACAD_REACTORS
330
47
102
}
330
47
100
AcDbScale
 70
     0
300
6" = 1'-0"
140
6.0
141
12.0
290
     0
  0
SCALE
  5
68
102
{ACAD_REACTORS
330
47
102
}
330
47
100
AcDbScale
 70
     0
300
1'-0" = 1'-0"
140
12.0
141
12.0
290
     0
  0
ENDSEC
  0
EOF
