  0
SECTION
  2
HEADER
  9
$ACADVER
  1
AC1015
  9
$ACADMAINTVER
 70
     6
  9
$DWGCODEPAGE
  3
ANSI_1252
  9
$INSBASE
 10
0.0
 20
0.0
 30
0.0
  9
$EXTMIN
 10
-20.0
 20
-141.8274069166147
 30
-0.0000000000000004
  9
$EXTMAX
 10
584.1317976154855
 20
332.0500000000038
 30
5.0
  9
$LIMMIN
 10
0.0
 20
0.0
  9
$LIMMAX
 10
12.0
 20
9.0
  9
$ORTHOMODE
 70
     0
  9
$REGENMODE
 70
     1
  9
$FILLMODE
 70
     1
  9
$QTEXTMODE
 70
     0
  9
$MIRRTEXT
 70
     1
  9
$LTSCALE
 40
5.0
  9
$ATTMODE
 70
     1
  9
$TEXTSIZE
 40
0.2
  9
$TRACEWID
 40
0.05
  9
$TEXTSTYLE
  7
Standard
  9
$CLAYER
  8
0
  9
$CELTYPE
  6
ByLayer
  9
$CECOLOR
 62
   256
  9
$CELTSCALE
 40
1.0
  9
$DISPSILH
 70
     0
  9
$DIMSCALE
 40
1.0
  9
$DIMASZ
 40
2.5
  9
$DIMEXO
 40
0.0625
  9
$DIMDLI
 40
0.38
  9
$DIMRND
 40
0.0
  9
$DIMDLE
 40
0.0
  9
$DIMEXE
 40
0.18
  9
$DIMTP
 40
0.0
  9
$DIMTM
 40
0.0
  9
$DIMTXT
 40
2.5
  9
$DIMCEN
 40
0.09
  9
$DIMTSZ
 40
0.0
  9
$DIMTOL
 70
     0
  9
$DIMLIM
 70
     0
  9
$DIMTIH
 70
     1
  9
$DIMTOH
 70
     1
  9
$DIMSE1
 70
     0
  9
$DIMSE2
 70
     0
  9
$DIMTAD
 70
     1
  9
$DIMZIN
 70
     0
  9
$DIMBLK
  1

  9
$DIMASO
 70
     1
  9
$DIMSHO
 70
     1
  9
$DIMPOST
  1

  9
$DIMAPOST
  1

  9
$DIMALT
 70
     0
  9
$DIMALTD
 70
     2
  9
$DIMALTF
 40
25.4
  9
$DIMLFAC
 40
1.0
  9
$DIMTOFL
 70
     0
  9
$DIMTVP
 40
0.0
  9
$DIMTIX
 70
     0
  9
$DIMSOXD
 70
     0
  9
$DIMSAH
 70
     0
  9
$DIMBLK1
  1

  9
$DIMBLK2
  1

  9
$DIMSTYLE
  2
Standard
  9
$DIMCLRD
 70
     0
  9
$DIMCLRE
 70
     0
  9
$DIMCLRT
 70
     0
  9
$DIMTFAC
 40
1.0
  9
$DIMGAP
 40
0.09
  9
$DIMJUST
 70
     0
  9
$DIMSD1
 70
     0
  9
$DIMSD2
 70
     0
  9
$DIMTOLJ
 70
     1
  9
$DIMTZIN
 70
     0
  9
$DIMALTZ
 70
     0
  9
$DIMALTTZ
 70
     0
  9
$DIMUPT
 70
     0
  9
$DIMDEC
 70
     2
  9
$DIMTDEC
 70
     4
  9
$DIMALTU
 70
     2
  9
$DIMALTTD
 70
     2
  9
$DIMTXSTY
  7
Standard
  9
$DIMAUNIT
 70
     0
  9
$DIMADEC
 70
     2
  9
$DIMALTRND
 40
0.0
  9
$DIMAZIN
 70
     0
  9
$DIMDSEP
 70
    46
  9
$DIMATFIT
 70
     3
  9
$DIMFRAC
 70
     0
  9
$DIMLDRBLK
  1

  9
$DIMLUNIT
 70
     2
  9
$DIMLWD
 70
    -2
  9
$DIMLWE
 70
    -2
  9
$DIMTMOVE
 70
     0
  9
$LUNITS
 70
     2
  9
$LUPREC
 70
     4
  9
$SKETCHINC
 40
0.1
  9
$FILLETRAD
 40
0.5
  9
$AUNITS
 70
     0
  9
$AUPREC
 70
     0
  9
$MENU
  1
.
  9
$ELEVATION
 40
0.0
  9
$PELEVATION
 40
0.0
  9
$THICKNESS
 40
0.0
  9
$LIMCHECK
 70
     0
  9
$CHAMFERA
 40
0.5
  9
$CHAMFERB
 40
0.5
  9
$CHAMFERC
 40
1.0
  9
$CHAMFERD
 40
0.0
  9
$SKPOLY
 70
     0
  9
$TDCREATE
 40
2456615.58597963
  9
$TDUCREATE
 40
2456615.544312963
  9
$TDUPDATE
 40
2456615.599558796
  9
$TDUUPDATE
 40
2456615.55789213
  9
$TDINDWG
 40
0.0000000116
  9
$TDUSRTIMER
 40
2456615.556516458
  9
$USRTIMER
 70
     1
  9
$ANGBASE
 50
0.0
  9
$ANGDIR
 70
     0
  9
$PDMODE
 70
     0
  9
$PDSIZE
 40
0.0
  9
$PLINEWID
 40
0.0
  9
$SPLFRAME
 70
     0
  9
$SPLINETYPE
 70
     6
  9
$SPLINESEGS
 70
     8
  9
$HANDSEED
  5
40B
  9
$SURFTAB1
 70
     6
  9
$SURFTAB2
 70
     6
  9
$SURFTYPE
 70
     6
  9
$SURFU
 70
     6
  9
$SURFV
 70
     6
  9
$UCSBASE
  2

  9
$UCSNAME
  2

  9
$UCSORG
 10
0.0
 20
0.0
 30
0.0
  9
$UCSXDIR
 10
1.0
 20
0.0
 30
0.0
  9
$UCSYDIR
 10
0.0
 20
1.0
 30
0.0
  9
$UCSORTHOREF
  2

  9
$UCSORTHOVIEW
 70
     0
  9
$UCSORGTOP
 10
0.0
 20
0.0
 30
0.0
  9
$UCSORGBOTTOM
 10
0.0
 20
0.0
 30
0.0
  9
$UCSORGLEFT
 10
0.0
 20
0.0
 30
0.0
  9
$UCSORGRIGHT
 10
0.0
 20
0.0
 30
0.0
  9
$UCSORGFRONT
 10
0.0
 20
0.0
 30
0.0
  9
$UCSORGBACK
 10
0.0
 20
0.0
 30
0.0
  9
$PUCSBASE
  2

  9
$PUCSNAME
  2

  9
$PUCSORG
 10
0.0
 20
0.0
 30
0.0
  9
$PUCSXDIR
 10
1.0
 20
0.0
 30
0.0
  9
$PUCSYDIR
 10
0.0
 20
1.0
 30
0.0
  9
$PUCSORTHOREF
  2

  9
$PUCSORTHOVIEW
 70
     0
  9
$PUCSORGTOP
 10
0.0
 20
0.0
 30
0.0
  9
$PUCSORGBOTTOM
 10
0.0
 20
0.0
 30
0.0
  9
$PUCSORGLEFT
 10
0.0
 20
0.0
 30
0.0
  9
$PUCSORGRIGHT
 10
0.0
 20
0.0
 30
0.0
  9
$PUCSORGFRONT
 10
0.0
 20
0.0
 30
0.0
  9
$PUCSORGBACK
 10
0.0
 20
0.0
 30
0.0
  9
$USERI1
 70
     0
  9
$USERI2
 70
     0
  9
$USERI3
 70
     0
  9
$USERI4
 70
     0
  9
$USERI5
 70
     0
  9
$USERR1
 40
0.0
  9
$USERR2
 40
0.0
  9
$USERR3
 40
0.0
  9
$USERR4
 40
0.0
  9
$USERR5
 40
0.0
  9
$WORLDVIEW
 70
     1
  9
$SHADEDGE
 70
     3
  9
$SHADEDIF
 70
    70
  9
$TILEMODE
 70
     1
  9
$MAXACTVP
 70
    64
  9
$PINSBASE
 10
0.0
 20
0.0
 30
0.0
  9
$PLIMCHECK
 70
     0
  9
$PEXTMIN
 10
1.000000000000000E+20
 20
1.000000000000000E+20
 30
1.000000000000000E+20
  9
$PEXTMAX
 10
-1.000000000000000E+20
 20
-1.000000000000000E+20
 30
-1.000000000000000E+20
  9
$PLIMMIN
 10
0.0
 20
0.0
  9
$PLIMMAX
 10
0.0
 20
0.0
  9
$UNITMODE
 70
     0
  9
$VISRETAIN
 70
     1
  9
$PLINEGEN
 70
     0
  9
$PSLTSCALE
 70
     1
  9
$TREEDEPTH
 70
  3020
  9
$CMLSTYLE
  2
Standard
  9
$CMLJUST
 70
     0
  9
$CMLSCALE
 40
1.0
  9
$PROXYGRAPHICS
 70
     1
  9
$MEASUREMENT
 70
     1
  9
$CELWEIGHT
370
    -1
  9
$ENDCAPS
280
     0
  9
$JOINSTYLE
280
     0
  9
$LWDISPLAY
290
     1
  9
$INSUNITS
 70
     4
  9
$HYPERLINKBASE
  1

  9
$STYLESHEET
  1

  9
$XEDIT
290
     1
  9
$CEPSNTYPE
380
     0
  9
$PSTYLEMODE
290
     1
  9
$FINGERPRINTGUID
  2
{205B8ADC-F195-479A-8E75-568BDF186177}
  9
$VERSIONGUID
  2
{FAEB1C32-E019-11D5-929B-00C0DF256EC4}
  9
$EXTNAMES
290
     1
  9
$PSVPSCALE
 40
0.0
  9
$OLESTARTUP
290
     0
  0
ENDSEC
  0
SECTION
  2
CLASSES
  0
CLASS
  1
ACDBDICTIONARYWDFLT
  2
AcDbDictionaryWithDefault
  3
ObjectDBX Classes
 90
        0
280
     0
281
     0
  0
CLASS
  1
VISUALSTYLE
  2
AcDbVisualStyle
  3
ObjectDBX Classes
 90
     4095
280
     0
281
     0
  0
CLASS
  1
MATERIAL
  2
AcDbMaterial
  3
ObjectDBX Classes
 90
     1153
280
     0
281
     0
  0
CLASS
  1
DICTIONARYVAR
  2
AcDbDictionaryVar
  3
ObjectDBX Classes
 90
        0
280
     0
281
     0
  0
CLASS
  1
ACDBPLACEHOLDER
  2
AcDbPlaceHolder
  3
ObjectDBX Classes
 90
        0
280
     0
281
     0
  0
CLASS
  1
LAYOUT
  2
AcDbLayout
  3
ObjectDBX Classes
 90
        0
280
     0
281
     0
  0
CLASS
  1
SCALE
  2
AcDbScale
  3
ObjectDBX Classes
 90
     1153
280
     0
281
     0
  0
CLASS
  1
TABLESTYLE
  2
AcDbTableStyle
  3
ObjectDBX Classes
 90
     4095
280
     0
281
     0
  0
CLASS
  1
RASTERVARIABLES
  2
AcDbRasterVariables
  3
ISM
 90
        0
280
     0
281
     0
  0
CLASS
  1
SORTENTSTABLE
  2
AcDbSortentsTable
  3
ObjectDBX Classes
 90
        0
280
     0
281
     0
  0
CLASS
  1
CELLSTYLEMAP
  2
AcDbCellStyleMap
  3
ObjectDBX Classes
 90
     1152
280
     0
281
     0
  0
ENDSEC
  0
SECTION
  2
TABLES
  0
TABLE
  2
VPORT
  5
8
330
0
100
AcDbSymbolTable
 70
     1
  0
VPORT
  5
29
330
8
100
AcDbSymbolTableRecord
100
AcDbViewportTableRecord
  2
*Active
 70
     0
 10
0.0
 20
0.0
 11
1.0
 21
1.0
 12
446.5018499999982
 22
95.1120668422831
 13
0.0
 23
0.0
 14
0.5
 24
0.5
 15
0.5
 25
0.5
 16
0.0
 26
0.0
 36
1.0
 17
0.0
 27
0.0
 37
0.0
 40
483.3533836417502
 41
2.131979695431472
 42
50.0
 43
0.0
 44
0.0
 50
0.0
 51
0.0
 71
    16
 72
   100
 73
     1
 74
     3
 75
     0
 76
     0
 77
     0
 78
     0
281
     0
 65
     1
110
0.0
120
0.0
130
0.0
111
1.0
121
0.0
131
0.0
112
0.0
122
1.0
132
0.0
 79
     0
146
0.0
  0
ENDTAB
  0
TABLE
  2
LTYPE
  5
5
330
0
100
AcDbSymbolTable
 70
     3
  0
LTYPE
  5
14
330
5
100
AcDbSymbolTableRecord
100
AcDbLinetypeTableRecord
  2
ByBlock
 70
     0
  3

 72
    65
 73
     0
 40
0.0
  0
LTYPE
  5
15
330
5
100
AcDbSymbolTableRecord
100
AcDbLinetypeTableRecord
  2
ByLayer
 70
     0
  3

 72
    65
 73
     0
 40
0.0
  0
LTYPE
  5
16
330
5
100
AcDbSymbolTableRecord
100
AcDbLinetypeTableRecord
  2
Continuous
 70
     0
  3
Solid line
 72
    65
 73
     0
 40
0.0
  0
LTYPE
  5
41
330
5
100
AcDbSymbolTableRecord
100
AcDbLinetypeTableRecord
  2
________________
 70
     0
  3

 72
    65
 73
     0
 40
0.0
  0
LTYPE
  5
37D
330
5
100
AcDbSymbolTableRecord
100
AcDbLinetypeTableRecord
  2
CENTER
 70
     0
  3
____ _ ____ _ ____ _ ____ _ ____ _ ____ _ ____
 72
    65
 73
     4
 40
2.0
 49
1.25
 74
     0
 49
-0.25
 74
     0
 49
0.25
 74
     0
 49
-0.25
 74
     0
  0
ENDTAB
  0
TABLE
  2
LAYER
  5
2
330
0
100
AcDbSymbolTable
 70
     1
  0
LAYER
  5
10
330
2
100
AcDbSymbolTableRecord
100
AcDbLayerTableRecord
  2
0
 70
     0
 62
     7
  6
Continuous
370
    -3
390
F
  0
ENDTAB
  0
TABLE
  2
STYLE
  5
3
330
0
100
AcDbSymbolTable
 70
     1
  0
STYLE
  5
11
330
3
100
AcDbSymbolTableRecord
100
AcDbTextStyleTableRecord
  2
Standard
 70
     0
 40
0.0
 41
1.0
 50
0.0
 71
     0
 42
0.2
  3
txt
  4

  0
ENDTAB
  0
TABLE
  2
VIEW
  5
6
330
0
100
AcDbSymbolTable
 70
     0
  0
ENDTAB
  0
TABLE
  2
UCS
  5
7
330
0
100
AcDbSymbolTable
 70
     0
  0
ENDTAB
  0
TABLE
  2
APPID
  5
9
330
0
100
AcDbSymbolTable
 70
     1
  0
APPID
  5
12
330
9
100
AcDbSymbolTableRecord
100
AcDbRegAppTableRecord
  2
ACAD
 70
     0
  0
ENDTAB
  0
TABLE
  2
DIMSTYLE
  5
A
330
0
100
AcDbSymbolTable
 70
     1
100
AcDbDimStyleTable
  0
DIMSTYLE
105
27
330
A
100
AcDbSymbolTableRecord
100
AcDbDimStyleTableRecord
  2
Standard
 70
     0
178
     0
340
11
  0
ENDTAB
  0
TABLE
  2
BLOCK_RECORD
  5
1
330
0
100
AcDbSymbolTable
 70
    11
  0
BLOCK_RECORD
  5
1F
330
1
100
AcDbSymbolTableRecord
100
AcDbBlockTableRecord
  2
*Model_Space
340
22
  0
BLOCK_RECORD
  5
1B
330
1
100
AcDbSymbolTableRecord
100
AcDbBlockTableRecord
  2
*Paper_Space
340
1E
  0
BLOCK_RECORD
  5
23
330
1
100
AcDbSymbolTableRecord
100
AcDbBlockTableRecord
  2
*Paper_Space0
340
26
  0
BLOCK_RECORD
  5
3F
330
1
100
AcDbSymbolTableRecord
100
AcDbBlockTableRecord
  2
D_FRAME_VIEW@422
340
0
102
{BLKREFS
331
B4
102
}
  0
BLOCK_RECORD
  5
B5
330
1
100
AcDbSymbolTableRecord
100
AcDbBlockTableRecord
  2
D_FRAME_VIEW@420
340
0
102
{BLKREFS
331
11F
102
}
  0
BLOCK_RECORD
  5
120
330
1
100
AcDbSymbolTableRecord
100
AcDbBlockTableRecord
  2
D_FRAME_VIEW@426
340
0
102
{BLKREFS
331
18E
102
}
  0
BLOCK_RECORD
  5
18F
330
1
100
AcDbSymbolTableRecord
100
AcDbBlockTableRecord
  2
D_FRAME_VIEW@428
340
0
102
{BLKREFS
331
247
102
}
  0
BLOCK_RECORD
  5
248
330
1
100
AcDbSymbolTableRecord
100
AcDbBlockTableRecord
  2
D_FRAME_VIEW@424
340
0
102
{BLKREFS
331
2B4
102
}
  0
BLOCK_RECORD
  5
2B5
330
1
100
AcDbSymbolTableRecord
100
AcDbBlockTableRecord
  2
D_FRAME_VIEW@410
340
0
102
{BLKREFS
331
0
102
}
  0
BLOCK_RECORD
  5
2EB
330
1
100
AcDbSymbolTableRecord
100
AcDbBlockTableRecord
  2
D_FRAME_VIEW@416
340
0
102
{BLKREFS
331
0
102
}
  0
BLOCK_RECORD
  5
2F7
330
1
100
AcDbSymbolTableRecord
100
AcDbBlockTableRecord
  2
D_FRAME_VIEW@418
340
0
102
{BLKREFS
331
328
102
}
  0
BLOCK_RECORD
  5
3DF
330
1
100
AcDbSymbolTableRecord
100
AcDbBlockTableRecord
  2
qpd360
340
0
102
{BLKREFS
331
403
102
}
  0
ENDTAB
  0
ENDSEC
  0
SECTION
  2
BLOCKS
  0
BLOCK
  5
20
330
1F
100
AcDbEntity
  8
0
100
AcDbBlockBegin
  2
*Model_Space
 70
     0
 10
0.0
 20
0.0
 30
0.0
  3
*Model_Space
  1

  0
ENDBLK
  5
21
330
1F
100
AcDbEntity
  8
0
100
AcDbBlockEnd
  0
BLOCK
  5
1C
330
1B
100
AcDbEntity
 67
     1
  8
0
100
AcDbBlockBegin
  2
*Paper_Space
 70
     0
 10
0.0
 20
0.0
 30
0.0
  3
*Paper_Space
  1

  0
ENDBLK
  5
1D
330
1B
100
AcDbEntity
 67
     1
  8
0
100
AcDbBlockEnd
  0
BLOCK
  5
24
330
23
100
AcDbEntity
  8
0
100
AcDbBlockBegin
  2
*Paper_Space0
 70
     0
 10
0.0
 20
0.0
 30
0.0
  3
*Paper_Space0
  1

  0
ENDBLK
  5
25
330
23
100
AcDbEntity
  8
0
100
AcDbBlockEnd
  0
BLOCK
  5
B6
330
3F
100
AcDbEntity
  8
0
100
AcDbBlockBegin
  2
D_FRAME_VIEW@422
 70
     0
 10
0.0
 20
0.0
 30
0.0
  3
D_FRAME_VIEW@422
  1

  0
LINE
  5
40
330
3F
100
AcDbEntity
  8
0
  6
________________
 62
     7
370
     9
100
AcDbLine
 10
451.9899999999996
 20
309.700000445239
 30
0.0
 11
451.9899999999996
 21
321.6999999999942
 31
0.0
  0
LINE
  5
42
330
3F
100
AcDbEntity
  8
0
  6
________________
 62
     7
370
     9
100
AcDbLine
 10
452.2899999999996
 20
309.700000445239
 30
0.0
 11
452.2899999999996
 21
321.6999999999942
 31
0.0
  0
LINE
  5
43
330
3F
100
AcDbEntity
  8
0
  6
________________
 62
     7
370
     9
100
AcDbLine
 10
448.9899999999998
 20
312.700000222617
 30
0.0
 11
448.9899999999998
 21
318.6999999999946
 31
0.0
  0
LINE
  5
44
330
3F
100
AcDbEntity
  8
0
  6
________________
 62
     7
370
     9
100
AcDbLine
 10
447.1068743235137
 20
308.1667881288277
 30
0.0
 11
446.7101155112014
 21
308.4521581088329
 31
0.0
  0
LINE
  5
45
330
3F
100
AcDbEntity
  8
0
  6
________________
 62
     7
370
     9
100
AcDbLine
 10
446.7101126925927
 20
324.5478407762577
 30
0.0
 11
447.106874323516
 21
324.8332118711715
 31
0.0
  0
LINE
  5
46
330
3F
100
AcDbEntity
  8
0
  6
________________
 62
   253
370
     9
100
AcDbLine
 10
426.2099999999971
 20
321.4999999999886
 30
0.0
 11
426.2099999999971
 21
323.0000000000044
 31
0.0
  0
LINE
  5
47
330
3F
100
AcDbEntity
  8
0
  6
________________
 62
     7
370
     9
100
AcDbLine
 10
426.2099999999971
 20
321.4999999999886
 30
0.0
 11
423.7099999999973
 21
321.4999999999886
 31
0.0
  0
LINE
  5
48
330
3F
100
AcDbEntity
  8
0
  6
________________
 62
   253
370
     9
100
AcDbLine
 10
423.7099999999973
 20
321.4999999999886
 30
0.0
 11
423.7099999999973
 21
323.0000000000045
 31
0.0
  0
LINE
  5
49
330
3F
100
AcDbEntity
  8
0
  6
________________
 62
     7
370
     9
100
AcDbLine
 10
423.7099999999973
 20
321.4999999999886
 30
0.0
 11
418.2099999999987
 21
321.4999999999886
 31
0.0
  0
LINE
  5
4A
330
3F
100
AcDbEntity
  8
0
  6
________________
 62
     7
370
     9
100
AcDbLine
 10
418.2099999999975
 20
321.4999999999886
 30
0.0
 11
418.2099999999975
 21
323.0000000000044
 31
0.0
  0
LINE
  5
4B
330
3F
100
AcDbEntity
  8
0
  6
________________
 62
     7
370
     9
100
AcDbLine
 10
431.7099999999969
 20
321.9999999999944
 30
0.0
 11
431.7099999999969
 21
323.0000000000042
 31
0.0
  0
LINE
  5
4C
330
3F
100
AcDbEntity
  8
0
  6
________________
 62
     7
370
     9
100
AcDbLine
 10
431.7099999999961
 20
321.4999999999886
 30
0.0
 11
426.2099999999971
 21
321.4999999999886
 31
0.0
  0
LINE
  5
4D
330
3F
100
AcDbEntity
  8
0
  6
________________
 62
     7
370
     9
100
AcDbLine
 10
446.6242135623672
 20
331.0500000000038
 30
0.0
 11
416.7099999999954
 21
331.0500000000038
 31
0.0
  0
ARC
  5
4E
330
3F
100
AcDbEntity
  8
0
  6
________________
 62
     7
370
     9
100
AcDbCircle
 10
416.7099999999954
 20
330.5500000000038
 30
0.0
 40
0.5000000000000004
100
AcDbArc
 50
90.0
 51
180.0
  0
LINE
  5
4F
330
3F
100
AcDbEntity
  8
0
  6
________________
 62
     7
370
     9
100
AcDbLine
 10
416.2099999999954
 20
330.5500000000038
 30
0.0
 11
416.2099999999954
 21
322.0500000000046
 31
0.0
  0
LINE
  5
50
330
3F
100
AcDbEntity
  8
0
  6
________________
 62
     7
370
     9
100
AcDbLine
 10
416.2099999999954
 20
322.0500000000046
 30
0.0
 11
415.2099999999954
 21
322.0500000000046
 31
0.0
  0
LINE
  5
51
330
3F
100
AcDbEntity
  8
0
  6
________________
 62
     7
370
     9
100
AcDbLine
 10
415.2099999999954
 20
322.0500000000046
 30
0.0
 11
415.2099999999954
 21
330.5500000000038
 31
0.0
  0
ARC
  5
52
330
3F
100
AcDbEntity
  8
0
  6
________________
 62
     7
370
     9
100
AcDbCircle
 10
-416.7099999999954
 20
330.5500000000038
 30
0.0
 40
1.500000000000001
210
0.0
220
0.0
230
-1.0
100
AcDbArc
 50
0.0
 51
90.0
  0
LINE
  5
53
330
3F
100
AcDbEntity
  8
0
  6
________________
 62
     7
370
     9
100
AcDbLine
 10
416.7099999999954
 20
332.0500000000037
 30
0.0
 11
445.2099999999942
 21
332.0500000000037
 31
0.0
  0
ARC
  5
54
330
3F
100
AcDbEntity
  8
0
  6
________________
 62
     7
370
     9
100
AcDbCircle
 10
-445.2099999999942
 20
330.5500000000038
 30
0.0
 40
1.500000000000001
210
0.0
220
0.0
230
-1.0
100
AcDbArc
 50
90.0
 51
160.5287793655102
  0
LINE
  5
55
330
3F
100
AcDbEntity
  8
0
  6
________________
 62
     7
370
     9
100
AcDbLine
 10
446.7099999999967
 20
322.0500000000046
 30
0.0
 11
445.7099999999967
 21
322.0500000000046
 31
0.0
  0
LINE
  5
56
330
3F
100
AcDbEntity
  8
0
  6
________________
 62
     7
370
     9
100
AcDbLine
 10
445.7099999999967
 20
322.0500000000046
 30
0.0
 11
445.7099999999967
 21
323.0000000000044
 31
0.0
  0
LINE
  5
57
330
3F
100
AcDbEntity
  8
0
  6
________________
 62
     7
370
     9
100
AcDbLine
 10
445.7099999999967
 20
330.0000000000039
 30
0.0
 11
445.7099999999967
 21
330.5500000000038
 31
0.0
  0
ARC
  5
58
330
3F
100
AcDbEntity
  8
0
  6
________________
 62
     7
370
     9
100
AcDbCircle
 10
445.2099999999968
 20
330.5500000000038
 30
0.0
 40
0.5000000000000004
100
AcDbArc
 50
0.0000000000001988
 51
90.00000000000001
  0
LINE
  5
59
330
3F
100
AcDbEntity
  8
0
  6
________________
 62
     7
370
     9
100
AcDbLine
 10
446.7099999999967
 20
322.0500000000046
 30
0.0
 11
446.7099999999967
 21
323.0000000000044
 31
0.0
  0
LINE
  5
5A
330
3F
100
AcDbEntity
  8
0
  6
________________
 62
     7
370
     9
100
AcDbLine
 10
446.7099999999967
 20
330.0000000000039
 30
0.0
 11
446.7099999999967
 21
330.5500000000038
 31
0.0
  0
ARC
  5
5B
330
3F
100
AcDbEntity
  8
0
  6
________________
 62
     7
370
     9
100
AcDbCircle
 10
445.2099999999968
 20
330.5500000000038
 30
0.0
 40
1.500000000000001
100
AcDbArc
 50
0.0
 51
19.47122063448978
  0
LINE
  5
5C
330
3F
100
AcDbEntity
  8
0
  6
________________
 62
   253
370
     9
100
AcDbLine
 10
445.5099999999982
 20
330.5500000000038
 30
0.0
 11
416.4099999999994
 21
330.5500000000038
 31
0.0
  0
LINE
  5
5D
330
3F
100
AcDbEntity
  8
0
  6
________________
 62
     7
370
     9
100
AcDbLine
 10
416.4099999999994
 20
330.9500000000038
 30
0.0
 11
416.4099999999994
 21
330.5500000000038
 31
0.0
  0
LINE
  5
5E
330
3F
100
AcDbEntity
  8
0
  6
________________
 62
     7
370
     9
100
AcDbLine
 10
445.5099999999981
 20
330.5500000000039
 30
0.0
 11
445.5099999999981
 21
330.9500000000039
 31
0.0
  0
LINE
  5
5F
330
3F
100
AcDbEntity
  8
0
  6
________________
 62
     7
370
     9
100
AcDbLine
 10
445.5099999999982
 20
322.0500000000046
 30
0.0
 11
444.6099999999967
 21
322.0500000000046
 31
0.0
  0
LINE
  5
60
330
3F
100
AcDbEntity
  8
0
  6
________________
 62
     7
370
     9
100
AcDbLine
 10
418.2099999999975
 20
322.0500000000046
 30
0.0
 11
416.4099999999994
 21
322.0500000000046
 31
0.0
  0
LINE
  5
61
330
3F
100
AcDbEntity
  8
0
  6
________________
 62
     7
370
     9
100
AcDbLine
 10
416.4099999999994
 20
322.0500000000046
 30
0.0
 11
416.4099999999994
 21
324.6651433046491
 31
0.0
  0
LINE
  5
62
330
3F
100
AcDbEntity
  8
0
  6
________________
 62
     7
370
     9
100
AcDbLine
 10
416.4099999999994
 20
327.2866068747333
 30
0.0
 11
416.4099999999994
 21
330.5500000000038
 31
0.0
  0
LINE
  5
63
330
3F
100
AcDbEntity
  8
0
  6
________________
 62
     7
370
     9
100
AcDbLine
 10
445.5099999999982
 20
330.5500000000038
 30
0.0
 11
445.5099999999982
 21
330.0000000000039
 31
0.0
  0
LINE
  5
64
330
3F
100
AcDbEntity
  8
0
  6
________________
 62
     7
370
     9
100
AcDbLine
 10
445.5099999999982
 20
323.0000000000044
 30
0.0
 11
445.5099999999982
 21
322.0500000000046
 31
0.0
  0
LINE
  5
65
330
3F
100
AcDbEntity
  8
0
  6
________________
 62
     7
370
     9
100
AcDbLine
 10
416.2099999999999
 20
325.8000000000046
 30
0.0
 11
417.0007122546094
 21
329.2249510543465
 31
0.0
  0
ARC
  5
66
330
3F
100
AcDbEntity
  8
0
  6
________________
 62
     7
370
     9
100
AcDbCircle
 10
-417.9750823193941
 20
329.0000000000028
 30
0.0
 40
1.000000000000006
210
0.0
220
0.0
230
-1.0
100
AcDbArc
 50
12.99999999999946
 51
89.99999999999999
  0
LINE
  5
67
330
3F
100
AcDbEntity
  8
0
  6
________________
 62
     7
370
     9
100
AcDbLine
 10
420.2099999999978
 20
330.0000000000022
 30
0.0
 11
420.2099999999978
 21
329.1339745962196
 31
0.0
  0
LINE
  5
68
330
3F
100
AcDbEntity
  8
0
  6
________________
 62
     7
370
     9
100
AcDbLine
 10
418.7099999999985
 20
328.6960254037876
 30
0.0
 11
418.7317756438866
 21
328.2805213662961
 31
0.0
  0
LINE
  5
69
330
3F
100
AcDbEntity
  8
0
  6
________________
 62
     7
370
     9
100
AcDbLine
 10
418.7099999999985
 20
328.6960254037876
 30
0.0
 11
418.7099999999985
 21
328.700000000003
 31
0.0
  0
LINE
  5
6A
330
3F
100
AcDbEntity
  8
0
  6
________________
 62
     7
370
     9
100
AcDbLine
 10
418.2099999999988
 20
329.2000000000027
 30
0.0
 11
418.1110826836151
 21
329.2000000000027
 31
0.0
  0
ARC
  5
6B
330
3F
100
AcDbEntity
  8
0
  6
________________
 62
     7
370
     9
100
AcDbCircle
 10
418.1110826836151
 20
328.700000000003
 30
0.0
 40
0.5000000000000004
100
AcDbArc
 50
89.9999999999992
 51
167.0000000000005
  0
LINE
  5
6C
330
3F
100
AcDbEntity
  8
0
  6
________________
 62
     7
370
     9
100
AcDbLine
 10
417.6238976512227
 20
328.8124755271749
 30
0.0
 11
417.3118175714878
 21
327.4607081909587
 31
0.0
  0
ARC
  5
6D
330
3F
100
AcDbEntity
  8
0
  6
________________
 62
     7
370
     9
100
AcDbCircle
 10
418.2099999999988
 20
328.700000000003
 30
0.0
 40
0.5000000000000004
100
AcDbArc
 50
359.9999999999998
 51
89.99999999999902
  0
LINE
  5
6E
330
3F
100
AcDbEntity
  8
0
  6
________________
 62
     7
370
     9
100
AcDbLine
 10
417.9750823193941
 20
330.0000000000022
 30
0.0
 11
420.2099999999978
 21
330.0000000000022
 31
0.0
  0
LINE
  5
6F
330
3F
100
AcDbEntity
  8
0
  6
________________
 62
     7
370
     9
100
AcDbLine
 10
416.7099999999979
 20
325.8000000000046
 30
0.0
 11
416.2099999999999
 21
325.8000000000046
 31
0.0
  0
LINE
  5
70
330
3F
100
AcDbEntity
  8
0
  6
________________
 62
     7
370
     9
100
AcDbLine
 10
415.0631256764773
 20
324.8332118711767
 30
0.0
 11
415.209865360796
 21
324.6914359597032
 31
0.0
  0
LWPOLYLINE
  5
71
330
3F
100
AcDbEntity
  8
0
  6
________________
 62
     7
370
     9
100
AcDbPolyline
 90
       15
 70
     0
 43
0.0
 10
416.2100047887382
 20
324.5536974684194
 10
416.2543389213344
 20
324.5733112106142
 10
416.2985265346608
 20
324.5955069159267
 10
416.3422390959063
 20
324.6202659779373
 10
416.3848549052556
 20
324.6473229669007
 10
416.4265943623705
 20
324.6769037352693
 10
416.4669665336344
 20
324.7087449356547
 10
416.5063053021389
 20
324.7432262557829
 10
416.5440668038336
 20
324.7800046304087
 10
416.5760849131582
 20
324.8144629638315
 10
416.606646990807
 20
324.8506368844099
 10
416.6359177219256
 20
324.888842789735
 10
416.6634474019528
 20
324.9286101775213
 10
416.6893553871255
 20
324.9702302563845
 10
416.7101206362336
 20
325.0072599523149
  0
LINE
  5
72
330
3F
100
AcDbEntity
  8
0
  6
________________
 62
     7
370
     9
100
AcDbLine
 10
446.7099999999967
 20
323.0000000000044
 30
0.0
 11
446.7099999999967
 21
330.0000000000039
 31
0.0
  0
LINE
  5
73
330
3F
100
AcDbEntity
  8
0
  6
________________
 62
     7
370
     9
100
AcDbLine
 10
446.7099999999967
 20
323.0000000000044
 30
0.0
 11
416.7099999999979
 21
323.0000000000044
 31
0.0
  0
LINE
  5
74
330
3F
100
AcDbEntity
  8
0
  6
________________
 62
     7
370
     9
100
AcDbLine
 10
446.7099999999967
 20
330.0000000000039
 30
0.0
 11
421.7099999999978
 21
330.0000000000039
 31
0.0
  0
LINE
  5
75
330
3F
100
AcDbEntity
  8
0
  6
________________
 62
     7
370
     9
100
AcDbLine
 10
421.7099999999978
 20
330.0000000000039
 30
0.0
 11
416.7099999999979
 21
327.113248654056
 31
0.0
  0
LINE
  5
76
330
3F
100
AcDbEntity
  8
0
  6
________________
 62
     7
370
     9
100
AcDbLine
 10
416.7099999999979
 20
323.0000000000044
 30
0.0
 11
416.7099999999979
 21
327.113248654056
 31
0.0
  0
LINE
  5
77
330
3F
100
AcDbEntity
  8
0
  6
________________
 62
     7
370
     9
100
AcDbLine
 10
431.7099999999957
 20
311.4999999999953
 30
0.0
 11
426.2099999999974
 21
311.4999999999953
 31
0.0
  0
LINE
  5
78
330
3F
100
AcDbEntity
  8
0
  6
________________
 62
     7
370
     9
100
AcDbLine
 10
418.209999999998
 20
309.9999999999955
 30
0.0
 11
418.209999999998
 21
311.4999999999953
 31
0.0
  0
LINE
  5
79
330
3F
100
AcDbEntity
  8
0
  6
________________
 62
     7
370
     9
100
AcDbLine
 10
423.7099999999976
 20
311.4999999999953
 30
0.0
 11
418.2100000000002
 21
311.4999999999953
 31
0.0
  0
LINE
  5
7A
330
3F
100
AcDbEntity
  8
0
  6
________________
 62
   253
370
     9
100
AcDbLine
 10
426.2099999999974
 20
309.9999999999955
 30
0.0
 11
426.2099999999974
 21
311.4999999999953
 31
0.0
  0
LINE
  5
7B
330
3F
100
AcDbEntity
  8
0
  6
________________
 62
   253
370
     9
100
AcDbLine
 10
423.7099999999976
 20
309.9999999999955
 30
0.0
 11
423.7099999999976
 21
311.4999999999953
 31
0.0
  0
LINE
  5
7C
330
3F
100
AcDbEntity
  8
0
  6
________________
 62
     7
370
     9
100
AcDbLine
 10
426.2099999999974
 20
311.4999999999953
 30
0.0
 11
423.7099999999976
 21
311.4999999999953
 31
0.0
  0
LINE
  5
7D
330
3F
100
AcDbEntity
  8
0
  6
________________
 62
     7
370
     9
100
AcDbLine
 10
416.7099999999979
 20
300.9499999999962
 30
0.0
 11
445.2099999999967
 21
300.9499999999962
 31
0.0
  0
ARC
  5
7E
330
3F
100
AcDbEntity
  8
0
  6
________________
 62
     7
370
     9
100
AcDbCircle
 10
416.7099999999979
 20
302.4499999999961
 30
0.0
 40
1.500000000000001
100
AcDbArc
 50
180.0
 51
270.0
  0
ARC
  5
7F
330
3F
100
AcDbEntity
  8
0
  6
________________
 62
     7
370
     9
100
AcDbCircle
 10
-416.7099999999979
 20
302.4499999999961
 30
0.0
 40
0.5000000000000004
210
0.0
220
0.0
230
-1.0
100
AcDbArc
 50
270.0
 51
359.9999999999998
  0
LINE
  5
80
330
3F
100
AcDbEntity
  8
0
  6
________________
 62
     7
370
     9
100
AcDbLine
 10
416.2099999999979
 20
310.9499999999954
 30
0.0
 11
415.2099999999979
 21
310.9499999999954
 31
0.0
  0
LINE
  5
81
330
3F
100
AcDbEntity
  8
0
  6
________________
 62
     7
370
     9
100
AcDbLine
 10
415.2099999999979
 20
310.9499999999954
 30
0.0
 11
415.2099999999979
 21
302.4499999999961
 31
0.0
  0
LINE
  5
82
330
3F
100
AcDbEntity
  8
0
  6
________________
 62
     7
370
     9
100
AcDbLine
 10
416.209999999998
 20
302.4499999999961
 30
0.0
 11
416.2099999999979
 21
310.9499999999954
 31
0.0
  0
LINE
  5
83
330
3F
100
AcDbEntity
  8
0
  6
________________
 62
     7
370
     9
100
AcDbLine
 10
446.6242135623697
 20
301.9499999999962
 30
0.0
 11
416.7099999999979
 21
301.9499999999962
 31
0.0
  0
ARC
  5
84
330
3F
100
AcDbEntity
  8
0
  6
________________
 62
     7
370
     9
100
AcDbCircle
 10
445.2099999999967
 20
302.4499999999961
 30
0.0
 40
1.500000000000001
100
AcDbArc
 50
270.0
 51
340.5287793655102
  0
LINE
  5
85
330
3F
100
AcDbEntity
  8
0
  6
________________
 62
     7
370
     9
100
AcDbLine
 10
446.7099999999967
 20
302.999999999996
 30
0.0
 11
446.7099999999967
 21
302.4499999999961
 31
0.0
  0
ARC
  5
86
330
3F
100
AcDbEntity
  8
0
  6
________________
 62
     7
370
     9
100
AcDbCircle
 10
-445.2099999999967
 20
302.4499999999961
 30
0.0
 40
0.5000000000000004
210
0.0
220
0.0
230
-1.0
100
AcDbArc
 50
180.0000000000002
 51
270.0
  0
LINE
  5
87
330
3F
100
AcDbEntity
  8
0
  6
________________
 62
     7
370
     9
100
AcDbLine
 10
445.7099999999967
 20
302.999999999996
 30
0.0
 11
445.7099999999967
 21
302.4499999999961
 31
0.0
  0
ARC
  5
88
330
3F
100
AcDbEntity
  8
0
  6
________________
 62
     7
370
     9
100
AcDbCircle
 10
-445.2099999999967
 20
302.4499999999961
 30
0.0
 40
1.500000000000001
210
0.0
220
0.0
230
-1.0
100
AcDbArc
 50
180.0
 51
199.4712206344898
  0
LINE
  5
89
330
3F
100
AcDbEntity
  8
0
  6
________________
 62
   253
370
     9
100
AcDbLine
 10
445.5099999999968
 20
302.4499999999961
 30
0.0
 11
416.4099999999979
 21
302.4499999999961
 31
0.0
  0
LINE
  5
8A
330
3F
100
AcDbEntity
  8
0
  6
________________
 62
     7
370
     9
100
AcDbLine
 10
416.4099999999979
 20
302.0499999999961
 30
0.0
 11
416.4099999999979
 21
302.4499999999961
 31
0.0
  0
LINE
  5
8B
330
3F
100
AcDbEntity
  8
0
  6
________________
 62
     7
370
     9
100
AcDbLine
 10
445.5099999999968
 20
302.4499999999961
 30
0.0
 11
445.5099999999968
 21
302.0499999999961
 31
0.0
  0
LINE
  5
8C
330
3F
100
AcDbEntity
  8
0
  6
________________
 62
     7
370
     9
100
AcDbLine
 10
418.209999999998
 20
310.9499999999954
 30
0.0
 11
416.4099999999979
 21
310.9499999999954
 31
0.0
  0
LINE
  5
8D
330
3F
100
AcDbEntity
  8
0
  6
________________
 62
     7
370
     9
100
AcDbLine
 10
416.4099999999979
 20
310.9499999999954
 30
0.0
 11
416.4099999999979
 21
308.3348467973326
 31
0.0
  0
LINE
  5
8E
330
3F
100
AcDbEntity
  8
0
  6
________________
 62
     7
370
     9
100
AcDbLine
 10
416.4099999999979
 20
305.7133931252654
 30
0.0
 11
416.4099999999979
 21
302.4499999999961
 31
0.0
  0
LINE
  5
8F
330
3F
100
AcDbEntity
  8
0
  6
________________
 62
     7
370
     9
100
AcDbLine
 10
445.5099999999968
 20
302.4499999999961
 30
0.0
 11
445.5099999999968
 21
302.999999999996
 31
0.0
  0
LINE
  5
90
330
3F
100
AcDbEntity
  8
0
  6
________________
 62
     7
370
     9
100
AcDbLine
 10
431.7099999999973
 20
309.9999999999955
 30
0.0
 11
416.7099999999979
 21
309.9999999999955
 31
0.0
  0
LINE
  5
91
330
3F
100
AcDbEntity
  8
0
  6
________________
 62
     7
370
     9
100
AcDbLine
 10
431.7099999999973
 20
309.9999999999955
 30
0.0
 11
431.7099999999973
 21
321.9999999999945
 31
0.0
  0
LINE
  5
92
330
3F
100
AcDbEntity
  8
0
  6
________________
 62
     7
370
     9
100
AcDbLine
 10
431.7099999999973
 20
321.9999999999945
 30
0.0
 11
446.7099999999967
 21
321.9999999999945
 31
0.0
  0
LINE
  5
93
330
3F
100
AcDbEntity
  8
0
  6
________________
 62
     7
370
     9
100
AcDbLine
 10
446.7099999999967
 20
302.999999999996
 30
0.0
 11
446.7099999999967
 21
321.9999999999945
 31
0.0
  0
LINE
  5
94
330
3F
100
AcDbEntity
  8
0
  6
________________
 62
     7
370
     9
100
AcDbLine
 10
416.7099999999979
 20
305.8867513459439
 30
0.0
 11
421.7099999999977
 21
302.999999999996
 31
0.0
  0
LINE
  5
95
330
3F
100
AcDbEntity
  8
0
  6
________________
 62
     7
370
     9
100
AcDbLine
 10
416.7099999999979
 20
305.8867513459439
 30
0.0
 11
416.7099999999979
 21
309.9999999999955
 31
0.0
  0
LINE
  5
96
330
3F
100
AcDbEntity
  8
0
  6
________________
 62
     7
370
     9
100
AcDbLine
 10
446.7099999999967
 20
302.999999999996
 30
0.0
 11
421.7099999999977
 21
302.999999999996
 31
0.0
  0
LINE
  5
97
330
3F
100
AcDbEntity
  8
0
  6
________________
 62
   253
370
     9
100
AcDbLine
 10
429.4599999999974
 20
311.4999999999714
 30
0.0
 11
429.4599999999974
 21
321.499999999963
 31
0.0
  0
ARC
  5
98
330
3F
100
AcDbEntity
  8
0
  6
________________
 62
     7
370
     9
100
AcDbCircle
 10
-418.111082683621
 20
304.299999999996
 30
0.0
 40
0.5000000000000004
210
0.0
220
0.0
230
-1.0
100
AcDbArc
 50
269.9999999999992
 51
347.0000000000005
  0
LINE
  5
99
330
3F
100
AcDbEntity
  8
0
  6
________________
 62
     7
370
     9
100
AcDbLine
 10
418.2100000000048
 20
303.799999999996
 30
0.0
 11
418.111082683621
 21
303.799999999996
 31
0.0
  0
LINE
  5
9A
330
3F
100
AcDbEntity
  8
0
  6
________________
 62
     7
370
     9
100
AcDbLine
 10
418.7100000000048
 20
304.3039745962115
 30
0.0
 11
418.7100000000048
 21
304.299999999996
 31
0.0
  0
LINE
  5
9B
330
3F
100
AcDbEntity
  8
0
  6
________________
 62
     7
370
     9
100
AcDbLine
 10
418.7317756438927
 20
304.7194786337004
 30
0.0
 11
418.7100000000048
 21
304.3039745962115
 31
0.0
  0
LINE
  5
9C
330
3F
100
AcDbEntity
  8
0
  6
________________
 62
     7
370
     9
100
AcDbLine
 10
420.2100000000047
 20
302.999999999996
 30
0.0
 11
420.2100000000047
 21
303.8660254037804
 31
0.0
  0
LINE
  5
9D
330
3F
100
AcDbEntity
  8
0
  6
________________
 62
     7
370
     9
100
AcDbLine
 10
417.9750823193999
 20
302.999999999996
 30
0.0
 11
420.2100000000047
 21
302.999999999996
 31
0.0
  0
ARC
  5
9E
330
3F
100
AcDbEntity
  8
0
  6
________________
 62
     7
370
     9
100
AcDbCircle
 10
417.9750823193999
 20
303.999999999996
 30
0.0
 40
0.9999999999999932
100
AcDbArc
 50
192.9999999999994
 51
270.0
  0
LINE
  5
9F
330
3F
100
AcDbEntity
  8
0
  6
________________
 62
     7
370
     9
100
AcDbLine
 10
416.2100000000049
 20
307.1999999999957
 30
0.0
 11
417.0007122546148
 21
303.7750489456521
 31
0.0
  0
LINE
  5
A0
330
3F
100
AcDbEntity
  8
0
  6
________________
 62
     7
370
     9
100
AcDbLine
 10
416.7099999999979
 20
307.1999999999957
 30
0.0
 11
416.2100000000049
 21
307.1999999999957
 31
0.0
  0
LINE
  5
A1
330
3F
100
AcDbEntity
  8
0
  6
________________
 62
     7
370
     9
100
AcDbLine
 10
417.6238976512284
 20
304.1875244728241
 30
0.0
 11
417.3118175714941
 21
305.5392918090376
 31
0.0
  0
ARC
  5
A2
330
3F
100
AcDbEntity
  8
0
  6
________________
 62
     7
370
     9
100
AcDbCircle
 10
-418.2100000000048
 20
304.299999999996
 30
0.0
 40
0.5000000000000004
210
0.0
220
0.0
230
-1.0
100
AcDbArc
 50
179.9999999999998
 51
269.999999999999
  0
LWPOLYLINE
  5
A3
330
3F
100
AcDbEntity
  8
0
  6
________________
 62
     7
370
     9
100
AcDbPolyline
 90
        3
 70
     0
 43
0.0
 10
416.7101642477433
 20
307.9926582422253
 10
416.638125583105
 20
308.1081150654226
 42
0.1390329263207623
 10
416.2100049687606
 20
308.4463024571042
  0
LINE
  5
A4
330
3F
100
AcDbEntity
  8
0
  6
________________
 62
     7
370
     9
100
AcDbLine
 10
415.2098191553504
 20
308.3085277317622
 30
0.0
 11
415.0631256764851
 21
308.166788128828
 31
0.0
  0
LINE
  5
A5
330
3F
100
AcDbEntity
  8
0
  6
________________
 62
     7
370
     9
100
AcDbLine
 10
432.8099999999972
 20
323.0000000000044
 30
0.0
 11
432.8099999999972
 21
321.9999999999945
 31
0.0
  0
LINE
  5
A6
330
3F
100
AcDbEntity
  8
0
  6
________________
 62
     7
370
     9
100
AcDbLine
 10
444.6099999999967
 20
321.9999999999945
 30
0.0
 11
444.6099999999967
 21
323.0000000000044
 31
0.0
  0
LINE
  5
A7
330
3F
100
AcDbEntity
  8
0
  6
________________
 62
     7
370
     9
100
AcDbLine
 10
451.9899999999996
 20
309.6999999999956
 30
0.0
 11
452.2899999999996
 21
309.6999999999956
 31
0.0
  0
LINE
  5
A8
330
3F
100
AcDbEntity
  8
0
  6
________________
 62
     7
370
     9
100
AcDbLine
 10
452.2899999999996
 20
321.6999999999944
 30
0.0
 11
451.9899999999996
 21
321.6999999999944
 31
0.0
  0
LINE
  5
A9
330
3F
100
AcDbEntity
  8
0
  6
________________
 62
     7
370
     9
100
AcDbLine
 10
451.9899999999996
 20
321.6999999999944
 30
0.0
 11
448.9899999999998
 21
318.6999999999947
 31
0.0
  0
LINE
  5
AA
330
3F
100
AcDbEntity
  8
0
  6
________________
 62
     7
370
     9
100
AcDbLine
 10
448.9899999999998
 20
312.6999999999953
 30
0.0
 11
451.9899999999996
 21
309.6999999999956
 31
0.0
  0
LINE
  5
AB
330
3F
100
AcDbEntity
  8
0
  6
________________
 62
     7
370
     9
100
AcDbLine
 10
446.710014989997
 20
312.6999999999953
 30
0.0
 11
448.9899999999998
 21
312.6999999999953
 31
0.0
  0
LINE
  5
AC
330
3F
100
AcDbEntity
  8
0
  6
________________
 62
     7
370
     9
100
AcDbLine
 10
448.9899999999998
 20
318.6999999999947
 30
0.0
 11
446.710014989997
 21
318.6999999999947
 31
0.0
  0
ARC
  5
AD
330
3F
100
AcDbEntity
  8
0
  6
________________
 62
     7
370
     9
100
AcDbCircle
 10
445.9599999999949
 20
307.1999999999954
 30
0.0
 40
1.499999999999996
100
AcDbArc
 50
300.0000000000974
 51
40.50000000000239
  0
ARC
  5
AE
330
3F
100
AcDbEntity
  8
0
  6
________________
 62
     7
370
     9
100
AcDbCircle
 10
445.9599999999967
 20
325.8000000000042
 30
0.0
 40
1.499999999999979
100
AcDbArc
 50
319.4999999999977
 51
59.99999999999647
  0
ARC
  5
AF
330
3F
100
AcDbEntity
  8
0
  6
________________
 62
     7
370
     9
100
AcDbCircle
 10
416.2099999999999
 20
325.8000000000046
 30
0.0
 40
1.500000000000029
100
AcDbArc
 50
76.9999999999994
 51
89.99999999999996
  0
ARC
  5
B0
330
3F
100
AcDbEntity
  8
0
  6
________________
 62
     7
370
     9
100
AcDbCircle
 10
416.2099999999999
 20
325.8000000000046
 30
0.0
 40
1.500000000000042
100
AcDbArc
 50
131.8103148960388
 51
220.5000000000024
  0
LINE
  5
B1
330
3F
100
AcDbEntity
  8
0
  6
________________
 62
     7
370
     9
100
AcDbLine
 10
425.7099999999975
 20
321.499999999963
 30
0.0
 11
425.7099999999975
 21
311.4999999999714
 31
0.0
  0
ARC
  5
B2
330
3F
100
AcDbEntity
  8
0
  6
________________
 62
     7
370
     9
100
AcDbCircle
 10
416.2100000000049
 20
307.1999999999957
 30
0.0
 40
1.499999999999979
100
AcDbArc
 50
139.4999999999972
 51
228.1896851038593
  0
ARC
  5
B3
330
3F
100
AcDbEntity
  8
0
  6
________________
 62
     7
370
     9
100
AcDbCircle
 10
416.2100000000049
 20
307.1999999999957
 30
0.0
 40
1.500000000000001
100
AcDbArc
 50
269.9999999997361
 51
283.0000000000006
  0
ENDBLK
  5
B7
330
3F
100
AcDbEntity
  8
0
100
AcDbBlockEnd
  0
BLOCK
  5
121
330
B5
100
AcDbEntity
  8
0
100
AcDbBlockBegin
  2
D_FRAME_VIEW@420
 70
     0
 10
0.0
 20
0.0
 30
0.0
  3
D_FRAME_VIEW@420
  1

  0
LINE
  5
B8
330
B5
100
AcDbEntity
  8
0
  6
________________
 62
     7
370
     9
100
AcDbLine
 10
452.289999999997
 20
-4.199999999994874
 30
0.0
 11
452.289999999997
 21
7.800000000004734
 31
0.0
  0
LINE
  5
B9
330
B5
100
AcDbEntity
  8
0
  6
________________
 62
     7
370
     9
100
AcDbLine
 10
451.9899999999969
 20
-4.199999999994874
 30
0.0
 11
451.9899999999969
 21
7.800000000004734
 31
0.0
  0
LINE
  5
BA
330
B5
100
AcDbEntity
  8
0
  6
________________
 62
     7
370
     9
100
AcDbLine
 10
448.989999999997
 20
-1.199999999994969
 30
0.0
 11
448.989999999997
 21
4.800000000004828
 31
0.0
  0
LINE
  5
BB
330
B5
100
AcDbEntity
  8
0
  6
________________
 62
     7
370
     9
100
AcDbLine
 10
445.7099999999967
 20
11.38286896856777
 30
0.0
 11
445.5099999999968
 21
12.24916414342453
 31
0.0
  0
LINE
  5
BC
330
B5
100
AcDbEntity
  8
0
  6
________________
 62
     7
370
     9
100
AcDbLine
 10
445.5099999999968
 20
10.30000000000458
 30
0.0
 11
445.7099999999967
 21
10.30000000000458
 31
0.0
  0
LINE
  5
BD
330
B5
100
AcDbEntity
  8
0
  6
________________
 62
     7
370
     9
100
AcDbLine
 10
445.5098428290847
 20
9.423635036076183
 30
0.0
 11
445.7098642888516
 21
9.203117450077249
 31
0.0
  0
LINE
  5
BE
330
B5
100
AcDbEntity
  8
0
  6
________________
 62
     7
370
     9
100
AcDbLine
 10
446.7101125937836
 20
9.047840737175406
 30
0.0
 11
447.1068743235137
 21
9.333211871172296
 31
0.0
  0
LINE
  5
BF
330
B5
100
AcDbEntity
  8
0
  6
________________
 62
     7
370
     9
100
AcDbLine
 10
445.7099999999982
 20
-9.382868968568914
 30
0.0
 11
445.5099999999982
 21
-10.24916414342566
 31
0.0
  0
LINE
  5
C0
330
B5
100
AcDbEntity
  8
0
  6
________________
 62
     7
370
     9
100
AcDbLine
 10
445.5099999999982
 20
-8.30000000000427
 30
0.0
 11
445.7099999999982
 21
-8.30000000000427
 31
0.0
  0
LINE
  5
C1
330
B5
100
AcDbEntity
  8
0
  6
________________
 62
     7
370
     9
100
AcDbLine
 10
447.106874323516
 20
-7.333211871171557
 30
0.0
 11
446.7101155254539
 21
-7.047841896803048
 31
0.0
  0
LINE
  5
C2
330
B5
100
AcDbEntity
  8
0
  6
________________
 62
     7
370
     9
100
AcDbLine
 10
445.7098994912689
 20
-7.203088710906948
 30
0.0
 11
445.5099063964486
 21
-7.423539548315476
 31
0.0
  0
LINE
  5
C3
330
B5
100
AcDbEntity
  8
0
  6
________________
 62
     7
370
     9
100
AcDbLine
 10
418.2099999999975
 20
-3.999999999988666
 30
0.0
 11
418.2099999999975
 21
-4.55000000000455
 31
0.0
  0
LINE
  5
C4
330
B5
100
AcDbEntity
  8
0
  6
________________
 62
     7
370
     9
100
AcDbLine
 10
418.2099999999982
 20
-3.999999999988666
 30
0.0
 11
423.7099999999973
 21
-3.999999999988666
 31
0.0
  0
LINE
  5
C5
330
B5
100
AcDbEntity
  8
0
  6
________________
 62
   253
370
     9
100
AcDbLine
 10
423.7099999999973
 20
-3.999999999988666
 30
0.0
 11
423.7099999999973
 21
-4.55000000000455
 31
0.0
  0
LINE
  5
C6
330
B5
100
AcDbEntity
  8
0
  6
________________
 62
     7
370
     9
100
AcDbLine
 10
442.2099999999964
 20
-3.999999999988666
 30
0.0
 11
442.2099999999964
 21
-4.55000000000455
 31
0.0
  0
LINE
  5
C7
330
B5
100
AcDbEntity
  8
0
  6
________________
 62
   253
370
     9
100
AcDbLine
 10
438.7099999999965
 20
-4.55000000000455
 30
0.0
 11
438.7099999999965
 21
-3.999999999988666
 31
0.0
  0
LINE
  5
C8
330
B5
100
AcDbEntity
  8
0
  6
________________
 62
     7
370
     9
100
AcDbLine
 10
438.7099999999965
 20
-3.999999999988666
 30
0.0
 11
442.2099999999955
 21
-3.999999999988666
 31
0.0
  0
LINE
  5
C9
330
B5
100
AcDbEntity
  8
0
  6
________________
 62
     7
370
     9
100
AcDbLine
 10
423.7099999999973
 20
-3.999999999988666
 30
0.0
 11
438.7099999999965
 21
-3.999999999988666
 31
0.0
  0
LINE
  5
CA
330
B5
100
AcDbEntity
  8
0
  6
________________
 62
   253
370
     9
100
AcDbLine
 10
445.7099999999982
 20
-13.05000000000386
 30
0.0
 11
446.7099999999982
 21
-13.05000000000386
 31
0.0
  0
ARC
  5
CB
330
B5
100
AcDbEntity
  8
0
  6
________________
 62
     7
370
     9
100
AcDbCircle
 10
-445.2099999999982
 20
-13.05000000000386
 30
0.0
 40
1.499999999999976
210
0.0
220
0.0
230
-1.0
100
AcDbArc
 50
180.0
 51
270.0
  0
LINE
  5
CC
330
B5
100
AcDbEntity
  8
0
  6
________________
 62
     7
370
     9
100
AcDbLine
 10
445.2099999999982
 20
-14.55000000000374
 30
0.0
 11
416.7099999999994
 21
-14.55000000000374
 31
0.0
  0
ARC
  5
CD
330
B5
100
AcDbEntity
  8
0
  6
________________
 62
     7
370
     9
100
AcDbCircle
 10
416.7099999999994
 20
-13.05000000000386
 30
0.0
 40
1.499999999999898
100
AcDbArc
 50
180.0
 51
270.0
  0
LINE
  5
CE
330
B5
100
AcDbEntity
  8
0
  6
________________
 62
   253
370
     9
100
AcDbLine
 10
415.2099999999995
 20
-13.05000000000386
 30
0.0
 11
416.2099999999994
 21
-13.05000000000386
 31
0.0
  0
LINE
  5
CF
330
B5
100
AcDbEntity
  8
0
  6
________________
 62
     7
370
     9
100
AcDbLine
 10
416.2099999999994
 20
-13.55000000000384
 30
0.0
 11
416.2099999999994
 21
-13.05000000000388
 31
0.0
  0
LINE
  5
D0
330
B5
100
AcDbEntity
  8
0
  6
________________
 62
     7
370
     9
100
AcDbLine
 10
416.4099999999994
 20
-13.55000000000382
 30
0.0
 11
416.2099999999994
 21
-13.55000000000382
 31
0.0
  0
LINE
  5
D1
330
B5
100
AcDbEntity
  8
0
  6
________________
 62
     7
370
     9
100
AcDbLine
 10
416.4099999999994
 20
-13.05000000000386
 30
0.0
 11
416.4099999999994
 21
-13.55000000000382
 31
0.0
  0
LINE
  5
D2
330
B5
100
AcDbEntity
  8
0
  6
________________
 62
   253
370
     9
100
AcDbLine
 10
416.4099999999994
 20
-13.05000000000386
 30
0.0
 11
445.5099999999982
 21
-13.05000000000386
 31
0.0
  0
LINE
  5
D3
330
B5
100
AcDbEntity
  8
0
  6
________________
 62
     7
370
     9
100
AcDbLine
 10
445.5099999999981
 20
-13.55000000000384
 30
0.0
 11
445.5099999999981
 21
-13.05000000000388
 31
0.0
  0
LINE
  5
D4
330
B5
100
AcDbEntity
  8
0
  6
________________
 62
     7
370
     9
100
AcDbLine
 10
445.7099999999982
 20
-13.55000000000382
 30
0.0
 11
445.5099999999982
 21
-13.55000000000382
 31
0.0
  0
LINE
  5
D5
330
B5
100
AcDbEntity
  8
0
  6
________________
 62
     7
370
     9
100
AcDbLine
 10
445.7099999999982
 20
-13.05000000000386
 30
0.0
 11
445.7099999999982
 21
-13.55000000000382
 31
0.0
  0
LINE
  5
D6
330
B5
100
AcDbEntity
  8
0
  6
________________
 62
     7
370
     9
100
AcDbLine
 10
416.2099999999994
 20
-13.05000000000386
 30
0.0
 11
416.2099999999994
 21
-4.55000000000455
 31
0.0
  0
LINE
  5
D7
330
B5
100
AcDbEntity
  8
0
  6
________________
 62
     7
370
     9
100
AcDbLine
 10
416.2099999999994
 20
-4.55000000000455
 30
0.0
 11
415.2099999999995
 21
-4.55000000000455
 31
0.0
  0
LINE
  5
D8
330
B5
100
AcDbEntity
  8
0
  6
________________
 62
     7
370
     9
100
AcDbLine
 10
415.2099999999995
 20
-4.55000000000455
 30
0.0
 11
415.2099999999995
 21
-13.05000000000386
 31
0.0
  0
LINE
  5
D9
330
B5
100
AcDbEntity
  8
0
  6
________________
 62
     7
370
     9
100
AcDbLine
 10
445.5099999999982
 20
-13.05000000000386
 30
0.0
 11
445.5099999999982
 21
-4.55000000000455
 31
0.0
  0
LINE
  5
DA
330
B5
100
AcDbEntity
  8
0
  6
________________
 62
     7
370
     9
100
AcDbLine
 10
416.4099999999994
 20
-4.55000000000455
 30
0.0
 11
416.4099999999994
 21
-13.05000000000386
 31
0.0
  0
LINE
  5
DB
330
B5
100
AcDbEntity
  8
0
  6
________________
 62
     7
370
     9
100
AcDbLine
 10
445.5099999999982
 20
-4.55000000000455
 30
0.0
 11
416.4099999999994
 21
-4.55000000000455
 31
0.0
  0
LINE
  5
DC
330
B5
100
AcDbEntity
  8
0
  6
________________
 62
     7
370
     9
100
AcDbLine
 10
446.7099999999982
 20
-4.55000000000455
 30
0.0
 11
446.7099999999982
 21
-13.05000000000386
 31
0.0
  0
LINE
  5
DD
330
B5
100
AcDbEntity
  8
0
  6
________________
 62
     7
370
     9
100
AcDbLine
 10
445.7099999999982
 20
-4.55000000000455
 30
0.0
 11
445.7099999999982
 21
-13.05000000000386
 31
0.0
  0
LINE
  5
DE
330
B5
100
AcDbEntity
  8
0
  6
________________
 62
     7
370
     9
100
AcDbLine
 10
446.7099999999982
 20
-4.55000000000455
 30
0.0
 11
445.7099999999982
 21
-4.55000000000455
 31
0.0
  0
ARC
  5
DF
330
B5
100
AcDbEntity
  8
0
  6
________________
 62
     7
370
     9
100
AcDbCircle
 10
-416.7099999999994
 20
-13.05000000000386
 30
0.0
 40
0.500000000000006
210
0.0
220
0.0
230
-1.0
100
AcDbArc
 50
306.8698976458451
 51
359.9999999999998
  0
ARC
  5
E0
330
B5
100
AcDbEntity
  8
0
  6
________________
 62
     7
370
     9
100
AcDbCircle
 10
-445.2099999999982
 20
-13.05000000000386
 30
0.0
 40
0.5000000000000004
210
0.0
220
0.0
230
-1.0
100
AcDbArc
 50
180.0
 51
233.1301023541549
  0
LINE
  5
E1
330
B5
100
AcDbEntity
  8
0
  6
________________
 62
     7
370
     9
100
AcDbLine
 10
416.2099999999999
 20
-8.300000000004616
 30
0.0
 11
416.4099999999994
 21
-9.166295174859528
 31
0.0
  0
LINE
  5
E2
330
B5
100
AcDbEntity
  8
0
  6
________________
 62
     7
370
     9
100
AcDbLine
 10
416.4099999999994
 20
-8.300000000004616
 30
0.0
 11
416.2099999999999
 21
-8.300000000004616
 31
0.0
  0
LINE
  5
E3
330
B5
100
AcDbEntity
  8
0
  6
________________
 62
     7
370
     9
100
AcDbLine
 10
416.4101620045009
 20
-7.16487322819069
 30
0.0
 11
416.2100049911741
 21
-7.053697552171799
 31
0.0
  0
LINE
  5
E4
330
B5
100
AcDbEntity
  8
0
  6
________________
 62
     7
370
     9
100
AcDbLine
 10
415.2098149742228
 20
-7.191475554008349
 30
0.0
 11
415.0631256764773
 21
-7.333211871176776
 31
0.0
  0
LINE
  5
E5
330
B5
100
AcDbEntity
  8
0
  6
________________
 62
     7
370
     9
100
AcDbLine
 10
445.7099999999982
 20
-12.50000000000389
 30
0.0
 11
445.5099999999982
 21
-12.50000000000389
 31
0.0
  0
LINE
  5
E6
330
B5
100
AcDbEntity
  8
0
  6
________________
 62
     7
370
     9
100
AcDbLine
 10
445.7099999999982
 20
-5.500000000004487
 30
0.0
 11
445.5099999999982
 21
-5.500000000004494
 31
0.0
  0
LINE
  5
E7
330
B5
100
AcDbEntity
  8
0
  6
________________
 62
     7
370
     9
100
AcDbLine
 10
418.209999999998
 20
6.550000000004566
 30
0.0
 11
418.209999999998
 21
6.000000000004668
 31
0.0
  0
LINE
  5
E8
330
B5
100
AcDbEntity
  8
0
  6
________________
 62
   253
370
     9
100
AcDbLine
 10
423.7099999999976
 20
6.550000000004566
 30
0.0
 11
423.7099999999976
 21
6.000000000004668
 31
0.0
  0
LINE
  5
E9
330
B5
100
AcDbEntity
  8
0
  6
________________
 62
     7
370
     9
100
AcDbLine
 10
418.2099999999993
 20
6.000000000004668
 30
0.0
 11
423.7099999999976
 21
6.000000000004668
 31
0.0
  0
LINE
  5
EA
330
B5
100
AcDbEntity
  8
0
  6
________________
 62
     7
370
     9
100
AcDbLine
 10
423.7099999999976
 20
6.000000000004668
 30
0.0
 11
438.7099999999965
 21
6.000000000004668
 31
0.0
  0
LINE
  5
EB
330
B5
100
AcDbEntity
  8
0
  6
________________
 62
     7
370
     9
100
AcDbLine
 10
442.2099999999962
 20
6.550000000004566
 30
0.0
 11
442.2099999999962
 21
6.000000000004668
 31
0.0
  0
LINE
  5
EC
330
B5
100
AcDbEntity
  8
0
  6
________________
 62
     7
370
     9
100
AcDbLine
 10
442.2099999999953
 20
6.000000000004668
 30
0.0
 11
438.7099999999965
 21
6.000000000004668
 31
0.0
  0
LINE
  5
ED
330
B5
100
AcDbEntity
  8
0
  6
________________
 62
   253
370
     9
100
AcDbLine
 10
438.7099999999965
 20
6.000000000004668
 30
0.0
 11
438.7099999999965
 21
6.550000000004566
 31
0.0
  0
LINE
  5
EE
330
B5
100
AcDbEntity
  8
0
  6
________________
 62
   253
370
     9
100
AcDbLine
 10
445.7099999999967
 20
15.05000000000387
 30
0.0
 11
446.7099999999967
 21
15.05000000000387
 31
0.0
  0
LINE
  5
EF
330
B5
100
AcDbEntity
  8
0
  6
________________
 62
     7
370
     9
100
AcDbLine
 10
446.7099999999967
 20
6.550000000004566
 30
0.0
 11
446.7099999999967
 21
15.05000000000387
 31
0.0
  0
LINE
  5
F0
330
B5
100
AcDbEntity
  8
0
  6
________________
 62
     7
370
     9
100
AcDbLine
 10
445.7099999999967
 20
6.550000000004566
 30
0.0
 11
445.7099999999967
 21
15.05000000000387
 31
0.0
  0
LINE
  5
F1
330
B5
100
AcDbEntity
  8
0
  6
________________
 62
     7
370
     9
100
AcDbLine
 10
446.7099999999967
 20
6.550000000004566
 30
0.0
 11
445.7099999999967
 21
6.550000000004566
 31
0.0
  0
LINE
  5
F2
330
B5
100
AcDbEntity
  8
0
  6
________________
 62
     7
370
     9
100
AcDbLine
 10
415.2099999999979
 20
6.550000000004566
 30
0.0
 11
415.2099999999979
 21
15.05000000000387
 31
0.0
  0
LINE
  5
F3
330
B5
100
AcDbEntity
  8
0
  6
________________
 62
   253
370
     9
100
AcDbLine
 10
415.2099999999979
 20
15.05000000000387
 30
0.0
 11
416.209999999998
 21
15.05000000000387
 31
0.0
  0
LINE
  5
F4
330
B5
100
AcDbEntity
  8
0
  6
________________
 62
     7
370
     9
100
AcDbLine
 10
416.209999999998
 20
15.05000000000387
 30
0.0
 11
416.209999999998
 21
6.550000000004566
 31
0.0
  0
LINE
  5
F5
330
B5
100
AcDbEntity
  8
0
  6
________________
 62
     7
370
     9
100
AcDbLine
 10
416.209999999998
 20
6.550000000004566
 30
0.0
 11
415.2099999999979
 21
6.550000000004566
 31
0.0
  0
LINE
  5
F6
330
B5
100
AcDbEntity
  8
0
  6
________________
 62
     7
370
     9
100
AcDbLine
 10
445.7099999999967
 20
15.55000000000384
 30
0.0
 11
445.5099999999968
 21
15.55000000000384
 31
0.0
  0
LINE
  5
F7
330
B5
100
AcDbEntity
  8
0
  6
________________
 62
   253
370
     9
100
AcDbLine
 10
416.4099999999979
 20
15.05000000000387
 30
0.0
 11
445.5099999999968
 21
15.05000000000387
 31
0.0
  0
LINE
  5
F8
330
B5
100
AcDbEntity
  8
0
  6
________________
 62
     7
370
     9
100
AcDbLine
 10
416.4099999999979
 20
15.55000000000384
 30
0.0
 11
416.209999999998
 21
15.55000000000384
 31
0.0
  0
LINE
  5
F9
330
B5
100
AcDbEntity
  8
0
  6
________________
 62
     7
370
     9
100
AcDbLine
 10
445.2099999999967
 20
16.55000000000376
 30
0.0
 11
416.7099999999979
 21
16.55000000000376
 31
0.0
  0
LINE
  5
FA
330
B5
100
AcDbEntity
  8
0
  6
________________
 62
     7
370
     9
100
AcDbLine
 10
445.5099999999968
 20
15.55000000000385
 30
0.0
 11
445.5099999999968
 21
15.05000000000389
 31
0.0
  0
LINE
  5
FB
330
B5
100
AcDbEntity
  8
0
  6
________________
 62
     7
370
     9
100
AcDbLine
 10
445.7099999999967
 20
15.05000000000387
 30
0.0
 11
445.7099999999967
 21
15.55000000000383
 31
0.0
  0
LINE
  5
FC
330
B5
100
AcDbEntity
  8
0
  6
________________
 62
     7
370
     9
100
AcDbLine
 10
416.209999999998
 20
15.55000000000385
 30
0.0
 11
416.209999999998
 21
15.05000000000389
 31
0.0
  0
LINE
  5
FD
330
B5
100
AcDbEntity
  8
0
  6
________________
 62
     7
370
     9
100
AcDbLine
 10
416.4099999999979
 20
15.05000000000387
 30
0.0
 11
416.4099999999979
 21
15.55000000000383
 31
0.0
  0
ARC
  5
FE
330
B5
100
AcDbEntity
  8
0
  6
________________
 62
     7
370
     9
100
AcDbCircle
 10
-416.7099999999979
 20
15.05000000000387
 30
0.0
 40
1.499999999999937
210
0.0
220
0.0
230
-1.0
100
AcDbArc
 50
0.0
 51
90.0
  0
ARC
  5
FF
330
B5
100
AcDbEntity
  8
0
  6
________________
 62
     7
370
     9
100
AcDbCircle
 10
445.2099999999967
 20
15.05000000000387
 30
0.0
 40
1.499999999999937
100
AcDbArc
 50
0.0
 51
90.0
  0
LINE
  5
100
330
B5
100
AcDbEntity
  8
0
  6
________________
 62
     7
370
     9
100
AcDbLine
 10
445.5099999999968
 20
15.05000000000387
 30
0.0
 11
445.5099999999968
 21
6.550000000004566
 31
0.0
  0
LINE
  5
101
330
B5
100
AcDbEntity
  8
0
  6
________________
 62
     7
370
     9
100
AcDbLine
 10
416.4099999999979
 20
6.550000000004566
 30
0.0
 11
416.4099999999979
 21
15.05000000000387
 31
0.0
  0
LINE
  5
102
330
B5
100
AcDbEntity
  8
0
  6
________________
 62
     7
370
     9
100
AcDbLine
 10
445.5099999999968
 20
6.550000000004566
 30
0.0
 11
416.4099999999979
 21
6.550000000004566
 31
0.0
  0
ARC
  5
103
330
B5
100
AcDbEntity
  8
0
  6
________________
 62
     7
370
     9
100
AcDbCircle
 10
416.7099999999979
 20
15.05000000000387
 30
0.0
 40
0.5000000000000115
100
AcDbArc
 50
126.8698976458452
 51
180.0
  0
ARC
  5
104
330
B5
100
AcDbEntity
  8
0
  6
________________
 62
     7
370
     9
100
AcDbCircle
 10
445.2099999999967
 20
15.05000000000387
 30
0.0
 40
0.5000000000000004
100
AcDbArc
 50
0.0
 51
53.13010235415479
  0
LINE
  5
105
330
B5
100
AcDbEntity
  8
0
  6
________________
 62
   253
370
     9
100
AcDbLine
 10
435.7099999999971
 20
6.000000000028635
 30
0.0
 11
435.7099999999971
 21
-3.999999999988666
 31
0.0
  0
LINE
  5
106
330
B5
100
AcDbEntity
  8
0
  6
________________
 62
     7
370
     9
100
AcDbLine
 10
445.4599999999967
 20
-4.499999999994508
 30
0.0
 11
442.2099999999964
 21
-4.499999999994508
 31
0.0
  0
LINE
  5
107
330
B5
100
AcDbEntity
  8
0
  6
________________
 62
     7
370
     9
100
AcDbLine
 10
445.4599999999967
 20
6.550000000004566
 30
0.0
 11
445.4599999999967
 21
-4.499999999994508
 31
0.0
  0
LINE
  5
108
330
B5
100
AcDbEntity
  8
0
  6
________________
 62
     7
370
     9
100
AcDbLine
 10
446.7099999999967
 20
6.550000000004566
 30
0.0
 11
446.7099999999967
 21
-4.499999999994508
 31
0.0
  0
LINE
  5
109
330
B5
100
AcDbEntity
  8
0
  6
________________
 62
     7
370
     9
100
AcDbLine
 10
446.7099999999967
 20
-4.499999999994508
 30
0.0
 11
445.4599999999967
 21
-4.499999999994508
 31
0.0
  0
LINE
  5
10A
330
B5
100
AcDbEntity
  8
0
  6
________________
 62
     7
370
     9
100
AcDbLine
 10
445.7099999999967
 20
14.5000000000039
 30
0.0
 11
445.5099999999968
 21
14.5000000000039
 31
0.0
  0
LINE
  5
10B
330
B5
100
AcDbEntity
  8
0
  6
________________
 62
     7
370
     9
100
AcDbLine
 10
416.2099999999998
 20
10.30000000000458
 30
0.0
 11
416.4099999999979
 21
11.16629517485329
 31
0.0
  0
LINE
  5
10C
330
B5
100
AcDbEntity
  8
0
  6
________________
 62
     7
370
     9
100
AcDbLine
 10
416.4099999999979
 20
10.30000000000458
 30
0.0
 11
416.2099999999998
 21
10.30000000000458
 31
0.0
  0
LINE
  5
10D
330
B5
100
AcDbEntity
  8
0
  6
________________
 62
     7
370
     9
100
AcDbLine
 10
415.0631256764773
 20
9.33321187117668
 30
0.0
 11
415.2098708257957
 21
9.19143166556223
 31
0.0
  0
LINE
  5
10E
330
B5
100
AcDbEntity
  8
0
  6
________________
 62
     7
370
     9
100
AcDbLine
 10
416.2100047678124
 20
9.053697459761963
 30
0.0
 11
416.4101564260529
 21
9.164869231012243
 31
0.0
  0
LINE
  5
10F
330
B5
100
AcDbEntity
  8
0
  6
________________
 62
     7
370
     9
100
AcDbLine
 10
444.6099999999967
 20
-4.55000000000455
 30
0.0
 11
444.6099999999967
 21
-4.499999999994508
 31
0.0
  0
LINE
  5
110
330
B5
100
AcDbEntity
  8
0
  6
________________
 62
     7
370
     9
100
AcDbLine
 10
451.9899999999969
 20
-4.199999999994583
 30
0.0
 11
452.289999999997
 21
-4.199999999994583
 31
0.0
  0
LINE
  5
111
330
B5
100
AcDbEntity
  8
0
  6
________________
 62
     7
370
     9
100
AcDbLine
 10
452.289999999997
 20
7.800000000004442
 30
0.0
 11
451.9899999999969
 21
7.800000000004442
 31
0.0
  0
LINE
  5
112
330
B5
100
AcDbEntity
  8
0
  6
________________
 62
     7
370
     9
100
AcDbLine
 10
451.9899999999969
 20
7.800000000004442
 30
0.0
 11
448.989999999997
 21
4.800000000004689
 31
0.0
  0
LINE
  5
113
330
B5
100
AcDbEntity
  8
0
  6
________________
 62
     7
370
     9
100
AcDbLine
 10
448.989999999997
 20
-1.19999999999483
 30
0.0
 11
451.9899999999969
 21
-4.199999999994583
 31
0.0
  0
LINE
  5
114
330
B5
100
AcDbEntity
  8
0
  6
________________
 62
     7
370
     9
100
AcDbLine
 10
446.710014989997
 20
-1.19999999999483
 30
0.0
 11
448.989999999997
 21
-1.19999999999483
 31
0.0
  0
LINE
  5
115
330
B5
100
AcDbEntity
  8
0
  6
________________
 62
     7
370
     9
100
AcDbLine
 10
448.989999999997
 20
4.800000000004689
 30
0.0
 11
446.710014989997
 21
4.800000000004689
 31
0.0
  0
ARC
  5
116
330
B5
100
AcDbEntity
  8
0
  6
________________
 62
     7
370
     9
100
AcDbCircle
 10
445.9599999999949
 20
10.30000000000458
 30
0.0
 40
1.500000000000006
100
AcDbArc
 50
319.4999999999976
 51
59.99999999990251
  0
ARC
  5
117
330
B5
100
AcDbEntity
  8
0
  6
________________
 62
     7
370
     9
100
AcDbCircle
 10
445.9599999999949
 20
10.30000000000458
 30
0.0
 40
1.499999999999988
100
AcDbArc
 50
99.59406822679595
 51
103.0000000000007
  0
ARC
  5
118
330
B5
100
AcDbEntity
  8
0
  6
________________
 62
     7
370
     9
100
AcDbCircle
 10
445.9599999999967
 20
-8.30000000000427
 30
0.0
 40
1.500000000000015
100
AcDbArc
 50
256.9999999999991
 51
260.4059317731949
  0
ARC
  5
119
330
B5
100
AcDbEntity
  8
0
  6
________________
 62
     7
370
     9
100
AcDbCircle
 10
445.9599999999967
 20
-8.30000000000427
 30
0.0
 40
1.499999999999994
100
AcDbArc
 50
300.0000000000682
 51
40.50000000000239
  0
ARC
  5
11A
330
B5
100
AcDbEntity
  8
0
  6
________________
 62
     7
370
     9
100
AcDbCircle
 10
416.2099999999999
 20
-8.300000000004616
 30
0.0
 40
1.500000000000006
100
AcDbArc
 50
139.4999999999976
 51
228.1896851041674
  0
ARC
  5
11B
330
B5
100
AcDbEntity
  8
0
  6
________________
 62
     7
370
     9
100
AcDbCircle
 10
416.2099999999999
 20
-8.300000000004616
 30
0.0
 40
1.499999999999994
100
AcDbArc
 50
269.9999999999838
 51
277.6622556607537
  0
LINE
  5
11C
330
B5
100
AcDbEntity
  8
0
  6
________________
 62
     7
370
     9
100
AcDbLine
 10
425.7099999999975
 20
6.000000000028635
 30
0.0
 11
425.7099999999975
 21
-3.999999999962991
 31
0.0
  0
ARC
  5
11D
330
B5
100
AcDbEntity
  8
0
  6
________________
 62
     7
370
     9
100
AcDbCircle
 10
416.2099999999998
 20
10.30000000000458
 30
0.0
 40
1.500000000000009
100
AcDbArc
 50
82.33774433930164
 51
90.0
  0
ARC
  5
11E
330
B5
100
AcDbEntity
  8
0
  6
________________
 62
     7
370
     9
100
AcDbCircle
 10
416.2099999999998
 20
10.30000000000458
 30
0.0
 40
1.500000000000009
100
AcDbArc
 50
131.8103148959061
 51
220.5000000000028
  0
ENDBLK
  5
122
330
B5
100
AcDbEntity
  8
0
100
AcDbBlockEnd
  0
BLOCK
  5
190
330
120
100
AcDbEntity
  8
0
100
AcDbBlockBegin
  2
D_FRAME_VIEW@426
 70
     0
 10
0.0
 20
0.0
 30
0.0
  3
D_FRAME_VIEW@426
  1

  0
ARC
  5
123
330
120
100
AcDbEntity
  8
0
  6
________________
 62
   253
370
     9
100
AcDbCircle
 10
-554.1999999999952
 20
169.2499999999986
 30
0.0
 40
3.000000000000003
210
0.0
220
0.0
230
-1.0
100
AcDbArc
 50
270.0
 51
180.0
  0
ARC
  5
124
330
120
100
AcDbEntity
  8
0
  6
________________
 62
   253
370
     9
100
AcDbCircle
 10
-554.1999999999952
 20
119.2500000000048
 30
0.0
 40
3.000000000000003
210
0.0
220
0.0
230
-1.0
100
AcDbArc
 50
270.0
 51
180.0
  0
CIRCLE
  5
125
330
120
100
AcDbEntity
  8
0
  6
________________
 62
     7
370
     9
100
AcDbCircle
 10
554.1999999999952
 20
119.2499999999816
 30
0.0
 40
2.249999999999724
  0
CIRCLE
  5
126
330
120
100
AcDbEntity
  8
0
  6
________________
 62
     7
370
     9
100
AcDbCircle
 10
554.1999999999952
 20
169.2499999999755
 30
0.0
 40
2.249999999999946
  0
LINE
  5
127
330
120
100
AcDbEntity
  8
0
  6
________________
 62
   253
370
     9
100
AcDbLine
 10
559.9999999999887
 20
88.75000000000612
 30
0.0
 11
560.5500000000046
 21
88.75000000000612
 31
0.0
  0
LINE
  5
128
330
120
100
AcDbEntity
  8
0
  6
________________
 62
     7
370
     9
100
AcDbLine
 10
559.9999999999887
 20
88.75000000000612
 30
0.0
 11
559.9999999999887
 21
103.750000000004
 31
0.0
  0
LINE
  5
129
330
120
100
AcDbEntity
  8
0
  6
________________
 62
     7
370
     9
100
AcDbLine
 10
560.5500000000045
 20
103.750000000004
 30
0.0
 11
559.9999999999886
 21
103.750000000004
 31
0.0
  0
LINE
  5
12A
330
120
100
AcDbEntity
  8
0
  6
________________
 62
     7
370
     9
100
AcDbLine
 10
559.9999999999887
 20
83.2500000000069
 30
0.0
 11
560.5500000000045
 21
83.2500000000069
 31
0.0
  0
LINE
  5
12B
330
120
100
AcDbEntity
  8
0
  6
________________
 62
     7
370
     9
100
AcDbLine
 10
559.9999999999887
 20
83.25000000000715
 30
0.0
 11
559.9999999999887
 21
88.75000000000612
 31
0.0
  0
LINE
  5
12C
330
120
100
AcDbEntity
  8
0
  6
________________
 62
     7
370
     9
100
AcDbLine
 10
560.5500000000045
 20
188.7499999999921
 30
0.0
 11
559.9999999999886
 21
188.7499999999921
 31
0.0
  0
LINE
  5
12D
330
120
100
AcDbEntity
  8
0
  6
________________
 62
     7
370
     9
100
AcDbLine
 10
559.9999999999887
 20
115.7500000000023
 30
0.0
 11
560.5500000000046
 21
115.7500000000023
 31
0.0
  0
LINE
  5
12E
330
120
100
AcDbEntity
  8
0
  6
________________
 62
     7
370
     9
100
AcDbLine
 10
559.9999999999887
 20
115.7500000000023
 30
0.0
 11
559.9999999999887
 21
188.7499999999921
 31
0.0
  0
LINE
  5
12F
330
120
100
AcDbEntity
  8
0
  6
________________
 62
   253
370
     9
100
AcDbLine
 10
559.9999999999887
 20
227.7499999999866
 30
0.0
 11
560.5500000000046
 21
227.7499999999866
 31
0.0
  0
LINE
  5
130
330
120
100
AcDbEntity
  8
0
  6
________________
 62
     7
370
     9
100
AcDbLine
 10
559.9999999999887
 20
200.7499999999904
 30
0.0
 11
560.5500000000046
 21
200.7499999999904
 31
0.0
  0
LINE
  5
131
330
120
100
AcDbEntity
  8
0
  6
________________
 62
     7
370
     9
100
AcDbLine
 10
559.9999999999887
 20
200.7499999999904
 30
0.0
 11
559.9999999999887
 21
227.7499999999866
 31
0.0
  0
LINE
  5
132
330
120
100
AcDbEntity
  8
0
  6
________________
 62
     7
370
     9
100
AcDbLine
 10
559.9999999999887
 20
233.2499999999859
 30
0.0
 11
560.5500000000045
 21
233.2499999999859
 31
0.0
  0
LINE
  5
133
330
120
100
AcDbEntity
  8
0
  6
________________
 62
     7
370
     9
100
AcDbLine
 10
559.9999999999887
 20
227.7499999999866
 30
0.0
 11
559.9999999999887
 21
233.2499999999851
 31
0.0
  0
LINE
  5
134
330
120
100
AcDbEntity
  8
0
  6
________________
 62
     7
370
     9
100
AcDbLine
 10
559.9999999999887
 20
115.7500000000023
 30
0.0
 11
559.9999999999887
 21
103.750000000004
 31
0.0
  0
LINE
  5
135
330
120
100
AcDbEntity
  8
0
  6
________________
 62
     7
370
     9
100
AcDbLine
 10
559.9999999999887
 20
200.7499999999904
 30
0.0
 11
559.9999999999887
 21
188.7499999999921
 31
0.0
  0
LINE
  5
136
330
120
100
AcDbEntity
  8
0
  6
________________
 62
     7
370
     9
100
AcDbLine
 10
569.0500000000038
 20
81.75000000000983
 30
0.0
 11
570.5500000000033
 21
81.75000000000983
 31
0.0
  0
LINE
  5
137
330
120
100
AcDbEntity
  8
0
  6
________________
 62
   253
370
     9
100
AcDbLine
 10
569.0500000000038
 20
81.75000000000988
 30
0.0
 11
569.0500000000038
 21
236.2499999999908
 31
0.0
  0
ARC
  5
138
330
120
100
AcDbEntity
  8
0
  6
________________
 62
     7
370
     9
100
AcDbCircle
 10
-569.0500000000038
 20
234.749999999991
 30
0.0
 40
1.499999999999854
210
0.0
220
0.0
230
-1.0
100
AcDbArc
 50
90.0
 51
180.0
  0
LINE
  5
139
330
120
100
AcDbEntity
  8
0
  6
________________
 62
     7
370
     9
100
AcDbLine
 10
570.5500000000038
 20
234.749999999991
 30
0.0
 11
570.5500000000038
 21
81.75000000000982
 31
0.0
  0
CIRCLE
  5
13A
330
120
100
AcDbEntity
  8
0
  6
________________
 62
     7
370
     9
100
AcDbCircle
 10
564.3000000000043
 20
109.7500000000064
 30
0.0
 40
1.749999999999863
  0
LINE
  5
13B
330
120
100
AcDbEntity
  8
0
  6
________________
 62
     7
370
     9
100
AcDbLine
 10
560.5500000000045
 20
236.2499999999908
 30
0.0
 11
560.5500000000045
 21
81.75000000000989
 31
0.0
  0
LINE
  5
13C
330
120
100
AcDbEntity
  8
0
  6
________________
 62
     7
370
     9
100
AcDbLine
 10
560.5500000000045
 20
236.2499999999908
 30
0.0
 11
569.0500000000038
 21
236.2499999999908
 31
0.0
  0
CIRCLE
  5
13D
330
120
100
AcDbEntity
  8
0
  6
________________
 62
     7
370
     9
100
AcDbCircle
 10
564.3000000000043
 20
194.749999999996
 30
0.0
 40
1.749999999999835
  0
LINE
  5
13E
330
120
100
AcDbEntity
  8
0
  6
________________
 62
     7
370
     9
100
AcDbLine
 10
560.5500000000045
 20
81.75000000000988
 30
0.0
 11
569.0500000000038
 21
81.75000000000988
 31
0.0
  0
LINE
  5
13F
330
120
100
AcDbEntity
  8
0
  6
________________
 62
     7
370
     9
100
AcDbLine
 10
563.053699926662
 20
195.5847072103809
 30
0.0
 11
562.9777372904176
 21
195.3462125149822
 31
0.0
  0
LWPOLYLINE
  5
140
330
120
100
AcDbEntity
  8
0
  6
________________
 62
     7
370
     9
100
AcDbPolyline
 90
       19
 70
     0
 43
0.0
 10
563.3332118711768
 20
194.7499999999996
 10
563.3263990381314
 20
194.7436754025105
 10
563.2884374053377
 20
194.7074952704418
 10
563.2521045256756
 20
194.6711623234972
 10
563.2176154324592
 20
194.6347999294207
 10
563.1848353929798
 20
194.5981562622303
 10
563.1541221535032
 20
194.5615149558055
 10
563.1253687067685
 20
194.5246232648624
 10
563.0989031510837
 20
194.4877680122535
 10
563.0747490665287
 20
194.4508572161365
 10
563.0540178040812
 20
194.4157084210465
 10
563.0355712209574
 20
194.3805371032182
 10
563.019549703359
 20
194.3454689150649
 10
563.0059295204379
 20
194.310254650391
 10
562.9949108194058
 20
194.2751808706639
 10
562.9865050745741
 20
194.2399997351029
 10
562.9808695922856
 20
194.205000298596
 10
562.9780590019171
 20
194.1700954845996
 10
562.9777372904124
 20
194.1537869559255
  0
LINE
  5
141
330
120
100
AcDbEntity
  8
0
  6
________________
 62
     7
370
     9
100
AcDbLine
 10
562.9777372904124
 20
194.1537869559255
 30
0.0
 11
563.0536997644482
 21
193.9152930318065
 31
0.0
  0
LWPOLYLINE
  5
142
330
120
100
AcDbEntity
  8
0
  6
________________
 62
     7
370
     9
100
AcDbPolyline
 90
       19
 70
     0
 43
0.0
 10
562.9777372904176
 20
195.3462125149822
 10
562.9780590019171
 20
195.3299045153914
 10
562.9807246760022
 20
195.2962092003512
 10
562.9860927168274
 20
195.2620825675412
 10
562.9941354069956
 20
195.2276489200633
 10
563.0049175536951
 20
195.192654819428
 10
563.0183526019483
 20
195.1573849829077
 10
563.0345356559827
 20
195.1215806976837
 10
563.0533275984166
 20
195.0855320867806
 10
563.0747490665287
 20
195.0491427838545
 10
563.0980677749311
 20
195.0134504201257
 10
563.1238058780426
 20
194.9774677961728
 10
563.1518358801545
 20
194.9413180186016
 10
563.1823247261938
 20
194.9047478358998
 10
563.2150025481081
 20
194.8680404934495
 10
563.2500590071754
 20
194.8309396973626
 10
563.2871796972805
 20
194.7937327288654
 10
563.3263990381314
 20
194.7563245974805
 10
563.3332118711768
 20
194.7499999999914
  0
LINE
  5
143
330
120
100
AcDbEntity
  8
0
  6
________________
 62
     7
370
     9
100
AcDbLine
 10
564.3000000000047
 20
196.2499999999953
 30
0.0
 11
564.3000000000047
 21
196.4999999999941
 31
0.0
  0
LINE
  5
144
330
120
100
AcDbEntity
  8
0
  6
________________
 62
     7
370
     9
100
AcDbLine
 10
564.3000000000047
 20
192.9999999999954
 30
0.0
 11
564.3000000000047
 21
193.2499999999957
 31
0.0
  0
LINE
  5
145
330
120
100
AcDbEntity
  8
0
  6
________________
 62
     7
370
     9
100
AcDbLine
 10
563.2465227527657
 20
193.3526146953815
 30
0.0
 11
563.2465227527657
 21
193.6822052212355
 31
0.0
  0
LINE
  5
146
330
120
100
AcDbEntity
  8
0
  6
________________
 62
     7
370
     9
100
AcDbLine
 10
563.2465227527657
 20
195.817794778753
 30
0.0
 11
563.2465227527657
 21
196.1473853046079
 31
0.0
  0
LINE
  5
147
330
120
100
AcDbEntity
  8
0
  6
________________
 62
     7
370
     9
100
AcDbLine
 10
563.053699926662
 20
110.5847072103913
 30
0.0
 11
562.9777372904176
 21
110.3462125149926
 31
0.0
  0
LWPOLYLINE
  5
148
330
120
100
AcDbEntity
  8
0
  6
________________
 62
     7
370
     9
100
AcDbPolyline
 90
       19
 70
     0
 43
0.0
 10
563.3332118711768
 20
109.75000000001
 10
563.3263990381314
 20
109.743675402521
 10
563.2884374053377
 20
109.7074952704522
 10
563.2521045256756
 20
109.6711623235077
 10
563.2176154324592
 20
109.6347999294312
 10
563.1848353929798
 20
109.5981562622408
 10
563.1541221535032
 20
109.561514955816
 10
563.1253687067685
 20
109.5246232648728
 10
563.0989031510837
 20
109.4877680122639
 10
563.0747490665287
 20
109.4508572161469
 10
563.0540178040812
 20
109.4157084210569
 10
563.0355712209574
 20
109.3805371032286
 10
563.019549703359
 20
109.3454689150753
 10
563.0059295204379
 20
109.3102546504015
 10
562.9949108194058
 20
109.2751808706744
 10
562.9865050745741
 20
109.2399997351133
 10
562.9808695922856
 20
109.2050002986064
 10
562.9780590019171
 20
109.17009548461
 10
562.9777372904124
 20
109.153786955936
  0
LINE
  5
149
330
120
100
AcDbEntity
  8
0
  6
________________
 62
     7
370
     9
100
AcDbLine
 10
562.9777372904124
 20
109.153786955936
 30
0.0
 11
563.0536997644482
 21
108.9152930318169
 31
0.0
  0
LWPOLYLINE
  5
14A
330
120
100
AcDbEntity
  8
0
  6
________________
 62
     7
370
     9
100
AcDbPolyline
 90
       19
 70
     0
 43
0.0
 10
562.9777372904176
 20
110.3462125149926
 10
562.9780590019171
 20
110.3299045154019
 10
562.9807246760022
 20
110.2962092003616
 10
562.9860927168274
 20
110.2620825675517
 10
562.9941354069956
 20
110.2276489200737
 10
563.0049175536951
 20
110.1926548194385
 10
563.0183526019483
 20
110.1573849829181
 10
563.0345356559827
 20
110.1215806976942
 10
563.0533275984166
 20
110.0855320867911
 10
563.0747490665287
 20
110.0491427838649
 10
563.0980677749311
 20
110.0134504201361
 10
563.1238058780426
 20
109.9774677961833
 10
563.1518358801545
 20
109.941318018612
 10
563.1823247261938
 20
109.9047478359103
 10
563.2150025481081
 20
109.8680404934599
 10
563.2500590071754
 20
109.830939697373
 10
563.2871796972805
 20
109.7937327288759
 10
563.3263990381314
 20
109.7563245974909
 10
563.3332118711768
 20
109.7500000000018
  0
LINE
  5
14B
330
120
100
AcDbEntity
  8
0
  6
________________
 62
     7
370
     9
100
AcDbLine
 10
564.3000000000047
 20
111.2500000000058
 30
0.0
 11
564.3000000000047
 21
111.5000000000045
 31
0.0
  0
LINE
  5
14C
330
120
100
AcDbEntity
  8
0
  6
________________
 62
     7
370
     9
100
AcDbLine
 10
564.3000000000047
 20
108.0000000000058
 30
0.0
 11
564.3000000000047
 21
108.2500000000061
 31
0.0
  0
LINE
  5
14D
330
120
100
AcDbEntity
  8
0
  6
________________
 62
     7
370
     9
100
AcDbLine
 10
563.2465227527657
 20
108.352614695392
 30
0.0
 11
563.2465227527657
 21
108.6822052212459
 31
0.0
  0
LINE
  5
14E
330
120
100
AcDbEntity
  8
0
  6
________________
 62
     7
370
     9
100
AcDbLine
 10
563.2465227527657
 20
110.8177947787635
 30
0.0
 11
563.2465227527657
 21
111.1473853046184
 31
0.0
  0
LINE
  5
14F
330
120
100
AcDbEntity
  8
0
  6
________________
 62
   253
370
     9
100
AcDbLine
 10
549.4499999999955
 20
88.75000000001863
 30
0.0
 11
549.9999999999953
 21
88.75000000001863
 31
0.0
  0
LINE
  5
150
330
120
100
AcDbEntity
  8
0
  6
________________
 62
     7
370
     9
100
AcDbLine
 10
549.9999999999953
 20
88.75000000001863
 30
0.0
 11
549.9999999999953
 21
103.7500000000151
 31
0.0
  0
LINE
  5
151
330
120
100
AcDbEntity
  8
0
  6
________________
 62
     7
370
     9
100
AcDbLine
 10
549.9999999999953
 20
103.7500000000151
 30
0.0
 11
549.4499999999955
 21
103.7500000000151
 31
0.0
  0
LINE
  5
152
330
120
100
AcDbEntity
  8
0
  6
________________
 62
   253
370
     9
100
AcDbLine
 10
549.4499999999955
 20
227.7499999999862
 30
0.0
 11
549.9999999999953
 21
227.7499999999862
 31
0.0
  0
LINE
  5
153
330
120
100
AcDbEntity
  8
0
  6
________________
 62
     7
370
     9
100
AcDbLine
 10
549.4499999999955
 20
200.7499999999925
 30
0.0
 11
549.9999999999953
 21
200.7499999999925
 31
0.0
  0
LINE
  5
154
330
120
100
AcDbEntity
  8
0
  6
________________
 62
     7
370
     9
100
AcDbLine
 10
549.9999999999953
 20
200.7499999999925
 30
0.0
 11
549.9999999999953
 21
227.7499999999862
 31
0.0
  0
LINE
  5
155
330
120
100
AcDbEntity
  8
0
  6
________________
 62
     7
370
     9
100
AcDbLine
 10
549.9999999999953
 20
188.7499999999953
 30
0.0
 11
549.4499999999955
 21
188.7499999999953
 31
0.0
  0
LINE
  5
156
330
120
100
AcDbEntity
  8
0
  6
________________
 62
     7
370
     9
100
AcDbLine
 10
549.9999999999953
 20
115.7500000000123
 30
0.0
 11
549.9999999999953
 21
188.7499999999953
 31
0.0
  0
LINE
  5
157
330
120
100
AcDbEntity
  8
0
  6
________________
 62
     7
370
     9
100
AcDbLine
 10
549.4499999999955
 20
115.7500000000123
 30
0.0
 11
549.9999999999953
 21
115.7500000000123
 31
0.0
  0
LINE
  5
158
330
120
100
AcDbEntity
  8
0
  6
________________
 62
     7
370
     9
100
AcDbLine
 10
549.4499999999955
 20
83.25000000001992
 30
0.0
 11
549.9999999999953
 21
83.25000000001992
 31
0.0
  0
LINE
  5
159
330
120
100
AcDbEntity
  8
0
  6
________________
 62
     7
370
     9
100
AcDbLine
 10
549.9999999999953
 20
83.25000000002034
 30
0.0
 11
549.9999999999953
 21
88.75000000001863
 31
0.0
  0
LINE
  5
15A
330
120
100
AcDbEntity
  8
0
  6
________________
 62
     7
370
     9
100
AcDbLine
 10
549.4499999999955
 20
233.2499999999849
 30
0.0
 11
549.9999999999953
 21
233.2499999999849
 31
0.0
  0
LINE
  5
15B
330
120
100
AcDbEntity
  8
0
  6
________________
 62
     7
370
     9
100
AcDbLine
 10
549.9999999999953
 20
227.7499999999862
 30
0.0
 11
549.9999999999953
 21
233.2499999999836
 31
0.0
  0
LINE
  5
15C
330
120
100
AcDbEntity
  8
0
  6
________________
 62
     7
370
     9
100
AcDbLine
 10
549.9999999999953
 20
115.7500000000123
 30
0.0
 11
549.9999999999953
 21
103.7500000000151
 31
0.0
  0
LINE
  5
15D
330
120
100
AcDbEntity
  8
0
  6
________________
 62
     7
370
     9
100
AcDbLine
 10
549.9999999999953
 20
200.7499999999925
 30
0.0
 11
549.9999999999953
 21
188.7499999999953
 31
0.0
  0
CIRCLE
  5
15E
330
120
100
AcDbEntity
  8
0
  6
________________
 62
     7
370
     9
100
AcDbCircle
 10
-545.6999999999958
 20
109.750000000006
 30
0.0
 40
1.749999999999863
210
0.0
220
0.0
230
-1.0
  0
LINE
  5
15F
330
120
100
AcDbEntity
  8
0
  6
________________
 62
     7
370
     9
100
AcDbLine
 10
549.4499999999955
 20
236.2499999999904
 30
0.0
 11
540.9499999999963
 21
236.2499999999904
 31
0.0
  0
LINE
  5
160
330
120
100
AcDbEntity
  8
0
  6
________________
 62
     7
370
     9
100
AcDbLine
 10
549.4499999999955
 20
236.2499999999904
 30
0.0
 11
549.4499999999955
 21
81.75000000000948
 31
0.0
  0
LINE
  5
161
330
120
100
AcDbEntity
  8
0
  6
________________
 62
     7
370
     9
100
AcDbLine
 10
549.4499999999955
 20
81.75000000000946
 30
0.0
 11
540.9499999999963
 21
81.75000000000946
 31
0.0
  0
LINE
  5
162
330
120
100
AcDbEntity
  8
0
  6
________________
 62
   253
370
     9
100
AcDbLine
 10
540.9499999999962
 20
81.75000000000946
 30
0.0
 11
540.9499999999962
 21
236.2499999999904
 31
0.0
  0
CIRCLE
  5
163
330
120
100
AcDbEntity
  8
0
  6
________________
 62
     7
370
     9
100
AcDbCircle
 10
-545.6999999999958
 20
194.7499999999955
 30
0.0
 40
1.749999999999863
210
0.0
220
0.0
230
-1.0
  0
ARC
  5
164
330
120
100
AcDbEntity
  8
0
  6
________________
 62
     7
370
     9
100
AcDbCircle
 10
540.9499999999962
 20
234.7499999999906
 30
0.0
 40
1.499999999999815
100
AcDbArc
 50
90.0
 51
180.0
  0
LINE
  5
165
330
120
100
AcDbEntity
  8
0
  6
________________
 62
     7
370
     9
100
AcDbLine
 10
539.4499999999962
 20
234.7499999999906
 30
0.0
 11
539.4499999999962
 21
81.75000000000945
 31
0.0
  0
LINE
  5
166
330
120
100
AcDbEntity
  8
0
  6
________________
 62
     7
370
     9
100
AcDbLine
 10
540.9499999999962
 20
81.75000000000946
 30
0.0
 11
539.4499999999966
 21
81.75000000000946
 31
0.0
  0
LINE
  5
167
330
120
100
AcDbEntity
  8
0
  6
________________
 62
   253
370
     9
100
AcDbLine
 10
549.9999999999953
 20
207.9437525019957
 30
0.0
 11
559.9999999999887
 21
207.9437525019958
 31
0.0
  0
LINE
  5
168
330
120
100
AcDbEntity
  8
0
  6
________________
 62
     7
370
     9
100
AcDbLine
 10
549.9999999999953
 20
225.7499999999916
 30
0.0
 11
559.9999999999887
 21
225.7499999999916
 31
0.0
  0
LINE
  5
169
330
120
100
AcDbEntity
  8
0
  6
________________
 62
   253
370
     9
100
AcDbLine
 10
559.9999999999887
 20
203.2600040031976
 30
0.0
 11
549.9999999999953
 21
203.2600040031975
 31
0.0
  0
CIRCLE
  5
16A
330
120
100
AcDbEntity
  8
0
  6
________________
 62
     7
370
     9
100
AcDbCircle
 10
554.1999999999952
 20
119.2500000000048
 30
0.0
 40
2.499999999999808
  0
CIRCLE
  5
16B
330
120
100
AcDbEntity
  8
0
  6
________________
 62
     7
370
     9
100
AcDbCircle
 10
554.1999999999952
 20
169.2499999999986
 30
0.0
 40
2.49999999999978
  0
LINE
  5
16C
330
120
100
AcDbEntity
  8
0
  6
________________
 62
     7
370
     9
100
AcDbLine
 10
560.4999999999945
 20
83.2500000000069
 30
0.0
 11
560.4999999999945
 21
81.7500000000095
 31
0.0
  0
LINE
  5
16D
330
120
100
AcDbEntity
  8
0
  6
________________
 62
     7
370
     9
100
AcDbLine
 10
549.4499999999955
 20
81.75000000000941
 30
0.0
 11
560.4999999999947
 21
81.7500000000095
 31
0.0
  0
LINE
  5
16E
330
120
100
AcDbEntity
  8
0
  6
________________
 62
     7
370
     9
100
AcDbLine
 10
546.9463000733375
 20
108.9152927896186
 30
0.0
 11
547.0222627095833
 21
109.1537874850162
 31
0.0
  0
LWPOLYLINE
  5
16F
330
120
100
AcDbEntity
  8
0
  6
________________
 62
     7
370
     9
100
AcDbPolyline
 90
       19
 70
     0
 43
0.0
 10
546.6667881288281
 20
109.7500000000055
 10
546.6736009618694
 20
109.7563245974909
 10
546.7115625946631
 20
109.7925047295596
 10
546.7478954743254
 20
109.8288376765042
 10
546.7823845675417
 20
109.8652000705807
 10
546.8151646070212
 20
109.9018437377711
 10
546.8458778464977
 20
109.9384850441959
 10
546.8746312932325
 20
109.9753767351391
 10
546.9010968489172
 20
110.012231987748
 10
546.9252509334722
 20
110.0491427838649
 10
546.9459821959197
 20
110.084291578955
 10
546.9644287790436
 20
110.1194628967832
 10
546.9804502966421
 20
110.1545310849366
 10
546.994070479563
 20
110.1897453496104
 10
547.0050891805951
 20
110.2248191293375
 10
547.0134949254268
 20
110.2600002648986
 10
547.0191304077155
 20
110.2949997014055
 10
547.021940998084
 20
110.3299045154019
 10
547.0222627095886
 20
110.346213044079
  0
LINE
  5
170
330
120
100
AcDbEntity
  8
0
  6
________________
 62
     7
370
     9
100
AcDbLine
 10
547.0222627095886
 20
110.346213044079
 30
0.0
 11
546.9463002355515
 21
110.584706968197
 31
0.0
  0
LWPOLYLINE
  5
171
330
120
100
AcDbEntity
  8
0
  6
________________
 62
     7
370
     9
100
AcDbPolyline
 90
       19
 70
     0
 43
0.0
 10
547.0222627095833
 20
109.1537874850162
 10
547.021940998084
 20
109.17009548461
 10
547.0192753239988
 20
109.2037907996502
 10
547.0139072831737
 20
109.2379174324602
 10
547.0058645930054
 20
109.2723510799382
 10
546.995082446306
 20
109.3073451805734
 10
546.9816473980528
 20
109.3426150170937
 10
546.9654643440183
 20
109.3784193023177
 10
546.9466724015845
 20
109.4144679132208
 10
546.9252509334722
 20
109.450857216147
 10
546.90193222507
 20
109.4865495798758
 10
546.8761941219583
 20
109.5225322038286
 10
546.8481641198465
 20
109.5586819813999
 10
546.8176752738071
 20
109.5952521641016
 10
546.7849974518928
 20
109.631959506552
 10
546.7499409928256
 20
109.6690603026389
 10
546.7128203027204
 20
109.706267271136
 10
546.6736009618694
 20
109.743675402521
 10
546.6667881288281
 20
109.7500000000064
  0
LINE
  5
172
330
120
100
AcDbEntity
  8
0
  6
________________
 62
     7
370
     9
100
AcDbLine
 10
545.6999999999958
 20
108.2500000000061
 30
0.0
 11
545.6999999999958
 21
108.0000000000079
 31
0.0
  0
LINE
  5
173
330
120
100
AcDbEntity
  8
0
  6
________________
 62
     7
370
     9
100
AcDbLine
 10
545.6999999999958
 20
111.5000000000066
 30
0.0
 11
545.6999999999958
 21
111.2500000000058
 31
0.0
  0
LINE
  5
174
330
120
100
AcDbEntity
  8
0
  6
________________
 62
     7
370
     9
100
AcDbLine
 10
546.7534772472351
 20
111.1473853046198
 30
0.0
 11
546.7534772472351
 21
110.817794778767
 31
0.0
  0
LINE
  5
175
330
120
100
AcDbEntity
  8
0
  6
________________
 62
     7
370
     9
100
AcDbLine
 10
546.7534772472351
 20
108.6822052212474
 30
0.0
 11
546.7534772472351
 21
108.3526146953947
 31
0.0
  0
LINE
  5
176
330
120
100
AcDbEntity
  8
0
  6
________________
 62
     7
370
     9
100
AcDbLine
 10
546.946300073338
 20
193.9152927896101
 30
0.0
 11
547.0222627095824
 21
194.1537874850088
 31
0.0
  0
LWPOLYLINE
  5
177
330
120
100
AcDbEntity
  8
0
  6
________________
 62
     7
370
     9
100
AcDbPolyline
 90
       19
 70
     0
 43
0.0
 10
546.6667881288234
 20
194.7499999999914
 10
546.6736009618687
 20
194.7563245974805
 10
546.7115625946624
 20
194.7925047295492
 10
546.7478954743247
 20
194.8288376764938
 10
546.7823845675409
 20
194.8652000705703
 10
546.8151646070203
 20
194.9018437377607
 10
546.8458778464968
 20
194.9384850441855
 10
546.8746312932316
 20
194.9753767351287
 10
546.9010968489163
 20
195.0122319877375
 10
546.9252509334714
 20
195.0491427838545
 10
546.9459821959189
 20
195.0842915789445
 10
546.9644287790427
 20
195.1194628967728
 10
546.9804502966412
 20
195.1545310849261
 10
546.9940704795622
 20
195.1897453495999
 10
547.0050891805942
 20
195.2248191293271
 10
547.0134949254259
 20
195.2600002648881
 10
547.0191304077146
 20
195.294999701395
 10
547.021940998083
 20
195.3299045153914
 10
547.0222627095876
 20
195.3462130440655
  0
LINE
  5
178
330
120
100
AcDbEntity
  8
0
  6
________________
 62
     7
370
     9
100
AcDbLine
 10
547.0222627095876
 20
195.3462130440655
 30
0.0
 11
546.9463002355519
 21
195.5847069681845
 31
0.0
  0
LWPOLYLINE
  5
179
330
120
100
AcDbEntity
  8
0
  6
________________
 62
     7
370
     9
100
AcDbPolyline
 90
       19
 70
     0
 43
0.0
 10
547.0222627095824
 20
194.1537874850088
 10
547.021940998083
 20
194.1700954845996
 10
547.0192753239979
 20
194.2037907996398
 10
547.0139072831727
 20
194.2379174324498
 10
547.0058645930045
 20
194.2723510799277
 10
546.995082446305
 20
194.307345180563
 10
546.9816473980518
 20
194.3426150170833
 10
546.9654643440174
 20
194.3784193023073
 10
546.9466724015836
 20
194.4144679132104
 10
546.9252509334714
 20
194.4508572161365
 10
546.9019322250691
 20
194.4865495798653
 10
546.8761941219574
 20
194.5225322038182
 10
546.8481641198456
 20
194.5586819813894
 10
546.8176752738063
 20
194.5952521640912
 10
546.7849974518919
 20
194.6319595065415
 10
546.7499409928247
 20
194.6690603026284
 10
546.7128203027196
 20
194.7062672711256
 10
546.6736009618687
 20
194.7436754025105
 10
546.6667881288234
 20
194.7499999999995
  0
LINE
  5
17A
330
120
100
AcDbEntity
  8
0
  6
________________
 62
     7
370
     9
100
AcDbLine
 10
545.6999999999954
 20
193.2499999999957
 30
0.0
 11
545.6999999999954
 21
192.9999999999974
 31
0.0
  0
LINE
  5
17B
330
120
100
AcDbEntity
  8
0
  6
________________
 62
     7
370
     9
100
AcDbLine
 10
545.6999999999954
 20
196.4999999999961
 30
0.0
 11
545.6999999999954
 21
196.2499999999953
 31
0.0
  0
LINE
  5
17C
330
120
100
AcDbEntity
  8
0
  6
________________
 62
     7
370
     9
100
AcDbLine
 10
546.7534772472344
 20
196.1473853046099
 30
0.0
 11
546.7534772472344
 21
195.8177947787555
 31
0.0
  0
LINE
  5
17D
330
120
100
AcDbEntity
  8
0
  6
________________
 62
     7
370
     9
100
AcDbLine
 10
546.7534772472344
 20
193.682205221238
 30
0.0
 11
546.7534772472344
 21
193.3526146953836
 31
0.0
  0
ARC
  5
17E
330
120
100
AcDbEntity
  8
0
  6
________________
 62
     7
370
     9
100
AcDbCircle
 10
564.3000000000047
 20
194.7499999999955
 30
0.0
 40
1.500000000000001
100
AcDbArc
 50
90.00000000000043
 51
146.1876725454859
  0
ARC
  5
17F
330
120
100
AcDbEntity
  8
0
  6
________________
 62
     7
370
     9
100
AcDbCircle
 10
564.3000000000047
 20
194.7499999999955
 30
0.0
 40
1.500000000000001
100
AcDbArc
 50
270.0
 51
90.0000000000004
  0
ARC
  5
180
330
120
100
AcDbEntity
  8
0
  6
________________
 62
     7
370
     9
100
AcDbCircle
 10
564.3000000000047
 20
194.7499999999955
 30
0.0
 40
1.499999999999998
100
AcDbArc
 50
213.8123088895745
 51
270.0
  0
LINE
  5
181
330
120
100
AcDbEntity
  8
0
  6
________________
 62
     7
370
     9
100
AcDbLine
 10
562.9777372903944
 20
195.3462004261893
 30
0.0
 11
562.9777372903944
 21
194.1537976712
 31
0.0
  0
ARC
  5
182
330
120
100
AcDbEntity
  8
0
  6
________________
 62
     7
370
     9
100
AcDbCircle
 10
564.3000000000047
 20
109.7500000000059
 30
0.0
 40
1.500000000000001
100
AcDbArc
 50
90.00000000000043
 51
146.1876725454859
  0
ARC
  5
183
330
120
100
AcDbEntity
  8
0
  6
________________
 62
     7
370
     9
100
AcDbCircle
 10
564.3000000000047
 20
109.7500000000059
 30
0.0
 40
1.500000000000001
100
AcDbArc
 50
270.0
 51
90.0000000000004
  0
ARC
  5
184
330
120
100
AcDbEntity
  8
0
  6
________________
 62
     7
370
     9
100
AcDbCircle
 10
564.3000000000047
 20
109.7500000000059
 30
0.0
 40
1.499999999999998
100
AcDbArc
 50
213.8123088895747
 51
270.0
  0
LINE
  5
185
330
120
100
AcDbEntity
  8
0
  6
________________
 62
     7
370
     9
100
AcDbLine
 10
562.9777372903944
 20
110.3462004261997
 30
0.0
 11
562.9777372903944
 21
109.1537976712105
 31
0.0
  0
ARC
  5
186
330
120
100
AcDbEntity
  8
0
  6
________________
 62
     7
370
     9
100
AcDbCircle
 10
545.6999999999958
 20
109.750000000006
 30
0.0
 40
1.500000000000001
100
AcDbArc
 50
270.0000000000004
 51
326.1876725454986
  0
ARC
  5
187
330
120
100
AcDbEntity
  8
0
  6
________________
 62
     7
370
     9
100
AcDbCircle
 10
545.6999999999958
 20
109.750000000006
 30
0.0
 40
1.500000000000001
100
AcDbArc
 50
90.0
 51
270.0000000000004
  0
ARC
  5
188
330
120
100
AcDbEntity
  8
0
  6
________________
 62
     7
370
     9
100
AcDbCircle
 10
545.6999999999958
 20
109.750000000006
 30
0.0
 40
1.499999999999982
100
AcDbArc
 50
33.81230888956184
 51
90.0
  0
LINE
  5
189
330
120
100
AcDbEntity
  8
0
  6
________________
 62
     7
370
     9
100
AcDbLine
 10
547.0222627096066
 20
109.1537995738122
 30
0.0
 11
547.0222627096066
 21
110.3462023288014
 31
0.0
  0
ARC
  5
18A
330
120
100
AcDbEntity
  8
0
  6
________________
 62
     7
370
     9
100
AcDbCircle
 10
545.6999999999954
 20
194.7499999999955
 30
0.0
 40
1.500000000000001
100
AcDbArc
 50
270.0000000000004
 51
326.187672545486
  0
ARC
  5
18B
330
120
100
AcDbEntity
  8
0
  6
________________
 62
     7
370
     9
100
AcDbCircle
 10
545.6999999999954
 20
194.7499999999955
 30
0.0
 40
1.500000000000001
100
AcDbArc
 50
90.0
 51
270.0000000000004
  0
ARC
  5
18C
330
120
100
AcDbEntity
  8
0
  6
________________
 62
     7
370
     9
100
AcDbCircle
 10
545.6999999999954
 20
194.7499999999955
 30
0.0
 40
1.499999999999998
100
AcDbArc
 50
33.81230888957437
 51
90.0
  0
LINE
  5
18D
330
120
100
AcDbEntity
  8
0
  6
________________
 62
     7
370
     9
100
AcDbLine
 10
547.0222627096056
 20
194.1537995738018
 30
0.0
 11
547.0222627096056
 21
195.346202328791
 31
0.0
  0
ENDBLK
  5
191
330
120
100
AcDbEntity
  8
0
100
AcDbBlockEnd
  0
BLOCK
  5
249
330
18F
100
AcDbEntity
  8
0
100
AcDbBlockBegin
  2
D_FRAME_VIEW@428
 70
     0
 10
0.0
 20
0.0
 30
0.0
  3
D_FRAME_VIEW@428
  1

  0
ELLIPSE
  5
192
330
18F
100
AcDbEntity
  8
0
  6
________________
 62
     7
370
     9
100
AcDbEllipse
 10
581.448516042486
 20
-95.06393178555555
 30
0.0
 11
1.2
 21
-5.878775382679628
 31
0.0
210
0.0
220
0.0
230
1.0
 40
0.4082482904638379
 41
0.2759855887903082
 42
1.938311846797771
  0
ELLIPSE
  5
193
330
18F
100
AcDbEntity
  8
0
  6
________________
 62
     7
370
     9
100
AcDbEllipse
 10
581.180187885186
 20
-95.11870404130606
 30
0.0
 11
1.2
 21
-5.878775382679628
 31
0.0
210
0.0
220
0.0
230
1.0
 40
0.4082482904638375
 41
0.4215134820749782
 42
1.792783953513098
  0
ELLIPSE
  5
194
330
18F
100
AcDbEntity
  8
0
  6
________________
 62
     7
370
     9
100
AcDbEllipse
 10
581.4485160424836
 20
-49.4203853267977
 30
0.0
 11
1.2
 21
-5.878775382679627
 31
0.0
210
0.0
220
0.0
230
1.0
 40
0.4082482904638565
 41
0.2759855887920106
 42
1.938311846796068
  0
ELLIPSE
  5
195
330
18F
100
AcDbEntity
  8
0
  6
________________
 62
     7
370
     9
100
AcDbEllipse
 10
581.1801878851836
 20
-49.47515758254821
 30
0.0
 11
1.2
 21
-5.878775382679628
 31
0.0
210
0.0
220
0.0
230
1.0
 40
0.4082482904638562
 41
0.4215134820769703
 42
1.792783953511106
  0
LINE
  5
196
330
18F
100
AcDbEntity
  8
0
  6
________________
 62
   253
370
     9
100
AcDbLine
 10
582.2043070188836
 20
5.118175465860284
 30
0.0
 11
583.0987342098834
 21
5.300749651695302
 31
0.0
  0
ELLIPSE
  5
197
330
18F
100
AcDbEntity
  8
0
  6
________________
 62
     7
370
     9
100
AcDbEllipse
 10
581.7570934233836
 20
3.657581979180008
 30
0.0
 11
-1.341640786499871
 21
-1.643167672515275
 31
0.0
210
0.0
220
0.0
230
-1.0
 40
0.408248290463762
 41
3.141592653589767
 42
3.605240262590563
  0
LINE
  5
198
330
18F
100
AcDbEntity
  8
0
  6
________________
 62
   253
370
     9
100
AcDbLine
 10
582.4279138166335
 20
3.109859421674896
 30
0.0
 11
556.936738873137
 21
-2.093504874623287
 31
0.0
  0
LINE
  5
199
330
18F
100
AcDbEntity
  8
0
  6
________________
 62
     7
370
     9
100
AcDbLine
 10
554.9242776933884
 20
-0.4503372021088525
 30
0.0
 11
556.9367388731362
 21
-2.09350487462269
 31
0.0
  0
LINE
  5
19A
330
18F
100
AcDbEntity
  8
0
  6
________________
 62
   253
370
     9
100
AcDbLine
 10
554.9242776933872
 20
-0.4503372021079505
 30
0.0
 11
555.8187048843871
 21
-0.2677630162729316
 31
0.0
  0
ELLIPSE
  5
19B
330
18F
100
AcDbEntity
  8
0
  6
________________
 62
     7
370
     9
100
AcDbEllipse
 10
555.8187048843871
 20
-1.637069410035677
 30
0.0
 11
0.2999999999999618
 21
-1.469693845669917
 31
0.0
210
0.0
220
0.0
230
1.0
 40
0.4082482904638574
 41
2.338108135134843
 42
2.67794504458897
  0
LINE
  5
19C
330
18F
100
AcDbEntity
  8
0
  6
________________
 62
     7
370
     9
100
AcDbLine
 10
556.2211971203371
 20
-0.4921343099680564
 30
0.0
 11
556.0423116821371
 21
-0.528649147135074
 31
0.0
  0
ELLIPSE
  5
19D
330
18F
100
AcDbEntity
  8
0
  6
________________
 62
     7
370
     9
100
AcDbEllipse
 10
555.9975903225871
 20
-1.600554572868673
 30
0.0
 11
-0.2999999999999621
 21
1.469693845669917
 31
0.0
210
0.0
220
0.0
230
-1.0
 40
0.4082482904638567
 41
0.4636476090008105
 42
0.8034845184549403
  0
LINE
  5
19E
330
18F
100
AcDbEntity
  8
0
  6
________________
 62
   253
370
     9
100
AcDbLine
 10
555.9975903225871
 20
-0.231248179105914
 30
0.0
 11
582.0254215806835
 21
5.081660628693281
 31
0.0
  0
ELLIPSE
  5
19F
330
18F
100
AcDbEntity
  8
0
  6
________________
 62
     7
370
     9
100
AcDbEllipse
 10
582.0254215806835
 20
3.71235423493052
 30
0.0
 11
0.2999999999999618
 21
-1.469693845669917
 31
0.0
210
0.0
220
0.0
230
1.0
 40
0.4082482904638574
 41
2.338108135134843
 42
2.677945044588971
  0
LINE
  5
1A0
330
18F
100
AcDbEntity
  8
0
  6
________________
 62
     7
370
     9
100
AcDbLine
 10
582.4279138166335
 20
4.857289334998141
 30
0.0
 11
582.2490283784335
 21
4.820774497831123
 31
0.0
  0
ELLIPSE
  5
1A1
330
18F
100
AcDbEntity
  8
0
  6
________________
 62
     7
370
     9
100
AcDbEllipse
 10
582.2043070188835
 20
3.748869072097538
 30
0.0
 11
-0.2999999999999638
 21
1.469693845669916
 31
0.0
210
0.0
220
0.0
230
-1.0
 40
0.4082482904638565
 41
0.4636476090008116
 42
0.8034845184549457
  0
ELLIPSE
  5
1A2
330
18F
100
AcDbEntity
  8
0
  6
________________
 62
     7
370
     9
100
AcDbEllipse
 10
556.2659184798835
 20
-141.215034480919
 30
0.0
 11
-1.500000000000001
 21
0.0
 31
0.0
210
0.0
220
0.0
230
1.0
 40
0.4082482904638014
 41
0.4636476090008777
 42
2.034443935795657
  0
LINE
  5
1A3
330
18F
100
AcDbEntity
  8
0
  6
________________
 62
   253
370
     9
100
AcDbLine
 10
554.9242776933837
 20
-141.4888957596716
 30
0.0
 11
554.9242776933872
 21
-0.4503372021079644
 31
0.0
  0
LINE
  5
1A4
330
18F
100
AcDbEntity
  8
0
  6
________________
 62
   253
370
     9
100
AcDbLine
 10
556.9367388731368
 20
-2.093504874623286
 30
0.0
 11
556.9367388731333
 21
-141.7627570384242
 31
0.0
  0
LINE
  5
1A5
330
18F
100
AcDbEntity
  8
0
  6
________________
 62
     7
370
     9
100
AcDbLine
 10
556.9367388731333
 20
-141.7627570384241
 30
0.0
 11
582.4279138166298
 21
-136.559392742126
 31
0.0
  0
LINE
  5
1A6
330
18F
100
AcDbEntity
  8
0
  6
________________
 62
   253
370
     9
100
AcDbLine
 10
582.4279138166299
 20
-136.559392742126
 30
0.0
 11
582.4279138166335
 21
3.10985942167491
 31
0.0
  0
ELLIPSE
  5
1A7
330
18F
100
AcDbEntity
  8
0
  6
________________
 62
     7
370
     9
100
AcDbEllipse
 10
552.8000131147596
 20
-114.1940549773339
 30
0.0
 11
0.3499999999999573
 21
-1.714642819948237
 31
0.0
210
0.0
220
0.0
230
1.0
 40
0.4082482904638566
 41
2.677945044588979
 42
3.141592653589774
  0
LINE
  5
1A8
330
18F
100
AcDbEntity
  8
0
  6
________________
 62
     7
370
     9
100
AcDbLine
 10
551.1229621316344
 20
-138.3851346004759
 30
0.0
 11
554.9242776933837
 21
-141.4888957596716
 31
0.0
  0
LINE
  5
1A9
330
18F
100
AcDbEntity
  8
0
  6
________________
 62
     7
370
     9
100
AcDbLine
 10
551.1229621316379
 20
2.653423957087744
 30
0.0
 11
551.1229621316344
 21
-138.3851346004759
 31
0.0
  0
LINE
  5
1AA
330
18F
100
AcDbEntity
  8
0
  6
________________
 62
     7
370
     9
100
AcDbLine
 10
551.1229621316379
 20
2.653423957087744
 30
0.0
 11
554.9242776933872
 21
-0.4503372021079505
 31
0.0
  0
ELLIPSE
  5
1AB
330
18F
100
AcDbEntity
  8
0
  6
________________
 62
     7
370
     9
100
AcDbEllipse
 10
552.8000131147617
 20
-36.60002599744458
 30
0.0
 11
0.3499999999999567
 21
-1.714642819948234
 31
0.0
210
0.0
220
0.0
230
1.0
 40
0.4082482904638566
 41
2.677945044588979
 42
3.141592653589774
  0
LINE
  5
1AC
330
18F
100
AcDbEntity
  8
0
  6
________________
 62
     7
370
     9
100
AcDbLine
 10
552.0173893226378
 20
2.835998142922763
 30
0.0
 11
551.1229621316379
 21
2.653423957087744
 31
0.0
  0
LINE
  5
1AD
330
18F
100
AcDbEntity
  8
0
  6
________________
 62
     7
370
     9
100
AcDbLine
 10
555.8187048843871
 20
-0.2677630162729316
 30
0.0
 11
552.0173893226378
 21
2.835998142922763
 31
0.0
  0
LINE
  5
1AE
330
18F
100
AcDbEntity
  8
0
  6
________________
 62
     7
370
     9
100
AcDbLine
 10
552.1962747608378
 20
2.872512980089781
 30
0.0
 11
552.1962747608378
 21
2.68993879425472
 31
0.0
  0
LINE
  5
1AF
330
18F
100
AcDbEntity
  8
0
  6
________________
 62
     7
370
     9
100
AcDbLine
 10
552.1962747608378
 20
2.872512980089781
 30
0.0
 11
555.9975903225871
 21
-0.231248179105914
 31
0.0
  0
LINE
  5
1B0
330
18F
100
AcDbEntity
  8
0
  6
________________
 62
     7
370
     9
100
AcDbLine
 10
578.2241060189342
 20
8.185421787888975
 30
0.0
 11
552.1962747608378
 21
2.872512980089781
 31
0.0
  0
LINE
  5
1B1
330
18F
100
AcDbEntity
  8
0
  6
________________
 62
     7
370
     9
100
AcDbLine
 10
582.0254215806835
 20
5.08166062869328
 30
0.0
 11
578.2241060189342
 21
8.185421787888975
 31
0.0
  0
ELLIPSE
  5
1B2
330
18F
100
AcDbEntity
  8
0
  6
________________
 62
     7
370
     9
100
AcDbEllipse
 10
581.7570934233836
 20
3.657581979180008
 30
0.0
 11
-1.341640786499871
 21
-1.643167672515275
 31
0.0
210
0.0
220
0.0
230
-1.0
 40
0.408248290463762
 41
3.605240262590563
 42
4.712388980384663
  0
ELLIPSE
  5
1B3
330
18F
100
AcDbEntity
  8
0
  6
________________
 62
     7
370
     9
100
AcDbEllipse
 10
581.75709342338
 20
-136.0116701846208
 30
0.0
 11
-1.500000000000002
 21
0.0
 31
0.0
210
0.0
220
0.0
230
1.0
 40
0.4082482904638019
 41
2.034443935795664
 42
3.141592653589745
  0
LINE
  5
1B4
330
18F
100
AcDbEntity
  8
0
  6
________________
 62
     7
370
     9
100
AcDbLine
 10
578.4029914571342
 20
8.039362439220945
 30
0.0
 11
578.4029914571342
 21
8.221936625055978
 31
0.0
  0
LINE
  5
1B5
330
18F
100
AcDbEntity
  8
0
  6
________________
 62
     7
370
     9
100
AcDbLine
 10
578.4029914571342
 20
8.221936625055978
 30
0.0
 11
582.2043070188836
 21
5.118175465860284
 31
0.0
  0
LINE
  5
1B6
330
18F
100
AcDbEntity
  8
0
  6
________________
 62
     7
370
     9
100
AcDbLine
 10
579.2974186481341
 20
8.404510810890997
 30
0.0
 11
578.4029914571342
 21
8.221936625055978
 31
0.0
  0
LINE
  5
1B7
330
18F
100
AcDbEntity
  8
0
  6
________________
 62
     7
370
     9
100
AcDbLine
 10
579.2974186481341
 20
8.404510810890997
 30
0.0
 11
583.0987342098834
 21
5.300749651695302
 31
0.0
  0
ELLIPSE
  5
1B8
330
18F
100
AcDbEntity
  8
0
  6
________________
 62
     7
370
     9
100
AcDbEllipse
 10
552.8000131147617
 20
-36.60002599744458
 30
0.0
 11
0.3499999999999552
 21
-1.714642819948234
 31
0.0
210
0.0
220
0.0
230
1.0
 40
0.4082482904638566
 41
0.0
 42
2.677945044588995
  0
ELLIPSE
  5
1B9
330
18F
100
AcDbEntity
  8
0
  6
________________
 62
     7
370
     9
100
AcDbEllipse
 10
552.8000131147617
 20
-36.60002599744458
 30
0.0
 11
0.3499999999999583
 21
-1.71464281994823
 31
0.0
210
0.0
220
0.0
230
1.0
 40
0.4082482904638567
 41
3.14159265358979
 42
6.283185307179586
  0
ELLIPSE
  5
1BA
330
18F
100
AcDbEntity
  8
0
  6
________________
 62
     7
370
     9
100
AcDbEllipse
 10
552.8000131147596
 20
-114.1940549773339
 30
0.0
 11
0.349999999999956
 21
-1.714642819948237
 31
0.0
210
0.0
220
0.0
230
1.0
 40
0.4082482904638567
 41
0.0
 42
2.677945044588997
  0
ELLIPSE
  5
1BB
330
18F
100
AcDbEntity
  8
0
  6
________________
 62
     7
370
     9
100
AcDbEllipse
 10
552.8000131147596
 20
-114.1940549773339
 30
0.0
 11
0.349999999999956
 21
-1.714642819948237
 31
0.0
210
0.0
220
0.0
230
1.0
 40
0.4082482904638567
 41
3.141592653589792
 42
6.283185307179586
  0
ELLIPSE
  5
1BC
330
18F
100
AcDbEntity
  8
0
  6
________________
 62
     7
370
     9
100
AcDbEllipse
 10
554.0074898226068
 20
-126.5908421955195
 30
0.0
 11
-3.478505426185222
 21
-4.260281680828162
 31
0.0
210
0.0
220
0.0
230
-1.0
 40
0.816496580927599
 41
6.124349579951516
 42
6.283185307179586
  0
LINE
  5
1BD
330
18F
100
AcDbEntity
  8
0
  6
________________
 62
     7
370
     9
100
AcDbLine
 10
549.0881402721077
 20
-127.5950002176123
 30
0.0
 11
549.0881402721077
 21
-113.9019362799863
 31
0.0
  0
LINE
  5
1BE
330
18F
100
AcDbEntity
  8
0
  6
________________
 62
     7
370
     9
100
AcDbLine
 10
551.122962131635
 20
-113.4865800072111
 30
0.0
 11
549.0881402721077
 21
-113.9019362799863
 31
0.0
  0
LINE
  5
1BF
330
18F
100
AcDbEntity
  8
0
  6
________________
 62
     7
370
     9
100
AcDbLine
 10
549.0881402721077
 20
-102.9474851298856
 30
0.0
 11
551.1229621316353
 21
-102.5321288571103
 31
0.0
  0
LINE
  5
1C0
330
18F
100
AcDbEntity
  8
0
  6
________________
 62
     7
370
     9
100
AcDbLine
 10
549.0881402721077
 20
-102.9474851298856
 30
0.0
 11
549.0881402721077
 21
-36.30790730010588
 31
0.0
  0
LINE
  5
1C1
330
18F
100
AcDbEntity
  8
0
  6
________________
 62
     7
370
     9
100
AcDbLine
 10
551.1229621316369
 20
-35.89255102733023
 30
0.0
 11
549.0881402721077
 21
-36.30790730010588
 31
0.0
  0
LINE
  5
1C2
330
18F
100
AcDbEntity
  8
0
  6
________________
 62
     7
370
     9
100
AcDbLine
 10
549.0881402721077
 20
-25.35345615000512
 30
0.0
 11
551.1229621316372
 21
-24.93809987722941
 31
0.0
  0
LINE
  5
1C3
330
18F
100
AcDbEntity
  8
0
  6
________________
 62
     7
370
     9
100
AcDbLine
 10
549.0881402721077
 20
-25.35345615000512
 30
0.0
 11
549.0881402721077
 21
-0.7059410622783924
 31
0.0
  0
ELLIPSE
  5
1C4
330
18F
100
AcDbEntity
  8
0
  6
________________
 62
     7
370
     9
100
AcDbEllipse
 10
554.0074898226068
 20
0.2982169598143292
 30
0.0
 11
-3.478505426185218
 21
-4.260281680828159
 31
0.0
210
0.0
220
0.0
230
-1.0
 40
0.8164965809275995
 41
0.7853981633975262
 42
2.356194490192268
  0
LINE
  5
1C5
330
18F
100
AcDbEntity
  8
0
  6
________________
 62
     7
370
     9
100
AcDbLine
 10
554.0074898226068
 20
5.319007070277188
 30
0.0
 11
567.4238976876045
 21
8.057619857802802
 31
0.0
  0
ELLIPSE
  5
1C6
330
18F
100
AcDbEntity
  8
0
  6
________________
 62
     7
370
     9
100
AcDbEllipse
 10
567.4238976876046
 20
4.862571605690078
 30
0.0
 11
2.21359436211786
 21
2.711088342345186
 31
0.0
210
0.0
220
0.0
230
1.0
 40
0.8164965809275989
 41
5.855358247427603
 42
6.283185307179586
  0
LINE
  5
1C7
330
18F
100
AcDbEntity
  8
0
  6
________________
 62
   253
370
     9
100
AcDbLine
 10
548.193713081108
 20
0.0243556810617107
 30
0.0
 11
549.0881402721077
 21
-0.7059410622783924
 31
0.0
  0
ELLIPSE
  5
1C8
330
18F
100
AcDbEntity
  8
0
  6
________________
 62
     7
370
     9
100
AcDbEllipse
 10
553.113062631607
 20
1.028513703154446
 30
0.0
 11
-3.478505426185218
 21
-4.260281680828159
 31
0.0
210
0.0
220
0.0
230
-1.0
 40
0.8164965809275997
 41
0.7853981633975264
 42
2.356194490192268
  0
LINE
  5
1C9
330
18F
100
AcDbEntity
  8
0
  6
________________
 62
   253
370
     9
100
AcDbLine
 10
553.113062631607
 20
6.04930381361729
 30
0.0
 11
554.0074898226068
 21
5.319007070277188
 31
0.0
  0
LINE
  5
1CA
330
18F
100
AcDbEntity
  8
0
  6
________________
 62
     7
370
     9
100
AcDbLine
 10
548.193713081108
 20
-24.62315940666501
 30
0.0
 11
549.0881402721077
 21
-25.35345615000512
 31
0.0
  0
LINE
  5
1CB
330
18F
100
AcDbEntity
  8
0
  6
________________
 62
     7
370
     9
100
AcDbLine
 10
548.193713081108
 20
-24.62315940666501
 30
0.0
 11
548.193713081108
 21
0.0243556810617107
 31
0.0
  0
LINE
  5
1CC
330
18F
100
AcDbEntity
  8
0
  6
________________
 62
   253
370
     9
100
AcDbLine
 10
567.4238976876046
 20
8.057619857802802
 30
0.0
 11
566.5294704966049
 21
8.787916601142905
 31
0.0
  0
LINE
  5
1CD
330
18F
100
AcDbEntity
  8
0
  6
________________
 62
     7
370
     9
100
AcDbLine
 10
553.113062631607
 20
6.04930381361729
 30
0.0
 11
566.5294704966047
 21
8.787916601142905
 31
0.0
  0
ELLIPSE
  5
1CE
330
18F
100
AcDbEntity
  8
0
  6
________________
 62
     7
370
     9
100
AcDbEllipse
 10
567.4238976876046
 20
4.862571605690078
 30
0.0
 11
2.21359436211786
 21
2.711088342345186
 31
0.0
210
0.0
220
0.0
230
1.0
 40
0.8164965809275989
 41
0.0
 42
0.7853981633974496
  0
ELLIPSE
  5
1CF
330
18F
100
AcDbEntity
  8
0
  6
________________
 62
     7
370
     9
100
AcDbEllipse
 10
566.5294704966049
 20
5.59286834903018
 30
0.0
 11
-2.213594362117859
 21
-2.711088342345184
 31
0.0
210
0.0
220
0.0
230
-1.0
 40
0.8164965809275995
 41
2.356194490192266
 42
3.141592653589742
  0
LINE
  5
1D0
330
18F
100
AcDbEntity
  8
0
  6
________________
 62
     7
370
     9
100
AcDbLine
 10
551.1229621316369
 20
-35.23071960368287
 30
0.0
 11
550.8769946541074
 21
-35.02988799926065
 31
0.0
  0
LINE
  5
1D1
330
18F
100
AcDbEntity
  8
0
  6
________________
 62
     7
370
     9
100
AcDbLine
 10
550.8769946541074
 20
-24.98830777833502
 30
0.0
 11
550.8769946541074
 21
-35.02988799926066
 31
0.0
  0
LINE
  5
1D2
330
18F
100
AcDbEntity
  8
0
  6
________________
 62
     7
370
     9
100
AcDbLine
 10
549.0881402721077
 20
-36.30790730010588
 30
0.0
 11
548.193713081108
 21
-35.57761055676578
 31
0.0
  0
LINE
  5
1D3
330
18F
100
AcDbEntity
  8
0
  6
________________
 62
     7
370
     9
100
AcDbLine
 10
548.193713081108
 20
-102.2171883865454
 30
0.0
 11
549.0881402721077
 21
-102.9474851298856
 31
0.0
  0
LINE
  5
1D4
330
18F
100
AcDbEntity
  8
0
  6
________________
 62
     7
370
     9
100
AcDbLine
 10
548.193713081108
 20
-102.2171883865454
 30
0.0
 11
548.193713081108
 21
-35.57761055676577
 31
0.0
  0
LINE
  5
1D5
330
18F
100
AcDbEntity
  8
0
  6
________________
 62
     7
370
     9
100
AcDbLine
 10
550.8769946541074
 20
-35.02988799926066
 30
0.0
 11
548.1937130811078
 21
-35.57761055676578
 31
0.0
  0
LINE
  5
1D6
330
18F
100
AcDbEntity
  8
0
  6
________________
 62
     7
370
     9
100
AcDbLine
 10
551.1229621316351
 20
-112.8247485835617
 30
0.0
 11
550.8769946541075
 21
-112.6239169791411
 31
0.0
  0
LINE
  5
1D7
330
18F
100
AcDbEntity
  8
0
  6
________________
 62
     7
370
     9
100
AcDbLine
 10
550.8769946541074
 20
-102.5823367582155
 30
0.0
 11
550.8769946541074
 21
-112.6239169791411
 31
0.0
  0
LINE
  5
1D8
330
18F
100
AcDbEntity
  8
0
  6
________________
 62
     7
370
     9
100
AcDbLine
 10
550.8769946541074
 20
-112.6239169791411
 30
0.0
 11
548.1937130811078
 21
-113.1716395366462
 31
0.0
  0
LINE
  5
1D9
330
18F
100
AcDbEntity
  8
0
  6
________________
 62
   253
370
     9
100
AcDbLine
 10
548.193713081108
 20
-126.8647034742721
 30
0.0
 11
549.0881402721077
 21
-127.5950002176122
 31
0.0
  0
LINE
  5
1DA
330
18F
100
AcDbEntity
  8
0
  6
________________
 62
     7
370
     9
100
AcDbLine
 10
549.0881402721077
 20
-113.9019362799863
 30
0.0
 11
548.193713081108
 21
-113.1716395366462
 31
0.0
  0
LINE
  5
1DB
330
18F
100
AcDbEntity
  8
0
  6
________________
 62
     7
370
     9
100
AcDbLine
 10
548.193713081108
 20
-126.8647034742721
 30
0.0
 11
548.193713081108
 21
-113.1716395366462
 31
0.0
  0
ELLIPSE
  5
1DC
330
18F
100
AcDbEntity
  8
0
  6
________________
 62
     7
370
     9
100
AcDbEllipse
 10
553.113062631607
 20
-125.8605454521795
 30
0.0
 11
-3.478505426185222
 21
-4.260281680828162
 31
0.0
210
0.0
220
0.0
230
-1.0
 40
0.8164965809275991
 41
0.0
 42
0.7853981633974495
  0
ELLIPSE
  5
1DD
330
18F
100
AcDbEntity
  8
0
  6
________________
 62
     7
370
     9
100
AcDbEllipse
 10
554.0074898226068
 20
-126.5908421955195
 30
0.0
 11
-3.478505426185219
 21
-4.260281680828162
 31
0.0
210
0.0
220
0.0
230
-1.0
 40
0.8164965809275992
 41
0.0
 42
0.7853981633974498
  0
LINE
  5
1DE
330
18F
100
AcDbEntity
  8
0
  6
________________
 62
     7
370
     9
100
AcDbLine
 10
547.0533184125828
 20
6.889145068463706
 30
0.0
 11
546.158891221583
 21
6.706570882628659
 31
0.0
  0
LINE
  5
1DF
330
18F
100
AcDbEntity
  8
0
  6
________________
 62
     7
370
     9
100
AcDbLine
 10
546.158891221583
 20
6.706570882628659
 30
0.0
 11
542.3575756598336
 21
9.81033204182434
 31
0.0
  0
LINE
  5
1E0
330
18F
100
AcDbEntity
  8
0
  6
________________
 62
   253
370
     9
100
AcDbLine
 10
542.3575756598336
 20
9.81033204182434
 30
0.0
 11
543.2520028508335
 21
9.992906227659388
 31
0.0
  0
LINE
  5
1E1
330
18F
100
AcDbEntity
  8
0
  6
________________
 62
     7
370
     9
100
AcDbLine
 10
543.2520028508335
 20
9.992906227659388
 30
0.0
 11
547.0533184125828
 21
6.889145068463693
 31
0.0
  0
LINE
  5
1E2
330
18F
100
AcDbEntity
  8
0
  6
________________
 62
     7
370
     9
100
AcDbLine
 10
547.0533184125828
 20
-134.1494134890992
 30
0.0
 11
546.158891221583
 21
-134.3319876749342
 31
0.0
  0
LINE
  5
1E3
330
18F
100
AcDbEntity
  8
0
  6
________________
 62
     7
370
     9
100
AcDbLine
 10
546.158891221583
 20
6.706570882628659
 30
0.0
 11
546.158891221583
 21
-134.3319876749342
 31
0.0
  0
LINE
  5
1E4
330
18F
100
AcDbEntity
  8
0
  6
________________
 62
     7
370
     9
100
AcDbLine
 10
547.0533184125828
 20
6.889145068463706
 30
0.0
 11
547.0533184125828
 21
-134.1494134890991
 31
0.0
  0
ELLIPSE
  5
1E5
330
18F
100
AcDbEntity
  8
0
  6
________________
 62
     7
370
     9
100
AcDbEllipse
 10
544.4818402384584
 20
-107.4022952642668
 30
0.0
 11
-0.3500000000000025
 21
1.714642819948237
 31
0.0
210
0.0
220
0.0
230
-1.0
 40
0.4082482904638459
 41
0.4636476090008222
 42
3.141592653589808
  0
LINE
  5
1E6
330
18F
100
AcDbEntity
  8
0
  6
________________
 62
     7
370
     9
100
AcDbLine
 10
546.158891221583
 20
-134.3319876749342
 30
0.0
 11
542.3575756598336
 21
-131.2282265157385
 31
0.0
  0
LINE
  5
1E7
330
18F
100
AcDbEntity
  8
0
  6
________________
 62
   253
370
     9
100
AcDbLine
 10
542.3575756598336
 20
-131.2282265157385
 30
0.0
 11
542.3575756598336
 21
9.810332041824326
 31
0.0
  0
ELLIPSE
  5
1E8
330
18F
100
AcDbEntity
  8
0
  6
________________
 62
     7
370
     9
100
AcDbEllipse
 10
544.4818402384584
 20
-29.80826628437785
 30
0.0
 11
-0.3499999999999996
 21
1.714642819948223
 31
0.0
210
0.0
220
0.0
230
-1.0
 40
0.4082482904638461
 41
0.4636476090008231
 42
3.141592653589809
  0
LINE
  5
1E9
330
18F
100
AcDbEntity
  8
0
  6
________________
 62
     7
370
     9
100
AcDbLine
 10
547.2322038507829
 20
6.92565990563071
 30
0.0
 11
547.2322038507829
 21
6.01278897645556
 31
0.0
  0
LINE
  5
1EA
330
18F
100
AcDbEntity
  8
0
  6
________________
 62
     7
370
     9
100
AcDbLine
 10
573.2600351088794
 20
12.2385687134306
 30
0.0
 11
547.2322038507829
 21
6.92565990563071
 31
0.0
  0
LINE
  5
1EB
330
18F
100
AcDbEntity
  8
0
  6
________________
 62
     7
370
     9
100
AcDbLine
 10
573.2600351088794
 20
11.32569778425545
 30
0.0
 11
573.2600351088794
 21
12.2385687134306
 31
0.0
  0
LINE
  5
1EC
330
18F
100
AcDbEntity
  8
0
  6
________________
 62
     7
370
     9
100
AcDbLine
 10
573.2600351088794
 20
11.32569778425545
 30
0.0
 11
547.2322038507829
 21
6.01278897645556
 31
0.0
  0
LINE
  5
1ED
330
18F
100
AcDbEntity
  8
0
  6
________________
 62
     7
370
     9
100
AcDbLine
 10
547.2322038507829
 20
6.92565990563071
 30
0.0
 11
543.4308882890335
 21
10.0294210648264
 31
0.0
  0
LINE
  5
1EE
330
18F
100
AcDbEntity
  8
0
  6
________________
 62
   253
370
     9
100
AcDbLine
 10
543.4308882890335
 20
10.0294210648264
 30
0.0
 11
569.45871954713
 21
15.34232987262629
 31
0.0
  0
LINE
  5
1EF
330
18F
100
AcDbEntity
  8
0
  6
________________
 62
     7
370
     9
100
AcDbLine
 10
569.45871954713
 20
15.34232987262629
 30
0.0
 11
573.2600351088794
 21
12.2385687134306
 31
0.0
  0
LINE
  5
1F0
330
18F
100
AcDbEntity
  8
0
  6
________________
 62
     7
370
     9
100
AcDbLine
 10
547.2322038507829
 20
6.01278897645556
 30
0.0
 11
547.0533184125828
 21
6.158848325123603
 31
0.0
  0
LINE
  5
1F1
330
18F
100
AcDbEntity
  8
0
  6
________________
 62
     7
370
     9
100
AcDbLine
 10
543.2072814912837
 20
10.13368330563435
 30
0.0
 11
543.2072814912837
 21
10.02637477319213
 31
0.0
  0
ELLIPSE
  5
1F2
330
18F
100
AcDbEntity
  8
0
  6
________________
 62
     7
370
     9
100
AcDbEllipse
 10
543.4308882890335
 20
8.66011467106366
 30
0.0
 11
0.2999999999999992
 21
-1.469693845669903
 31
0.0
210
0.0
220
0.0
230
1.0
 40
0.408248290463846
 41
2.677945044588973
 42
3.017781954043104
  0
LINE
  5
1F3
330
18F
100
AcDbEntity
  8
0
  6
________________
 62
     7
370
     9
100
AcDbLine
 10
569.41399818758
 20
15.48310695060125
 30
0.0
 11
569.2351127493799
 21
15.44659211343424
 31
0.0
  0
ELLIPSE
  5
1F4
330
18F
100
AcDbEntity
  8
0
  6
________________
 62
     7
370
     9
100
AcDbEllipse
 10
569.45871954713
 20
13.97302347886355
 30
0.0
 11
-0.3000000000000021
 21
1.469693845669918
 31
0.0
210
0.0
220
0.0
230
-1.0
 40
0.408248290463846
 41
0.1238106995466764
 42
0.4636476090008069
  0
LINE
  5
1F5
330
18F
100
AcDbEntity
  8
0
  6
________________
 62
     7
370
     9
100
AcDbLine
 10
543.2072814912837
 20
10.13368330563435
 30
0.0
 11
543.0283960530836
 21
10.09716846846734
 31
0.0
  0
LINE
  5
1F6
330
18F
100
AcDbEntity
  8
0
  6
________________
 62
     7
370
     9
100
AcDbLine
 10
542.3575756598348
 20
9.81033204182348
 30
0.0
 11
542.1992164463348
 21
9.939631798204548
 31
0.0
  0
ELLIPSE
  5
1F7
330
18F
100
AcDbEntity
  8
0
  6
________________
 62
     7
370
     9
100
AcDbEllipse
 10
569.1903913898301
 20
13.91825122311303
 30
0.0
 11
-1.341640786499829
 21
-1.643167672515308
 31
0.0
210
0.0
220
0.0
230
1.0
 40
0.4082482904637619
 41
3.141592653589808
 42
3.605240262590566
  0
LINE
  5
1F8
330
18F
100
AcDbEntity
  8
0
  6
________________
 62
   253
370
     9
100
AcDbLine
 10
569.63760498533
 20
15.37884470979331
 30
0.0
 11
570.5320321763298
 21
15.56141889562836
 31
0.0
  0
ELLIPSE
  5
1F9
330
18F
100
AcDbEntity
  8
0
  6
________________
 62
     7
370
     9
100
AcDbEllipse
 10
569.63760498533
 20
14.00953831603056
 30
0.0
 11
0.3000000000000019
 21
-1.469693845669916
 31
0.0
210
0.0
220
0.0
230
1.0
 40
0.4082482904638461
 41
2.677945044588975
 42
3.017781954043109
  0
ELLIPSE
  5
1FA
330
18F
100
AcDbEntity
  8
0
  6
________________
 62
     7
370
     9
100
AcDbEllipse
 10
543.2520028508335
 20
8.623599833896655
 30
0.0
 11
-0.2999999999999992
 21
1.469693845669903
 31
0.0
210
0.0
220
0.0
230
-1.0
 40
0.4082482904638459
 41
0.1238106995466791
 42
0.4636476090008126
  0
ELLIPSE
  5
1FB
330
18F
100
AcDbEntity
  8
0
  6
________________
 62
     7
370
     9
100
AcDbEllipse
 10
543.6992164463335
 20
-130.954365236986
 30
0.0
 11
1.499999999999998
 21
0.0
 31
0.0
210
0.0
220
0.0
230
-1.0
 40
0.4082482904638127
 41
2.677945044588921
 42
3.141592653589738
  0
LINE
  5
1FC
330
18F
100
AcDbEntity
  8
0
  6
________________
 62
     7
370
     9
100
AcDbLine
 10
573.4389205470793
 20
7.20864989367044
 30
0.0
 11
573.4389205470793
 21
12.27508355059761
 31
0.0
  0
LINE
  5
1FD
330
18F
100
AcDbEntity
  8
0
  6
________________
 62
     7
370
     9
100
AcDbLine
 10
574.3333477380792
 20
12.45765773643266
 30
0.0
 11
573.4389205470793
 21
12.27508355059761
 31
0.0
  0
LINE
  5
1FE
330
18F
100
AcDbEntity
  8
0
  6
________________
 62
     7
370
     9
100
AcDbLine
 10
574.3333477380792
 20
7.391224079505474
 30
0.0
 11
574.3333477380792
 21
12.45765773643266
 31
0.0
  0
LINE
  5
1FF
330
18F
100
AcDbEntity
  8
0
  6
________________
 62
   253
370
     9
100
AcDbLine
 10
569.63760498533
 20
10.03808871643375
 30
0.0
 11
569.63760498533
 21
10.58627233162354
 31
0.0
  0
LINE
  5
200
330
18F
100
AcDbEntity
  8
0
  6
________________
 62
     7
370
     9
100
AcDbLine
 10
569.41399818758
 20
15.48310695060125
 30
0.0
 11
569.41399818758
 21
15.37579841815903
 31
0.0
  0
LINE
  5
201
330
18F
100
AcDbEntity
  8
0
  6
________________
 62
     7
370
     9
100
AcDbLine
 10
573.4389205470793
 20
12.27508355059761
 30
0.0
 11
569.63760498533
 21
15.37884470979331
 31
0.0
  0
LINE
  5
202
330
18F
100
AcDbEntity
  8
0
  6
________________
 62
     7
370
     9
100
AcDbLine
 10
574.3333477380792
 20
12.45765773643266
 30
0.0
 11
570.5320321763298
 21
15.56141889562836
 31
0.0
  0
ELLIPSE
  5
203
330
18F
100
AcDbEntity
  8
0
  6
________________
 62
     7
370
     9
100
AcDbEllipse
 10
544.4818402384584
 20
-29.80826628437785
 30
0.0
 11
-0.3499999999999996
 21
1.714642819948223
 31
0.0
210
0.0
220
0.0
230
-1.0
 40
0.4082482904638461
 41
0.0
 42
0.4636476090008048
  0
ELLIPSE
  5
204
330
18F
100
AcDbEntity
  8
0
  6
________________
 62
     7
370
     9
100
AcDbEllipse
 10
544.4818402384584
 20
-29.80826628437785
 30
0.0
 11
-0.3499999999999996
 21
1.714642819948223
 31
0.0
210
0.0
220
0.0
230
-1.0
 40
0.4082482904638461
 41
3.141592653589796
 42
6.283185307179586
  0
ELLIPSE
  5
205
330
18F
100
AcDbEntity
  8
0
  6
________________
 62
     7
370
     9
100
AcDbEllipse
 10
544.4818402384584
 20
-107.4022952642668
 30
0.0
 11
-0.3500000000000026
 21
1.714642819948238
 31
0.0
210
0.0
220
0.0
230
-1.0
 40
0.4082482904638458
 41
0.0
 42
0.4636476090008059
  0
ELLIPSE
  5
206
330
18F
100
AcDbEntity
  8
0
  6
________________
 62
     7
370
     9
100
AcDbEllipse
 10
544.4818402384584
 20
-107.4022952642668
 30
0.0
 11
-0.3500000000000025
 21
1.714642819948237
 31
0.0
210
0.0
220
0.0
230
-1.0
 40
0.4082482904638461
 41
3.141592653589793
 42
6.283185307179586
  0
ELLIPSE
  5
207
330
18F
100
AcDbEntity
  8
0
  6
________________
 62
     7
370
     9
100
AcDbEllipse
 10
553.3366694293571
 20
0.8459395173241596
 30
0.0
 11
-4.427188724235728
 21
-5.422176684690379
 31
0.0
210
0.0
220
0.0
230
-1.0
 40
0.8164965809276592
 41
0.7853981633974891
 42
2.356194490192303
  0
LINE
  5
208
330
18F
100
AcDbEntity
  8
0
  6
________________
 62
   253
370
     9
100
AcDbLine
 10
547.0533184125828
 20
-0.4138223649376577
 30
0.0
 11
547.0756790923579
 21
-0.4320797835211665
 31
0.0
  0
ELLIPSE
  5
209
330
18F
100
AcDbEntity
  8
0
  6
________________
 62
     7
370
     9
100
AcDbEllipse
 10
551.4971687095933
 20
2.34788556562536
 30
0.0
 11
4.427188724235726
 21
5.422176684690378
 31
0.0
210
0.0
220
0.0
230
1.0
 40
0.8164965809276593
 41
1.550591901294209
 42
1.574566910039325
  0
LINE
  5
20A
330
18F
100
AcDbEntity
  8
0
  6
________________
 62
   253
370
     9
100
AcDbLine
 10
553.314308749582
 20
7.254293440133883
 30
0.0
 11
553.336669429357
 21
7.236036021550332
 31
0.0
  0
ELLIPSE
  5
20B
330
18F
100
AcDbEntity
  8
0
  6
________________
 62
     7
370
     9
100
AcDbEllipse
 10
553.336669429357
 20
0.8459395173240625
 30
0.0
 11
3.794733192202059
 21
4.647580015448905
 31
0.0
210
0.0
220
0.0
230
1.0
 40
0.8164965809276592
 41
0.785398163397489
 42
2.356194490192305
  0
LINE
  5
20C
330
18F
100
AcDbEntity
  8
0
  6
________________
 62
     7
370
     9
100
AcDbLine
 10
547.9701062833577
 20
-0.2495055976862309
 30
0.0
 11
547.9701062833577
 21
-25.71860452167318
 31
0.0
  0
LINE
  5
20D
330
18F
100
AcDbEntity
  8
0
  6
________________
 62
     7
370
     9
100
AcDbLine
 10
547.0756790923579
 20
-25.90117870750823
 30
0.0
 11
547.9701062833577
 21
-25.71860452167318
 31
0.0
  0
LINE
  5
20E
330
18F
100
AcDbEntity
  8
0
  6
________________
 62
     7
370
     9
100
AcDbLine
 10
547.0756790923579
 20
-25.90117870750823
 30
0.0
 11
547.0756790923579
 21
-0.4320797835211665
 31
0.0
  0
LINE
  5
20F
330
18F
100
AcDbEntity
  8
0
  6
________________
 62
     7
370
     9
100
AcDbLine
 10
553.3366694293571
 20
7.236036021550332
 30
0.0
 11
566.5294704966053
 21
9.92900526261728
 31
0.0
  0
ELLIPSE
  5
210
330
18F
100
AcDbEntity
  8
0
  6
________________
 62
     7
370
     9
100
AcDbEllipse
 10
566.5294704966053
 20
3.538908758391121
 30
0.0
 11
4.427188724235733
 21
5.422176684690386
 31
0.0
210
0.0
220
0.0
230
1.0
 40
0.8164965809276595
 41
5.859173551168014
 42
6.283185307179586
  0
ELLIPSE
  5
211
330
18F
100
AcDbEntity
  8
0
  6
________________
 62
     7
370
     9
100
AcDbEllipse
 10
566.7530772943552
 20
5.410294163200241
 30
0.0
 11
2.529822128134705
 21
3.098386676965936
 31
0.0
210
0.0
220
0.0
230
1.0
 40
0.8164965809276592
 41
5.671162520831371
 42
6.283185307179586
  0
LINE
  5
212
330
18F
100
AcDbEntity
  8
0
  6
________________
 62
     7
370
     9
100
AcDbLine
 10
566.7530772943552
 20
9.061777879900895
 30
0.0
 11
553.336669429357
 21
6.323165092375057
 31
0.0
  0
ELLIPSE
  5
213
330
18F
100
AcDbEntity
  8
0
  6
________________
 62
     7
370
     9
100
AcDbEllipse
 10
566.5294704966053
 20
5.592868349035287
 30
0.0
 11
2.529822128134706
 21
3.098386676965937
 31
0.0
210
0.0
220
0.0
230
1.0
 40
0.8164965809276591
 41
5.750053504610399
 42
6.238976734480826
  0
LINE
  5
214
330
18F
100
AcDbEntity
  8
0
  6
________________
 62
     7
370
     9
100
AcDbLine
 10
549.9825674631074
 20
-111.9849073287262
 30
0.0
 11
547.7464994856077
 21
-112.4413427933138
 31
0.0
  0
LINE
  5
215
330
18F
100
AcDbEntity
  8
0
  6
________________
 62
     7
370
     9
100
AcDbLine
 10
549.9825674631074
 20
-102.7649109440505
 30
0.0
 11
549.9825674631074
 21
-111.9849073287262
 31
0.0
  0
LINE
  5
216
330
18F
100
AcDbEntity
  8
0
  6
________________
 62
     7
370
     9
100
AcDbLine
 10
547.9701062833577
 20
-103.0844157692684
 30
0.0
 11
548.9986975530142
 21
-102.8744554555567
 31
0.0
  0
LINE
  5
217
330
18F
100
AcDbEntity
  8
0
  6
________________
 62
     7
370
     9
100
AcDbLine
 10
549.9825674631074
 20
-34.39087834883719
 30
0.0
 11
547.7464994856077
 21
-34.8473138134248
 31
0.0
  0
LINE
  5
218
330
18F
100
AcDbEntity
  8
0
  6
________________
 62
     7
370
     9
100
AcDbLine
 10
549.9825674631074
 20
-25.17088196417009
 30
0.0
 11
549.9825674631074
 21
-34.39087834883719
 31
0.0
  0
LINE
  5
219
330
18F
100
AcDbEntity
  8
0
  6
________________
 62
     7
370
     9
100
AcDbLine
 10
547.9701062833577
 20
-25.49038678937938
 30
0.0
 11
548.9986975530056
 21
-25.28042647566946
 31
0.0
  0
LINE
  5
21A
330
18F
100
AcDbEntity
  8
0
  6
________________
 62
     7
370
     9
100
AcDbLine
 10
547.0533184125828
 20
-25.88292128892469
 30
0.0
 11
547.0756790923579
 21
-25.90117870750823
 31
0.0
  0
LINE
  5
21B
330
18F
100
AcDbEntity
  8
0
  6
________________
 62
   253
370
     9
100
AcDbLine
 10
566.5294704966053
 20
9.92900526261728
 30
0.0
 11
566.5071098168303
 21
9.947262681200844
 31
0.0
  0
ELLIPSE
  5
21C
330
18F
100
AcDbEntity
  8
0
  6
________________
 62
     7
370
     9
100
AcDbEllipse
 10
566.5294704966053
 20
3.538908758391121
 30
0.0
 11
4.427188724235726
 21
5.422176684690378
 31
0.0
210
0.0
220
0.0
230
1.0
 40
0.8164965809276588
 41
0.0
 42
0.7853981633974493
  0
ELLIPSE
  5
21D
330
18F
100
AcDbEntity
  8
0
  6
________________
 62
     7
370
     9
100
AcDbEllipse
 10
566.7530772943552
 20
5.410294163200241
 30
0.0
 11
2.529822128134712
 21
3.098386676965945
 31
0.0
210
0.0
220
0.0
230
1.0
 40
0.8164965809276586
 41
0.0
 42
0.7853981633974462
  0
LINE
  5
21E
330
18F
100
AcDbEntity
  8
0
  6
________________
 62
     7
370
     9
100
AcDbLine
 10
549.9825674631074
 20
-34.39087834883719
 30
0.0
 11
549.6436980572823
 21
-34.11419263759991
 31
0.0
  0
LINE
  5
21F
330
18F
100
AcDbEntity
  8
0
  6
________________
 62
     7
370
     9
100
AcDbLine
 10
547.0756790923579
 20
-103.4952076873972
 30
0.0
 11
547.9701062833577
 21
-103.3126335015622
 31
0.0
  0
LINE
  5
220
330
18F
100
AcDbEntity
  8
0
  6
________________
 62
     7
370
     9
100
AcDbLine
 10
547.0756790923579
 20
-103.4952076873972
 30
0.0
 11
547.0756790923579
 21
-35.21246218509491
 31
0.0
  0
LINE
  5
221
330
18F
100
AcDbEntity
  8
0
  6
________________
 62
     7
370
     9
100
AcDbLine
 10
547.9701062833577
 20
-35.02988799925985
 30
0.0
 11
547.0756790923579
 21
-35.21246218509491
 31
0.0
  0
LINE
  5
222
330
18F
100
AcDbEntity
  8
0
  6
________________
 62
     7
370
     9
100
AcDbLine
 10
547.9701062833577
 20
-35.02988799925985
 30
0.0
 11
547.9701062833577
 21
-103.3126335015622
 31
0.0
  0
LINE
  5
223
330
18F
100
AcDbEntity
  8
0
  6
________________
 62
     7
370
     9
100
AcDbLine
 10
547.0756790923579
 20
-35.21246218509491
 30
0.0
 11
547.0533184125828
 21
-35.19420476651139
 31
0.0
  0
LINE
  5
224
330
18F
100
AcDbEntity
  8
0
  6
________________
 62
     7
370
     9
100
AcDbLine
 10
547.7464994856078
 20
-34.8473138134248
 30
0.0
 11
547.9701062833577
 21
-35.02988799925985
 31
0.0
  0
LINE
  5
225
330
18F
100
AcDbEntity
  8
0
  6
________________
 62
     7
370
     9
100
AcDbLine
 10
547.0533184125828
 20
-103.4769502688137
 30
0.0
 11
547.0756790923579
 21
-103.4952076873972
 31
0.0
  0
LINE
  5
226
330
18F
100
AcDbEntity
  8
0
  6
________________
 62
     7
370
     9
100
AcDbLine
 10
549.9825674631074
 20
-111.9849073287262
 30
0.0
 11
549.643698057281
 21
-111.7082216174879
 31
0.0
  0
LINE
  5
227
330
18F
100
AcDbEntity
  8
0
  6
________________
 62
     7
370
     9
100
AcDbLine
 10
547.9701062833577
 20
-112.6239169791488
 30
0.0
 11
547.0756790923579
 21
-112.8064911649839
 31
0.0
  0
LINE
  5
228
330
18F
100
AcDbEntity
  8
0
  6
________________
 62
     7
370
     9
100
AcDbLine
 10
547.0756790923579
 20
-112.8064911649839
 30
0.0
 11
547.0533184125828
 21
-112.7882337464004
 31
0.0
  0
LINE
  5
229
330
18F
100
AcDbEntity
  8
0
  6
________________
 62
     7
370
     9
100
AcDbLine
 10
547.7464994856078
 20
-112.4413427933138
 30
0.0
 11
547.9701062833577
 21
-112.6239169791488
 31
0.0
  0
LINE
  5
22A
330
18F
100
AcDbEntity
  8
0
  6
________________
 62
     7
370
     9
100
AcDbLine
 10
547.0756790923579
 20
-133.7112354430951
 30
0.0
 11
547.0756790923579
 21
-112.8064911649839
 31
0.0
  0
LINE
  5
22B
330
18F
100
AcDbEntity
  8
0
  6
________________
 62
     7
370
     9
100
AcDbLine
 10
547.9701062833577
 20
-112.6239169791488
 30
0.0
 11
547.9701062833577
 21
-127.1385647530339
 31
0.0
  0
ELLIPSE
  5
22C
330
18F
100
AcDbEntity
  8
0
  6
________________
 62
     7
370
     9
100
AcDbEllipse
 10
553.336669429357
 20
-126.0431196380237
 30
0.0
 11
3.79473319220205
 21
4.647580015448893
 31
0.0
210
0.0
220
0.0
230
1.0
 40
0.8164965809276594
 41
2.356194490192308
 42
3.141592653589758
  0
LINE
  5
22D
330
18F
100
AcDbEntity
  8
0
  6
________________
 62
     7
370
     9
100
AcDbLine
 10
551.1229621316345
 20
-132.8850872521911
 30
0.0
 11
547.0756790923579
 21
-133.7112354430951
 31
0.0
  0
LINE
  5
22E
330
18F
100
AcDbEntity
  8
0
  6
________________
 62
     7
370
     9
100
AcDbLine
 10
547.0533184125828
 20
-133.6929780245116
 30
0.0
 11
547.0756790923579
 21
-133.7112354430951
 31
0.0
  0
ELLIPSE
  5
22F
330
18F
100
AcDbEntity
  8
0
  6
________________
 62
     7
370
     9
100
AcDbEllipse
 10
553.336669429357
 20
-126.0431196380237
 30
0.0
 11
3.79473319220205
 21
4.647580015448893
 31
0.0
210
0.0
220
0.0
230
1.0
 40
0.8164965809276594
 41
3.141592653589797
 42
3.501794089636779
  0
ELLIPSE
  5
230
330
18F
100
AcDbEntity
  8
0
  6
________________
 62
     7
370
     9
100
AcDbEllipse
 10
553.113062631607
 20
-125.8605454521886
 30
0.0
 11
3.79473319220205
 21
4.647580015448894
 31
0.0
210
0.0
220
0.0
230
1.0
 40
0.8164965809276592
 41
3.171059700597488
 42
3.547084644666355
  0
LINE
  5
231
330
18F
100
AcDbEntity
  8
0
  6
________________
 62
     7
370
     9
100
AcDbLine
 10
549.7589606653638
 20
-102.810554490508
 30
0.0
 11
549.7589606653638
 21
-111.7110460499723
 31
0.0
  0
LINE
  5
232
330
18F
100
AcDbEntity
  8
0
  6
________________
 62
     7
370
     9
100
AcDbLine
 10
549.7589606653638
 20
-111.7110460499723
 30
0.0
 11
548.2685974653768
 21
-111.6745257047734
 31
0.0
  0
LINE
  5
233
330
18F
100
AcDbEntity
  8
0
  6
________________
 62
     7
370
     9
100
AcDbLine
 10
548.2685974653767
 20
-103.0234865118795
 30
0.0
 11
548.2685974653767
 21
-111.6745257047734
 31
0.0
  0
LINE
  5
234
330
18F
100
AcDbEntity
  8
0
  6
________________
 62
     7
370
     9
100
AcDbLine
 10
545.2632449139662
 20
-108.1281335664149
 30
0.0
 11
544.7828326450305
 21
-107.782131835295
 31
0.0
  0
LINE
  5
235
330
18F
100
AcDbEntity
  8
0
  6
________________
 62
     7
370
     9
100
AcDbLine
 10
544.7828326450305
 20
-107.7821318352958
 30
0.0
 11
545.2270786091825
 21
-107.5235382892514
 31
0.0
  0
LINE
  5
236
330
18F
100
AcDbEntity
  8
0
  6
________________
 62
     7
370
     9
100
AcDbLine
 10
548.2685974653767
 20
-111.6745257047734
 30
0.0
 11
547.0533184125828
 21
-110.7999273890713
 31
0.0
  0
LINE
  5
237
330
18F
100
AcDbEntity
  8
0
  6
________________
 62
     7
370
     9
100
AcDbLine
 10
549.758960665357
 20
-25.21652551062896
 30
0.0
 11
549.758960665357
 21
-34.11701707008419
 31
0.0
  0
LINE
  5
238
330
18F
100
AcDbEntity
  8
0
  6
________________
 62
     7
370
     9
100
AcDbLine
 10
549.758960665357
 20
-34.11701707008419
 30
0.0
 11
548.2685974653707
 21
-34.08049672488522
 31
0.0
  0
LINE
  5
239
330
18F
100
AcDbEntity
  8
0
  6
________________
 62
     7
370
     9
100
AcDbLine
 10
548.2685974653707
 20
-25.42945753199172
 30
0.0
 11
548.2685974653707
 21
-34.08049672488522
 31
0.0
  0
LINE
  5
23A
330
18F
100
AcDbEntity
  8
0
  6
________________
 62
     7
370
     9
100
AcDbLine
 10
545.2632449139609
 20
-30.5341045865259
 30
0.0
 11
544.7828326450214
 21
-30.18810285540243
 31
0.0
  0
LINE
  5
23B
330
18F
100
AcDbEntity
  8
0
  6
________________
 62
     7
370
     9
100
AcDbLine
 10
544.7828326450214
 20
-30.18810285540981
 30
0.0
 11
545.2270786091768
 21
-29.9295093093636
 31
0.0
  0
LINE
  5
23C
330
18F
100
AcDbEntity
  8
0
  6
________________
 62
     7
370
     9
100
AcDbLine
 10
548.2685974653707
 20
-34.08049672488522
 30
0.0
 11
547.0533184125828
 21
-33.20589840918754
 31
0.0
  0
LINE
  5
23D
330
18F
100
AcDbEntity
  8
0
  6
________________
 62
     7
370
     9
100
AcDbLine
 10
583.25709342338
 20
-136.0116701846209
 30
0.0
 11
583.2570934233835
 21
4.882326850571383
 31
0.0
  0
ARC
  5
23E
330
18F
100
AcDbEntity
  8
0
  6
________________
 62
     7
370
     9
100
AcDbCircle
 10
553.6944403057631
 20
-36.41745181160979
 30
0.0
 40
1.500000000000002
100
AcDbArc
 50
120.7396049331997
 51
262.3343131323928
  0
ARC
  5
23F
330
18F
100
AcDbEntity
  8
0
  6
________________
 62
     7
370
     9
100
AcDbCircle
 10
553.6944403057631
 20
-114.0114807914988
 30
0.0
 40
1.5
100
AcDbArc
 50
120.7396049253698
 51
262.3343131409993
  0
LINE
  5
240
330
18F
100
AcDbEntity
  8
0
  6
________________
 62
     7
370
     9
100
AcDbLine
 10
569.6374920497221
 20
7.573659948034786
 30
0.0
 11
568.7430648587224
 21
8.303956691374903
 31
0.0
  0
LINE
  5
241
330
18F
100
AcDbEntity
  8
0
  6
________________
 62
     7
370
     9
100
AcDbLine
 10
549.6345572054223
 20
-130.1208271330068
 30
0.0
 11
550.5289843964221
 21
-130.8511238763469
 31
0.0
  0
LINE
  5
242
330
18F
100
AcDbEntity
  8
0
  6
________________
 62
     7
370
     9
100
AcDbLine
 10
570.0903913898301
 20
15.63289404306109
 30
0.0
 11
542.1992164463336
 21
9.939631798205603
 31
0.0
  0
LINE
  5
243
330
18F
100
AcDbEntity
  8
0
  6
________________
 62
     7
370
     9
100
AcDbLine
 10
542.1992164463336
 20
9.939631798205589
 30
0.0
 11
542.1992164463336
 21
-130.9543652369859
 31
0.0
  0
LINE
  5
244
330
18F
100
AcDbEntity
  8
0
  6
________________
 62
     7
370
     9
100
AcDbLine
 10
570.9566592208406
 20
8.961085443081052
 30
0.0
 11
569.1004969283022
 21
10.47663560858558
 31
0.0
  0
ARC
  5
245
330
18F
100
AcDbEntity
  8
0
  6
________________
 62
     7
370
     9
100
AcDbCircle
 10
545.3762674294643
 20
-107.2197210784306
 30
0.0
 40
1.499999999999999
100
AcDbArc
 50
120.7396049285837
 51
262.3343131375733
  0
ARC
  5
246
330
18F
100
AcDbEntity
  8
0
  6
________________
 62
     7
370
     9
100
AcDbCircle
 10
545.3762674294596
 20
-29.62569209854238
 30
0.0
 40
1.500000000000004
100
AcDbArc
 50
120.7396049331234
 51
262.3343131324834
  0
ENDBLK
  5
24A
330
18F
100
AcDbEntity
  8
0
100
AcDbBlockEnd
  0
BLOCK
  5
2B6
330
248
100
AcDbEntity
  8
0
100
AcDbBlockBegin
  2
D_FRAME_VIEW@424
 70
     0
 10
0.0
 20
0.0
 30
0.0
  3
D_FRAME_VIEW@424
  1

  0
CIRCLE
  5
24B
330
248
100
AcDbEntity
  8
0
  6
________________
 62
     7
370
     9
100
AcDbCircle
 10
-317.800000000005
 20
119.2499999999816
 30
0.0
 40
5.999999999999256
210
0.0
220
0.0
230
-1.0
  0
LINE
  5
24C
330
248
100
AcDbEntity
  8
0
  6
________________
 62
     7
370
     9
100
AcDbLine
 10
319.8004446952471
 20
120.4039299608586
 30
0.0
 11
319.7995550079336
 21
118.0945290554746
 31
0.0
  0
LINE
  5
24D
330
248
100
AcDbEntity
  8
0
  6
________________
 62
     7
370
     9
100
AcDbLine
 10
317.8008896873185
 20
121.5594009053656
 30
0.0
 11
319.8004446952471
 21
120.4039299608586
 31
0.0
  0
LINE
  5
24E
330
248
100
AcDbEntity
  8
0
  6
________________
 62
     7
370
     9
100
AcDbLine
 10
315.8004449920764
 20
120.4054709444885
 30
0.0
 11
317.8008896873185
 21
121.5594009053656
 31
0.0
  0
LINE
  5
24F
330
248
100
AcDbEntity
  8
0
  6
________________
 62
     7
370
     9
100
AcDbLine
 10
315.7995553047628
 20
118.0960700391045
 30
0.0
 11
315.8004449920764
 21
120.4054709444885
 31
0.0
  0
LINE
  5
250
330
248
100
AcDbEntity
  8
0
  6
________________
 62
     7
370
     9
100
AcDbLine
 10
317.7991103126915
 20
116.9405990945976
 30
0.0
 11
315.7995553047628
 21
118.0960700391045
 31
0.0
  0
LINE
  5
251
330
248
100
AcDbEntity
  8
0
  6
________________
 62
     7
370
     9
100
AcDbLine
 10
319.7995550079336
 20
118.0945290554746
 30
0.0
 11
317.7991103126915
 21
116.9405990945976
 31
0.0
  0
CIRCLE
  5
252
330
248
100
AcDbEntity
  8
0
  6
________________
 62
     7
370
     9
100
AcDbCircle
 10
-317.800000000005
 20
169.2499999999755
 30
0.0
 40
5.999999999999811
210
0.0
220
0.0
230
-1.0
  0
LINE
  5
253
330
248
100
AcDbEntity
  8
0
  6
________________
 62
     7
370
     9
100
AcDbLine
 10
319.8002617541486
 20
170.40424704816
 30
0.0
 11
319.7997381430478
 21
168.0948460307609
 31
0.0
  0
LINE
  5
254
330
248
100
AcDbEntity
  8
0
  6
________________
 62
     7
370
     9
100
AcDbLine
 10
317.8005236111058
 20
171.5594010173746
 30
0.0
 11
319.8002617541486
 21
170.40424704816
 31
0.0
  0
LINE
  5
255
330
248
100
AcDbEntity
  8
0
  6
________________
 62
     7
370
     9
100
AcDbLine
 10
315.8002618569622
 20
170.4051539691901
 30
0.0
 11
317.8005236111058
 21
171.5594010173746
 31
0.0
  0
LINE
  5
256
330
248
100
AcDbEntity
  8
0
  6
________________
 62
     7
370
     9
100
AcDbLine
 10
319.7997381430478
 20
168.0948460307609
 30
0.0
 11
317.7994763889041
 21
166.9405989825765
 31
0.0
  0
LINE
  5
257
330
248
100
AcDbEntity
  8
0
  6
________________
 62
     7
370
     9
100
AcDbLine
 10
315.7997382458612
 20
168.0957529517911
 30
0.0
 11
315.8002618569622
 21
170.4051539691901
 31
0.0
  0
LINE
  5
258
330
248
100
AcDbEntity
  8
0
  6
________________
 62
     7
370
     9
100
AcDbLine
 10
317.7994763889041
 20
166.9405989825765
 30
0.0
 11
315.7997382458612
 21
168.0957529517911
 31
0.0
  0
LINE
  5
259
330
248
100
AcDbEntity
  8
0
  6
________________
 62
     7
370
     9
100
AcDbLine
 10
325.0536999332454
 20
205.684707220209
 30
0.0
 11
324.9777372904098
 21
205.4462133247781
 31
0.0
  0
LWPOLYLINE
  5
25A
330
248
100
AcDbEntity
  8
0
  6
________________
 62
     7
370
     9
100
AcDbPolyline
 90
       19
 70
     0
 43
0.0
 10
325.3332118711765
 20
204.8499999999981
 10
325.3263990381313
 20
204.8436754025092
 10
325.2884965572003
 20
204.8075529758463
 10
325.2522098398108
 20
204.7712703726481
 10
325.2177616017447
 20
204.7349584455998
 10
325.1849736258146
 20
204.6983157218031
 10
325.1542519291642
 20
204.6616752878313
 10
325.1254510910081
 20
204.6247332253984
 10
325.0989440390422
 20
204.5878275532422
 10
325.0747490665287
 20
204.5508572161353
 10
325.0540500969256
 20
204.5157663354194
 10
325.0356243982802
 20
204.4806453797003
 10
325.0196166138944
 20
204.4456272951826
 10
325.0059853286293
 20
204.4104136520097
 10
324.9949550446914
 20
204.3753404014873
 10
324.9865269377527
 20
204.340108798038
 10
324.9808767411855
 20
204.3050592458853
 10
324.978059001917
 20
204.2700954845983
 10
324.9777372904053
 20
204.2537861113545
  0
LINE
  5
25B
330
248
100
AcDbEntity
  8
0
  6
________________
 62
     7
370
     9
100
AcDbLine
 10
324.9777372904053
 20
204.2537861113545
 30
0.0
 11
325.0536997582473
 21
204.0152930410635
 31
0.0
  0
LWPOLYLINE
  5
25C
330
248
100
AcDbEntity
  8
0
  6
________________
 62
     7
370
     9
100
AcDbPolyline
 90
       19
 70
     0
 43
0.0
 10
324.9777372904098
 20
205.4462133247781
 10
324.978059001917
 20
205.4299045153902
 10
324.9807178738993
 20
205.3962666723118
 10
324.986071571525
 20
205.3621906753233
 10
324.994092164067
 20
205.3278085996515
 10
325.0048619274887
 20
205.2928162235845
 10
325.0182846987929
 20
205.2575480361033
 10
325.0344808740144
 20
205.2216932252727
 10
325.053293653412
 20
205.1855932291974
 10
325.0747490665287
 20
205.1491427838532
 10
325.0980283388075
 20
205.1135080320916
 10
325.1237253078784
 20
205.0775758635776
 10
325.1517079208818
 20
205.041477048371
 10
325.1821865182029
 20
205.0049081394465
 10
325.2148543339472
 20
204.9682020046534
 10
325.2499510710039
 20
204.9310507943416
 10
325.287118046291
 20
204.893792975082
 10
325.3263990381313
 20
204.8563245974792
 10
325.3332118711765
 20
204.8499999999903
  0
LINE
  5
25D
330
248
100
AcDbEntity
  8
0
  6
________________
 62
     7
370
     9
100
AcDbLine
 10
326.3000000000046
 20
206.349999999994
 30
0.0
 11
326.3000000000046
 21
206.4999999999925
 31
0.0
  0
LINE
  5
25E
330
248
100
AcDbEntity
  8
0
  6
________________
 62
     7
370
     9
100
AcDbLine
 10
326.3000000000046
 20
202.9999999999937
 30
0.0
 11
326.3000000000046
 21
203.3499999999944
 31
0.0
  0
LINE
  5
25F
330
248
100
AcDbEntity
  8
0
  6
________________
 62
     7
370
     9
100
AcDbLine
 10
325.2465227527657
 20
203.35261469538
 30
0.0
 11
325.2465227527657
 21
203.7822052212341
 31
0.0
  0
LINE
  5
260
330
248
100
AcDbEntity
  8
0
  6
________________
 62
     7
370
     9
100
AcDbLine
 10
325.2465227527657
 20
205.9177947787518
 30
0.0
 11
325.2465227527657
 21
206.1473853046062
 31
0.0
  0
LINE
  5
261
330
248
100
AcDbEntity
  8
0
  6
________________
 62
     7
370
     9
100
AcDbLine
 10
308.9463000667542
 20
203.9152927797775
 30
0.0
 11
309.0222627095911
 21
204.1537866752074
 31
0.0
  0
LWPOLYLINE
  5
262
330
248
100
AcDbEntity
  8
0
  6
________________
 62
     7
370
     9
100
AcDbPolyline
 90
       19
 70
     0
 43
0.0
 10
308.6667881288279
 20
204.7499999999937
 10
308.6736009618694
 20
204.7563245974792
 10
308.7115034428004
 20
204.7924470241421
 10
308.74779016019
 20
204.8287296273403
 10
308.7822383982561
 20
204.8650415543886
 10
308.8150263741862
 20
204.9016842781853
 10
308.8457480708366
 20
204.9383247121572
 10
308.8745489089927
 20
204.97526677459
 10
308.9010559609587
 20
205.0121724467463
 10
308.9252509334722
 20
205.0491427838532
 10
308.9459499030753
 20
205.084233664569
 10
308.9643756017207
 20
205.1193546202882
 10
308.9803833861065
 20
205.1543727048058
 10
308.9940146713715
 20
205.1895863479787
 10
309.0050449553094
 20
205.2246595985012
 10
309.0134730622482
 20
205.2598912019504
 10
309.0191232588154
 20
205.2949407541031
 10
309.0219409980839
 20
205.3299045153901
 10
309.0222627095956
 20
205.3462138886369
  0
LINE
  5
263
330
248
100
AcDbEntity
  8
0
  6
________________
 62
     7
370
     9
100
AcDbLine
 10
309.0222627095956
 20
205.3462138886369
 30
0.0
 11
308.9463002417523
 21
205.5847069589268
 31
0.0
  0
LWPOLYLINE
  5
264
330
248
100
AcDbEntity
  8
0
  6
________________
 62
     7
370
     9
100
AcDbPolyline
 90
       19
 70
     0
 43
0.0
 10
309.0222627095911
 20
204.1537866752074
 10
309.0219409980839
 20
204.1700954845983
 10
309.0192821261016
 20
204.2037333276766
 10
309.0139284284759
 20
204.2378093246651
 10
309.005907835934
 20
204.2721914003369
 10
308.9951380725121
 20
204.307183776404
 10
308.9817153012081
 20
204.3424519638852
 10
308.9655191259865
 20
204.3783067747158
 10
308.9467063465889
 20
204.4144067707911
 10
308.9252509334722
 20
204.4508572161352
 10
308.9019716611934
 20
204.4864919678969
 10
308.8762746921225
 20
204.5224241364108
 10
308.8482920791191
 20
204.5585229516175
 10
308.817813481798
 20
204.5950918605419
 10
308.7851456660536
 20
204.631797995335
 10
308.750048928997
 20
204.6689492056468
 10
308.7128819537098
 20
204.7062070249064
 10
308.6736009618694
 20
204.7436754025093
 10
308.6667881288279
 20
204.7499999999947
  0
LINE
  5
265
330
248
100
AcDbEntity
  8
0
  6
________________
 62
     7
370
     9
100
AcDbLine
 10
307.6999999999957
 20
203.2499999999944
 30
0.0
 11
307.6999999999957
 21
202.999999999996
 31
0.0
  0
LINE
  5
266
330
248
100
AcDbEntity
  8
0
  6
________________
 62
     7
370
     9
100
AcDbLine
 10
307.6999999999957
 20
206.4999999999946
 30
0.0
 11
307.6999999999957
 21
206.249999999994
 31
0.0
  0
LINE
  5
267
330
248
100
AcDbEntity
  8
0
  6
________________
 62
     7
370
     9
100
AcDbLine
 10
308.7534772472351
 20
206.1473853046078
 30
0.0
 11
308.7534772472351
 21
205.8177947787553
 31
0.0
  0
LINE
  5
268
330
248
100
AcDbEntity
  8
0
  6
________________
 62
     7
370
     9
100
AcDbLine
 10
308.7534772472351
 20
203.6822052212358
 30
0.0
 11
308.7534772472351
 21
203.3526146953827
 31
0.0
  0
LINE
  5
269
330
248
100
AcDbEntity
  8
0
  6
________________
 62
   253
370
     9
100
AcDbLine
 10
312.0000000000114
 20
229.7499999999864
 30
0.0
 11
311.4499999999954
 21
229.7499999999864
 31
0.0
  0
LINE
  5
26A
330
248
100
AcDbEntity
  8
0
  6
________________
 62
     7
370
     9
100
AcDbLine
 10
311.4499999999954
 20
233.2499999999859
 30
0.0
 11
312.0000000000114
 21
233.2499999999859
 31
0.0
  0
LINE
  5
26B
330
248
100
AcDbEntity
  8
0
  6
________________
 62
     7
370
     9
100
AcDbLine
 10
312.0000000000114
 20
233.2499999999857
 30
0.0
 11
312.0000000000114
 21
229.7499999999864
 31
0.0
  0
LINE
  5
26C
330
248
100
AcDbEntity
  8
0
  6
________________
 62
   253
370
     9
100
AcDbLine
 10
311.4499999999954
 20
229.2499999999865
 30
0.0
 11
312.0000000000114
 21
229.2499999999865
 31
0.0
  0
LINE
  5
26D
330
248
100
AcDbEntity
  8
0
  6
________________
 62
     7
370
     9
100
AcDbLine
 10
312.0000000000114
 20
229.2499999999865
 30
0.0
 11
312.0000000000114
 21
229.7499999999864
 31
0.0
  0
LINE
  5
26E
330
248
100
AcDbEntity
  8
0
  6
________________
 62
     7
370
     9
100
AcDbLine
 10
311.5000000000055
 20
225.749999999987
 30
0.0
 11
311.4499999999954
 21
225.749999999987
 31
0.0
  0
LINE
  5
26F
330
248
100
AcDbEntity
  8
0
  6
________________
 62
     7
370
     9
100
AcDbLine
 10
312.0000000000114
 20
229.2499999999865
 30
0.0
 11
312.0000000000114
 21
225.7499999999874
 31
0.0
  0
LINE
  5
270
330
248
100
AcDbEntity
  8
0
  6
________________
 62
   253
370
     9
100
AcDbLine
 10
311.4499999999954
 20
207.9437525019914
 30
0.0
 11
311.5000000000242
 21
207.9437525019914
 31
0.0
  0
LINE
  5
271
330
248
100
AcDbEntity
  8
0
  6
________________
 62
   253
370
     9
100
AcDbLine
 10
311.5000000000052
 20
203.2600040031933
 30
0.0
 11
311.4499999999954
 21
203.2600040031933
 31
0.0
  0
LINE
  5
272
330
248
100
AcDbEntity
  8
0
  6
________________
 62
   253
370
     9
100
AcDbLine
 10
311.5000000000055
 20
88.75000000000612
 30
0.0
 11
310.4999999999958
 21
88.75000000000612
 31
0.0
  0
LINE
  5
273
330
248
100
AcDbEntity
  8
0
  6
________________
 62
     7
370
     9
100
AcDbLine
 10
311.5000000000055
 20
83.2500000000069
 30
0.0
 11
310.4999999999955
 21
83.2500000000069
 31
0.0
  0
LINE
  5
274
330
248
100
AcDbEntity
  8
0
  6
________________
 62
     7
370
     9
100
AcDbLine
 10
311.4499999999954
 20
182.7499999999966
 30
0.0
 11
302.9499999999962
 21
182.7499999999966
 31
0.0
  0
LINE
  5
275
330
248
100
AcDbEntity
  8
0
  6
________________
 62
   253
370
     9
100
AcDbLine
 10
302.9499999999962
 20
236.24999999999
 30
0.0
 11
302.9499999999962
 21
182.7499999999966
 31
0.0
  0
LINE
  5
276
330
248
100
AcDbEntity
  8
0
  6
________________
 62
     7
370
     9
100
AcDbLine
 10
311.4499999999954
 20
236.24999999999
 30
0.0
 11
302.9499999999962
 21
236.24999999999
 31
0.0
  0
LINE
  5
277
330
248
100
AcDbEntity
  8
0
  6
________________
 62
     7
370
     9
100
AcDbLine
 10
311.4499999999954
 20
182.7499999999966
 30
0.0
 11
311.4499999999954
 21
236.24999999999
 31
0.0
  0
CIRCLE
  5
278
330
248
100
AcDbEntity
  8
0
  6
________________
 62
     7
370
     9
100
AcDbCircle
 10
-307.6999999999957
 20
204.7499999999939
 30
0.0
 40
1.749999999999863
210
0.0
220
0.0
230
-1.0
  0
LINE
  5
279
330
248
100
AcDbEntity
  8
0
  6
________________
 62
     7
370
     9
100
AcDbLine
 10
302.4499999999962
 20
182.7499999999966
 30
0.0
 11
302.4499999999962
 21
81.75000000000907
 31
0.0
  0
LINE
  5
27A
330
248
100
AcDbEntity
  8
0
  6
________________
 62
     7
370
     9
100
AcDbLine
 10
301.4499999999965
 20
81.7500000000091
 30
0.0
 11
302.4499999999963
 21
81.7500000000091
 31
0.0
  0
LINE
  5
27B
330
248
100
AcDbEntity
  8
0
  6
________________
 62
     7
370
     9
100
AcDbLine
 10
301.4499999999963
 20
81.7500000000091
 30
0.0
 11
301.4499999999963
 21
234.7499999999903
 31
0.0
  0
LINE
  5
27C
330
248
100
AcDbEntity
  8
0
  6
________________
 62
     7
370
     9
100
AcDbLine
 10
302.9499999999962
 20
182.7499999999966
 30
0.0
 11
302.4499999999964
 21
182.7499999999966
 31
0.0
  0
ARC
  5
27D
330
248
100
AcDbEntity
  8
0
  6
________________
 62
     7
370
     9
100
AcDbCircle
 10
302.9499999999962
 20
234.7499999999903
 30
0.0
 40
1.499999999999776
100
AcDbArc
 50
90.0
 51
180.0
  0
LINE
  5
27E
330
248
100
AcDbEntity
  8
0
  6
________________
 62
   253
370
     9
100
AcDbLine
 10
302.9499999999962
 20
182.7499999999966
 30
0.0
 11
302.9499999999962
 21
81.75000000000985
 31
0.0
  0
LINE
  5
27F
330
248
100
AcDbEntity
  8
0
  6
________________
 62
     7
370
     9
100
AcDbLine
 10
302.9499999999962
 20
81.75000000000983
 30
0.0
 11
302.4499999999963
 21
81.75000000000983
 31
0.0
  0
LINE
  5
280
330
248
100
AcDbEntity
  8
0
  6
________________
 62
     7
370
     9
100
AcDbLine
 10
311.4499999999954
 20
83.2500000000069
 30
0.0
 11
311.4499999999954
 21
81.75000000000985
 31
0.0
  0
LINE
  5
281
330
248
100
AcDbEntity
  8
0
  6
________________
 62
     7
370
     9
100
AcDbLine
 10
302.9499999999962
 20
81.75000000000985
 30
0.0
 11
303.4999999999961
 21
81.75000000000985
 31
0.0
  0
LINE
  5
282
330
248
100
AcDbEntity
  8
0
  6
________________
 62
     7
370
     9
100
AcDbLine
 10
310.4999999999955
 20
81.75000000000983
 30
0.0
 11
311.4499999999954
 21
81.75000000000985
 31
0.0
  0
LINE
  5
283
330
248
100
AcDbEntity
  8
0
  6
________________
 62
     7
370
     9
100
AcDbLine
 10
310.4999999999955
 20
182.249999999997
 30
0.0
 11
303.4999999999961
 21
182.249999999997
 31
0.0
  0
LINE
  5
284
330
248
100
AcDbEntity
  8
0
  6
________________
 62
     7
370
     9
100
AcDbLine
 10
310.4999999999955
 20
182.249999999997
 30
0.0
 11
310.4999999999955
 21
81.7500000000094
 31
0.0
  0
LINE
  5
285
330
248
100
AcDbEntity
  8
0
  6
________________
 62
     7
370
     9
100
AcDbLine
 10
303.4999999999961
 20
182.249999999997
 30
0.0
 11
303.4999999999961
 21
81.7500000000094
 31
0.0
  0
LINE
  5
286
330
248
100
AcDbEntity
  8
0
  6
________________
 62
     7
370
     9
100
AcDbLine
 10
310.4999999999955
 20
81.7500000000094
 30
0.0
 11
303.4999999999961
 21
81.7500000000094
 31
0.0
  0
LINE
  5
287
330
248
100
AcDbEntity
  8
0
  6
________________
 62
     7
370
     9
100
AcDbLine
 10
310.4999999999955
 20
182.249999999997
 30
0.0
 11
310.4999999999955
 21
182.7499999999966
 31
0.0
  0
LINE
  5
288
330
248
100
AcDbEntity
  8
0
  6
________________
 62
     7
370
     9
100
AcDbLine
 10
303.4999999999961
 20
182.249999999997
 30
0.0
 11
303.4999999999961
 21
182.7499999999966
 31
0.0
  0
LINE
  5
289
330
248
100
AcDbEntity
  8
0
  6
________________
 62
   253
370
     9
100
AcDbLine
 10
322.5500000000046
 20
229.7499999999857
 30
0.0
 11
322.0000000000047
 21
229.7499999999857
 31
0.0
  0
LINE
  5
28A
330
248
100
AcDbEntity
  8
0
  6
________________
 62
     7
370
     9
100
AcDbLine
 10
322.0000000000047
 20
229.7499999999857
 30
0.0
 11
322.0000000000047
 21
233.2499999999841
 31
0.0
  0
LINE
  5
28B
330
248
100
AcDbEntity
  8
0
  6
________________
 62
     7
370
     9
100
AcDbLine
 10
322.0000000000047
 20
233.2499999999849
 30
0.0
 11
322.5500000000046
 21
233.2499999999849
 31
0.0
  0
LINE
  5
28C
330
248
100
AcDbEntity
  8
0
  6
________________
 62
     7
370
     9
100
AcDbLine
 10
322.0000000000047
 20
225.749999999987
 30
0.0
 11
322.0000000000047
 21
229.2499999999858
 31
0.0
  0
LINE
  5
28D
330
248
100
AcDbEntity
  8
0
  6
________________
 62
   253
370
     9
100
AcDbLine
 10
322.0000000000047
 20
229.2499999999858
 30
0.0
 11
322.5500000000046
 21
229.2499999999858
 31
0.0
  0
LINE
  5
28E
330
248
100
AcDbEntity
  8
0
  6
________________
 62
     7
370
     9
100
AcDbLine
 10
322.0000000000047
 20
229.2499999999858
 30
0.0
 11
322.0000000000047
 21
229.7499999999857
 31
0.0
  0
LINE
  5
28F
330
248
100
AcDbEntity
  8
0
  6
________________
 62
   253
370
     9
100
AcDbLine
 10
331.0500000000039
 20
236.2499999999904
 30
0.0
 11
331.0500000000039
 21
182.749999999997
 31
0.0
  0
LINE
  5
290
330
248
100
AcDbEntity
  8
0
  6
________________
 62
     7
370
     9
100
AcDbLine
 10
332.5500000000038
 20
81.75000000000946
 30
0.0
 11
332.5500000000038
 21
234.7499999999906
 31
0.0
  0
LINE
  5
291
330
248
100
AcDbEntity
  8
0
  6
________________
 62
     7
370
     9
100
AcDbLine
 10
332.5500000000035
 20
81.75000000000946
 30
0.0
 11
331.5500000000037
 21
81.75000000000946
 31
0.0
  0
LINE
  5
292
330
248
100
AcDbEntity
  8
0
  6
________________
 62
     7
370
     9
100
AcDbLine
 10
331.5500000000038
 20
182.749999999997
 30
0.0
 11
331.5500000000038
 21
81.75000000000948
 31
0.0
  0
LINE
  5
293
330
248
100
AcDbEntity
  8
0
  6
________________
 62
     7
370
     9
100
AcDbLine
 10
331.0500000000039
 20
182.749999999997
 30
0.0
 11
331.5500000000036
 21
182.749999999997
 31
0.0
  0
ARC
  5
294
330
248
100
AcDbEntity
  8
0
  6
________________
 62
     7
370
     9
100
AcDbCircle
 10
-331.0500000000039
 20
234.7499999999906
 30
0.0
 40
1.499999999999815
210
0.0
220
0.0
230
-1.0
100
AcDbArc
 50
90.0
 51
180.0
  0
LINE
  5
295
330
248
100
AcDbEntity
  8
0
  6
________________
 62
     7
370
     9
100
AcDbLine
 10
322.5500000000046
 20
236.2499999999904
 30
0.0
 11
331.0500000000039
 21
236.2499999999904
 31
0.0
  0
LINE
  5
296
330
248
100
AcDbEntity
  8
0
  6
________________
 62
     7
370
     9
100
AcDbLine
 10
322.5500000000046
 20
182.749999999997
 30
0.0
 11
322.5500000000046
 21
236.2499999999904
 31
0.0
  0
LINE
  5
297
330
248
100
AcDbEntity
  8
0
  6
________________
 62
     7
370
     9
100
AcDbLine
 10
322.5500000000046
 20
182.749999999997
 30
0.0
 11
331.0500000000039
 21
182.749999999997
 31
0.0
  0
CIRCLE
  5
298
330
248
100
AcDbEntity
  8
0
  6
________________
 62
     7
370
     9
100
AcDbCircle
 10
-326.3000000000043
 20
204.7499999999943
 30
0.0
 40
1.749999999999863
210
0.0
220
0.0
230
-1.0
  0
LINE
  5
299
330
248
100
AcDbEntity
  8
0
  6
________________
 62
   253
370
     9
100
AcDbLine
 10
331.0500000000039
 20
182.749999999997
 30
0.0
 11
331.0500000000039
 21
81.75000000000949
 31
0.0
  0
LINE
  5
29A
330
248
100
AcDbEntity
  8
0
  6
________________
 62
     7
370
     9
100
AcDbLine
 10
331.0500000000039
 20
81.75000000000946
 30
0.0
 11
331.5500000000038
 21
81.75000000000946
 31
0.0
  0
LINE
  5
29B
330
248
100
AcDbEntity
  8
0
  6
________________
 62
     7
370
     9
100
AcDbLine
 10
331.0500000000039
 20
81.75000000000946
 30
0.0
 11
330.5000000000039
 21
81.75000000000946
 31
0.0
  0
LINE
  5
29C
330
248
100
AcDbEntity
  8
0
  6
________________
 62
     7
370
     9
100
AcDbLine
 10
330.5000000000039
 20
81.7500000000094
 30
0.0
 11
311.5000000000055
 21
81.7500000000095
 31
0.0
  0
LINE
  5
29D
330
248
100
AcDbEntity
  8
0
  6
________________
 62
     7
370
     9
100
AcDbLine
 10
311.5000000000055
 20
81.7500000000095
 30
0.0
 11
311.5000000000055
 21
182.249999999997
 31
0.0
  0
LINE
  5
29E
330
248
100
AcDbEntity
  8
0
  6
________________
 62
     7
370
     9
100
AcDbLine
 10
330.5000000000039
 20
182.249999999997
 30
0.0
 11
311.5000000000055
 21
182.249999999997
 31
0.0
  0
LINE
  5
29F
330
248
100
AcDbEntity
  8
0
  6
________________
 62
     7
370
     9
100
AcDbLine
 10
330.5000000000039
 20
182.249999999997
 30
0.0
 11
330.5000000000039
 21
81.7500000000094
 31
0.0
  0
LINE
  5
2A0
330
248
100
AcDbEntity
  8
0
  6
________________
 62
     7
370
     9
100
AcDbLine
 10
322.5500000000046
 20
209.8499999999936
 30
0.0
 11
322.0000000000046
 21
209.8499999999936
 31
0.0
  0
ARC
  5
2A1
330
248
100
AcDbEntity
  8
0
  6
________________
 62
     7
370
     9
100
AcDbCircle
 10
-322.0000000000046
 20
206.849999999994
 30
0.0
 40
3.000000000000003
210
0.0
220
0.0
230
-1.0
100
AcDbArc
 50
0.0
 51
90.0
  0
LINE
  5
2A2
330
248
100
AcDbEntity
  8
0
  6
________________
 62
     7
370
     9
100
AcDbLine
 10
319.0000000000049
 20
206.849999999994
 30
0.0
 11
319.0000000000049
 21
202.6499999999945
 31
0.0
  0
ARC
  5
2A3
330
248
100
AcDbEntity
  8
0
  6
________________
 62
     7
370
     9
100
AcDbCircle
 10
-322.0000000000046
 20
202.6499999999945
 30
0.0
 40
3.000000000000003
210
0.0
220
0.0
230
-1.0
100
AcDbArc
 50
270.0
 51
0.0
  0
LINE
  5
2A4
330
248
100
AcDbEntity
  8
0
  6
________________
 62
     7
370
     9
100
AcDbLine
 10
322.5500000000046
 20
199.6499999999949
 30
0.0
 11
322.0000000000046
 21
199.6499999999949
 31
0.0
  0
LINE
  5
2A5
330
248
100
AcDbEntity
  8
0
  6
________________
 62
     7
370
     9
100
AcDbLine
 10
322.5500000000046
 20
225.7499999999916
 30
0.0
 11
311.5000000000055
 21
225.7499999999916
 31
0.0
  0
LINE
  5
2A6
330
248
100
AcDbEntity
  8
0
  6
________________
 62
     7
370
     9
100
AcDbLine
 10
330.5000000000039
 20
182.249999999997
 30
0.0
 11
330.5000000000039
 21
182.749999999997
 31
0.0
  0
LINE
  5
2A7
330
248
100
AcDbEntity
  8
0
  6
________________
 62
     7
370
     9
100
AcDbLine
 10
311.5000000000055
 20
182.249999999997
 30
0.0
 11
311.5000000000055
 21
225.7499999999916
 31
0.0
  0
LINE
  5
2A8
330
248
100
AcDbEntity
  8
0
  6
________________
 62
     7
370
     9
100
AcDbLine
 10
311.4499999999954
 20
209.8499999999936
 30
0.0
 11
311.5000000000055
 21
209.8499999999936
 31
0.0
  0
LINE
  5
2A9
330
248
100
AcDbEntity
  8
0
  6
________________
 62
     7
370
     9
100
AcDbLine
 10
311.5000000000055
 20
221.6499999999922
 30
0.0
 11
311.4499999999954
 21
221.6499999999922
 31
0.0
  0
LINE
  5
2AA
330
248
100
AcDbEntity
  8
0
  6
________________
 62
     7
370
     9
100
AcDbLine
 10
310.4999999999956
 20
92.85000000000804
 30
0.0
 11
311.5000000000055
 21
92.85000000000804
 31
0.0
  0
LINE
  5
2AB
330
248
100
AcDbEntity
  8
0
  6
________________
 62
     7
370
     9
100
AcDbLine
 10
311.5000000000055
 20
104.6500000000066
 30
0.0
 11
310.4999999999956
 21
104.6500000000066
 31
0.0
  0
ARC
  5
2AC
330
248
100
AcDbEntity
  8
0
  6
________________
 62
     7
370
     9
100
AcDbCircle
 10
326.3000000000046
 20
204.8499999999942
 30
0.0
 40
1.500000000000001
100
AcDbArc
 50
90.00000000000043
 51
146.1876717916853
  0
ARC
  5
2AD
330
248
100
AcDbEntity
  8
0
  6
________________
 62
     7
370
     9
100
AcDbCircle
 10
326.3000000000046
 20
204.8499999999942
 30
0.0
 40
1.500000000000001
100
AcDbArc
 50
270.0
 51
90.0000000000004
  0
ARC
  5
2AE
330
248
100
AcDbEntity
  8
0
  6
________________
 62
     7
370
     9
100
AcDbCircle
 10
326.3000000000046
 20
204.8499999999942
 30
0.0
 40
1.499999999999977
100
AcDbArc
 50
213.8123081802355
 51
270.0
  0
LINE
  5
2AF
330
248
100
AcDbEntity
  8
0
  6
________________
 62
     7
370
     9
100
AcDbLine
 10
324.9777372903944
 20
205.4462033471509
 30
0.0
 11
324.9777372903944
 21
204.2537945879665
 31
0.0
  0
ARC
  5
2B0
330
248
100
AcDbEntity
  8
0
  6
________________
 62
     7
370
     9
100
AcDbCircle
 10
307.6999999999957
 20
204.7499999999942
 30
0.0
 40
1.500000000000001
100
AcDbArc
 50
270.0000000000004
 51
326.1876717916975
  0
ARC
  5
2B1
330
248
100
AcDbEntity
  8
0
  6
________________
 62
     7
370
     9
100
AcDbCircle
 10
307.6999999999957
 20
204.7499999999942
 30
0.0
 40
1.500000000000001
100
AcDbArc
 50
90.0
 51
270.0000000000004
  0
ARC
  5
2B2
330
248
100
AcDbEntity
  8
0
  6
________________
 62
     7
370
     9
100
AcDbCircle
 10
307.6999999999957
 20
204.7499999999942
 30
0.0
 40
1.499999999999976
100
AcDbArc
 50
33.81230818022367
 51
90.0
  0
LINE
  5
2B3
330
248
100
AcDbEntity
  8
0
  6
________________
 62
     7
370
     9
100
AcDbLine
 10
309.0222627096065
 20
204.1537966528375
 30
0.0
 11
309.0222627096065
 21
205.346205412022
 31
0.0
  0
ENDBLK
  5
2B7
330
248
100
AcDbEntity
  8
0
100
AcDbBlockEnd
  0
BLOCK
  5
2EC
330
2B5
100
AcDbEntity
  8
0
100
AcDbBlockBegin
  2
D_FRAME_VIEW@410
 70
     0
 10
0.0
 20
0.0
 30
0.0
  3
D_FRAME_VIEW@410
  1

  0
LINE
  5
2B8
330
2B5
100
AcDbEntity
  8
0
  6
________________
 62
     7
370
     9
100
AcDbLine
 10
117.7900000000015
 20
111.499999999976
 30
0.0
 11
117.7900000000015
 21
123.4999999999745
 31
0.0
  0
LINE
  5
2B9
330
2B5
100
AcDbEntity
  8
0
  6
________________
 62
     7
370
     9
100
AcDbLine
 10
117.4900000000015
 20
111.499999999976
 30
0.0
 11
117.4900000000015
 21
123.4999999999745
 31
0.0
  0
LINE
  5
2BA
330
2B5
100
AcDbEntity
  8
0
  6
________________
 62
     7
370
     9
100
AcDbLine
 10
114.4900000000017
 20
114.4999999999756
 30
0.0
 11
114.4900000000017
 21
120.4999999999749
 31
0.0
  0
LINE
  5
2BB
330
2B5
100
AcDbEntity
  8
0
  6
________________
 62
     7
370
     9
100
AcDbLine
 10
117.4899999999989
 20
161.4999999999694
 30
0.0
 11
117.4899999999989
 21
173.499999999969
 31
0.0
  0
LINE
  5
2BC
330
2B5
100
AcDbEntity
  8
0
  6
________________
 62
     7
370
     9
100
AcDbLine
 10
114.4899999999989
 20
164.4999999999693
 30
0.0
 11
114.4899999999989
 21
170.4999999999691
 31
0.0
  0
LINE
  5
2BD
330
2B5
100
AcDbEntity
  8
0
  6
________________
 62
     7
370
     9
100
AcDbLine
 10
117.7899999999989
 20
161.4999999999694
 30
0.0
 11
117.7899999999989
 21
173.499999999969
 31
0.0
  0
LINE
  5
2BE
330
2B5
100
AcDbEntity
  8
0
  6
________________
 62
     7
370
     9
100
AcDbLine
 10
111.2100000000001
 20
234.4999999999837
 30
0.0
 11
112.21
 21
234.4999999999837
 31
0.0
  0
LINE
  5
2BF
330
2B5
100
AcDbEntity
  8
0
  6
________________
 62
     7
370
     9
100
AcDbLine
 10
112.2099999999988
 20
234.4999999999824
 30
0.0
 11
110.7100000000001
 21
232.9999999999839
 31
0.0
  0
LINE
  5
2C0
330
2B5
100
AcDbEntity
  8
0
  6
________________
 62
   253
370
     9
100
AcDbLine
 10
110.7100000000001
 20
232.9999999999839
 30
0.0
 11
82.21000000000126
 21
232.9999999999847
 31
0.0
  0
LINE
  5
2C1
330
2B5
100
AcDbEntity
  8
0
  6
________________
 62
     7
370
     9
100
AcDbLine
 10
80.7100000000026
 20
234.4999999999833
 30
0.0
 11
82.21000000000126
 21
232.9999999999847
 31
0.0
  0
LINE
  5
2C2
330
2B5
100
AcDbEntity
  8
0
  6
________________
 62
     7
370
     9
100
AcDbLine
 10
80.71000000000136
 20
234.4999999999845
 30
0.0
 11
81.71000000000132
 21
234.4999999999845
 31
0.0
  0
LINE
  5
2C3
330
2B5
100
AcDbEntity
  8
0
  6
________________
 62
     7
370
     9
100
AcDbLine
 10
81.71000000000132
 20
234.4142135623576
 30
0.0
 11
81.71000000000132
 21
234.4999999999845
 31
0.0
  0
LINE
  5
2C4
330
2B5
100
AcDbEntity
  8
0
  6
________________
 62
     7
370
     9
100
AcDbLine
 10
81.91000000000132
 20
234.4142135623576
 30
0.0
 11
81.71000000000132
 21
234.4142135623576
 31
0.0
  0
LINE
  5
2C5
330
2B5
100
AcDbEntity
  8
0
  6
________________
 62
     7
370
     9
100
AcDbLine
 10
81.91000000000132
 20
234.4999999999845
 30
0.0
 11
81.91000000000132
 21
234.4142135623576
 31
0.0
  0
LINE
  5
2C6
330
2B5
100
AcDbEntity
  8
0
  6
________________
 62
     7
370
     9
100
AcDbLine
 10
81.91000000000132
 20
234.4999999999845
 30
0.0
 11
111.0100000000001
 21
234.4999999999837
 31
0.0
  0
LINE
  5
2C7
330
2B5
100
AcDbEntity
  8
0
  6
________________
 62
     7
370
     9
100
AcDbLine
 10
111.0100000000001
 20
234.4142135623568
 30
0.0
 11
111.0100000000001
 21
234.4999999999838
 31
0.0
  0
LINE
  5
2C8
330
2B5
100
AcDbEntity
  8
0
  6
________________
 62
     7
370
     9
100
AcDbLine
 10
111.2100000000001
 20
234.4142135623568
 30
0.0
 11
111.0100000000001
 21
234.4142135623568
 31
0.0
  0
LINE
  5
2C9
330
2B5
100
AcDbEntity
  8
0
  6
________________
 62
     7
370
     9
100
AcDbLine
 10
111.2100000000001
 20
234.4999999999838
 30
0.0
 11
111.2100000000001
 21
234.4142135623568
 31
0.0
  0
LINE
  5
2CA
330
2B5
100
AcDbEntity
  8
0
  6
________________
 62
   253
370
     9
100
AcDbLine
 10
82.21000000000126
 20
232.9999999999847
 30
0.0
 11
82.20999999999727
 21
80.00000000000351
 31
0.0
  0
LINE
  5
2CB
330
2B5
100
AcDbEntity
  8
0
  6
________________
 62
   253
370
     9
100
AcDbLine
 10
110.7099999999961
 20
80.00000000000277
 30
0.0
 11
110.7100000000001
 21
232.9999999999839
 31
0.0
  0
LINE
  5
2CC
330
2B5
100
AcDbEntity
  8
0
  6
________________
 62
     7
370
     9
100
AcDbLine
 10
82.20999999999727
 20
80.00000000000352
 30
0.0
 11
110.7099999999961
 21
80.00000000000277
 31
0.0
  0
LINE
  5
2CD
330
2B5
100
AcDbEntity
  8
0
  6
________________
 62
     7
370
     9
100
AcDbLine
 10
112.1242135623718
 20
180.9999999999903
 30
0.0
 11
112.1242135623691
 21
80.00000000000274
 31
0.0
  0
LINE
  5
2CE
330
2B5
100
AcDbEntity
  8
0
  6
________________
 62
     7
370
     9
100
AcDbLine
 10
112.21
 20
234.4999999999837
 30
0.0
 11
112.2099999999987
 21
180.9999999999903
 31
0.0
  0
LINE
  5
2CF
330
2B5
100
AcDbEntity
  8
0
  6
________________
 62
     7
370
     9
100
AcDbLine
 10
112.2099999999983
 20
180.9999999999903
 30
0.0
 11
112.1242135623715
 21
180.9999999999903
 31
0.0
  0
LINE
  5
2D0
330
2B5
100
AcDbEntity
  8
0
  6
________________
 62
     7
370
     9
100
AcDbLine
 10
110.7099999999961
 20
80.00000000000277
 30
0.0
 11
112.1242135623687
 21
80.00000000000273
 31
0.0
  0
LINE
  5
2D1
330
2B5
100
AcDbEntity
  8
0
  6
________________
 62
     7
370
     9
100
AcDbLine
 10
80.70999999999734
 20
80.00000000000357
 30
0.0
 11
80.71000000000136
 21
234.4999999999845
 31
0.0
  0
LINE
  5
2D2
330
2B5
100
AcDbEntity
  8
0
  6
________________
 62
     7
370
     9
100
AcDbLine
 10
80.70999999999765
 20
80.00000000000357
 30
0.0
 11
82.20999999999727
 21
80.00000000000352
 31
0.0
  0
LINE
  5
2D3
330
2B5
100
AcDbEntity
  8
0
  6
________________
 62
     7
370
     9
100
AcDbLine
 10
112.2099999999986
 20
180.4999999999907
 30
0.0
 11
112.1242135623717
 21
180.4999999999907
 31
0.0
  0
LINE
  5
2D4
330
2B5
100
AcDbEntity
  8
0
  6
________________
 62
     7
370
     9
100
AcDbLine
 10
112.2099999999986
 20
180.4999999999907
 30
0.0
 11
112.2099999999986
 21
80.0000000000031
 31
0.0
  0
LINE
  5
2D5
330
2B5
100
AcDbEntity
  8
0
  6
________________
 62
     7
370
     9
100
AcDbLine
 10
112.2099999999986
 20
80.00000000000308
 30
0.0
 11
112.1242135623717
 21
80.00000000000308
 31
0.0
  0
LINE
  5
2D6
330
2B5
100
AcDbEntity
  8
0
  6
________________
 62
     7
370
     9
100
AcDbLine
 10
80.7099999999999
 20
81.9999999999973
 30
0.0
 11
51.20999999999853
 21
81.99999999999734
 31
0.0
  0
LINE
  5
2D7
330
2B5
100
AcDbEntity
  8
0
  6
________________
 62
     7
370
     9
100
AcDbLine
 10
51.20999999999853
 20
258.9999999999973
 30
0.0
 11
111.2099999999985
 21
258.9999999999973
 31
0.0
  0
LINE
  5
2D8
330
2B5
100
AcDbEntity
  8
0
  6
________________
 62
     7
370
     9
100
AcDbLine
 10
111.2099999999985
 20
258.9999999999973
 30
0.0
 11
111.2099999999986
 21
234.4999999999841
 31
0.0
  0
LINE
  5
2D9
330
2B5
100
AcDbEntity
  8
0
  6
________________
 62
     7
370
     9
100
AcDbLine
 10
51.20999999999853
 20
81.99999999999734
 30
0.0
 11
51.20999999999853
 21
258.9999999999973
 31
0.0
  0
LINE
  5
2DA
330
2B5
100
AcDbEntity
  8
0
  6
________________
 62
     7
370
     9
100
AcDbLine
 10
117.4900000000015
 20
111.499999999976
 30
0.0
 11
117.7900000000015
 21
111.499999999976
 31
0.0
  0
LINE
  5
2DB
330
2B5
100
AcDbEntity
  8
0
  6
________________
 62
     7
370
     9
100
AcDbLine
 10
117.7900000000015
 20
123.4999999999745
 30
0.0
 11
117.4900000000015
 21
123.4999999999745
 31
0.0
  0
LINE
  5
2DC
330
2B5
100
AcDbEntity
  8
0
  6
________________
 62
     7
370
     9
100
AcDbLine
 10
117.4900000000015
 20
123.4999999999745
 30
0.0
 11
114.4900000000017
 21
120.4999999999749
 31
0.0
  0
LINE
  5
2DD
330
2B5
100
AcDbEntity
  8
0
  6
________________
 62
     7
370
     9
100
AcDbLine
 10
114.4900000000017
 20
114.4999999999756
 30
0.0
 11
117.4900000000015
 21
111.499999999976
 31
0.0
  0
LINE
  5
2DE
330
2B5
100
AcDbEntity
  8
0
  6
________________
 62
     7
370
     9
100
AcDbLine
 10
112.2100149899989
 20
114.4999999999756
 30
0.0
 11
114.4900000000017
 21
114.4999999999756
 31
0.0
  0
LINE
  5
2DF
330
2B5
100
AcDbEntity
  8
0
  6
________________
 62
     7
370
     9
100
AcDbLine
 10
114.4900000000017
 20
120.4999999999749
 30
0.0
 11
112.2100149899989
 21
120.4999999999749
 31
0.0
  0
LINE
  5
2E0
330
2B5
100
AcDbEntity
  8
0
  6
________________
 62
     7
370
     9
100
AcDbLine
 10
117.4899999999989
 20
173.4999999999686
 30
0.0
 11
114.4899999999989
 21
170.4999999999689
 31
0.0
  0
LINE
  5
2E1
330
2B5
100
AcDbEntity
  8
0
  6
________________
 62
     7
370
     9
100
AcDbLine
 10
114.4899999999989
 20
164.4999999999695
 30
0.0
 11
117.4899999999989
 21
161.4999999999698
 31
0.0
  0
LINE
  5
2E2
330
2B5
100
AcDbEntity
  8
0
  6
________________
 62
     7
370
     9
100
AcDbLine
 10
117.4899999999989
 20
161.4999999999698
 30
0.0
 11
117.7899999999989
 21
161.4999999999698
 31
0.0
  0
LINE
  5
2E3
330
2B5
100
AcDbEntity
  8
0
  6
________________
 62
     7
370
     9
100
AcDbLine
 10
117.7899999999989
 20
173.4999999999686
 30
0.0
 11
117.4899999999989
 21
173.4999999999686
 31
0.0
  0
LINE
  5
2E4
330
2B5
100
AcDbEntity
  8
0
  6
________________
 62
     7
370
     9
100
AcDbLine
 10
112.2100149899989
 20
164.4999999999695
 30
0.0
 11
114.4899999999989
 21
164.4999999999695
 31
0.0
  0
LINE
  5
2E5
330
2B5
100
AcDbEntity
  8
0
  6
________________
 62
     7
370
     9
100
AcDbLine
 10
114.4899999999989
 20
170.4999999999689
 30
0.0
 11
112.2100149899989
 21
170.4999999999689
 31
0.0
  0
ARC
  5
2E6
330
2B5
100
AcDbEntity
  8
0
  6
________________
 62
     7
370
     9
100
AcDbCircle
 10
111.4599999999968
 20
203.0999999999879
 30
0.0
 40
1.499999999999997
100
AcDbArc
 50
358.0897868171606
 51
59.99999999990939
  0
ARC
  5
2E7
330
2B5
100
AcDbEntity
  8
0
  6
________________
 62
     7
370
     9
100
AcDbCircle
 10
111.4599999999986
 20
202.9999999999879
 30
0.0
 40
1.499999999999999
100
AcDbArc
 50
300.0000000000313
 51
59.9999999999659
  0
ARC
  5
2E8
330
2B5
100
AcDbEntity
  8
0
  6
________________
 62
     7
370
     9
100
AcDbCircle
 10
81.71000000000174
 20
192.9999999999892
 30
0.0
 40
1.5
100
AcDbArc
 50
131.8103148958736
 51
228.1896851041234
  0
ARC
  5
2E9
330
2B5
100
AcDbEntity
  8
0
  6
________________
 62
     7
370
     9
100
AcDbCircle
 10
81.71000000000174
 20
107.9999999999996
 30
0.0
 40
1.5
100
AcDbArc
 50
131.8103148959871
 51
228.1896851040099
  0
ENDBLK
  5
2ED
330
2B5
100
AcDbEntity
  8
0
100
AcDbBlockEnd
  0
BLOCK
  5
2F8
330
2EB
100
AcDbEntity
  8
0
100
AcDbBlockBegin
  2
D_FRAME_VIEW@416
 70
     0
 10
0.0
 20
0.0
 30
0.0
  3
D_FRAME_VIEW@416
  1

  0
LINE
  5
2EE
330
2EB
100
AcDbEntity
  8
0
  6
________________
 62
     7
370
     9
100
AcDbLine
 10
203.0
 20
78.50000000000004
 30
0.0
 11
159.0
 21
78.5000000000001
 31
0.0
  0
LINE
  5
2EF
330
2EB
100
AcDbEntity
  8
0
  6
________________
 62
     7
370
     9
100
AcDbLine
 10
159.0
 20
255.5000000000001
 30
0.0
 11
219.0
 21
255.5000000000001
 31
0.0
  0
LINE
  5
2F0
330
2EB
100
AcDbEntity
  8
0
  6
________________
 62
     7
370
     9
100
AcDbLine
 10
219.0
 20
255.5000000000001
 30
0.0
 11
219.0
 21
223.4999999999999
 31
0.0
  0
LINE
  5
2F1
330
2EB
100
AcDbEntity
  8
0
  6
________________
 62
     7
370
     9
100
AcDbLine
 10
219.0
 20
223.4999999999998
 30
0.0
 11
209.0
 21
223.5000000000001
 31
0.0
  0
ARC
  5
2F2
330
2EB
100
AcDbEntity
  8
0
  6
________________
 62
     7
370
     9
100
AcDbCircle
 10
209.0
 20
210.5000000000001
 30
0.0
 40
12.99999999999999
100
AcDbArc
 50
90.0000000000003
 51
230.8332892838796
  0
ARC
  5
2F3
330
2EB
100
AcDbEntity
  8
0
  6
________________
 62
     7
370
     9
100
AcDbCircle
 10
197.0
 20
195.7690801373439
 30
0.0
 40
6.0
100
AcDbArc
 50
0.0000000000001325
 51
50.83328928387955
  0
LINE
  5
2F4
330
2EB
100
AcDbEntity
  8
0
  6
________________
 62
     7
370
     9
100
AcDbLine
 10
203.0
 20
195.7690801373439
 30
0.0
 11
203.0
 21
78.50000000000003
 31
0.0
  0
LINE
  5
2F5
330
2EB
100
AcDbEntity
  8
0
  6
________________
 62
     7
370
     9
100
AcDbLine
 10
159.0
 20
78.5000000000001
 30
0.0
 11
159.0
 21
255.5000000000001
 31
0.0
  0
ENDBLK
  5
2F9
330
2EB
100
AcDbEntity
  8
0
100
AcDbBlockEnd
  0
BLOCK
  5
32E
330
2F7
100
AcDbEntity
  8
0
100
AcDbBlockBegin
  2
D_FRAME_VIEW@418
 70
     0
 10
0.0
 20
0.0
 30
0.0
  3
D_FRAME_VIEW@418
  1

  0
LINE
  5
2FA
330
2F7
100
AcDbEntity
  8
0
  6
________________
 62
     7
370
     9
100
AcDbLine
 10
451.9899999999996
 20
113.2499999999823
 30
0.0
 11
451.9899999999996
 21
125.2499999999808
 31
0.0
  0
LINE
  5
2FB
330
2F7
100
AcDbEntity
  8
0
  6
________________
 62
     7
370
     9
100
AcDbLine
 10
448.9899999999998
 20
116.249999999982
 30
0.0
 11
448.9899999999998
 21
122.2499999999812
 31
0.0
  0
LINE
  5
2FC
330
2F7
100
AcDbEntity
  8
0
  6
________________
 62
     7
370
     9
100
AcDbLine
 10
452.2899999999996
 20
113.2499999999823
 30
0.0
 11
452.2899999999996
 21
125.2499999999808
 31
0.0
  0
LINE
  5
2FD
330
2F7
100
AcDbEntity
  8
0
  6
________________
 62
     7
370
     9
100
AcDbLine
 10
452.289999999997
 20
163.2499999999758
 30
0.0
 11
452.289999999997
 21
175.2499999999753
 31
0.0
  0
LINE
  5
2FE
330
2F7
100
AcDbEntity
  8
0
  6
________________
 62
     7
370
     9
100
AcDbLine
 10
451.989999999997
 20
163.2499999999758
 30
0.0
 11
451.989999999997
 21
175.2499999999753
 31
0.0
  0
LINE
  5
2FF
330
2F7
100
AcDbEntity
  8
0
  6
________________
 62
     7
370
     9
100
AcDbLine
 10
448.9899999999971
 20
166.2499999999756
 30
0.0
 11
448.9899999999971
 21
172.2499999999754
 31
0.0
  0
LINE
  5
300
330
2F7
100
AcDbEntity
  8
0
  6
________________
 62
     7
370
     9
100
AcDbLine
 10
416.7099999999954
 20
81.75000000000985
 30
0.0
 11
445.2099999999942
 21
81.75000000000911
 31
0.0
  0
LINE
  5
301
330
2F7
100
AcDbEntity
  8
0
  6
________________
 62
   253
370
     9
100
AcDbLine
 10
416.7099999999994
 20
234.749999999991
 30
0.0
 11
416.7099999999954
 21
81.75000000000983
 31
0.0
  0
LINE
  5
302
330
2F7
100
AcDbEntity
  8
0
  6
________________
 62
   253
370
     9
100
AcDbLine
 10
445.2099999999982
 20
234.7499999999903
 30
0.0
 11
416.7099999999994
 21
234.749999999991
 31
0.0
  0
LINE
  5
303
330
2F7
100
AcDbEntity
  8
0
  6
________________
 62
   253
370
     9
100
AcDbLine
 10
445.2099999999942
 20
81.75000000000911
 30
0.0
 11
445.2099999999982
 21
234.7499999999903
 31
0.0
  0
LINE
  5
304
330
2F7
100
AcDbEntity
  8
0
  6
________________
 62
     7
370
     9
100
AcDbLine
 10
445.7099999999982
 20
236.2499999999901
 30
0.0
 11
446.7099999999982
 21
236.24999999999
 31
0.0
  0
LINE
  5
305
330
2F7
100
AcDbEntity
  8
0
  6
________________
 62
     7
370
     9
100
AcDbLine
 10
446.7099999999969
 20
236.2499999999888
 30
0.0
 11
445.2099999999982
 21
234.7499999999903
 31
0.0
  0
LINE
  5
306
330
2F7
100
AcDbEntity
  8
0
  6
________________
 62
     7
370
     9
100
AcDbLine
 10
415.2100000000007
 20
236.2499999999896
 30
0.0
 11
416.7099999999994
 21
234.749999999991
 31
0.0
  0
LINE
  5
307
330
2F7
100
AcDbEntity
  8
0
  6
________________
 62
     7
370
     9
100
AcDbLine
 10
415.2099999999995
 20
236.2499999999908
 30
0.0
 11
416.2099999999994
 21
236.2499999999908
 31
0.0
  0
LINE
  5
308
330
2F7
100
AcDbEntity
  8
0
  6
________________
 62
     7
370
     9
100
AcDbLine
 10
416.2099999999994
 20
236.1642135623639
 30
0.0
 11
416.2099999999994
 21
236.2499999999908
 31
0.0
  0
LINE
  5
309
330
2F7
100
AcDbEntity
  8
0
  6
________________
 62
     7
370
     9
100
AcDbLine
 10
416.4099999999994
 20
236.1642135623639
 30
0.0
 11
416.2099999999994
 21
236.1642135623639
 31
0.0
  0
LINE
  5
30A
330
2F7
100
AcDbEntity
  8
0
  6
________________
 62
     7
370
     9
100
AcDbLine
 10
416.4099999999994
 20
236.2499999999908
 30
0.0
 11
416.4099999999994
 21
236.1642135623639
 31
0.0
  0
LINE
  5
30B
330
2F7
100
AcDbEntity
  8
0
  6
________________
 62
     7
370
     9
100
AcDbLine
 10
416.4099999999994
 20
236.2499999999908
 30
0.0
 11
445.5099999999982
 21
236.24999999999
 31
0.0
  0
LINE
  5
30C
330
2F7
100
AcDbEntity
  8
0
  6
________________
 62
     7
370
     9
100
AcDbLine
 10
445.5099999999982
 20
236.1642135623632
 30
0.0
 11
445.5099999999982
 21
236.2499999999901
 31
0.0
  0
LINE
  5
30D
330
2F7
100
AcDbEntity
  8
0
  6
________________
 62
     7
370
     9
100
AcDbLine
 10
445.7099999999982
 20
236.1642135623632
 30
0.0
 11
445.5099999999982
 21
236.1642135623632
 31
0.0
  0
LINE
  5
30E
330
2F7
100
AcDbEntity
  8
0
  6
________________
 62
     7
370
     9
100
AcDbLine
 10
445.7099999999982
 20
236.2499999999901
 30
0.0
 11
445.7099999999982
 21
236.1642135623632
 31
0.0
  0
LINE
  5
30F
330
2F7
100
AcDbEntity
  8
0
  6
________________
 62
     7
370
     9
100
AcDbLine
 10
415.2099999999954
 20
81.75000000000989
 30
0.0
 11
415.2099999999994
 21
236.2499999999908
 31
0.0
  0
LINE
  5
310
330
2F7
100
AcDbEntity
  8
0
  6
________________
 62
     7
370
     9
100
AcDbLine
 10
415.2099999999957
 20
81.75000000000989
 30
0.0
 11
416.7099999999954
 21
81.75000000000985
 31
0.0
  0
LINE
  5
311
330
2F7
100
AcDbEntity
  8
0
  6
________________
 62
     7
370
     9
100
AcDbLine
 10
446.6242135623698
 20
182.7499999999966
 30
0.0
 11
446.6242135623672
 21
81.75000000000908
 31
0.0
  0
LINE
  5
312
330
2F7
100
AcDbEntity
  8
0
  6
________________
 62
     7
370
     9
100
AcDbLine
 10
446.7099999999982
 20
236.24999999999
 30
0.0
 11
446.7099999999967
 21
182.7499999999966
 31
0.0
  0
LINE
  5
313
330
2F7
100
AcDbEntity
  8
0
  6
________________
 62
     7
370
     9
100
AcDbLine
 10
446.7099999999965
 20
182.7499999999966
 30
0.0
 11
446.6242135623696
 21
182.7499999999966
 31
0.0
  0
LINE
  5
314
330
2F7
100
AcDbEntity
  8
0
  6
________________
 62
     7
370
     9
100
AcDbLine
 10
445.2099999999942
 20
81.75000000000911
 30
0.0
 11
446.6242135623668
 21
81.75000000000907
 31
0.0
  0
LINE
  5
315
330
2F7
100
AcDbEntity
  8
0
  6
________________
 62
     7
370
     9
100
AcDbLine
 10
446.7099999999967
 20
182.249999999997
 30
0.0
 11
446.6242135623697
 21
182.249999999997
 31
0.0
  0
LINE
  5
316
330
2F7
100
AcDbEntity
  8
0
  6
________________
 62
     7
370
     9
100
AcDbLine
 10
446.7099999999967
 20
182.249999999997
 30
0.0
 11
446.7099999999967
 21
81.7500000000094
 31
0.0
  0
LINE
  5
317
330
2F7
100
AcDbEntity
  8
0
  6
________________
 62
     7
370
     9
100
AcDbLine
 10
446.7099999999967
 20
81.75000000000941
 30
0.0
 11
446.6242135623698
 21
81.75000000000941
 31
0.0
  0
LINE
  5
318
330
2F7
100
AcDbEntity
  8
0
  6
________________
 62
     7
370
     9
100
AcDbLine
 10
451.9899999999996
 20
125.2499999999808
 30
0.0
 11
448.9899999999998
 21
122.2499999999812
 31
0.0
  0
LINE
  5
319
330
2F7
100
AcDbEntity
  8
0
  6
________________
 62
     7
370
     9
100
AcDbLine
 10
448.9899999999998
 20
116.249999999982
 30
0.0
 11
451.9899999999996
 21
113.2499999999823
 31
0.0
  0
LINE
  5
31A
330
2F7
100
AcDbEntity
  8
0
  6
________________
 62
     7
370
     9
100
AcDbLine
 10
451.9899999999996
 20
113.2499999999823
 30
0.0
 11
452.2899999999996
 21
113.2499999999823
 31
0.0
  0
LINE
  5
31B
330
2F7
100
AcDbEntity
  8
0
  6
________________
 62
     7
370
     9
100
AcDbLine
 10
452.2899999999996
 20
125.2499999999808
 30
0.0
 11
451.9899999999996
 21
125.2499999999808
 31
0.0
  0
LINE
  5
31C
330
2F7
100
AcDbEntity
  8
0
  6
________________
 62
     7
370
     9
100
AcDbLine
 10
446.710014989997
 20
116.249999999982
 30
0.0
 11
448.9899999999998
 21
116.249999999982
 31
0.0
  0
LINE
  5
31D
330
2F7
100
AcDbEntity
  8
0
  6
________________
 62
     7
370
     9
100
AcDbLine
 10
448.9899999999998
 20
122.2499999999812
 30
0.0
 11
446.710014989997
 21
122.2499999999812
 31
0.0
  0
LINE
  5
31E
330
2F7
100
AcDbEntity
  8
0
  6
________________
 62
     7
370
     9
100
AcDbLine
 10
451.989999999997
 20
163.2499999999761
 30
0.0
 11
452.289999999997
 21
163.2499999999761
 31
0.0
  0
LINE
  5
31F
330
2F7
100
AcDbEntity
  8
0
  6
________________
 62
     7
370
     9
100
AcDbLine
 10
452.289999999997
 20
175.249999999975
 30
0.0
 11
451.9899999999969
 21
175.249999999975
 31
0.0
  0
LINE
  5
320
330
2F7
100
AcDbEntity
  8
0
  6
________________
 62
     7
370
     9
100
AcDbLine
 10
451.989999999997
 20
175.249999999975
 30
0.0
 11
448.9899999999971
 21
172.2499999999752
 31
0.0
  0
LINE
  5
321
330
2F7
100
AcDbEntity
  8
0
  6
________________
 62
     7
370
     9
100
AcDbLine
 10
448.9899999999971
 20
166.2499999999759
 30
0.0
 11
451.989999999997
 21
163.2499999999762
 31
0.0
  0
LINE
  5
322
330
2F7
100
AcDbEntity
  8
0
  6
________________
 62
     7
370
     9
100
AcDbLine
 10
446.710014989997
 20
166.2499999999759
 30
0.0
 11
448.9899999999971
 21
166.2499999999759
 31
0.0
  0
LINE
  5
323
330
2F7
100
AcDbEntity
  8
0
  6
________________
 62
     7
370
     9
100
AcDbLine
 10
448.9899999999971
 20
172.2499999999752
 30
0.0
 11
446.710014989997
 21
172.2499999999752
 31
0.0
  0
ARC
  5
324
330
2F7
100
AcDbEntity
  8
0
  6
________________
 62
     7
370
     9
100
AcDbCircle
 10
445.9599999999949
 20
204.8499999999943
 30
0.0
 40
1.499999999999997
100
AcDbArc
 50
358.0897868171606
 51
59.99999999990939
  0
ARC
  5
325
330
2F7
100
AcDbEntity
  8
0
  6
________________
 62
     7
370
     9
100
AcDbCircle
 10
445.9599999999967
 20
204.7499999999942
 30
0.0
 40
1.499999999999999
100
AcDbArc
 50
300.0000000000313
 51
59.9999999999659
  0
ARC
  5
326
330
2F7
100
AcDbEntity
  8
0
  6
________________
 62
     7
370
     9
100
AcDbCircle
 10
416.2099999999999
 20
194.7499999999955
 30
0.0
 40
1.500000000000003
100
AcDbArc
 50
131.8103148958736
 51
228.1896851041234
  0
ARC
  5
327
330
2F7
100
AcDbEntity
  8
0
  6
________________
 62
     7
370
     9
100
AcDbCircle
 10
416.2099999999999
 20
109.750000000006
 30
0.0
 40
1.500000000000001
100
AcDbArc
 50
131.8103148959871
 51
228.1896851040099
  0
ENDBLK
  5
32F
330
2F7
100
AcDbEntity
  8
0
100
AcDbBlockEnd
  0
BLOCK
  5
401
330
3DF
100
AcDbEntity
  8
0
100
AcDbBlockBegin
  2
qpd360
 70
     0
 10
0.0
 20
0.0
 30
0.0
  3
qpd360
  1

  0
LINE
  5
3F9
330
3DF
100
AcDbEntity
  8
0
  6
CENTER
 62
     1
100
AcDbLine
 10
14.49999999999716
 20
-152.4999999999873
 30
0.0
 11
-29.50000000000284
 21
-152.4999999999872
 31
0.0
  0
LINE
  5
3FA
330
3DF
100
AcDbEntity
  8
0
  6
CENTER
 62
     1
100
AcDbLine
 10
-29.50000000000284
 20
24.50000000001279
 30
0.0
 11
30.49999999999716
 21
24.50000000001279
 31
0.0
  0
LINE
  5
3FB
330
3DF
100
AcDbEntity
  8
0
  6
CENTER
 62
     1
100
AcDbLine
 10
30.49999999999716
 20
24.50000000001279
 30
0.0
 11
30.49999999999716
 21
-7.499999999987438
 31
0.0
  0
LINE
  5
3FC
330
3DF
100
AcDbEntity
  8
0
  6
CENTER
 62
     1
100
AcDbLine
 10
30.49999999999716
 20
-7.499999999987523
 30
0.0
 11
20.49999999999716
 21
-7.49999999998721
 31
0.0
  0
ARC
  5
3FD
330
3DF
100
AcDbEntity
  8
0
  6
CENTER
 62
     1
100
AcDbCircle
 10
20.49999999999716
 20
-20.49999999998721
 30
0.0
 40
12.99999999999999
100
AcDbArc
 50
90.00000000000026
 51
230.8332892838796
  0
ARC
  5
3FE
330
3DF
100
AcDbEntity
  8
0
  6
CENTER
 62
     1
100
AcDbCircle
 10
8.499999999997158
 20
-35.23091986264342
 30
0.0
 40
6.0
100
AcDbArc
 50
0.0
 51
50.83328928387952
  0
LINE
  5
3FF
330
3DF
100
AcDbEntity
  8
0
  6
CENTER
 62
     1
100
AcDbLine
 10
14.49999999999716
 20
-35.23091986264342
 30
0.0
 11
14.49999999999716
 21
-152.4999999999873
 31
0.0
  0
LINE
  5
400
330
3DF
100
AcDbEntity
  8
0
  6
CENTER
 62
     1
100
AcDbLine
 10
-29.50000000000284
 20
-152.4999999999872
 30
0.0
 11
-29.50000000000284
 21
24.50000000001279
 31
0.0
  0
ENDBLK
  5
402
330
3DF
100
AcDbEntity
  8
0
100
AcDbBlockEnd
  0
ENDSEC
  0
SECTION
  2
ENTITIES
  0
INSERT
  5
B4
330
1F
100
AcDbEntity
  8
0
  6
________________
 62
     7
370
    20
100
AcDbBlockReference
  2
D_FRAME_VIEW@422
 10
0.0
 20
0.0
 30
0.0
  0
INSERT
  5
11F
330
1F
100
AcDbEntity
  8
0
  6
________________
 62
     7
370
    20
100
AcDbBlockReference
  2
D_FRAME_VIEW@420
 10
0.0
 20
0.0
 30
0.0
  0
INSERT
  5
18E
330
1F
100
AcDbEntity
  8
0
  6
________________
 62
     7
370
    20
100
AcDbBlockReference
  2
D_FRAME_VIEW@426
 10
0.0
 20
0.0
 30
0.0
  0
INSERT
  5
247
330
1F
100
AcDbEntity
  8
0
  6
________________
 62
     7
370
    20
100
AcDbBlockReference
  2
D_FRAME_VIEW@428
 10
0.0
 20
0.0
 30
0.0
  0
INSERT
  5
2B4
330
1F
100
AcDbEntity
  8
0
  6
________________
 62
     7
370
    20
100
AcDbBlockReference
  2
D_FRAME_VIEW@424
 10
0.0
 20
0.0
 30
0.0
  0
INSERT
  5
328
330
1F
100
AcDbEntity
  8
0
  6
________________
 62
     7
370
    20
100
AcDbBlockReference
  2
D_FRAME_VIEW@418
 10
0.0
 20
0.0
 30
0.0
  0
TEXT
  5
3A0
330
1F
100
AcDbEntity
  8
0
  6
Continuous
 62
     7
370
     0
100
AcDbText
 10
521.5537
 20
309.5018
 30
0.0
 40
20.0
  1
8208
100
AcDbText
  0
INSERT
  5
403
330
1F
100
AcDbEntity
  8
0
100
AcDbBlockReference
  2
qpd360
 10
416.2099999999994
 20
236.2499999999908
 30
0.0
  0
ENDSEC
  0
SECTION
  2
OBJECTS
  0
DICTIONARY
  5
C
330
0
100
AcDbDictionary
281
     1
  3
ACAD_GROUP
350
D
  3
ACAD_IMAGE_VARS
350
37B
  3
ACAD_LAYOUT
350
1A
  3
ACAD_MLINESTYLE
350
17
  3
ACAD_PLOTSETTINGS
350
19
  3
ACAD_PLOTSTYLENAME
350
E
  3
ACAD_SCALELIST
350
356
  3
AcDbVariableDictionary
350
329
  3
APPDATA
350
37A
  3
DWGPROPS
350
409
  0
DICTIONARY
  5
D
102
{ACAD_REACTORS
330
C
102
}
330
C
100
AcDbDictionary
281
     1
  0
RASTERVARIABLES
  5
37B
102
{ACAD_REACTORS
330
C
102
}
330
C
100
AcDbRasterVariables
 90
        0
 70
     1
 71
     1
 72
     1
  0
DICTIONARY
  5
1A
102
{ACAD_REACTORS
330
C
102
}
330
C
100
AcDbDictionary
281
     1
  3
Layout1
350
1E
  3
Layout2
350
26
  3
Model
350
22
  0
DICTIONARY
  5
17
102
{ACAD_REACTORS
330
C
102
}
330
C
100
AcDbDictionary
281
     1
  3
Standard
350
18
  0
DICTIONARY
  5
19
102
{ACAD_REACTORS
330
C
102
}
330
C
100
AcDbDictionary
281
     1
  0
ACDBDICTIONARYWDFLT
  5
E
102
{ACAD_REACTORS
330
C
102
}
330
C
100
AcDbDictionary
281
     1
  3
Normal
350
F
100
AcDbDictionaryWithDefault
340
F
  0
DICTIONARY
  5
356
102
{ACAD_REACTORS
330
C
102
}
330
C
100
AcDbDictionary
281
     1
  3
A0
350
357
  3
A1
350
358
  3
A2
350
359
  3
A3
350
35A
  3
A4
350
35B
  3
A5
350
35C
  3
A6
350
35D
  3
A7
350
35E
  3
A8
350
35F
  3
A9
350
360
  3
B0
350
361
  3
B1
350
362
  3
B2
350
363
  3
B3
350
364
  3
B4
350
365
  3
B5
350
366
  3
B6
350
367
  3
B7
350
368
  3
B8
350
369
  3
B9
350
36A
  3
C0
350
36B
  3
C1
350
36C
  3
C2
350
36D
  3
C3
350
36E
  3
C4
350
36F
  3
C5
350
370
  3
C6
350
371
  3
C7
350
372
  3
C8
350
373
  3
C9
350
374
  3
D0
350
375
  3
D1
350
376
  3
D2
350
377
  0
DICTIONARY
  5
329
102
{ACAD_REACTORS
330
C
102
}
330
C
100
AcDbDictionary
281
     1
  3
CANNOSCALE
350
40A
  3
DIMASSOC
350
32C
  3
HIDETEXT
350
32D
  0
DICTIONARY
  5
37A
102
{ACAD_REACTORS
330
C
102
}
330
C
100
AcDbDictionary
281
     1
  0
XRECORD
  5
409
102
{ACAD_REACTORS
330
C
102
}
330
C
100
AcDbXrecord
280
     1
  1
DWGPROPS COOKIE
  2

  3

  4

  6

  7

  8
emilio
  9

300
=
301
=
302
=
303
=
304
=
305
=
306
=
307
=
308
=
309
=
 40
0.0
 41
2456615.544312963
 42
2456615.55789213
  1

 90
        0
  0
LAYOUT
  5
1E
102
{ACAD_REACTORS
330
1A
102
}
330
1A
100
AcDbPlotSettings
  1

  2
none_device
  4

  6

 40
0.0
 41
0.0
 42
0.0
 43
0.0
 44
0.0
 45
0.0
 46
0.0
 47
0.0
 48
0.0
 49
0.0
140
0.0
141
0.0
142
1.0
143
1.0
 70
   688
 72
     0
 73
     0
 74
     5
  7

 75
    16
147
1.0
148
0.0
149
0.0
100
AcDbLayout
  1
Layout1
 70
     1
 71
     1
 10
0.0
 20
0.0
 11
12.0
 21
9.0
 12
0.0
 22
0.0
 32
0.0
 14
1.000000000000000E+20
 24
1.000000000000000E+20
 34
1.000000000000000E+20
 15
-1.000000000000000E+20
 25
-1.000000000000000E+20
 35
-1.000000000000000E+20
146
0.0
 13
0.0
 23
0.0
 33
0.0
 16
1.0
 26
0.0
 36
0.0
 17
0.0
 27
1.0
 37
0.0
 76
     0
330
1B
  0
LAYOUT
  5
26
102
{ACAD_REACTORS
330
1A
102
}
330
1A
100
AcDbPlotSettings
  1

  2
none_device
  4

  6

 40
0.0
 41
0.0
 42
0.0
 43
0.0
 44
0.0
 45
0.0
 46
0.0
 47
0.0
 48
0.0
 49
0.0
140
0.0
141
0.0
142
1.0
143
1.0
 70
   688
 72
     0
 73
     0
 74
     5
  7

 75
    16
147
1.0
148
0.0
149
0.0
100
AcDbLayout
  1
Layout2
 70
     1
 71
     2
 10
0.0
 20
0.0
 11
0.0
 21
0.0
 12
0.0
 22
0.0
 32
0.0
 14
0.0
 24
0.0
 34
0.0
 15
0.0
 25
0.0
 35
0.0
146
0.0
 13
0.0
 23
0.0
 33
0.0
 16
1.0
 26
0.0
 36
0.0
 17
0.0
 27
1.0
 37
0.0
 76
     0
330
23
  0
LAYOUT
  5
22
102
{ACAD_REACTORS
330
1A
102
}
330
1A
100
AcDbPlotSettings
  1

  2
none_device
  4

  6

 40
0.0
 41
0.0
 42
0.0
 43
0.0
 44
0.0
 45
0.0
 46
0.0
 47
0.0
 48
0.0
 49
0.0
140
0.0
141
0.0
142
1.0
143
1.0
 70
  1712
 72
     0
 73
     0
 74
     0
  7

 75
     0
147
1.0
148
0.0
149
0.0
100
AcDbLayout
  1
Model
 70
     1
 71
     0
 10
0.0
 20
0.0
 11
12.0
 21
9.0
 12
0.0
 22
0.0
 32
0.0
 14
-20.0
 24
-141.8274069166147
 34
-0.0000000000000004
 15
584.1317976154855
 25
332.0500000000038
 35
5.0
146
0.0
 13
0.0
 23
0.0
 33
0.0
 16
1.0
 26
0.0
 36
0.0
 17
0.0
 27
1.0
 37
0.0
 76
     0
330
1F
331
29
  0
MLINESTYLE
  5
18
102
{ACAD_REACTORS
330
17
102
}
330
17
100
AcDbMlineStyle
  2
Standard
 70
     0
  3

 62
   256
 51
90.0
 52
90.0
 71
     2
 49
0.5
 62
   256
  6
BYLAYER
 49
-0.5
 62
   256
  6
BYLAYER
  0
ACDBPLACEHOLDER
  5
F
102
{ACAD_REACTORS
330
E
102
}
330
E
  0
SCALE
  5
357
102
{ACAD_REACTORS
330
356
102
}
330
356
100
AcDbScale
 70
     0
300
1:1
140
1.0
141
1.0
290
     1
  0
SCALE
  5
358
102
{ACAD_REACTORS
330
356
102
}
330
356
100
AcDbScale
 70
     0
300
1:2
140
1.0
141
2.0
290
     0
  0
SCALE
  5
359
102
{ACAD_REACTORS
330
356
102
}
330
356
100
AcDbScale
 70
     0
300
1:4
140
1.0
141
4.0
290
     0
  0
SCALE
  5
35A
102
{ACAD_REACTORS
330
356
102
}
330
356
100
AcDbScale
 70
     0
300
1:5
140
1.0
141
5.0
290
     0
  0
SCALE
  5
35B
102
{ACAD_REACTORS
330
356
102
}
330
356
100
AcDbScale
 70
     0
300
1:8
140
1.0
141
8.0
290
     0
  0
SCALE
  5
35C
102
{ACAD_REACTORS
330
356
102
}
330
356
100
AcDbScale
 70
     0
300
1:10
140
1.0
141
10.0
290
     0
  0
SCALE
  5
35D
102
{ACAD_REACTORS
330
356
102
}
330
356
100
AcDbScale
 70
     0
300
1:16
140
1.0
141
16.0
290
     0
  0
SCALE
  5
35E
102
{ACAD_REACTORS
330
356
102
}
330
356
100
AcDbScale
 70
     0
300
1:20
140
1.0
141
20.0
290
     0
  0
SCALE
  5
35F
102
{ACAD_REACTORS
330
356
102
}
330
356
100
AcDbScale
 70
     0
300
1:30
140
1.0
141
30.0
290
     0
  0
SCALE
  5
360
102
{ACAD_REACTORS
330
356
102
}
330
356
100
AcDbScale
 70
     0
300
1:40
140
1.0
141
40.0
290
     0
  0
SCALE
  5
361
102
{ACAD_REACTORS
330
356
102
}
330
356
100
AcDbScale
 70
     0
300
1:50
140
1.0
141
50.0
290
     0
  0
SCALE
  5
362
102
{ACAD_REACTORS
330
356
102
}
330
356
100
AcDbScale
 70
     0
300
1:100
140
1.0
141
100.0
290
     0
  0
SCALE
  5
363
102
{ACAD_REACTORS
330
356
102
}
330
356
100
AcDbScale
 70
     0
300
2:1
140
2.0
141
1.0
290
     0
  0
SCALE
  5
364
102
{ACAD_REACTORS
330
356
102
}
330
356
100
AcDbScale
 70
     0
300
4:1
140
4.0
141
1.0
290
     0
  0
SCALE
  5
365
102
{ACAD_REACTORS
330
356
102
}
330
356
100
AcDbScale
 70
     0
300
8:1
140
8.0
141
1.0
290
     0
  0
SCALE
  5
366
102
{ACAD_REACTORS
330
356
102
}
330
356
100
AcDbScale
 70
     0
300
10:1
140
10.0
141
1.0
290
     0
  0
SCALE
  5
367
102
{ACAD_REACTORS
330
356
102
}
330
356
100
AcDbScale
 70
     0
300
100:1
140
100.0
141
1.0
290
     0
  0
SCALE
  5
368
102
{ACAD_REACTORS
330
356
102
}
330
356
100
AcDbScale
 70
     0
300
1/128" = 1'-0"
140
0.0078125
141
12.0
290
     0
  0
SCALE
  5
369
102
{ACAD_REACTORS
330
356
102
}
330
356
100
AcDbScale
 70
     0
300
1/64" = 1'-0"
140
0.015625
141
12.0
290
     0
  0
SCALE
  5
36A
102
{ACAD_REACTORS
330
356
102
}
330
356
100
AcDbScale
 70
     0
300
1/32" = 1'-0"
140
0.03125
141
12.0
290
     0
  0
SCALE
  5
36B
102
{ACAD_REACTORS
330
356
102
}
330
356
100
AcDbScale
 70
     0
300
1/16" = 1'-0"
140
0.0625
141
12.0
290
     0
  0
SCALE
  5
36C
102
{ACAD_REACTORS
330
356
102
}
330
356
100
AcDbScale
 70
     0
300
3/32" = 1'-0"
140
0.09375
141
12.0
290
     0
  0
SCALE
  5
36D
102
{ACAD_REACTORS
330
356
102
}
330
356
100
AcDbScale
 70
     0
300
1/8" = 1'-0"
140
0.125
141
12.0
290
     0
  0
SCALE
  5
36E
102
{ACAD_REACTORS
330
356
102
}
330
356
100
AcDbScale
 70
     0
300
3/16" = 1'-0"
140
0.1875
141
12.0
290
     0
  0
SCALE
  5
36F
102
{ACAD_REACTORS
330
356
102
}
330
356
100
AcDbScale
 70
     0
300
1/4" = 1'-0"
140
0.25
141
12.0
290
     0
  0
SCALE
  5
370
102
{ACAD_REACTORS
330
356
102
}
330
356
100
AcDbScale
 70
     0
300
3/8" = 1'-0"
140
0.375
141
12.0
290
     0
  0
SCALE
  5
371
102
{ACAD_REACTORS
330
356
102
}
330
356
100
AcDbScale
 70
     0
300
1/2" = 1'-0"
140
0.5
141
12.0
290
     0
  0
SCALE
  5
372
102
{ACAD_REACTORS
330
356
102
}
330
356
100
AcDbScale
 70
     0
300
3/4" = 1'-0"
140
0.75
141
12.0
290
     0
  0
SCALE
  5
373
102
{ACAD_REACTORS
330
356
102
}
330
356
100
AcDbScale
 70
     0
300
1" = 1'-0"
140
1.0
141
12.0
290
     0
  0
SCALE
  5
374
102
{ACAD_REACTORS
330
356
102
}
330
356
100
AcDbScale
 70
     0
300
1-1/2" = 1'-0"
140
1.5
141
12.0
290
     0
  0
SCALE
  5
375
102
{ACAD_REACTORS
330
356
102
}
330
356
100
AcDbScale
 70
     0
300
3" = 1'-0"
140
3.0
141
12.0
290
     0
  0
SCALE
  5
376
102
{ACAD_REACTORS
330
356
102
}
330
356
100
AcDbScale
 70
     0
300
6" = 1'-0"
140
6.0
141
12.0
290
     0
  0
SCALE
  5
377
102
{ACAD_REACTORS
330
356
102
}
330
356
100
AcDbScale
 70
     0
300
1'-0" = 1'-0"
140
12.0
141
12.0
290
     0
  0
DICTIONARYVAR
  5
40A
102
{ACAD_REACTORS
330
329
102
}
330
329
100
DictionaryVariables
280
     0
  1
1:1
  0
DICTIONARYVAR
  5
32C
102
{ACAD_REACTORS
330
329
102
}
330
329
100
DictionaryVariables
280
     0
  1
2
  0
DICTIONARYVAR
  5
32D
102
{ACAD_REACTORS
330
329
102
}
330
329
100
DictionaryVariables
280
     0
  1
1
  0
ENDSEC
  0
EOF
