  0
SECTION
  2
HEADER
  9
$ACADVER
  1
AC1015
  9
$ACADMAINTVER
 70
     6
  9
$DWGCODEPAGE
  3
ANSI_1252
  9
$INSBASE
 10
0.0
 20
0.0
 30
0.0
  9
$EXTMIN
 10
-239.5500000040684
 20
-348.5662232115562
 30
-0.0000000000000008
  9
$EXTMAX
 10
499.0622710622711
 20
473.2000250020663
 30
5.0
  9
$LIMMIN
 10
0.0
 20
0.0
  9
$LIMMAX
 10
12.0
 20
9.0
  9
$ORTHOMODE
 70
     1
  9
$REGENMODE
 70
     1
  9
$FILLMODE
 70
     1
  9
$QTEXTMODE
 70
     0
  9
$MIRRTEXT
 70
     1
  9
$LTSCALE
 40
5.0
  9
$ATTMODE
 70
     1
  9
$TEXTSIZE
 40
0.2
  9
$TRACEWID
 40
0.05
  9
$TEXTSTYLE
  7
Standard
  9
$CLAYER
  8
0
  9
$CELTYPE
  6
ByLayer
  9
$CECOLOR
 62
   256
  9
$CELTSCALE
 40
1.0
  9
$DISPSILH
 70
     0
  9
$DIMSCALE
 40
1.0
  9
$DIMASZ
 40
2.5
  9
$DIMEXO
 40
0.0625
  9
$DIMDLI
 40
0.38
  9
$DIMRND
 40
0.0
  9
$DIMDLE
 40
0.0
  9
$DIMEXE
 40
0.18
  9
$DIMTP
 40
0.0
  9
$DIMTM
 40
0.0
  9
$DIMTXT
 40
2.5
  9
$DIMCEN
 40
0.09
  9
$DIMTSZ
 40
0.0
  9
$DIMTOL
 70
     0
  9
$DIMLIM
 70
     0
  9
$DIMTIH
 70
     1
  9
$DIMTOH
 70
     1
  9
$DIMSE1
 70
     0
  9
$DIMSE2
 70
     0
  9
$DIMTAD
 70
     1
  9
$DIMZIN
 70
     0
  9
$DIMBLK
  1

  9
$DIMASO
 70
     1
  9
$DIMSHO
 70
     1
  9
$DIMPOST
  1

  9
$DIMAPOST
  1

  9
$DIMALT
 70
     0
  9
$DIMALTD
 70
     2
  9
$DIMALTF
 40
25.4
  9
$DIMLFAC
 40
1.0
  9
$DIMTOFL
 70
     0
  9
$DIMTVP
 40
0.0
  9
$DIMTIX
 70
     0
  9
$DIMSOXD
 70
     0
  9
$DIMSAH
 70
     0
  9
$DIMBLK1
  1

  9
$DIMBLK2
  1

  9
$DIMSTYLE
  2
Standard
  9
$DIMCLRD
 70
     0
  9
$DIMCLRE
 70
     0
  9
$DIMCLRT
 70
     0
  9
$DIMTFAC
 40
1.0
  9
$DIMGAP
 40
0.09
  9
$DIMJUST
 70
     0
  9
$DIMSD1
 70
     0
  9
$DIMSD2
 70
     0
  9
$DIMTOLJ
 70
     1
  9
$DIMTZIN
 70
     0
  9
$DIMALTZ
 70
     0
  9
$DIMALTTZ
 70
     0
  9
$DIMUPT
 70
     0
  9
$DIMDEC
 70
     2
  9
$DIMTDEC
 70
     4
  9
$DIMALTU
 70
     2
  9
$DIMALTTD
 70
     2
  9
$DIMTXSTY
  7
Standard
  9
$DIMAUNIT
 70
     0
  9
$DIMADEC
 70
     2
  9
$DIMALTRND
 40
0.0
  9
$DIMAZIN
 70
     0
  9
$DIMDSEP
 70
    46
  9
$DIMATFIT
 70
     3
  9
$DIMFRAC
 70
     0
  9
$DIMLDRBLK
  1

  9
$DIMLUNIT
 70
     2
  9
$DIMLWD
 70
    -2
  9
$DIMLWE
 70
    -2
  9
$DIMTMOVE
 70
     0
  9
$LUNITS
 70
     2
  9
$LUPREC
 70
     4
  9
$SKETCHINC
 40
0.1
  9
$FILLETRAD
 40
6.0
  9
$AUNITS
 70
     0
  9
$AUPREC
 70
     0
  9
$MENU
  1
.
  9
$ELEVATION
 40
0.0
  9
$PELEVATION
 40
0.0
  9
$THICKNESS
 40
0.0
  9
$LIMCHECK
 70
     0
  9
$CHAMFERA
 40
0.5
  9
$CHAMFERB
 40
0.5
  9
$CHAMFERC
 40
1.0
  9
$CHAMFERD
 40
0.0
  9
$SKPOLY
 70
     0
  9
$TDCREATE
 40
2456615.439088519
  9
$TDUCREATE
 40
2456615.397421852
  9
$TDUPDATE
 40
2456615.578052234
  9
$TDUUPDATE
 40
2456615.536385567
  9
$TDINDWG
 40
0.0000000116
  9
$TDUSRTIMER
 40
2456615.399139306
  9
$USRTIMER
 70
     1
  9
$ANGBASE
 50
0.0
  9
$ANGDIR
 70
     0
  9
$PDMODE
 70
     0
  9
$PDSIZE
 40
0.0
  9
$PLINEWID
 40
0.0
  9
$SPLFRAME
 70
     0
  9
$SPLINETYPE
 70
     6
  9
$SPLINESEGS
 70
     8
  9
$HANDSEED
  5
60B
  9
$SURFTAB1
 70
     6
  9
$SURFTAB2
 70
     6
  9
$SURFTYPE
 70
     6
  9
$SURFU
 70
     6
  9
$SURFV
 70
     6
  9
$UCSBASE
  2

  9
$UCSNAME
  2

  9
$UCSORG
 10
0.0
 20
0.0
 30
0.0
  9
$UCSXDIR
 10
1.0
 20
0.0
 30
0.0
  9
$UCSYDIR
 10
0.0
 20
1.0
 30
0.0
  9
$UCSORTHOREF
  2

  9
$UCSORTHOVIEW
 70
     0
  9
$UCSORGTOP
 10
0.0
 20
0.0
 30
0.0
  9
$UCSORGBOTTOM
 10
0.0
 20
0.0
 30
0.0
  9
$UCSORGLEFT
 10
0.0
 20
0.0
 30
0.0
  9
$UCSORGRIGHT
 10
0.0
 20
0.0
 30
0.0
  9
$UCSORGFRONT
 10
0.0
 20
0.0
 30
0.0
  9
$UCSORGBACK
 10
0.0
 20
0.0
 30
0.0
  9
$PUCSBASE
  2

  9
$PUCSNAME
  2

  9
$PUCSORG
 10
0.0
 20
0.0
 30
0.0
  9
$PUCSXDIR
 10
1.0
 20
0.0
 30
0.0
  9
$PUCSYDIR
 10
0.0
 20
1.0
 30
0.0
  9
$PUCSORTHOREF
  2

  9
$PUCSORTHOVIEW
 70
     0
  9
$PUCSORGTOP
 10
0.0
 20
0.0
 30
0.0
  9
$PUCSORGBOTTOM
 10
0.0
 20
0.0
 30
0.0
  9
$PUCSORGLEFT
 10
0.0
 20
0.0
 30
0.0
  9
$PUCSORGRIGHT
 10
0.0
 20
0.0
 30
0.0
  9
$PUCSORGFRONT
 10
0.0
 20
0.0
 30
0.0
  9
$PUCSORGBACK
 10
0.0
 20
0.0
 30
0.0
  9
$USERI1
 70
     0
  9
$USERI2
 70
     0
  9
$USERI3
 70
     0
  9
$USERI4
 70
     0
  9
$USERI5
 70
     0
  9
$USERR1
 40
0.0
  9
$USERR2
 40
0.0
  9
$USERR3
 40
0.0
  9
$USERR4
 40
0.0
  9
$USERR5
 40
0.0
  9
$WORLDVIEW
 70
     1
  9
$SHADEDGE
 70
     3
  9
$SHADEDIF
 70
    70
  9
$TILEMODE
 70
     1
  9
$MAXACTVP
 70
    64
  9
$PINSBASE
 10
0.0
 20
0.0
 30
0.0
  9
$PLIMCHECK
 70
     0
  9
$PEXTMIN
 10
1.000000000000000E+20
 20
1.000000000000000E+20
 30
1.000000000000000E+20
  9
$PEXTMAX
 10
-1.000000000000000E+20
 20
-1.000000000000000E+20
 30
-1.000000000000000E+20
  9
$PLIMMIN
 10
0.0
 20
0.0
  9
$PLIMMAX
 10
0.0
 20
0.0
  9
$UNITMODE
 70
     0
  9
$VISRETAIN
 70
     1
  9
$PLINEGEN
 70
     0
  9
$PSLTSCALE
 70
     1
  9
$TREEDEPTH
 70
  3020
  9
$CMLSTYLE
  2
Standard
  9
$CMLJUST
 70
     0
  9
$CMLSCALE
 40
1.0
  9
$PROXYGRAPHICS
 70
     1
  9
$MEASUREMENT
 70
     1
  9
$CELWEIGHT
370
    -1
  9
$ENDCAPS
280
     0
  9
$JOINSTYLE
280
     0
  9
$LWDISPLAY
290
     1
  9
$INSUNITS
 70
     4
  9
$HYPERLINKBASE
  1

  9
$STYLESHEET
  1

  9
$XEDIT
290
     1
  9
$CEPSNTYPE
380
     0
  9
$PSTYLEMODE
290
     1
  9
$FINGERPRINTGUID
  2
{75A7E530-6711-443A-9D88-18A09889874E}
  9
$VERSIONGUID
  2
{FAEB1C32-E019-11D5-929B-00C0DF256EC4}
  9
$EXTNAMES
290
     1
  9
$PSVPSCALE
 40
0.0
  9
$OLESTARTUP
290
     0
  0
ENDSEC
  0
SECTION
  2
CLASSES
  0
CLASS
  1
ACDBDICTIONARYWDFLT
  2
AcDbDictionaryWithDefault
  3
ObjectDBX Classes
 90
        0
280
     0
281
     0
  0
CLASS
  1
VISUALSTYLE
  2
AcDbVisualStyle
  3
ObjectDBX Classes
 90
     4095
280
     0
281
     0
  0
CLASS
  1
MATERIAL
  2
AcDbMaterial
  3
ObjectDBX Classes
 90
     1153
280
     0
281
     0
  0
CLASS
  1
DICTIONARYVAR
  2
AcDbDictionaryVar
  3
ObjectDBX Classes
 90
        0
280
     0
281
     0
  0
CLASS
  1
ACDBPLACEHOLDER
  2
AcDbPlaceHolder
  3
ObjectDBX Classes
 90
        0
280
     0
281
     0
  0
CLASS
  1
LAYOUT
  2
AcDbLayout
  3
ObjectDBX Classes
 90
        0
280
     0
281
     0
  0
CLASS
  1
SCALE
  2
AcDbScale
  3
ObjectDBX Classes
 90
     1153
280
     0
281
     0
  0
CLASS
  1
TABLESTYLE
  2
AcDbTableStyle
  3
ObjectDBX Classes
 90
     4095
280
     0
281
     0
  0
CLASS
  1
RASTERVARIABLES
  2
AcDbRasterVariables
  3
ISM
 90
        0
280
     0
281
     0
  0
CLASS
  1
SORTENTSTABLE
  2
AcDbSortentsTable
  3
ObjectDBX Classes
 90
        0
280
     0
281
     0
  0
CLASS
  1
CELLSTYLEMAP
  2
AcDbCellStyleMap
  3
ObjectDBX Classes
 90
     1152
280
     0
281
     0
  0
ENDSEC
  0
SECTION
  2
TABLES
  0
TABLE
  2
VPORT
  5
8
330
0
100
AcDbSymbolTable
 70
     1
  0
VPORT
  5
29
330
8
100
AcDbSymbolTableRecord
100
AcDbViewportTableRecord
  2
*Active
 70
     0
 10
0.0
 20
0.0
 11
1.0
 21
1.0
 12
206.0159226475665
 22
-106.6858982969975
 13
0.0
 23
0.0
 14
0.5
 24
0.5
 15
0.5
 25
0.5
 16
0.0
 26
0.0
 36
1.0
 17
0.0
 27
0.0
 37
0.0
 40
493.4355800229982
 41
2.131979695431472
 42
50.0
 43
0.0
 44
0.0
 50
0.0
 51
0.0
 71
    16
 72
   100
 73
     1
 74
     3
 75
     0
 76
     0
 77
     0
 78
     0
281
     0
 65
     1
110
0.0
120
0.0
130
0.0
111
1.0
121
0.0
131
0.0
112
0.0
122
1.0
132
0.0
 79
     0
146
0.0
  0
ENDTAB
  0
TABLE
  2
LTYPE
  5
5
330
0
100
AcDbSymbolTable
 70
     3
  0
LTYPE
  5
14
330
5
100
AcDbSymbolTableRecord
100
AcDbLinetypeTableRecord
  2
ByBlock
 70
     0
  3

 72
    65
 73
     0
 40
0.0
  0
LTYPE
  5
15
330
5
100
AcDbSymbolTableRecord
100
AcDbLinetypeTableRecord
  2
ByLayer
 70
     0
  3

 72
    65
 73
     0
 40
0.0
  0
LTYPE
  5
16
330
5
100
AcDbSymbolTableRecord
100
AcDbLinetypeTableRecord
  2
Continuous
 70
     0
  3
Solid line
 72
    65
 73
     0
 40
0.0
  0
LTYPE
  5
41
330
5
100
AcDbSymbolTableRecord
100
AcDbLinetypeTableRecord
  2
________________
 70
     0
  3

 72
    65
 73
     0
 40
0.0
  0
LTYPE
  5
517
330
5
100
AcDbSymbolTableRecord
100
AcDbLinetypeTableRecord
  2
CENTER
 70
     0
  3
____ _ ____ _ ____ _ ____ _ ____ _ ____ _ ____
 72
    65
 73
     4
 40
2.0
 49
1.25
 74
     0
 49
-0.25
 74
     0
 49
0.25
 74
     0
 49
-0.25
 74
     0
  0
ENDTAB
  0
TABLE
  2
LAYER
  5
2
330
0
100
AcDbSymbolTable
 70
     2
  0
LAYER
  5
10
330
2
100
AcDbSymbolTableRecord
100
AcDbLayerTableRecord
  2
0
 70
     0
 62
     7
  6
Continuous
370
    -3
390
F
  0
LAYER
  5
602
330
2
100
AcDbSymbolTableRecord
100
AcDbLayerTableRecord
  2
Defpoints
 70
     0
 62
     7
  6
Continuous
290
     0
370
    -3
390
F
  0
ENDTAB
  0
TABLE
  2
STYLE
  5
3
330
0
100
AcDbSymbolTable
 70
     1
  0
STYLE
  5
11
330
3
100
AcDbSymbolTableRecord
100
AcDbTextStyleTableRecord
  2
Standard
 70
     0
 40
0.0
 41
1.0
 50
0.0
 71
     0
 42
0.2
  3
txt
  4

  0
ENDTAB
  0
TABLE
  2
VIEW
  5
6
330
0
100
AcDbSymbolTable
 70
     0
  0
ENDTAB
  0
TABLE
  2
UCS
  5
7
330
0
100
AcDbSymbolTable
 70
     0
  0
ENDTAB
  0
TABLE
  2
APPID
  5
9
330
0
100
AcDbSymbolTable
 70
     1
  0
APPID
  5
12
330
9
100
AcDbSymbolTableRecord
100
AcDbRegAppTableRecord
  2
ACAD
 70
     0
  0
ENDTAB
  0
TABLE
  2
DIMSTYLE
  5
A
330
0
100
AcDbSymbolTable
 70
     1
100
AcDbDimStyleTable
  0
DIMSTYLE
105
27
330
A
100
AcDbSymbolTableRecord
100
AcDbDimStyleTableRecord
  2
Standard
 70
     0
178
     0
340
11
  0
ENDTAB
  0
TABLE
  2
BLOCK_RECORD
  5
1
330
0
100
AcDbSymbolTable
 70
    12
  0
BLOCK_RECORD
  5
1F
330
1
100
AcDbSymbolTableRecord
100
AcDbBlockTableRecord
  2
*Model_Space
340
22
  0
BLOCK_RECORD
  5
1B
330
1
100
AcDbSymbolTableRecord
100
AcDbBlockTableRecord
  2
*Paper_Space
340
1E
  0
BLOCK_RECORD
  5
23
330
1
100
AcDbSymbolTableRecord
100
AcDbBlockTableRecord
  2
*Paper_Space0
340
26
  0
BLOCK_RECORD
  5
3F
330
1
100
AcDbSymbolTableRecord
100
AcDbBlockTableRecord
  2
D_FRAME_VIEW@426
340
0
102
{BLKREFS
331
97
102
}
  0
BLOCK_RECORD
  5
98
330
1
100
AcDbSymbolTableRecord
100
AcDbBlockTableRecord
  2
D_FRAME_VIEW@422
340
0
102
{BLKREFS
331
194
102
}
  0
BLOCK_RECORD
  5
195
330
1
100
AcDbSymbolTableRecord
100
AcDbBlockTableRecord
  2
D_FRAME_VIEW@418
340
0
102
{BLKREFS
331
1CE
102
}
  0
BLOCK_RECORD
  5
1CF
330
1
100
AcDbSymbolTableRecord
100
AcDbBlockTableRecord
  2
D_FRAME_VIEW@410
340
0
102
{BLKREFS
331
0
102
}
  0
BLOCK_RECORD
  5
211
330
1
100
AcDbSymbolTableRecord
100
AcDbBlockTableRecord
  2
D_FRAME_VIEW@416
340
0
102
{BLKREFS
331
0
102
}
  0
BLOCK_RECORD
  5
234
330
1
100
AcDbSymbolTableRecord
100
AcDbBlockTableRecord
  2
D_FRAME_VIEW@420
340
0
102
{BLKREFS
331
2CF
102
}
  0
BLOCK_RECORD
  5
2D0
330
1
100
AcDbSymbolTableRecord
100
AcDbBlockTableRecord
  2
D_FRAME_VIEW@424
340
0
102
{BLKREFS
331
3B3
102
}
  0
BLOCK_RECORD
  5
3B4
330
1
100
AcDbSymbolTableRecord
100
AcDbBlockTableRecord
  2
D_FRAME_VIEW@428
340
0
102
{BLKREFS
331
4A3
102
}
  0
BLOCK_RECORD
  5
57B
330
1
100
AcDbSymbolTableRecord
100
AcDbBlockTableRecord
  2
HzQ360
340
0
102
{BLKREFS
331
0
331
5B7
331
0
331
5D9
102
}
  0
ENDTAB
  0
ENDSEC
  0
SECTION
  2
BLOCKS
  0
BLOCK
  5
20
330
1F
100
AcDbEntity
  8
0
100
AcDbBlockBegin
  2
*Model_Space
 70
     0
 10
0.0
 20
0.0
 30
0.0
  3
*Model_Space
  1

  0
ENDBLK
  5
21
330
1F
100
AcDbEntity
  8
0
100
AcDbBlockEnd
  0
BLOCK
  5
1C
330
1B
100
AcDbEntity
 67
     1
  8
0
100
AcDbBlockBegin
  2
*Paper_Space
 70
     0
 10
0.0
 20
0.0
 30
0.0
  3
*Paper_Space
  1

  0
ENDBLK
  5
1D
330
1B
100
AcDbEntity
 67
     1
  8
0
100
AcDbBlockEnd
  0
BLOCK
  5
24
330
23
100
AcDbEntity
  8
0
100
AcDbBlockBegin
  2
*Paper_Space0
 70
     0
 10
0.0
 20
0.0
 30
0.0
  3
*Paper_Space0
  1

  0
ENDBLK
  5
25
330
23
100
AcDbEntity
  8
0
100
AcDbBlockEnd
  0
BLOCK
  5
99
330
3F
100
AcDbEntity
  8
0
100
AcDbBlockBegin
  2
D_FRAME_VIEW@426
 70
     0
 10
0.0
 20
0.0
 30
0.0
  3
D_FRAME_VIEW@426
  1

  0
ARC
  5
40
330
3F
100
AcDbEntity
  8
0
  6
________________
 62
   253
370
     9
100
AcDbCircle
 10
17.24999999996868
 20
-215.9999999967638
 30
0.0
 40
2.000000000000002
210
0.0
220
0.0
230
-1.0
100
AcDbArc
 50
179.9999999999845
 51
89.99999999998431
  0
ARC
  5
42
330
3F
100
AcDbEntity
  8
0
  6
________________
 62
   253
370
     9
100
AcDbCircle
 10
37.24999999997683
 20
-215.9999999967692
 30
0.0
 40
2.000000000000002
210
0.0
220
0.0
230
-1.0
100
AcDbArc
 50
179.9999999999845
 51
89.99999999998487
  0
ARC
  5
43
330
3F
100
AcDbEntity
  8
0
  6
________________
 62
   253
370
     9
100
AcDbCircle
 10
44.74999999997975
 20
-215.9999999967712
 30
0.0
 40
3.000000000000003
210
0.0
220
0.0
230
-1.0
100
AcDbArc
 50
359.9999999999844
 51
269.9999999999845
  0
ARC
  5
44
330
3F
100
AcDbEntity
  8
0
  6
________________
 62
   253
370
     9
100
AcDbCircle
 10
9.749999999965752
 20
-215.9999999967617
 30
0.0
 40
3.000000000000003
210
0.0
220
0.0
230
-1.0
100
AcDbArc
 50
359.9999999999844
 51
269.9999999999845
  0
LINE
  5
45
330
3F
100
AcDbEntity
  8
0
  6
________________
 62
   253
370
     9
100
AcDbLine
 10
-97.74999999998319
 20
-210.499999996042
 30
0.0
 11
-97.74999999998347
 21
-209.4499999958779
 31
0.0
  0
LINE
  5
46
330
3F
100
AcDbEntity
  8
0
  6
________________
 62
     7
370
     9
100
AcDbLine
 10
-103.249999999989
 20
-210.4999999963453
 30
0.0
 11
-103.2499999999893
 21
-209.4499999958794
 31
0.0
  0
LINE
  5
47
330
3F
100
AcDbEntity
  8
0
  6
________________
 62
     7
370
     9
100
AcDbLine
 10
-103.2499999999893
 20
-210.4999999963453
 30
0.0
 11
-97.74999999998319
 21
-210.4999999963438
 31
0.0
  0
LINE
  5
48
330
3F
100
AcDbEntity
  8
0
  6
________________
 62
   253
370
     9
100
AcDbLine
 10
29.75000000000978
 20
-210.4999999960077
 30
0.0
 11
29.7500000000095
 21
-209.4499999958435
 31
0.0
  0
LINE
  5
49
330
3F
100
AcDbEntity
  8
0
  6
________________
 62
     7
370
     9
100
AcDbLine
 10
-97.74999999998319
 20
-210.499999996042
 30
0.0
 11
29.75000000000978
 21
-210.4999999960077
 31
0.0
  0
LINE
  5
4A
330
3F
100
AcDbEntity
  8
0
  6
________________
 62
     7
370
     9
100
AcDbLine
 10
35.25000000000338
 20
-210.4999999963079
 30
0.0
 11
35.25000000000309
 21
-209.4499999958421
 31
0.0
  0
LINE
  5
4B
330
3F
100
AcDbEntity
  8
0
  6
________________
 62
     7
370
     9
100
AcDbLine
 10
29.75000000000978
 20
-210.4999999963094
 30
0.0
 11
35.25000000000367
 21
-210.4999999963079
 31
0.0
  0
LINE
  5
4C
330
3F
100
AcDbEntity
  8
0
  6
________________
 62
     7
370
     9
100
AcDbLine
 10
33.6499999999141
 20
-211.6400000033351
 30
0.0
 11
27.75000000004315
 21
-211.6400000033351
 31
0.0
  0
LINE
  5
4D
330
3F
100
AcDbEntity
  8
0
  6
________________
 62
     7
370
     9
100
AcDbLine
 10
33.64999999991409
 20
-217.6400000033351
 30
0.0
 11
27.75000000004477
 21
-217.6400000033351
 31
0.0
  0
LINE
  5
4E
330
3F
100
AcDbEntity
  8
0
  6
________________
 62
     7
370
     9
100
AcDbLine
 10
-81.34999999999286
 20
-211.6400000033412
 30
0.0
 11
-95.14971701922401
 21
-211.6400000033411
 31
0.0
  0
LINE
  5
4F
330
3F
100
AcDbEntity
  8
0
  6
________________
 62
     7
370
     9
100
AcDbLine
 10
-81.34999999999286
 20
-217.6400000033411
 30
0.0
 11
-95.14971701922401
 21
-217.6400000033411
 31
0.0
  0
LINE
  5
50
330
3F
100
AcDbEntity
  8
0
  6
________________
 62
     7
370
     9
100
AcDbLine
 10
-95.14971701922398
 20
-211.6400000033411
 30
0.0
 11
-95.1499999999928
 21
-211.6400000033411
 31
0.0
  0
LINE
  5
51
330
3F
100
AcDbEntity
  8
0
  6
________________
 62
     7
370
     9
100
AcDbLine
 10
-95.14971701922401
 20
-217.6400000033411
 30
0.0
 11
-95.14999999999283
 21
-217.6400000033411
 31
0.0
  0
LINE
  5
52
330
3F
100
AcDbEntity
  8
0
  6
________________
 62
     7
370
     9
100
AcDbLine
 10
36.74999997820768
 20
-231.5499999959263
 30
0.0
 11
-104.5000000218487
 21
-231.5499999959643
 31
0.0
  0
ARC
  5
53
330
3F
100
AcDbEntity
  8
0
  6
________________
 62
     7
370
     9
100
AcDbCircle
 10
104.5000000218491
 20
-230.0499999959643
 30
0.0
 40
1.500000000224867
210
0.0
220
0.0
230
-1.0
100
AcDbArc
 50
269.999999999984
 51
0.0000000031286049
  0
LINE
  5
54
330
3F
100
AcDbEntity
  8
0
  6
________________
 62
   253
370
     9
100
AcDbLine
 10
-106.0000000220665
 20
-230.0499999958824
 30
0.0
 11
38.24999997799115
 21
-230.0499999958436
 31
0.0
  0
ARC
  5
55
330
3F
100
AcDbEntity
  8
0
  6
________________
 62
     7
370
     9
100
AcDbCircle
 10
36.74999997820728
 20
-230.0499999959263
 30
0.0
 40
1.500000000007569
100
AcDbArc
 50
270.0000000000153
 51
0.0000000031582772
  0
LINE
  5
56
330
3F
100
AcDbEntity
  8
0
  6
________________
 62
     7
370
     9
100
AcDbLine
 10
-106.0000000220688
 20
-221.5499999958824
 30
0.0
 11
38.24999997798885
 21
-221.5499999958436
 31
0.0
  0
LINE
  5
57
330
3F
100
AcDbEntity
  8
0
  6
________________
 62
     7
370
     9
100
AcDbLine
 10
-106.0000000220665
 20
-230.0499999958824
 30
0.0
 11
-106.0000000220688
 21
-221.5499999958824
 31
0.0
  0
LINE
  5
58
330
3F
100
AcDbEntity
  8
0
  6
________________
 62
     7
370
     9
100
AcDbLine
 10
38.24999997799114
 20
-230.0499999958436
 30
0.0
 11
38.24999997798886
 21
-221.5499999958436
 31
0.0
  0
LINE
  5
59
330
3F
100
AcDbEntity
  8
0
  6
________________
 62
     7
370
     9
100
AcDbLine
 10
-106.0000000109545
 20
-209.4499999958801
 30
0.0
 11
38.2499999891031
 21
-209.4499999958413
 31
0.0
  0
LINE
  5
5A
330
3F
100
AcDbEntity
  8
0
  6
________________
 62
     7
370
     9
100
AcDbLine
 10
-106.0000000109568
 20
-200.9499999958801
 30
0.0
 11
-106.0000000109545
 21
-209.4499999958801
 31
0.0
  0
LINE
  5
5B
330
3F
100
AcDbEntity
  8
0
  6
________________
 62
   253
370
     9
100
AcDbLine
 10
38.24999998910081
 20
-200.9499999958413
 30
0.0
 11
-106.0000000109568
 21
-200.9499999958801
 31
0.0
  0
LINE
  5
5C
330
3F
100
AcDbEntity
  8
0
  6
________________
 62
     7
370
     9
100
AcDbLine
 10
38.24999998910081
 20
-200.9499999958413
 30
0.0
 11
38.2499999891031
 21
-209.4499999958413
 31
0.0
  0
ARC
  5
5D
330
3F
100
AcDbEntity
  8
0
  6
________________
 62
     7
370
     9
100
AcDbCircle
 10
104.5000000108486
 20
-200.949999995962
 30
0.0
 40
1.500000000122071
210
0.0
220
0.0
230
-1.0
100
AcDbArc
 50
0.0000000031275454
 51
89.9999999999841
  0
LINE
  5
5E
330
3F
100
AcDbEntity
  8
0
  6
________________
 62
     7
370
     9
100
AcDbLine
 10
-104.500000010849
 20
-199.449999995962
 30
0.0
 11
36.7499999892074
 21
-199.449999995924
 31
0.0
  0
ARC
  5
5F
330
3F
100
AcDbEntity
  8
0
  6
________________
 62
     7
370
     9
100
AcDbCircle
 10
36.74999998920781
 20
-200.949999995924
 30
0.0
 40
1.500000000013994
100
AcDbArc
 50
0.000000003159351
 51
90.00000000001539
  0
LINE
  5
60
330
3F
100
AcDbEntity
  8
0
  6
________________
 62
     7
370
     9
100
AcDbLine
 10
-106.3968743234665
 20
-206.6667879404954
 30
0.0
 11
-106.0001153923754
 21
-206.9519950604166
 31
0.0
  0
LINE
  5
61
330
3F
100
AcDbEntity
  8
0
  6
________________
 62
     7
370
     9
100
AcDbLine
 10
-106.0001132459021
 20
-206.9523216609511
 30
0.0
 11
-106.3200974377151
 21
-206.7481943548477
 31
0.0
  0
LINE
  5
62
330
3F
100
AcDbEntity
  8
0
  6
________________
 62
     7
370
     9
100
AcDbLine
 10
38.25017394898853
 20
-206.8085331497667
 30
0.0
 11
38.39687432351874
 21
-206.6667881279049
 31
0.0
  0
LINE
  5
63
330
3F
100
AcDbEntity
  8
0
  6
________________
 62
   253
370
     9
100
AcDbLine
 10
-97.75000000001606
 20
-221.5499999958802
 30
0.0
 11
-97.75000000001634
 21
-220.4999999960447
 31
0.0
  0
LINE
  5
64
330
3F
100
AcDbEntity
  8
0
  6
________________
 62
     7
370
     9
100
AcDbLine
 10
-97.75000000001634
 20
-220.4999999960447
 30
0.0
 11
-93.22493718554638
 21
-220.4999999960435
 31
0.0
  0
LINE
  5
65
330
3F
100
AcDbEntity
  8
0
  6
________________
 62
   253
370
     9
100
AcDbLine
 10
-93.2249371855461
 20
-221.549999995879
 30
0.0
 11
-93.22493718554638
 21
-220.4999999960435
 31
0.0
  0
LINE
  5
66
330
3F
100
AcDbEntity
  8
0
  6
________________
 62
     7
370
     9
100
AcDbLine
 10
-92.22493718554749
 20
-220.4999999960981
 30
0.0
 11
-93.22493718554638
 21
-220.4999999960984
 31
0.0
  0
LINE
  5
67
330
3F
100
AcDbEntity
  8
0
  6
________________
 62
   253
370
     9
100
AcDbLine
 10
-83.27506281447323
 20
-221.5499999958763
 30
0.0
 11
-83.27506281447351
 21
-220.4999999960408
 31
0.0
  0
LINE
  5
68
330
3F
100
AcDbEntity
  8
0
  6
________________
 62
     7
370
     9
100
AcDbLine
 10
-83.27506281447351
 20
-220.4999999960957
 30
0.0
 11
-84.27506281447462
 21
-220.499999996096
 31
0.0
  0
LINE
  5
69
330
3F
100
AcDbEntity
  8
0
  6
________________
 62
   253
370
     9
100
AcDbLine
 10
29.75000000006951
 20
-221.5499999958458
 30
0.0
 11
29.75000000006923
 21
-220.4999999960104
 31
0.0
  0
LINE
  5
6A
330
3F
100
AcDbEntity
  8
0
  6
________________
 62
     7
370
     9
100
AcDbLine
 10
-83.27506281447351
 20
-220.4999999960408
 30
0.0
 11
29.75000000006924
 21
-220.4999999960104
 31
0.0
  0
LINE
  5
6B
330
3F
100
AcDbEntity
  8
0
  6
________________
 62
     7
370
     9
100
AcDbLine
 10
-103.2500000000258
 20
-221.5499999975551
 30
0.0
 11
-103.2500000000261
 21
-220.499999996348
 31
0.0
  0
LINE
  5
6C
330
3F
100
AcDbEntity
  8
0
  6
________________
 62
     7
370
     9
100
AcDbLine
 10
-103.2500000000225
 20
-220.499999996348
 30
0.0
 11
-97.75000000001634
 21
-220.4999999963465
 31
0.0
  0
LINE
  5
6D
330
3F
100
AcDbEntity
  8
0
  6
________________
 62
     7
370
     9
100
AcDbLine
 10
35.2500000000671
 20
-221.5500000040963
 30
0.0
 11
35.25000000006682
 21
-220.4999999963107
 31
0.0
  0
LINE
  5
6E
330
3F
100
AcDbEntity
  8
0
  6
________________
 62
     7
370
     9
100
AcDbLine
 10
29.75000000006923
 20
-220.4999999963121
 30
0.0
 11
35.25000000006312
 21
-220.4999999963107
 31
0.0
  0
LINE
  5
6F
330
3F
100
AcDbEntity
  8
0
  6
________________
 62
     7
370
     9
100
AcDbLine
 10
32.24999999994551
 20
-220.5000000033343
 30
0.0
 11
32.13153637352063
 21
-220.5000000033344
 31
0.0
  0
LINE
  5
70
330
3F
100
AcDbEntity
  8
0
  6
________________
 62
     7
370
     9
100
AcDbLine
 10
-106.3968743235216
 20
-224.3332123188042
 30
0.0
 11
-106.0001153991416
 21
-224.0475901311064
 31
0.0
  0
LINE
  5
71
330
3F
100
AcDbEntity
  8
0
  6
________________
 62
     7
370
     9
100
AcDbLine
 10
-106.0001132589679
 20
-224.0480937644651
 30
0.0
 11
-106.3968743235216
 21
-224.3332123188042
 31
0.0
  0
LINE
  5
72
330
3F
100
AcDbEntity
  8
0
  6
________________
 62
     7
370
     9
100
AcDbLine
 10
38.39687432351962
 20
-224.3332118702406
 30
0.0
 11
38.25014358572861
 21
-224.1914429886564
 31
0.0
  0
LINE
  5
73
330
3F
100
AcDbEntity
  8
0
  6
________________
 62
   253
370
     9
100
AcDbLine
 10
-84.2750628144768
 20
-220.7735181943686
 30
0.0
 11
-92.22493718554516
 21
-220.7735181943708
 31
0.0
  0
LINE
  5
74
330
3F
100
AcDbEntity
  8
0
  6
________________
 62
   253
370
     9
100
AcDbLine
 10
-93.52300924675251
 20
-220.1119209664961
 30
0.0
 11
-82.97699075322853
 21
-220.1119209664933
 31
0.0
  0
LINE
  5
75
330
3F
100
AcDbEntity
  8
0
  6
________________
 62
     7
370
     9
100
AcDbLine
 10
-83.61424350644302
 20
-210.9987820216372
 30
0.0
 11
-92.8857564935429
 21
-210.9987820216397
 31
0.0
  0
LINE
  5
76
330
3F
100
AcDbEntity
  8
0
  6
________________
 62
   253
370
     9
100
AcDbLine
 10
9.943752502047595
 20
-220.4999999960157
 30
0.0
 11
9.943752502045086
 21
-210.499999996633
 31
0.0
  0
LINE
  5
77
330
3F
100
AcDbEntity
  8
0
  6
________________
 62
   253
370
     9
100
AcDbLine
 10
5.260004003244542
 20
-220.499999996017
 30
0.0
 11
5.26000400324201
 21
-210.4999999967577
 31
0.0
  0
LINE
  5
78
330
3F
100
AcDbEntity
  8
0
  6
________________
 62
     7
370
     9
100
AcDbLine
 10
-61.24999999999185
 20
-220.4999999960349
 30
0.0
 11
-61.24999999999454
 21
-210.4999999971048
 31
0.0
  0
LINE
  5
79
330
3F
100
AcDbEntity
  8
0
  6
________________
 62
   253
370
     9
100
AcDbLine
 10
-55.24999999998263
 20
-220.4999999960333
 30
0.0
 11
-55.24999999998535
 21
-210.499999996774
 31
0.0
  0
CIRCLE
  5
7A
330
3F
100
AcDbEntity
  8
0
  6
________________
 62
     7
370
     9
100
AcDbCircle
 10
44.74999999997974
 20
-215.9999999967712
 30
0.0
 40
2.500000000000002
210
0.0
220
0.0
230
-1.0
  0
CIRCLE
  5
7B
330
3F
100
AcDbEntity
  8
0
  6
________________
 62
     7
370
     9
100
AcDbCircle
 10
9.749999999965759
 20
-215.9999999967617
 30
0.0
 40
2.500000000000002
210
0.0
220
0.0
230
-1.0
  0
CIRCLE
  5
7C
330
3F
100
AcDbEntity
  8
0
  6
________________
 62
     7
370
     9
100
AcDbCircle
 10
37.2499999999768
 20
-215.9999999967692
 30
0.0
 40
1.649999999999999
210
0.0
220
0.0
230
-1.0
  0
CIRCLE
  5
7D
330
3F
100
AcDbEntity
  8
0
  6
________________
 62
     7
370
     9
100
AcDbCircle
 10
17.24999999996868
 20
-215.9999999967638
 30
0.0
 40
1.649999999999999
210
0.0
220
0.0
230
-1.0
  0
LINE
  5
7E
330
3F
100
AcDbEntity
  8
0
  6
________________
 62
   253
370
     9
100
AcDbLine
 10
27.75000000004543
 20
-220.1119209733217
 30
0.0
 11
32.02300924667844
 21
-220.1119209733206
 31
0.0
  0
LINE
  5
7F
330
3F
100
AcDbEntity
  8
0
  6
________________
 62
     7
370
     9
100
AcDbLine
 10
31.38575649346394
 20
-210.9987820284645
 30
0.0
 11
27.75000000004298
 21
-210.9987820284655
 31
0.0
  0
LINE
  5
80
330
3F
100
AcDbEntity
  8
0
  6
________________
 62
     7
370
     9
100
AcDbLine
 10
29.74999999991389
 20
-210.500000003335
 30
0.0
 11
30.85087825659172
 21
-210.5000000033347
 31
0.0
  0
LINE
  5
81
330
3F
100
AcDbEntity
  8
0
  6
________________
 62
     7
370
     9
100
AcDbLine
 10
33.64999999991686
 20
-217.6400000033351
 30
0.0
 11
33.64999999991687
 21
-211.6400000033351
 31
0.0
  0
LINE
  5
82
330
3F
100
AcDbEntity
  8
0
  6
________________
 62
     7
370
     9
100
AcDbLine
 10
-95.14999999999561
 20
-211.6400000033411
 30
0.0
 11
-95.14999999999561
 21
-217.6400000033411
 31
0.0
  0
LINE
  5
83
330
3F
100
AcDbEntity
  8
0
  6
________________
 62
     7
370
     9
100
AcDbLine
 10
-81.34999999999009
 20
-217.6400000033411
 30
0.0
 11
-81.34999999999009
 21
-211.6400000033412
 31
0.0
  0
ARC
  5
84
330
3F
100
AcDbEntity
  8
0
  6
________________
 62
     7
370
     9
100
AcDbCircle
 10
-105.249999999947
 20
-205.699999919039
 30
0.0
 40
1.500000000000007
100
AcDbArc
 50
120.0000003890521
 51
220.4999999999928
  0
ARC
  5
85
330
3F
100
AcDbEntity
  8
0
  6
________________
 62
     7
370
     9
100
AcDbCircle
 10
37.25000000000008
 20
-205.6999999990708
 30
0.0
 40
1.499999999999991
100
AcDbArc
 50
319.500000000038
 51
48.1896856583316
  0
LINE
  5
86
330
3F
100
AcDbEntity
  8
0
  6
________________
 62
     7
370
     9
100
AcDbLine
 10
-92.22493718554654
 20
-221.5499999975521
 30
0.0
 11
-92.22493718554682
 21
-220.4999999960981
 31
0.0
  0
LINE
  5
87
330
3F
100
AcDbEntity
  8
0
  6
________________
 62
     7
370
     9
100
AcDbLine
 10
-84.27506281447529
 20
-220.499999996096
 30
0.0
 11
-84.275062814475
 21
-221.54999999755
 31
0.0
  0
ARC
  5
88
330
3F
100
AcDbEntity
  8
0
  6
________________
 62
     7
370
     9
100
AcDbCircle
 10
-105.2500000000015
 20
-225.3000001901083
 30
0.0
 40
1.500000000000002
100
AcDbArc
 50
139.8318628023466
 51
239.9999992211371
  0
ARC
  5
89
330
3F
100
AcDbEntity
  8
0
  6
________________
 62
     7
370
     9
100
AcDbCircle
 10
37.25000000000148
 20
-225.2999999990754
 30
0.0
 40
1.500000000000002
100
AcDbArc
 50
311.8103137766348
 51
40.49999999999295
  0
ARC
  5
8A
330
3F
100
AcDbEntity
  8
0
  6
________________
 62
     7
370
     9
100
AcDbCircle
 10
94.52057329701734
 20
-220.0421644927522
 30
0.0
 40
1.000000000000005
210
0.0
220
0.0
230
-1.0
100
AcDbArc
 50
183.9999999999776
 51
207.2475244447874
  0
ARC
  5
8B
330
3F
100
AcDbEntity
  8
0
  6
________________
 62
     7
370
     9
100
AcDbCircle
 10
81.97942670296372
 20
-220.0421644927489
 30
0.0
 40
0.9999999999999963
210
0.0
220
0.0
230
-1.0
100
AcDbArc
 50
332.7524418205996
 51
355.9999999999915
  0
LINE
  5
8C
330
3F
100
AcDbEntity
  8
0
  6
________________
 62
     7
370
     9
100
AcDbLine
 10
-82.97699075322642
 20
-220.1119209664933
 30
0.0
 11
-83.14984430555671
 21
-217.6400000033411
 31
0.0
  0
LINE
  5
8D
330
3F
100
AcDbEntity
  8
0
  6
________________
 62
     7
370
     9
100
AcDbLine
 10
-83.56940517721956
 20
-211.6400000033411
 30
0.0
 11
-83.61424350644117
 21
-210.9987820216372
 31
0.0
  0
LINE
  5
8E
330
3F
100
AcDbEntity
  8
0
  6
________________
 62
     7
370
     9
100
AcDbLine
 10
-92.88575649354476
 20
-210.9987820216397
 30
0.0
 11
-92.93059482276581
 21
-211.6400000033411
 31
0.0
  0
LINE
  5
8F
330
3F
100
AcDbEntity
  8
0
  6
________________
 62
     7
370
     9
100
AcDbLine
 10
-93.35015569442541
 20
-217.6400000033411
 30
0.0
 11
-93.5230092467546
 21
-220.1119209664961
 31
0.0
  0
LINE
  5
90
330
3F
100
AcDbEntity
  8
0
  6
________________
 62
     7
370
     9
100
AcDbLine
 10
-83.61424350644117
 20
-210.9987820216372
 30
0.0
 11
-84.1491217433136
 21
-210.4999999965075
 31
0.0
  0
LINE
  5
91
330
3F
100
AcDbEntity
  8
0
  6
________________
 62
     7
370
     9
100
AcDbLine
 10
-92.35087825667262
 20
-210.4999999965096
 30
0.0
 11
-92.88575649354476
 21
-210.9987820216397
 31
0.0
  0
LINE
  5
92
330
3F
100
AcDbEntity
  8
0
  6
________________
 62
     7
370
     9
100
AcDbLine
 10
27.75000000004594
 20
-220.5000000037712
 30
0.0
 11
27.75000000004324
 21
-210.4999999969711
 31
0.0
  0
ARC
  5
93
330
3F
100
AcDbEntity
  8
0
  6
________________
 62
     7
370
     9
100
AcDbCircle
 10
-33.02057329694325
 20
-220.0421644995762
 30
0.0
 40
0.999999999999998
210
0.0
220
0.0
230
-1.0
100
AcDbArc
 50
332.752475525126
 51
355.9999999999914
  0
LINE
  5
94
330
3F
100
AcDbEntity
  8
0
  6
________________
 62
     7
370
     9
100
AcDbLine
 10
32.02300924668054
 20
-220.1119209733206
 30
0.0
 11
31.85015569387242
 21
-217.6400000033353
 31
0.0
  0
LINE
  5
95
330
3F
100
AcDbEntity
  8
0
  6
________________
 62
     7
370
     9
100
AcDbLine
 10
31.43059482220957
 20
-211.6400000033353
 30
0.0
 11
31.3857564934658
 21
-210.9987820284645
 31
0.0
  0
LINE
  5
96
330
3F
100
AcDbEntity
  8
0
  6
________________
 62
     7
370
     9
100
AcDbLine
 10
31.38575649346579
 20
-210.9987820284645
 30
0.0
 11
30.85087825659337
 21
-210.5000000033347
 31
0.0
  0
ENDBLK
  5
9A
330
3F
100
AcDbEntity
  8
0
100
AcDbBlockEnd
  0
BLOCK
  5
196
330
98
100
AcDbEntity
  8
0
100
AcDbBlockBegin
  2
D_FRAME_VIEW@422
 70
     0
 10
0.0
 20
0.0
 30
0.0
  3
D_FRAME_VIEW@422
  1

  0
ARC
  5
9B
330
98
100
AcDbEntity
  8
0
  6
________________
 62
   253
370
     9
100
AcDbCircle
 10
166.0000000004333
 20
-60.8000000020902
 30
0.0
 40
3.000000000000003
100
AcDbArc
 50
180.0000000031437
 51
0.0000000031438958
  0
ARC
  5
9C
330
98
100
AcDbEntity
  8
0
  6
________________
 62
   253
370
     9
100
AcDbCircle
 10
166.0000000004333
 20
-60.8000000020902
 30
0.0
 40
3.000000000000003
100
AcDbArc
 50
0.0000000031438458
 51
90.00000000314374
  0
ARC
  5
9D
330
98
100
AcDbEntity
  8
0
  6
________________
 62
   253
370
     9
100
AcDbCircle
 10
165.9999999990616
 20
-35.80000000208022
 30
0.0
 40
2.999999999999975
100
AcDbArc
 50
180.0000000031436
 51
0.0000000031437821
  0
ARC
  5
9E
330
98
100
AcDbEntity
  8
0
  6
________________
 62
   253
370
     9
100
AcDbCircle
 10
165.9999999990616
 20
-35.80000000208022
 30
0.0
 40
3.000000000000003
100
AcDbArc
 50
0.0000000031438126
 51
90.00000000314363
  0
LINE
  5
9F
330
98
100
AcDbEntity
  8
0
  6
________________
 62
     7
370
     9
100
AcDbLine
 10
160.4999999974548
 20
-6.050000002246223
 30
0.0
 11
159.4499999974189
 21
-6.050000002303834
 31
0.0
  0
LINE
  5
A0
330
98
100
AcDbEntity
  8
0
  6
________________
 62
   253
370
     9
100
AcDbLine
 10
159.4499999971557
 20
-0.5500000022980247
 30
0.0
 11
160.4999999971545
 21
-0.5500000022404146
 31
0.0
  0
LINE
  5
A1
330
98
100
AcDbEntity
  8
0
  6
________________
 62
     7
370
     9
100
AcDbLine
 10
160.4999999971531
 20
-0.5500000022404146
 30
0.0
 11
160.4999999974548
 21
-6.050000002246529
 31
0.0
  0
LINE
  5
A2
330
98
100
AcDbEntity
  8
0
  6
________________
 62
     7
370
     9
100
AcDbLine
 10
159.449999997076
 20
0.1999999977019412
 30
0.0
 11
160.4999999971134
 21
0.1999999977595479
 31
0.0
  0
LINE
  5
A3
330
98
100
AcDbEntity
  8
0
  6
________________
 62
     7
370
     9
100
AcDbLine
 10
160.4999999971545
 20
-0.5500000022404146
 30
0.0
 11
160.4999999971134
 21
0.1999999977595479
 31
0.0
  0
LINE
  5
A4
330
98
100
AcDbEntity
  8
0
  6
________________
 62
   253
370
     9
100
AcDbLine
 10
160.4999999963453
 20
14.19999999775878
 30
0.0
 11
159.4499999963465
 21
14.19999999770116
 31
0.0
  0
LINE
  5
A5
330
98
100
AcDbEntity
  8
0
  6
________________
 62
     7
370
     9
100
AcDbLine
 10
160.499999996455
 20
12.19999999775889
 30
0.0
 11
159.4499999964176
 21
12.19999999770128
 31
0.0
  0
LINE
  5
A6
330
98
100
AcDbEntity
  8
0
  6
________________
 62
     7
370
     9
100
AcDbLine
 10
160.499999996455
 20
12.19999999775889
 30
0.0
 11
160.4999999963453
 21
14.19999999775878
 31
0.0
  0
LINE
  5
A7
330
98
100
AcDbEntity
  8
0
  6
________________
 62
     7
370
     9
100
AcDbLine
 10
160.499999996042
 20
19.69999999775236
 30
0.0
 11
159.4499999960061
 21
19.69999999769476
 31
0.0
  0
LINE
  5
A8
330
98
100
AcDbEntity
  8
0
  6
________________
 62
     7
370
     9
100
AcDbLine
 10
160.4999999963438
 20
14.19999999775878
 30
0.0
 11
160.499999996042
 21
19.69999999775267
 31
0.0
  0
LINE
  5
A9
330
98
100
AcDbEntity
  8
0
  6
________________
 62
     7
370
     9
100
AcDbLine
 10
160.4999999964542
 20
12.19999999775555
 30
0.0
 11
160.4999999971126
 21
0.1999999977562103
 31
0.0
  0
LINE
  5
AA
330
98
100
AcDbEntity
  8
0
  6
________________
 62
     7
370
     9
100
AcDbLine
 10
159.4500000035777
 20
-118.3000000024169
 30
0.0
 11
160.5000000035847
 21
-118.3000000023593
 31
0.0
  0
LINE
  5
AB
330
98
100
AcDbEntity
  8
0
  6
________________
 62
   253
370
     9
100
AcDbLine
 10
159.4500000036956
 20
-120.3000000024168
 30
0.0
 11
160.5000000036944
 21
-120.3000000023592
 31
0.0
  0
LINE
  5
AC
330
98
100
AcDbEntity
  8
0
  6
________________
 62
     7
370
     9
100
AcDbLine
 10
160.5000000036944
 20
-120.3000000023592
 30
0.0
 11
160.5000000035847
 21
-118.3000000023593
 31
0.0
  0
LINE
  5
AD
330
98
100
AcDbEntity
  8
0
  6
________________
 62
   253
370
     9
100
AcDbLine
 10
160.5000000016369
 20
-82.80000000236123
 30
0.0
 11
159.4500000016381
 21
-82.80000000241884
 31
0.0
  0
LINE
  5
AE
330
98
100
AcDbEntity
  8
0
  6
________________
 62
     7
370
     9
100
AcDbLine
 10
160.5000000029263
 20
-106.3000000023599
 30
0.0
 11
159.4500000029193
 21
-106.3000000024176
 31
0.0
  0
LINE
  5
AF
330
98
100
AcDbEntity
  8
0
  6
________________
 62
     7
370
     9
100
AcDbLine
 10
160.5000000029263
 20
-106.3000000023599
 30
0.0
 11
160.5000000016369
 21
-82.80000000236123
 31
0.0
  0
LINE
  5
B0
330
98
100
AcDbEntity
  8
0
  6
________________
 62
     7
370
     9
100
AcDbLine
 10
160.5000000039947
 20
-125.800000002365
 30
0.0
 11
159.4500000039892
 21
-125.8000000024226
 31
0.0
  0
LINE
  5
B1
330
98
100
AcDbEntity
  8
0
  6
________________
 62
     7
370
     9
100
AcDbLine
 10
160.5000000036929
 20
-120.3000000023592
 30
0.0
 11
160.5000000039947
 21
-125.8000000023653
 31
0.0
  0
LINE
  5
B2
330
98
100
AcDbEntity
  8
0
  6
________________
 62
     7
370
     9
100
AcDbLine
 10
159.4500000013281
 20
-77.30000000242525
 30
0.0
 11
160.5000000013337
 21
-77.30000000236764
 31
0.0
  0
LINE
  5
B3
330
98
100
AcDbEntity
  8
0
  6
________________
 62
     7
370
     9
100
AcDbLine
 10
160.5000000013337
 20
-77.30000000236734
 30
0.0
 11
160.5000000016354
 21
-82.80000000236123
 31
0.0
  0
LINE
  5
B4
330
98
100
AcDbEntity
  8
0
  6
________________
 62
     7
370
     9
100
AcDbLine
 10
160.5000100029254
 20
-106.3000000023633
 30
0.0
 11
160.5000100035838
 21
-118.3000000023626
 31
0.0
  0
LINE
  5
B5
330
98
100
AcDbEntity
  8
0
  6
________________
 62
   253
370
     9
100
AcDbLine
 10
158.5000000010301
 20
-71.80000000248518
 30
0.0
 11
160.5000000010301
 21
-71.80000000237546
 31
0.0
  0
LINE
  5
B6
330
98
100
AcDbEntity
  8
0
  6
________________
 62
     7
370
     9
100
AcDbLine
 10
160.5000000013333
 20
-77.30000000236933
 30
0.0
 11
160.5000000013059
 21
-76.80000000239868
 31
0.0
  0
LINE
  5
B7
330
98
100
AcDbEntity
  8
0
  6
________________
 62
   253
370
     9
100
AcDbLine
 10
160.4999999976552
 20
-10.28999599917563
 30
0.0
 11
158.4999999976552
 21
-10.28999599928536
 31
0.0
  0
LINE
  5
B8
330
98
100
AcDbEntity
  8
0
  6
________________
 62
     7
370
     9
100
AcDbLine
 10
154.6152266805913
 20
-7.800000010915777
 30
0.0
 11
153.7489315685606
 21
-7.600000010963218
 31
0.0
  0
LINE
  5
B9
330
98
100
AcDbEntity
  8
0
  6
________________
 62
     7
370
     9
100
AcDbLine
 10
155.6980955348098
 20
-7.600000010856273
 30
0.0
 11
155.6980955348207
 21
-7.800000010856362
 31
0.0
  0
LINE
  5
BA
330
98
100
AcDbEntity
  8
0
  6
________________
 62
     7
370
     9
100
AcDbLine
 10
155.6994366141173
 20
-7.800000010856461
 30
0.0
 11
155.6994549387933
 21
-7.600000010856457
 31
0.0
  0
LINE
  5
BB
330
98
100
AcDbEntity
  8
0
  6
________________
 62
     7
370
     9
100
AcDbLine
 10
156.6667880055523
 20
-9.196874326064703
 30
0.0
 11
156.9520261139971
 21
-8.80011608248646
 31
0.0
  0
LINE
  5
BC
330
98
100
AcDbEntity
  8
0
  6
________________
 62
     7
370
     9
100
AcDbLine
 10
156.7965280805555
 20
-7.799893116845232
 30
0.0
 11
156.5760212040774
 21
-7.599900846930366
 31
0.0
  0
LINE
  5
BD
330
98
100
AcDbEntity
  8
0
  6
________________
 62
     7
370
     9
100
AcDbLine
 10
156.5768019785349
 20
-7.599847041129636
 30
0.0
 11
156.7972644899212
 21
-7.79986943220657
 31
0.0
  0
LINE
  5
BE
330
98
100
AcDbEntity
  8
0
  6
________________
 62
     7
370
     9
100
AcDbLine
 10
156.9522909079404
 20
-8.800112186381996
 30
0.0
 11
156.8152812496413
 21
-9.041564082281853
 31
0.0
  0
LINE
  5
BF
330
98
100
AcDbEntity
  8
0
  6
________________
 62
     7
370
     9
100
AcDbLine
 10
176.3863913667036
 20
-7.800000017979038
 30
0.0
 11
177.2526863265614
 21
-7.60000001793142
 31
0.0
  0
LINE
  5
C0
330
98
100
AcDbEntity
  8
0
  6
________________
 62
     7
370
     9
100
AcDbLine
 10
175.3035227386451
 20
-7.600000018038362
 30
0.0
 11
175.303522738656
 21
-7.800000018038451
 31
0.0
  0
ELLIPSE
  5
C1
330
98
100
AcDbEntity
  8
0
  6
________________
 62
     7
370
     9
100
AcDbEllipse
 10
175.3000001714613
 20
-8.050000001470643
 30
0.0
 11
-8.230103863864562E-11
 21
1.499999999999999
 31
0.0
210
0.0
220
0.0
230
-1.0
 40
0.0007045134416964
 41
1.266103684362206
 42
1.403348258779928
  0
LINE
  5
C2
330
98
100
AcDbEntity
  8
0
  6
________________
 62
     7
370
     9
100
AcDbLine
 10
174.2863672808876
 20
-9.154821906375929
 30
0.0
 11
174.0475991283918
 21
-8.800116073282009
 31
0.0
  0
LINE
  5
C3
330
98
100
AcDbEntity
  8
0
  6
________________
 62
     7
370
     9
100
AcDbLine
 10
174.2023954127066
 20
-7.799893124051126
 30
0.0
 11
174.4227514341211
 21
-7.599900854004811
 31
0.0
  0
LINE
  5
C4
330
98
100
AcDbEntity
  8
0
  6
________________
 62
     7
370
     9
100
AcDbLine
 10
174.4244259478311
 20
-7.599847048246327
 30
0.0
 11
174.2038126418523
 21
-7.799869439432217
 31
0.0
  0
LINE
  5
C5
330
98
100
AcDbEntity
  8
0
  6
________________
 62
     7
370
     9
100
AcDbLine
 10
174.0480845292985
 20
-8.80011219366161
 30
0.0
 11
174.3332122826188
 21
-9.196874325043492
 31
0.0
  0
LINE
  5
C6
330
98
100
AcDbEntity
  8
0
  6
________________
 62
     7
370
     9
100
AcDbLine
 10
156.9463000700587
 20
-113.134707222829
 30
0.0
 11
157.0222627126229
 21
-112.8962017986631
 31
0.0
  0
LWPOLYLINE
  5
C7
330
98
100
AcDbEntity
  8
0
  6
________________
 62
     7
370
     9
100
AcDbPolyline
 90
       19
 70
     0
 43
0.0
 10
156.6667881320915
 20
-112.300000002621
 10
156.6736009651299
 20
-112.2936754051376
 10
156.711503446059
 20
-112.2575529784726
 10
156.7477901634466
 20
-112.2212703752724
 10
156.7822384015107
 20
-112.1849584482223
 10
156.8150263774388
 20
-112.1483157244238
 10
156.8457480740872
 20
-112.1116752904503
 10
156.8745489122413
 20
-112.0747332280158
 10
156.9010559642051
 20
-112.0378275558582
 10
156.9252509367166
 20
-112.00085721875
 10
156.9459499063178
 20
-111.965766338033
 10
156.9643756049613
 20
-111.9306453823129
 10
156.9803833893452
 20
-111.8956272977944
 10
156.9940146746083
 20
-111.8604136546207
 10
157.0050449585442
 20
-111.8253404040977
 10
157.013473065481
 20
-111.7901088006481
 10
157.0191232620463
 20
-111.7550592484951
 10
157.0219410013129
 20
-111.720095487208
 10
157.0222627128086
 20
-111.7037877372118
  0
LINE
  5
C8
330
98
100
AcDbEntity
  8
0
  6
________________
 62
     7
370
     9
100
AcDbLine
 10
157.0222627128086
 20
-111.7037877372118
 30
0.0
 11
156.946300244966
 21
-111.465293043674
 31
0.0
  0
LWPOLYLINE
  5
C9
330
98
100
AcDbEntity
  8
0
  6
________________
 62
     7
370
     9
100
AcDbPolyline
 90
       19
 70
     0
 43
0.0
 10
157.0222627126229
 20
-112.8962017986631
 10
157.0219410013765
 20
-112.8799045180006
 10
157.0192821293923
 20
-112.8462666749223
 10
157.0139284317648
 20
-112.8121906779341
 10
157.005907839221
 20
-112.7778086022626
 10
156.9951380757973
 20
-112.7428162261961
 10
156.9817153044912
 20
-112.7075480387155
 10
156.9655191292677
 20
-112.6716932278857
 10
156.9467063498682
 20
-112.6355932318114
 10
156.9252509367494
 20
-112.5991427864683
 10
156.9019716644687
 20
-112.5635080347079
 10
156.8762746953958
 20
-112.5275758661953
 10
156.8482920823905
 20
-112.4914770509901
 10
156.8178134850674
 20
-112.4549081420673
 10
156.785145669321
 20
-112.4182020072759
 10
156.7500489322623
 20
-112.3810507969659
 10
156.7128819569731
 20
-112.3437929777083
 10
156.6736009651306
 20
-112.3063246001075
 10
156.6667881320915
 20
-112.3000000026249
  0
LINE
  5
CA
330
98
100
AcDbEntity
  8
0
  6
________________
 62
     7
370
     9
100
AcDbLine
 10
155.7000000033384
 20
-113.800000002678
 30
0.0
 11
155.7000000033521
 21
-114.0500000028177
 31
0.0
  0
LINE
  5
CB
330
98
100
AcDbEntity
  8
0
  6
________________
 62
     7
370
     9
100
AcDbLine
 10
155.7000000031601
 20
-110.5500000028127
 30
0.0
 11
155.7000000031738
 21
-110.8000000026765
 31
0.0
  0
LINE
  5
CC
330
98
100
AcDbEntity
  8
0
  6
________________
 62
     7
370
     9
100
AcDbLine
 10
156.7534772504183
 20
-110.9026146981407
 30
0.0
 11
156.7534772504364
 21
-111.2322052238603
 31
0.0
  0
LINE
  5
CD
330
98
100
AcDbEntity
  8
0
  6
________________
 62
     7
370
     9
100
AcDbLine
 10
156.7534772505536
 20
-113.367794781389
 30
0.0
 11
156.7534772505717
 21
-113.697385307374
 31
0.0
  0
LINE
  5
CE
330
98
100
AcDbEntity
  8
0
  6
________________
 62
     7
370
     9
100
AcDbLine
 10
174.0542398763117
 20
-111.4640349335011
 30
0.0
 11
173.9781230878029
 21
-111.7024912081693
 31
0.0
  0
LWPOLYLINE
  5
CF
330
98
100
AcDbEntity
  8
0
  6
________________
 62
     7
370
     9
100
AcDbPolyline
 90
       19
 70
     0
 43
0.0
 10
174.3332122294687
 20
-112.2989226463723
 10
174.3263953098478
 20
-112.3052428389508
 10
174.2884694885255
 20
-112.3413407591927
 10
174.2521593268744
 20
-112.3775999003109
 10
174.2176876252089
 20
-112.4138895536036
 10
174.1848759715168
 20
-112.4505110767127
 10
174.1541305981528
 20
-112.4871316455701
 10
174.1253058879194
 20
-112.5240550844031
 10
174.0987749869186
 20
-112.5609436155926
 10
174.0745561230899
 20
-112.5978983061688
 10
174.053834476258
 20
-112.632975800444
 10
174.0353860804695
 20
-112.6680848390812
 10
174.0193556649281
 20
-112.7030925693962
 10
174.0057016216084
 20
-112.7382973944138
 10
173.9946486698176
 20
-112.773363508009
 10
173.9861977921285
 20
-112.8085896564567
 10
173.9805249419022
 20
-112.8436355491929
 10
173.9776846038354
 20
-112.8785974818853
 10
173.9773523516307
 20
-112.8949050205315
  0
LINE
  5
D0
330
98
100
AcDbEntity
  8
0
  6
________________
 62
     7
370
     9
100
AcDbLine
 10
173.9773523516307
 20
-112.8949050205315
 30
0.0
 11
174.0531606487281
 21
-113.1334487638117
 31
0.0
  0
LWPOLYLINE
  5
D1
330
98
100
AcDbEntity
  8
0
  6
________________
 62
     7
370
     9
100
AcDbPolyline
 90
       19
 70
     0
 43
0.0
 10
173.9781230878029
 20
-111.7024912081693
 10
173.9784342649729
 20
-111.7187886933706
 10
173.9810713940414
 20
-111.7524282480266
 10
173.9864030649825
 20
-111.7865076983449
 10
173.9944014324438
 20
-111.8208949510729
 10
174.0051485757334
 20
-111.8558942810392
 10
174.0185485480758
 20
-111.8911711371762
 10
174.0347215445831
 20
-111.9270364091741
 10
174.0535109862403
 20
-111.9631485576494
 10
174.0749428345461
 20
-111.9996128634291
 10
174.0981990688696
 20
-112.0352626546772
 10
174.1238728072402
 20
-112.0712114253325
 10
174.1518320813509
 20
-112.1073283200082
 10
174.1822870354054
 20
-112.143916921623
 10
174.2149311187278
 20
-112.1806441641141
 10
174.2500038351733
 20
-112.2178180520032
 10
174.2871467205084
 20
-112.2550998869494
 10
174.3264034858574
 20
-112.2925936466233
 10
174.3332122294687
 20
-112.2989226463692
  0
LINE
  5
D2
330
98
100
AcDbEntity
  8
0
  6
________________
 62
     7
370
     9
100
AcDbLine
 10
175.3009697053636
 20
-110.7995478587002
 30
0.0
 11
175.3011310044141
 21
-110.5500003672582
 31
0.0
  0
LINE
  5
D3
330
98
100
AcDbEntity
  8
0
  6
________________
 62
     7
370
     9
100
AcDbLine
 10
175.2988687233733
 20
-114.0499996361315
 30
0.0
 11
175.2990306073287
 21
-113.7995472320178
 31
0.0
  0
LINE
  5
D4
330
98
100
AcDbEntity
  8
0
  6
________________
 62
     7
370
     9
100
AcDbLine
 10
174.2456196144209
 20
-113.6967039774505
 30
0.0
 11
174.2458329429191
 21
-113.3666611691744
 31
0.0
  0
LINE
  5
D5
330
98
100
AcDbEntity
  8
0
  6
________________
 62
     7
370
     9
100
AcDbLine
 10
174.2472133154239
 20
-111.2310720577623
 30
0.0
 11
174.2474260590172
 21
-110.9019341621658
 31
0.0
  0
LINE
  5
D6
330
98
100
AcDbEntity
  8
0
  6
________________
 62
     7
370
     9
100
AcDbLine
 10
161.6400000033354
 20
-106.9000000023729
 30
0.0
 11
161.640000003335
 21
-113.7375095668518
 31
0.0
  0
LINE
  5
D7
330
98
100
AcDbEntity
  8
0
  6
________________
 62
     7
370
     9
100
AcDbLine
 10
167.6400000033354
 20
-106.9000000023732
 30
0.0
 11
167.6400000033351
 21
-113.7375095668521
 31
0.0
  0
LINE
  5
D8
330
98
100
AcDbEntity
  8
0
  6
________________
 62
     7
370
     9
100
AcDbLine
 10
161.640000003335
 20
-113.7375095668518
 30
0.0
 11
161.6400000033347
 21
-120.7000000023729
 31
0.0
  0
LINE
  5
D9
330
98
100
AcDbEntity
  8
0
  6
________________
 62
     7
370
     9
100
AcDbLine
 10
167.6400000033351
 20
-113.7375095668521
 30
0.0
 11
167.6400000033347
 21
-120.7000000023732
 31
0.0
  0
LINE
  5
DA
330
98
100
AcDbEntity
  8
0
  6
________________
 62
     7
370
     9
100
AcDbLine
 10
161.6400000033411
 20
18.09999999780495
 30
0.0
 11
161.6400000033411
 21
11.26249043332598
 31
0.0
  0
LINE
  5
DB
330
98
100
AcDbEntity
  8
0
  6
________________
 62
     7
370
     9
100
AcDbLine
 10
167.6400000033411
 20
18.09999999780495
 30
0.0
 11
167.6400000033411
 21
11.26249043332598
 31
0.0
  0
LINE
  5
DC
330
98
100
AcDbEntity
  8
0
  6
________________
 62
     7
370
     9
100
AcDbLine
 10
161.6400000033411
 20
11.26249043332598
 30
0.0
 11
161.6400000033411
 21
4.299999997804976
 31
0.0
  0
LINE
  5
DD
330
98
100
AcDbEntity
  8
0
  6
________________
 62
     7
370
     9
100
AcDbLine
 10
167.6400000033411
 20
11.26249043332598
 30
0.0
 11
167.6400000033411
 21
4.299999997804949
 31
0.0
  0
LINE
  5
DE
330
98
100
AcDbEntity
  8
0
  6
________________
 62
     7
370
     9
100
AcDbLine
 10
171.5499999959373
 20
21.69999998176737
 30
0.0
 11
171.5499999958824
 21
22.69999998176779
 31
0.0
  0
LINE
  5
DF
330
98
100
AcDbEntity
  8
0
  6
________________
 62
   253
370
     9
100
AcDbLine
 10
180.0499999959373
 20
21.69999998223375
 30
0.0
 11
180.0499999958824
 21
22.69999998223417
 31
0.0
  0
LINE
  5
E0
330
98
100
AcDbEntity
  8
0
  6
________________
 62
     7
370
     9
100
AcDbLine
 10
180.0499999959373
 20
21.69999998223375
 30
0.0
 11
171.5499999959373
 21
21.69999998176737
 31
0.0
  0
LINE
  5
E1
330
98
100
AcDbEntity
  8
0
  6
________________
 62
     7
370
     9
100
AcDbLine
 10
180.0499999958824
 20
22.69999998223417
 30
0.0
 11
171.5499999958824
 21
22.69999998176779
 31
0.0
  0
LINE
  5
E2
330
98
100
AcDbEntity
  8
0
  6
________________
 62
   253
370
     9
100
AcDbLine
 10
180.0499999975449
 20
-7.600000017777941
 30
0.0
 11
180.0499999959482
 21
21.49999998223366
 31
0.0
  0
LINE
  5
E3
330
98
100
AcDbEntity
  8
0
  6
________________
 62
     7
370
     9
100
AcDbLine
 10
180.0499999959482
 20
21.4999999824504
 30
0.0
 11
180.5499999959487
 21
21.49999998247784
 31
0.0
  0
LINE
  5
E4
330
98
100
AcDbEntity
  8
0
  6
________________
 62
     7
370
     9
100
AcDbLine
 10
180.5499999959482
 20
21.49999998227349
 30
0.0
 11
180.5499999959373
 21
21.69999998227358
 31
0.0
  0
LINE
  5
E5
330
98
100
AcDbEntity
  8
0
  6
________________
 62
     7
370
     9
100
AcDbLine
 10
180.5499999959375
 20
21.69999998247792
 30
0.0
 11
180.0499999959371
 21
21.69999998245049
 31
0.0
  0
ARC
  5
E6
330
98
100
AcDbEntity
  8
0
  6
________________
 62
     7
370
     9
100
AcDbCircle
 10
180.0499999959643
 20
21.1999999824503
 30
0.0
 40
1.5
100
AcDbArc
 50
0.0000000031434482
 51
90.00000000312862
  0
LINE
  5
E7
330
98
100
AcDbEntity
  8
0
  6
________________
 62
     7
370
     9
100
AcDbLine
 10
181.5499999959643
 20
21.19999998253259
 30
0.0
 11
181.549999997528
 21
-7.300000017478797
 31
0.0
  0
ARC
  5
E8
330
98
100
AcDbEntity
  8
0
  6
________________
 62
     7
370
     9
100
AcDbCircle
 10
180.049999997528
 20
-7.300000017561092
 30
0.0
 40
1.500000000217337
100
AcDbArc
 50
270.0000000031583
 51
0.0000000031431568
  0
LINE
  5
E9
330
98
100
AcDbEntity
  8
0
  6
________________
 62
   253
370
     9
100
AcDbLine
 10
180.0499999976107
 20
-8.800000017778434
 30
0.0
 11
180.0499999975559
 21
-7.80000001777803
 31
0.0
  0
LINE
  5
EA
330
98
100
AcDbEntity
  8
0
  6
________________
 62
     7
370
     9
100
AcDbLine
 10
180.0499999975559
 20
-7.800000017561287
 30
0.0
 11
180.5499999975563
 21
-7.800000017533854
 31
0.0
  0
LINE
  5
EB
330
98
100
AcDbEntity
  8
0
  6
________________
 62
     7
370
     9
100
AcDbLine
 10
180.5499999975558
 20
-7.800000017738201
 30
0.0
 11
180.5499999975448
 21
-7.600000017738112
 31
0.0
  0
LINE
  5
EC
330
98
100
AcDbEntity
  8
0
  6
________________
 62
     7
370
     9
100
AcDbLine
 10
180.5499999975451
 20
-7.600000017533765
 30
0.0
 11
180.0499999975447
 21
-7.600000017561198
 31
0.0
  0
CIRCLE
  5
ED
330
98
100
AcDbEntity
  8
0
  6
________________
 62
     7
370
     9
100
AcDbCircle
 10
-175.2999999967877
 20
6.19999998196695
 30
0.0
 40
1.750000000000002
210
0.0
220
0.0
230
-1.0
  0
LINE
  5
EE
330
98
100
AcDbEntity
  8
0
  6
________________
 62
     7
370
     9
100
AcDbLine
 10
171.5499999975449
 20
-7.600000018244304
 30
0.0
 11
171.5499999959483
 21
21.49999998176729
 31
0.0
  0
LINE
  5
EF
330
98
100
AcDbEntity
  8
0
  6
________________
 62
     7
370
     9
100
AcDbLine
 10
171.5499999959483
 20
21.49999998176729
 30
0.0
 11
180.0499999959482
 21
21.49999998223366
 31
0.0
  0
LINE
  5
F0
330
98
100
AcDbEntity
  8
0
  6
________________
 62
     7
370
     9
100
AcDbLine
 10
180.0499999975449
 20
-7.600000017777941
 30
0.0
 11
171.5499999975449
 21
-7.600000018244304
 31
0.0
  0
LINE
  5
F1
330
98
100
AcDbEntity
  8
0
  6
________________
 62
     7
370
     9
100
AcDbLine
 10
180.0499999976107
 20
-8.800000017778434
 30
0.0
 11
171.5499999976107
 21
-8.800000018244797
 31
0.0
  0
LINE
  5
F2
330
98
100
AcDbEntity
  8
0
  6
________________
 62
     7
370
     9
100
AcDbLine
 10
171.5499999975559
 20
-7.800000018244393
 30
0.0
 11
180.0499999975559
 21
-7.80000001777803
 31
0.0
  0
LINE
  5
F3
330
98
100
AcDbEntity
  8
0
  6
________________
 62
     7
370
     9
100
AcDbLine
 10
171.5499999976107
 20
-8.800000018244797
 30
0.0
 11
171.5499999975559
 21
-7.800000018244393
 31
0.0
  0
ARC
  5
F4
330
98
100
AcDbEntity
  8
0
  6
________________
 62
     7
370
     9
100
AcDbCircle
 10
180.0499999959643
 20
21.1999999824503
 30
0.0
 40
0.4999999999999963
100
AcDbArc
 50
36.86989764899528
 51
90.00000000314358
  0
ARC
  5
F5
330
98
100
AcDbEntity
  8
0
  6
________________
 62
     7
370
     9
100
AcDbCircle
 10
180.049999997528
 20
-7.300000017561092
 30
0.0
 40
0.5000000000000004
100
AcDbArc
 50
270.0000000031436
 51
323.1301023572897
  0
ARC
  5
F6
330
98
100
AcDbEntity
  8
0
  6
________________
 62
     7
370
     9
100
AcDbCircle
 10
180.0500000040761
 20
-127.2000000013175
 30
0.0
 40
1.500000000217337
100
AcDbArc
 50
270.0000000031583
 51
0.000000003142361
  0
LINE
  5
F7
330
98
100
AcDbEntity
  8
0
  6
________________
 62
   253
370
     9
100
AcDbLine
 10
180.0500000041588
 20
-128.7000000015348
 30
0.0
 11
180.0500000013387
 21
-77.30000000151432
 31
0.0
  0
LINE
  5
F8
330
98
100
AcDbEntity
  8
0
  6
________________
 62
     7
370
     9
100
AcDbLine
 10
180.5500000013388
 20
-77.30000000127015
 30
0.0
 11
180.0500000013385
 21
-77.30000000129758
 31
0.0
  0
LINE
  5
F9
330
98
100
AcDbEntity
  8
0
  6
________________
 62
     7
370
     9
100
AcDbLine
 10
181.5499999974976
 20
-7.300000001187329
 30
0.0
 11
181.5500000040761
 21
-127.2000000012352
 31
0.0
  0
LINE
  5
FA
330
98
100
AcDbEntity
  8
0
  6
________________
 62
     7
370
     9
100
AcDbLine
 10
180.5500000013386
 20
-77.30000000147449
 30
0.0
 11
180.5499999975756
 21
-8.714213563820183
 31
0.0
  0
LINE
  5
FB
330
98
100
AcDbEntity
  8
0
  6
________________
 62
     7
370
     9
100
AcDbLine
 10
180.0500000041588
 20
-128.7000000015348
 30
0.0
 11
171.5500000041588
 21
-128.7000000020012
 31
0.0
  0
LINE
  5
FC
330
98
100
AcDbEntity
  8
0
  6
________________
 62
     7
370
     9
100
AcDbLine
 10
171.5500000041588
 20
-128.7000000020012
 30
0.0
 11
171.5500000013387
 21
-77.30000000198068
 31
0.0
  0
LINE
  5
FD
330
98
100
AcDbEntity
  8
0
  6
________________
 62
     7
370
     9
100
AcDbLine
 10
180.0500000013387
 20
-77.30000000151432
 30
0.0
 11
171.5500000013387
 21
-77.30000000198068
 31
0.0
  0
CIRCLE
  5
FE
330
98
100
AcDbEntity
  8
0
  6
________________
 62
     7
370
     9
100
AcDbCircle
 10
-175.300000003259
 20
-112.3000000017889
 30
0.0
 40
1.750000000000002
210
0.0
220
0.0
230
-1.0
  0
LINE
  5
FF
330
98
100
AcDbEntity
  8
0
  6
________________
 62
   253
370
     9
100
AcDbLine
 10
180.0500000013305
 20
-77.30000000151429
 30
0.0
 11
180.0499999975721
 21
-8.800000017802803
 31
0.0
  0
LINE
  5
100
330
98
100
AcDbEntity
  8
0
  6
________________
 62
   253
370
     9
100
AcDbLine
 10
180.0499999975173
 20
-7.800000017584855
 30
0.0
 11
180.0499999975063
 21
-7.600000017777941
 31
0.0
  0
LINE
  5
101
330
98
100
AcDbEntity
  8
0
  6
________________
 62
     7
370
     9
100
AcDbLine
 10
150.4499999975425
 20
-7.600000011138058
 30
0.0
 11
150.4499999975535
 21
-7.800000011138147
 31
0.0
  0
LINE
  5
102
330
98
100
AcDbEntity
  8
0
  6
________________
 62
     7
370
     9
100
AcDbLine
 10
150.4499999975533
 20
-7.800000011036697
 30
0.0
 11
150.9499999975537
 21
-7.800000011009264
 31
0.0
  0
LINE
  5
103
330
98
100
AcDbEntity
  8
0
  6
________________
 62
   253
370
     9
100
AcDbLine
 10
150.9499999975535
 20
-7.800000011116873
 30
0.0
 11
150.9499999976084
 21
-8.800000011117277
 31
0.0
  0
ARC
  5
104
330
98
100
AcDbEntity
  8
0
  6
________________
 62
     7
370
     9
100
AcDbCircle
 10
150.9499999975257
 20
-7.300000011009069
 30
0.0
 40
1.5000000001082
100
AcDbArc
 50
180.0000000031434
 51
270.0000000031594
  0
LINE
  5
105
330
98
100
AcDbEntity
  8
0
  6
________________
 62
     7
370
     9
100
AcDbLine
 10
149.4499999975257
 20
-7.300000011091378
 30
0.0
 11
149.449999995962
 21
21.19999998891998
 31
0.0
  0
ARC
  5
106
330
98
100
AcDbEntity
  8
0
  6
________________
 62
     7
370
     9
100
AcDbCircle
 10
150.949999995962
 20
21.19999998900228
 30
0.0
 40
1.5
100
AcDbArc
 50
90.00000000312862
 51
180.000000003144
  0
LINE
  5
107
330
98
100
AcDbEntity
  8
0
  6
________________
 62
   253
370
     9
100
AcDbLine
 10
150.9499999958801
 20
22.69999998889531
 30
0.0
 11
150.949999995935
 21
21.69999998889489
 31
0.0
  0
LINE
  5
108
330
98
100
AcDbEntity
  8
0
  6
________________
 62
     7
370
     9
100
AcDbLine
 10
150.949999995935
 20
21.69999998900247
 30
0.0
 11
150.4499999959345
 21
21.69999998897504
 31
0.0
  0
LINE
  5
109
330
98
100
AcDbEntity
  8
0
  6
________________
 62
     7
370
     9
100
AcDbLine
 10
150.4499999959349
 20
21.6999999888736
 30
0.0
 11
150.4499999959459
 21
21.49999998887352
 31
0.0
  0
LINE
  5
10A
330
98
100
AcDbEntity
  8
0
  6
________________
 62
     7
370
     9
100
AcDbLine
 10
150.4499999959457
 20
21.49999998897496
 30
0.0
 11
150.9499999959461
 21
21.49999998900239
 31
0.0
  0
LINE
  5
10B
330
98
100
AcDbEntity
  8
0
  6
________________
 62
   253
370
     9
100
AcDbLine
 10
150.9499999959459
 20
21.4999999888948
 30
0.0
 11
150.9499999975425
 21
-7.600000011116784
 31
0.0
  0
LINE
  5
10C
330
98
100
AcDbEntity
  8
0
  6
________________
 62
     7
370
     9
100
AcDbLine
 10
150.9499999975425
 20
-7.600000011009175
 30
0.0
 11
150.4499999975421
 21
-7.600000011036608
 31
0.0
  0
LINE
  5
10D
330
98
100
AcDbEntity
  8
0
  6
________________
 62
     7
370
     9
100
AcDbLine
 10
159.449999995935
 20
21.69999998936127
 30
0.0
 11
159.4499999958801
 21
22.69999998936169
 31
0.0
  0
LINE
  5
10E
330
98
100
AcDbEntity
  8
0
  6
________________
 62
     7
370
     9
100
AcDbLine
 10
159.449999995935
 20
21.69999998936127
 30
0.0
 11
150.949999995935
 21
21.69999998889489
 31
0.0
  0
LINE
  5
10F
330
98
100
AcDbEntity
  8
0
  6
________________
 62
     7
370
     9
100
AcDbLine
 10
150.9499999958801
 20
22.69999998889531
 30
0.0
 11
159.4499999958801
 21
22.69999998936169
 31
0.0
  0
CIRCLE
  5
110
330
98
100
AcDbEntity
  8
0
  6
________________
 62
     7
370
     9
100
AcDbCircle
 10
-155.6999999967854
 20
6.199999989149343
 30
0.0
 40
1.750000000000002
210
0.0
220
0.0
230
-1.0
  0
LINE
  5
111
330
98
100
AcDbEntity
  8
0
  6
________________
 62
     7
370
     9
100
AcDbLine
 10
159.4499999975426
 20
-7.600000010650421
 30
0.0
 11
159.4499999959459
 21
21.49999998936118
 31
0.0
  0
LINE
  5
112
330
98
100
AcDbEntity
  8
0
  6
________________
 62
     7
370
     9
100
AcDbLine
 10
159.4499999975426
 20
-7.600000010650421
 30
0.0
 11
150.9499999975425
 21
-7.600000011116784
 31
0.0
  0
LINE
  5
113
330
98
100
AcDbEntity
  8
0
  6
________________
 62
     7
370
     9
100
AcDbLine
 10
150.9499999959459
 20
21.4999999888948
 30
0.0
 11
159.4499999959459
 21
21.49999998936118
 31
0.0
  0
LINE
  5
114
330
98
100
AcDbEntity
  8
0
  6
________________
 62
     7
370
     9
100
AcDbLine
 10
159.4499999976084
 20
-8.800000010650912
 30
0.0
 11
159.4499999975535
 21
-7.80000001065051
 31
0.0
  0
LINE
  5
115
330
98
100
AcDbEntity
  8
0
  6
________________
 62
     7
370
     9
100
AcDbLine
 10
150.9499999976084
 20
-8.800000011117277
 30
0.0
 11
159.4499999976084
 21
-8.800000010650912
 31
0.0
  0
LINE
  5
116
330
98
100
AcDbEntity
  8
0
  6
________________
 62
     7
370
     9
100
AcDbLine
 10
150.9499999975535
 20
-7.800000011116873
 30
0.0
 11
159.4499999975535
 21
-7.80000001065051
 31
0.0
  0
ARC
  5
117
330
98
100
AcDbEntity
  8
0
  6
________________
 62
     7
370
     9
100
AcDbCircle
 10
150.949999995962
 20
21.19999998900228
 30
0.0
 40
0.5000000000000004
100
AcDbArc
 50
90.00000000314358
 51
143.1301023572885
  0
ARC
  5
118
330
98
100
AcDbEntity
  8
0
  6
________________
 62
     7
370
     9
100
AcDbCircle
 10
150.9499999975257
 20
-7.300000011009069
 30
0.0
 40
0.5000000000000077
100
AcDbArc
 50
216.8698976489978
 51
270.0000000031436
  0
LINE
  5
119
330
98
100
AcDbEntity
  8
0
  6
________________
 62
     7
370
     9
100
AcDbLine
 10
150.4500000013361
 20
-77.30000000297647
 30
0.0
 11
150.9500000013365
 21
-77.30000000294903
 31
0.0
  0
LINE
  5
11A
330
98
100
AcDbEntity
  8
0
  6
________________
 62
   253
370
     9
100
AcDbLine
 10
150.9500000013364
 20
-77.30000000305664
 30
0.0
 11
150.9500000041565
 21
-128.7000000030772
 31
0.0
  0
ARC
  5
11B
330
98
100
AcDbEntity
  8
0
  6
________________
 62
     7
370
     9
100
AcDbCircle
 10
-150.9500000040738
 20
-127.200000002969
 30
0.0
 40
1.5000000001082
210
0.0
220
0.0
230
-1.0
100
AcDbArc
 50
269.9999999968406
 51
359.9999999968566
  0
LINE
  5
11C
330
98
100
AcDbEntity
  8
0
  6
________________
 62
     7
370
     9
100
AcDbLine
 10
150.4499999975733
 20
-8.714213565423623
 30
0.0
 11
150.4500000013363
 21
-77.30000000307791
 31
0.0
  0
LINE
  5
11D
330
98
100
AcDbEntity
  8
0
  6
________________
 62
     7
370
     9
100
AcDbLine
 10
149.4500000040738
 20
-127.2000000030513
 30
0.0
 11
149.4499999974953
 21
-7.300000003003404
 31
0.0
  0
LINE
  5
11E
330
98
100
AcDbEntity
  8
0
  6
________________
 62
     7
370
     9
100
AcDbLine
 10
159.4500000041565
 20
-128.7000000026108
 30
0.0
 11
159.4500000013363
 21
-77.30000000259028
 31
0.0
  0
LINE
  5
11F
330
98
100
AcDbEntity
  8
0
  6
________________
 62
     7
370
     9
100
AcDbLine
 10
150.9500000041565
 20
-128.7000000030772
 30
0.0
 11
159.4500000041565
 21
-128.7000000026108
 31
0.0
  0
CIRCLE
  5
120
330
98
100
AcDbEntity
  8
0
  6
________________
 62
     7
370
     9
100
AcDbCircle
 10
-155.7000000032567
 20
-112.30000000281
 30
0.0
 40
1.750000000000002
210
0.0
220
0.0
230
-1.0
  0
LINE
  5
121
330
98
100
AcDbEntity
  8
0
  6
________________
 62
     7
370
     9
100
AcDbLine
 10
150.9500000013364
 20
-77.30000000305664
 30
0.0
 11
159.4500000013363
 21
-77.30000000259028
 31
0.0
  0
LINE
  5
122
330
98
100
AcDbEntity
  8
0
  6
________________
 62
   253
370
     9
100
AcDbLine
 10
150.949999997504
 20
-7.600000011116784
 30
0.0
 11
150.9499999975149
 21
-7.800000010913549
 31
0.0
  0
LINE
  5
123
330
98
100
AcDbEntity
  8
0
  6
________________
 62
   253
370
     9
100
AcDbLine
 10
150.9499999975698
 20
-8.80000001102231
 30
0.0
 11
150.9500000013282
 21
-77.30000000305664
 31
0.0
  0
LINE
  5
124
330
98
100
AcDbEntity
  8
0
  6
________________
 62
     7
370
     9
100
AcDbLine
 10
151.499999997541
 20
-7.800000011086695
 30
0.0
 11
151.49999999753
 21
-7.600000011086606
 31
0.0
  0
LINE
  5
125
330
98
100
AcDbEntity
  8
0
  6
________________
 62
     7
370
     9
100
AcDbLine
 10
158.49999999753
 20
-7.600000010702543
 30
0.0
 11
158.499999997541
 21
-7.800000010702632
 31
0.0
  0
LINE
  5
126
330
98
100
AcDbEntity
  8
0
  6
________________
 62
     7
370
     9
100
AcDbLine
 10
151.5000000013085
 20
-76.80000000290978
 30
0.0
 11
158.5000000013085
 21
-76.8000000025255
 31
0.0
  0
LINE
  5
127
330
98
100
AcDbEntity
  8
0
  6
________________
 62
     7
370
     9
100
AcDbLine
 10
151.5000000013085
 20
-76.80000000290978
 30
0.0
 11
151.4999999975775
 21
-8.800000002914517
 31
0.0
  0
LINE
  5
128
330
98
100
AcDbEntity
  8
0
  6
________________
 62
     7
370
     9
100
AcDbLine
 10
158.4999999975776
 20
-8.800000002530284
 30
0.0
 11
158.5000000013085
 21
-76.8000000025255
 31
0.0
  0
LINE
  5
129
330
98
100
AcDbEntity
  8
0
  6
________________
 62
     7
370
     9
100
AcDbLine
 10
151.5000000013355
 20
-77.30000000302647
 30
0.0
 11
151.5000000013081
 21
-76.80000000291118
 31
0.0
  0
LINE
  5
12A
330
98
100
AcDbEntity
  8
0
  6
________________
 62
     7
370
     9
100
AcDbLine
 10
158.5000000013081
 20
-76.8000000025269
 30
0.0
 11
158.5000000013344
 21
-77.30000000247874
 31
0.0
  0
LINE
  5
12B
330
98
100
AcDbEntity
  8
0
  6
________________
 62
     7
370
     9
100
AcDbLine
 10
156.946693251221
 20
5.366210175876969
 30
0.0
 11
157.0225434759455
 21
5.60475137531883
 31
0.0
  0
LWPOLYLINE
  5
12C
330
98
100
AcDbEntity
  8
0
  6
________________
 62
     7
370
     9
100
AcDbPolyline
 90
       19
 70
     0
 43
0.0
 10
156.6667879404974
 20
6.200785567295967
 10
156.6735977919489
 20
6.207113375016549
 10
156.7114832438965
 20
6.243253661394395
 10
156.7477528569897
 20
6.279553362768052
 10
156.7821839771431
 20
6.31588152149929
 10
156.8149546794378
 20
6.352539694448094
 10
156.8456591037615
 20
6.389194603719138
 10
156.8744425276445
 20
6.42615023610256
 10
156.9009321827431
 20
6.463068397134515
 10
156.925109728169
 20
6.500050133409416
 10
156.9457921568749
 20
6.535150765809277
 10
156.9642013007009
 20
6.5702804017992
 10
156.9801925790198
 20
6.60530602701781
 10
156.9938072663137
 20
6.640526090807848
 10
157.0048210187374
 20
6.675604536091326
 10
157.013232519818
 20
6.710840107858211
 10
157.0188661966378
 20
6.745892319098623
 10
157.0216674569074
 20
6.780857404524249
 10
157.0219814824019
 20
6.797165304334243
  0
LINE
  5
12D
330
98
100
AcDbEntity
  8
0
  6
________________
 62
     7
370
     9
100
AcDbLine
 10
157.0219814824019
 20
6.797165304334243
 30
0.0
 11
156.9459066186506
 21
7.03562416970031
 31
0.0
  0
LWPOLYLINE
  5
12E
330
98
100
AcDbEntity
  8
0
  6
________________
 62
     7
370
     9
100
AcDbPolyline
 90
       19
 70
     0
 43
0.0
 10
157.0225434759455
 20
5.60475137531883
 10
157.0222140837037
 20
5.621048502546362
 10
157.019539358246
 20
5.654685088742218
 10
157.0141696009389
 20
5.688758558707801
 10
157.0061328047547
 20
5.723136850394956
 10
156.9953465503567
 20
5.758124146704395
 10
156.9819071583791
 20
5.793386004014644
 10
156.9656940863119
 20
5.829233177482806
 10
156.9468642948018
 20
5.86532430294305
 10
156.9253917046966
 20
5.901764632139924
 10
156.9020956400745
 20
5.937388408246168
 10
156.8763817387539
 20
5.973308461592885
 10
156.8483821152129
 20
6.009394084372451
 10
156.8178862860727
 20
6.045948624441244
 10
156.7852011740767
 20
6.082639358568172
 10
156.7500869312709
 20
6.119774023395429
 10
156.7129024002188
 20
6.157014321439565
 10
156.6736037536105
 20
6.194464181451504
 10
156.6667879404974
 20
6.20078556729228
  0
LINE
  5
12F
330
98
100
AcDbEntity
  8
0
  6
________________
 62
     7
370
     9
100
AcDbLine
 10
155.7007068804202
 20
4.700330079309651
 30
0.0
 11
155.7008248628126
 21
4.450000183543308
 31
0.0
  0
LINE
  5
130
330
98
100
AcDbEntity
  8
0
  6
________________
 62
     7
370
     9
100
AcDbLine
 10
155.6991752862563
 20
7.949999794819064
 30
0.0
 11
155.6992929576577
 21
7.700329746114807
 31
0.0
  0
LINE
  5
131
330
98
100
AcDbEntity
  8
0
  6
________________
 62
     7
370
     9
100
AcDbLine
 10
156.7528186064993
 20
7.597881591801657
 30
0.0
 11
156.7529737894918
 21
7.268621084696468
 31
0.0
  0
LINE
  5
132
330
98
100
AcDbEntity
  8
0
  6
________________
 62
     7
370
     9
100
AcDbLine
 10
156.753980309054
 20
5.133031764358149
 30
0.0
 11
156.7541358030375
 21
4.803111410200469
 31
0.0
  0
LINE
  5
133
330
98
100
AcDbEntity
  8
0
  6
________________
 62
     7
370
     9
100
AcDbLine
 10
171.5499999974212
 20
-6.050000001649948
 30
0.0
 11
170.4999999974575
 21
-6.050000001707554
 31
0.0
  0
LINE
  5
134
330
98
100
AcDbEntity
  8
0
  6
________________
 62
   253
370
     9
100
AcDbLine
 10
170.4999999971573
 20
-0.5500000016977549
 30
0.0
 11
171.5499999971581
 21
-0.5500000016401482
 31
0.0
  0
LINE
  5
135
330
98
100
AcDbEntity
  8
0
  6
________________
 62
     7
370
     9
100
AcDbLine
 10
170.4999999974575
 20
-6.050000001703866
 30
0.0
 11
170.4999999971558
 21
-0.5500000016977549
 31
0.0
  0
LINE
  5
136
330
98
100
AcDbEntity
  8
0
  6
________________
 62
     7
370
     9
100
AcDbLine
 10
170.4999999971161
 20
0.1999999983027523
 30
0.0
 11
171.5499999970783
 21
0.199999998360359
 31
0.0
  0
LINE
  5
137
330
98
100
AcDbEntity
  8
0
  6
________________
 62
     7
370
     9
100
AcDbLine
 10
170.4999999971573
 20
-0.5500000016977549
 30
0.0
 11
170.4999999971161
 21
0.1999999983027523
 31
0.0
  0
LINE
  5
138
330
98
100
AcDbEntity
  8
0
  6
________________
 62
   253
370
     9
100
AcDbLine
 10
171.5499999963488
 20
14.19999999836975
 30
0.0
 11
170.499999996348
 21
14.19999999831215
 31
0.0
  0
LINE
  5
139
330
98
100
AcDbEntity
  8
0
  6
________________
 62
     7
370
     9
100
AcDbLine
 10
171.5499999964199
 20
12.19999999836842
 30
0.0
 11
170.4999999964577
 21
12.1999999983108
 31
0.0
  0
LINE
  5
13A
330
98
100
AcDbEntity
  8
0
  6
________________
 62
     7
370
     9
100
AcDbLine
 10
170.4999999964577
 20
12.1999999983108
 30
0.0
 11
170.499999996348
 21
14.19999999831215
 31
0.0
  0
LINE
  5
13B
330
98
100
AcDbEntity
  8
0
  6
________________
 62
     7
370
     9
100
AcDbLine
 10
171.5499999960084
 20
19.69999999836733
 30
0.0
 11
170.4999999960447
 21
19.69999999830972
 31
0.0
  0
LINE
  5
13C
330
98
100
AcDbEntity
  8
0
  6
________________
 62
     7
370
     9
100
AcDbLine
 10
170.4999999963465
 20
14.19999999831215
 30
0.0
 11
170.4999999960447
 21
19.69999999830604
 31
0.0
  0
LINE
  5
13D
330
98
100
AcDbEntity
  8
0
  6
________________
 62
     7
370
     9
100
AcDbLine
 10
170.4999999964569
 20
12.19999999830747
 30
0.0
 11
170.4999999971153
 21
0.1999999982994181
 31
0.0
  0
LINE
  5
13E
330
98
100
AcDbEntity
  8
0
  6
________________
 62
     7
370
     9
100
AcDbLine
 10
170.5000000035874
 20
-118.300000001902
 30
0.0
 11
171.55000000358
 21
-118.3000000018444
 31
0.0
  0
LINE
  5
13F
330
98
100
AcDbEntity
  8
0
  6
________________
 62
   253
370
     9
100
AcDbLine
 10
170.5000000036971
 20
-120.3000000019034
 30
0.0
 11
171.5500000036979
 21
-120.3000000018457
 31
0.0
  0
LINE
  5
140
330
98
100
AcDbEntity
  8
0
  6
________________
 62
     7
370
     9
100
AcDbLine
 10
170.5000000036971
 20
-120.3000000019034
 30
0.0
 11
170.5000000035874
 21
-118.300000001902
 31
0.0
  0
LINE
  5
141
330
98
100
AcDbEntity
  8
0
  6
________________
 62
   253
370
     9
100
AcDbLine
 10
171.5500000016405
 20
-82.80000000182059
 30
0.0
 11
170.5000000016396
 21
-82.8000000018782
 31
0.0
  0
LINE
  5
142
330
98
100
AcDbEntity
  8
0
  6
________________
 62
     7
370
     9
100
AcDbLine
 10
171.5500000029216
 20
-106.3000000018364
 30
0.0
 11
170.500000002929
 21
-106.300000001894
 31
0.0
  0
LINE
  5
143
330
98
100
AcDbEntity
  8
0
  6
________________
 62
     7
370
     9
100
AcDbLine
 10
170.500000002929
 20
-106.300000001894
 30
0.0
 11
170.5000000016396
 21
-82.8000000018782
 31
0.0
  0
LINE
  5
144
330
98
100
AcDbEntity
  8
0
  6
________________
 62
     7
370
     9
100
AcDbLine
 10
171.5500000039915
 20
-125.8000000018555
 30
0.0
 11
170.5000000039974
 21
-125.8000000019132
 31
0.0
  0
LINE
  5
145
330
98
100
AcDbEntity
  8
0
  6
________________
 62
     7
370
     9
100
AcDbLine
 10
170.5000000039974
 20
-125.8000000019095
 30
0.0
 11
170.5000000036956
 21
-120.3000000019034
 31
0.0
  0
LINE
  5
146
330
98
100
AcDbEntity
  8
0
  6
________________
 62
     7
370
     9
100
AcDbLine
 10
170.5000000013364
 20
-77.30000000188062
 30
0.0
 11
171.5500000013305
 21
-77.30000000182301
 31
0.0
  0
LINE
  5
147
330
98
100
AcDbEntity
  8
0
  6
________________
 62
     7
370
     9
100
AcDbLine
 10
170.5000000016381
 20
-82.8000000018782
 30
0.0
 11
170.5000000013364
 21
-77.3000000018843
 31
0.0
  0
LINE
  5
148
330
98
100
AcDbEntity
  8
0
  6
________________
 62
     7
370
     9
100
AcDbLine
 10
170.5000000029282
 20
-106.3000000018973
 30
0.0
 11
170.5000000035866
 21
-118.3000000019053
 31
0.0
  0
LINE
  5
149
330
98
100
AcDbEntity
  8
0
  6
________________
 62
     7
370
     9
100
AcDbLine
 10
170.5000000013086
 20
-76.80000000184637
 30
0.0
 11
170.500000001336
 21
-77.3000000018783
 31
0.0
  0
LINE
  5
14A
330
98
100
AcDbEntity
  8
0
  6
________________
 62
     7
370
     9
100
AcDbLine
 10
174.0543097060881
 20
7.036127596125152
 30
0.0
 11
173.9781729992213
 21
6.797677680442579
 31
0.0
  0
LWPOLYLINE
  5
14B
330
98
100
AcDbEntity
  8
0
  6
________________
 62
     7
370
     9
100
AcDbPolyline
 90
       19
 70
     0
 43
0.0
 10
174.3332123188025
 20
6.201216583172076
 10
174.3263948712698
 20
6.194896960043484
 10
174.2884660347645
 20
6.158802207930456
 10
174.2521528444576
 20
6.122546099983024
 10
174.2176781115812
 20
6.086259326291761
 10
174.1848633989507
 20
6.049640544118894
 10
174.154114966721
 20
6.013022543598153
 10
174.1252871723159
 20
5.976101512666782
 10
174.0987531900512
 20
5.939215197773476
 10
174.0745312394242
 20
5.902262530365552
 10
174.053806662587
 20
5.867186767124124
 10
174.0353553341502
 20
5.832079269632553
 10
174.0193219944145
 20
5.797072878485295
 10
174.0056650104287
 20
5.761869194134028
 10
173.9946091295494
 20
5.726804003931368
 10
173.9861553093948
 20
5.691578561521513
 10
173.9804795317504
 20
5.656533142769655
 10
173.9776362732689
 20
5.621571447457008
 10
173.9773026588713
 20
5.605263936621245
  0
LINE
  5
14C
330
98
100
AcDbEntity
  8
0
  6
________________
 62
     7
370
     9
100
AcDbLine
 10
173.9773026588713
 20
5.605263936621245
 30
0.0
 11
174.0530910297743
 21
5.366713861788358
 31
0.0
  0
LWPOLYLINE
  5
14D
330
98
100
AcDbEntity
  8
0
  6
________________
 62
     7
370
     9
100
AcDbPolyline
 90
       19
 70
     0
 43
0.0
 10
173.9781729992213
 20
6.797677680442579
 10
173.978482815036
 20
6.781380169305066
 10
173.9811171341309
 20
6.747740394482935
 10
173.9864459583439
 20
6.713660498920727
 10
173.9944414533566
 20
6.679272578196619
 10
174.0051856730602
 20
6.644272350626832
 10
174.0185826986253
 20
6.608994375292377
 10
174.0347526991942
 20
6.573127752464089
 10
174.0535391242819
 20
6.537014034603429
 10
174.0749679265927
 20
6.500547938715371
 10
174.0982211829526
 20
6.46489620496226
 10
174.1238919183768
 20
6.428945289865061
 10
174.1518481754897
 20
6.392826059833663
 10
174.1823000731351
 20
6.356234914396873
 10
174.2149410884599
 20
6.319504945222841
 10
174.2500106995903
 20
6.282328127784849
 10
174.2871504705862
 20
6.245043190365739
 10
174.3264041038862
 20
6.207546151643987
 10
174.3332123188025
 20
6.201216583175166
  0
LINE
  5
14E
330
98
100
AcDbEntity
  8
0
  6
________________
 62
     7
370
     9
100
AcDbLine
 10
175.3010950364294
 20
7.700510527325923
 30
0.0
 11
175.3012771378789
 21
7.949999515947444
 31
0.0
  0
LINE
  5
14F
330
98
100
AcDbEntity
  8
0
  6
________________
 62
     7
370
     9
100
AcDbLine
 10
175.2987224964628
 20
4.450000448256646
 30
0.0
 11
175.2989053437871
 21
4.700511326450475
 31
0.0
  0
LINE
  5
150
330
98
100
AcDbEntity
  8
0
  6
________________
 62
     7
370
     9
100
AcDbLine
 10
174.245502902543
 20
4.803384115586795
 30
0.0
 11
174.2457438426981
 21
5.133485363022809
 31
0.0
  0
LINE
  5
151
330
98
100
AcDbEntity
  8
0
  6
________________
 62
     7
370
     9
100
AcDbLine
 10
174.2473026042785
 20
7.269074351679689
 30
0.0
 11
174.2475427985587
 21
7.598153709535413
 31
0.0
  0
LINE
  5
152
330
98
100
AcDbEntity
  8
0
  6
________________
 62
   253
370
     9
100
AcDbLine
 10
170.111920966784
 20
5.926990751507738
 30
0.0
 11
170.1119209664947
 21
11.19999999827558
 31
0.0
  0
LINE
  5
153
330
98
100
AcDbEntity
  8
0
  6
________________
 62
   253
370
     9
100
AcDbLine
 10
170.1119209664947
 20
11.19999999827558
 30
0.0
 11
170.1119209662054
 21
16.4730092450317
 31
0.0
  0
LINE
  5
154
330
98
100
AcDbEntity
  8
0
  6
________________
 62
     7
370
     9
100
AcDbLine
 10
160.9987820213841
 20
15.83575649131967
 30
0.0
 11
160.9987820216384
 21
11.19999999777487
 31
0.0
  0
LINE
  5
155
330
98
100
AcDbEntity
  8
0
  6
________________
 62
     7
370
     9
100
AcDbLine
 10
160.9987820216384
 20
11.19999999777487
 30
0.0
 11
160.9987820218928
 21
6.564243504219792
 31
0.0
  0
LINE
  5
156
330
98
100
AcDbEntity
  8
0
  6
________________
 62
     7
370
     9
100
AcDbLine
 10
171.5499999976107
 20
-8.80000000168938
 30
0.0
 11
160.4999999975986
 21
-8.800000002295667
 31
0.0
  0
LINE
  5
157
330
98
100
AcDbEntity
  8
0
  6
________________
 62
   253
370
     9
100
AcDbLine
 10
170.4999999971153
 20
0.1999999982566503
 30
0.0
 11
160.4999999971048
 21
0.1999999977078531
 31
0.0
  0
LINE
  5
158
330
98
100
AcDbEntity
  8
0
  6
________________
 62
     7
370
     9
100
AcDbLine
 10
160.4999999974513
 20
-6.050000002248718
 30
0.0
 11
160.4999999975986
 21
-8.800000002295667
 31
0.0
  0
LINE
  5
159
330
98
100
AcDbEntity
  8
0
  6
________________
 62
     7
370
     9
100
AcDbLine
 10
179.4999999975437
 20
-7.800000017808205
 30
0.0
 11
179.4999999975327
 21
-7.600000017808118
 31
0.0
  0
LINE
  5
15A
330
98
100
AcDbEntity
  8
0
  6
________________
 62
     7
370
     9
100
AcDbLine
 10
161.6400000033412
 20
6.199999997766128
 30
0.0
 11
160.499999996774
 21
6.199999997703584
 31
0.0
  0
ARC
  5
15B
330
98
100
AcDbEntity
  8
0
  6
________________
 62
     7
370
     9
100
AcDbCircle
 10
-166.0000000004333
 20
-60.80000000209019
 30
0.0
 40
3.000000000000003
210
0.0
220
0.0
230
-1.0
100
AcDbArc
 50
179.9999999968562
 51
359.999999996856
  0
ARC
  5
15C
330
98
100
AcDbEntity
  8
0
  6
________________
 62
     7
370
     9
100
AcDbCircle
 10
-166.0000000004333
 20
-60.80000000209019
 30
0.0
 40
3.000000000000003
210
0.0
220
0.0
230
-1.0
100
AcDbArc
 50
359.9999999968562
 51
89.99999999685612
  0
ARC
  5
15D
330
98
100
AcDbEntity
  8
0
  6
________________
 62
     7
370
     9
100
AcDbCircle
 10
-166.0000000004333
 20
-60.80000000209019
 30
0.0
 40
3.000000000000003
210
0.0
220
0.0
230
-1.0
100
AcDbArc
 50
89.99999999685609
 51
179.9999999968562
  0
ARC
  5
15E
330
98
100
AcDbEntity
  8
0
  6
________________
 62
     7
370
     9
100
AcDbCircle
 10
-165.9999999990616
 20
-35.80000000208021
 30
0.0
 40
3.000000000000003
210
0.0
220
0.0
230
-1.0
100
AcDbArc
 50
179.9999999968562
 51
359.9999999968562
  0
ARC
  5
15F
330
98
100
AcDbEntity
  8
0
  6
________________
 62
     7
370
     9
100
AcDbCircle
 10
-165.9999999990616
 20
-35.80000000208021
 30
0.0
 40
3.000000000000003
210
0.0
220
0.0
230
-1.0
100
AcDbArc
 50
359.9999999968562
 51
89.99999999685622
  0
ARC
  5
160
330
98
100
AcDbEntity
  8
0
  6
________________
 62
     7
370
     9
100
AcDbCircle
 10
-165.9999999990616
 20
-35.80000000208021
 30
0.0
 40
3.000000000000003
210
0.0
220
0.0
230
-1.0
100
AcDbArc
 50
89.99999999685622
 51
179.9999999968563
  0
LINE
  5
161
330
98
100
AcDbEntity
  8
0
  6
________________
 62
     7
370
     9
100
AcDbLine
 10
179.5000000013112
 20
-76.80000000135593
 30
0.0
 11
160.5000000013112
 21
-76.80000000239839
 31
0.0
  0
LINE
  5
162
330
98
100
AcDbEntity
  8
0
  6
________________
 62
     7
370
     9
100
AcDbLine
 10
160.4999999975803
 20
-8.800000002371313
 30
0.0
 11
160.5000000013112
 21
-76.8000000023984
 31
0.0
  0
LINE
  5
163
330
98
100
AcDbEntity
  8
0
  6
________________
 62
     7
370
     9
100
AcDbLine
 10
179.5000000013112
 20
-76.80000000135593
 30
0.0
 11
179.4999999975803
 21
-8.800000001328787
 31
0.0
  0
CIRCLE
  5
164
330
98
100
AcDbEntity
  8
0
  6
________________
 62
     7
370
     9
100
AcDbCircle
 10
166.0000000004331
 20
-60.80000000209075
 30
0.0
 40
2.500000000000002
  0
CIRCLE
  5
165
330
98
100
AcDbEntity
  8
0
  6
________________
 62
     7
370
     9
100
AcDbCircle
 10
165.9999999990615
 20
-35.80000000208076
 30
0.0
 40
2.500000000000002
  0
LINE
  5
166
330
98
100
AcDbEntity
  8
0
  6
________________
 62
     7
370
     9
100
AcDbLine
 10
179.5000000013383
 20
-77.30000000154449
 30
0.0
 11
179.5000000013108
 21
-76.80000000135733
 31
0.0
  0
LINE
  5
167
330
98
100
AcDbEntity
  8
0
  6
________________
 62
     7
370
     9
100
AcDbLine
 10
172.5000000013371
 20
-77.3000000018116
 30
0.0
 11
172.5000000013108
 21
-76.80000000174141
 31
0.0
  0
LINE
  5
168
330
98
100
AcDbEntity
  8
0
  6
________________
 62
   253
370
     9
100
AcDbLine
 10
170.1119209736113
 20
-119.07300924867
 30
0.0
 11
170.111920973322
 21
-113.8000000019022
 31
0.0
  0
LINE
  5
169
330
98
100
AcDbEntity
  8
0
  6
________________
 62
   253
370
     9
100
AcDbLine
 10
170.111920973322
 20
-113.8000000019022
 30
0.0
 11
170.1119209730327
 21
-108.5269907551461
 31
0.0
  0
LINE
  5
16A
330
98
100
AcDbEntity
  8
0
  6
________________
 62
     7
370
     9
100
AcDbLine
 10
160.9987820282114
 20
-109.1642435088581
 30
0.0
 11
160.9987820284658
 21
-113.8000000024029
 31
0.0
  0
LINE
  5
16B
330
98
100
AcDbEntity
  8
0
  6
________________
 62
     7
370
     9
100
AcDbLine
 10
160.9987820284658
 20
-113.8000000024029
 30
0.0
 11
160.9987820287201
 21
-118.435756495958
 31
0.0
  0
ARC
  5
16C
330
98
100
AcDbEntity
  8
0
  6
________________
 62
     7
370
     9
100
AcDbCircle
 10
155.6999999467829
 20
-8.05000000259794
 30
0.0
 40
1.499999999999994
100
AcDbArc
 50
167.0000009140745
 51
170.4059320962054
  0
ARC
  5
16D
330
98
100
AcDbEntity
  8
0
  6
________________
 62
     7
370
     9
100
AcDbCircle
 10
155.6999999467829
 20
-8.05000000259794
 30
0.0
 40
1.499999999999995
100
AcDbArc
 50
210.0000003673871
 51
310.5000000031209
  0
ARC
  5
16E
330
98
100
AcDbEntity
  8
0
  6
________________
 62
     7
370
     9
100
AcDbCircle
 10
175.3000001714613
 20
-8.050000001470643
 30
0.0
 40
1.499999999999999
100
AcDbArc
 50
229.833190748336
 51
330.0000000025807
  0
ARC
  5
16F
330
98
100
AcDbEntity
  8
0
  6
________________
 62
     7
370
     9
100
AcDbCircle
 10
175.3000001714613
 20
-8.050000001470643
 30
0.0
 40
1.500000000000003
100
AcDbArc
 50
9.59406758817465
 51
12.999996886532
  0
ARC
  5
170
330
98
100
AcDbEntity
  8
0
  6
________________
 62
     7
370
     9
100
AcDbCircle
 10
155.7000000032561
 20
-112.3000000026773
 30
0.0
 40
1.500000000000001
100
AcDbArc
 50
90.00000000314367
 51
270.0000000028679
  0
ARC
  5
171
330
98
100
AcDbEntity
  8
0
  6
________________
 62
     7
370
     9
100
AcDbCircle
 10
155.7000000032561
 20
-112.3000000026773
 30
0.0
 40
1.499999999999996
100
AcDbArc
 50
33.81230818334227
 51
90.00000000314363
  0
ARC
  5
172
330
98
100
AcDbEntity
  8
0
  6
________________
 62
     7
370
     9
100
AcDbCircle
 10
155.7000000032561
 20
-112.3000000026773
 30
0.0
 40
1.500000000000001
100
AcDbArc
 50
270.0000000031436
 51
326.1876717948117
  0
LINE
  5
173
330
98
100
AcDbEntity
  8
0
  6
________________
 62
     7
370
     9
100
AcDbLine
 10
157.0222627129
 20
-112.896165561892
 30
0.0
 11
157.0222627128346
 21
-111.7038004664566
 31
0.0
  0
ARC
  5
174
330
98
100
AcDbEntity
  8
0
  6
________________
 62
     7
370
     9
100
AcDbCircle
 10
175.3000001563461
 20
-112.299547545359
 30
0.0
 40
1.500000000000003
100
AcDbArc
 50
269.9629659529328
 51
89.96296595265709
  0
ARC
  5
175
330
98
100
AcDbEntity
  8
0
  6
________________
 62
     7
370
     9
100
AcDbCircle
 10
175.3000001563461
 20
-112.299547545359
 30
0.0
 40
1.499999999999992
100
AcDbArc
 50
213.7752741331313
 51
269.9629659529328
  0
ARC
  5
176
330
98
100
AcDbEntity
  8
0
  6
________________
 62
     7
370
     9
100
AcDbCircle
 10
175.3000001563461
 20
-112.299547545359
 30
0.0
 40
1.500000000000003
100
AcDbArc
 50
89.96296595293283
 51
146.150637744601
  0
LINE
  5
177
330
98
100
AcDbEntity
  8
0
  6
________________
 62
     7
370
     9
100
AcDbLine
 10
173.9781230641036
 20
-111.7025274449327
 30
0.0
 11
173.9773523598324
 21
-112.8948922912894
 31
0.0
  0
LINE
  5
178
330
98
100
AcDbEntity
  8
0
  6
________________
 62
     7
370
     9
100
AcDbLine
 10
161.6400000033347
 20
-120.7000000023756
 30
0.0
 11
167.6400000033347
 21
-120.7000000023759
 31
0.0
  0
LINE
  5
179
330
98
100
AcDbEntity
  8
0
  6
________________
 62
     7
370
     9
100
AcDbLine
 10
167.6400000033354
 20
-106.9000000023704
 30
0.0
 11
161.6400000033354
 21
-106.9000000023701
 31
0.0
  0
LINE
  5
17A
330
98
100
AcDbEntity
  8
0
  6
________________
 62
     7
370
     9
100
AcDbLine
 10
161.6400000033411
 20
4.299999997802197
 30
0.0
 11
167.6400000033411
 21
4.299999997802193
 31
0.0
  0
LINE
  5
17B
330
98
100
AcDbEntity
  8
0
  6
________________
 62
     7
370
     9
100
AcDbLine
 10
167.6400000033411
 20
18.0999999978077
 30
0.0
 11
161.6400000033411
 21
18.0999999978077
 31
0.0
  0
ARC
  5
17C
330
98
100
AcDbEntity
  8
0
  6
________________
 62
     7
370
     9
100
AcDbCircle
 10
155.6999999190389
 20
6.200329912712229
 30
0.0
 40
1.500000000000001
100
AcDbArc
 50
90.02700393661586
 51
270.0270039363402
  0
ARC
  5
17D
330
98
100
AcDbEntity
  8
0
  6
________________
 62
     7
370
     9
100
AcDbCircle
 10
155.6999999190389
 20
6.200329912712229
 30
0.0
 40
1.500000000000007
100
AcDbArc
 50
33.83931211681444
 51
90.02700393661586
  0
ARC
  5
17E
330
98
100
AcDbEntity
  8
0
  6
________________
 62
     7
370
     9
100
AcDbCircle
 10
155.6999999190389
 20
6.200329912712229
 30
0.0
 40
1.500000000000001
100
AcDbArc
 50
270.0270039366158
 51
326.214675728284
  0
LINE
  5
17F
330
98
100
AcDbEntity
  8
0
  6
________________
 62
     7
370
     9
100
AcDbLine
 10
157.0225434591439
 20
5.604787612086034
 30
0.0
 11
157.0219814884273
 21
6.797152575090875
 31
0.0
  0
ARC
  5
180
330
98
100
AcDbEntity
  8
0
  6
________________
 62
     7
370
     9
100
AcDbCircle
 10
175.3000001901083
 20
6.200510926888198
 30
0.0
 40
1.500000000000001
100
AcDbArc
 50
269.9581799473405
 51
89.95817994706505
  0
ARC
  5
181
330
98
100
AcDbEntity
  8
0
  6
________________
 62
     7
370
     9
100
AcDbCircle
 10
175.3000001901083
 20
6.200510926888198
 30
0.0
 40
1.499999999999983
100
AcDbArc
 50
213.7704881275392
 51
269.9581799473405
  0
ARC
  5
182
330
98
100
AcDbEntity
  8
0
  6
________________
 62
     7
370
     9
100
AcDbCircle
 10
175.3000001901083
 20
6.200510926888198
 30
0.0
 40
1.500000000000001
100
AcDbArc
 50
89.95817994734074
 51
146.1458517390088
  0
LINE
  5
183
330
98
100
AcDbEntity
  8
0
  6
________________
 62
     7
370
     9
100
AcDbLine
 10
173.9781729724951
 20
6.797641443681366
 30
0.0
 11
173.9773026681363
 21
5.605276665862635
 31
0.0
  0
ARC
  5
184
330
98
100
AcDbEntity
  8
0
  6
________________
 62
     7
370
     9
100
AcDbCircle
 10
-170.0421644930946
 20
4.929426701239067
 30
0.0
 40
1.000000000000002
210
0.0
220
0.0
230
-1.0
100
AcDbArc
 50
93.99999999685002
 51
117.2475244717167
  0
ARC
  5
185
330
98
100
AcDbEntity
  8
0
  6
________________
 62
     7
370
     9
100
AcDbCircle
 10
-170.0421644924065
 20
17.47057329529274
 30
0.0
 40
1.000000000000003
210
0.0
220
0.0
230
-1.0
100
AcDbArc
 50
242.7524755219961
 51
265.9999999968626
  0
LINE
  5
186
330
98
100
AcDbEntity
  8
0
  6
________________
 62
     7
370
     9
100
AcDbLine
 10
170.1119209662054
 20
16.47300924503382
 30
0.0
 11
167.6400000033411
 21
16.30015569258805
 31
0.0
  0
LINE
  5
187
330
98
100
AcDbEntity
  8
0
  6
________________
 62
     7
370
     9
100
AcDbLine
 10
161.640000003341
 20
15.88059482059601
 30
0.0
 11
160.9987820213841
 21
15.83575649132153
 31
0.0
  0
LINE
  5
188
330
98
100
AcDbEntity
  8
0
  6
________________
 62
     7
370
     9
100
AcDbLine
 10
160.9987820218928
 20
6.564243504217957
 30
0.0
 11
161.640000003341
 21
6.519405175049744
 31
0.0
  0
LINE
  5
189
330
98
100
AcDbEntity
  8
0
  6
________________
 62
     7
370
     9
100
AcDbLine
 10
167.6400000033411
 20
6.099844303719321
 30
0.0
 11
170.111920966784
 21
5.926990751505643
 31
0.0
  0
LINE
  5
18A
330
98
100
AcDbEntity
  8
0
  6
________________
 62
     7
370
     9
100
AcDbLine
 10
160.9987820213841
 20
15.83575649132153
 30
0.0
 11
160.4999999962835
 21
15.30087825442188
 31
0.0
  0
LINE
  5
18B
330
98
100
AcDbEntity
  8
0
  6
________________
 62
     7
370
     9
100
AcDbLine
 10
160.4999999967335
 20
7.09912174106285
 30
0.0
 11
160.9987820218928
 21
6.564243504217957
 31
0.0
  0
ARC
  5
18C
330
98
100
AcDbEntity
  8
0
  6
________________
 62
     7
370
     9
100
AcDbCircle
 10
-170.0421644999219
 20
-120.0705732989387
 30
0.0
 40
1.000000000000002
210
0.0
220
0.0
230
-1.0
100
AcDbArc
 50
93.99999999685039
 51
117.247524471717
  0
ARC
  5
18D
330
98
100
AcDbEntity
  8
0
  6
________________
 62
     7
370
     9
100
AcDbCircle
 10
-170.0421644992338
 20
-107.5294267048851
 30
0.0
 40
1.000000000000003
210
0.0
220
0.0
230
-1.0
100
AcDbArc
 50
242.7524755219958
 51
265.9999999968625
  0
LINE
  5
18E
330
98
100
AcDbEntity
  8
0
  6
________________
 62
     7
370
     9
100
AcDbLine
 10
170.1119209730327
 20
-108.526990755144
 30
0.0
 11
167.6400000033353
 21
-108.6998443080676
 31
0.0
  0
LINE
  5
18F
330
98
100
AcDbEntity
  8
0
  6
________________
 62
     7
370
     9
100
AcDbLine
 10
161.6400000033352
 20
-109.1194051800596
 30
0.0
 11
160.9987820282114
 21
-109.1642435088563
 31
0.0
  0
LINE
  5
190
330
98
100
AcDbEntity
  8
0
  6
________________
 62
     7
370
     9
100
AcDbLine
 10
160.9987820287201
 20
-118.4357564959598
 30
0.0
 11
161.6400000033348
 21
-118.4805948246502
 31
0.0
  0
LINE
  5
191
330
98
100
AcDbEntity
  8
0
  6
________________
 62
     7
370
     9
100
AcDbLine
 10
167.6400000033348
 20
-118.9001556959806
 30
0.0
 11
170.1119209736113
 21
-119.0730092486721
 31
0.0
  0
LINE
  5
192
330
98
100
AcDbEntity
  8
0
  6
________________
 62
     7
370
     9
100
AcDbLine
 10
160.9987820282114
 20
-109.1642435088562
 30
0.0
 11
160.5000000031108
 21
-109.6991217457559
 31
0.0
  0
LINE
  5
193
330
98
100
AcDbEntity
  8
0
  6
________________
 62
     7
370
     9
100
AcDbLine
 10
160.5000000035608
 20
-117.9008782591149
 30
0.0
 11
160.9987820287201
 21
-118.4357564959598
 31
0.0
  0
ENDBLK
  5
197
330
98
100
AcDbEntity
  8
0
100
AcDbBlockEnd
  0
BLOCK
  5
1D0
330
195
100
AcDbEntity
  8
0
100
AcDbBlockBegin
  2
D_FRAME_VIEW@418
 70
     0
 10
0.0
 20
0.0
 30
0.0
  3
D_FRAME_VIEW@418
  1

  0
LINE
  5
198
330
195
100
AcDbEntity
  8
0
  6
________________
 62
     7
370
     9
100
AcDbLine
 10
7.749999999855053
 20
-128.7000000013904
 30
0.0
 11
6.74999999985465
 21
-128.7000000015348
 31
0.0
  0
LINE
  5
199
330
195
100
AcDbEntity
  8
0
  6
________________
 62
     7
370
     9
100
AcDbLine
 10
6.74999999985345
 20
-128.700000001536
 30
0.0
 11
8.24999999967986
 21
-127.2000000012762
 31
0.0
  0
LINE
  5
19A
330
195
100
AcDbEntity
  8
0
  6
________________
 62
   253
370
     9
100
AcDbLine
 10
8.249999999638915
 20
-127.2000000012352
 30
0.0
 11
36.74999999965029
 21
-127.1999999971172
 31
0.0
  0
LINE
  5
19B
330
195
100
AcDbEntity
  8
0
  6
________________
 62
     7
370
     9
100
AcDbLine
 10
36.74999999960894
 20
-127.1999999971585
 30
0.0
 11
38.24999999986841
 21
-128.6999999969845
 31
0.0
  0
LINE
  5
19C
330
195
100
AcDbEntity
  8
0
  6
________________
 62
     7
370
     9
100
AcDbLine
 10
38.24999999986722
 20
-128.6999999969833
 30
0.0
 11
37.24999999986683
 21
-128.6999999971278
 31
0.0
  0
LINE
  5
19D
330
195
100
AcDbEntity
  8
0
  6
________________
 62
     7
370
     9
100
AcDbLine
 10
37.24999999986683
 20
-128.6999999971284
 30
0.0
 11
37.24999999985442
 21
-128.6142135594741
 31
0.0
  0
LINE
  5
19E
330
195
100
AcDbEntity
  8
0
  6
________________
 62
     7
370
     9
100
AcDbLine
 10
37.24999999985457
 20
-128.6142135594735
 30
0.0
 11
37.04999999985449
 21
-128.6142135595023
 31
0.0
  0
LINE
  5
19F
330
195
100
AcDbEntity
  8
0
  6
________________
 62
     7
370
     9
100
AcDbLine
 10
37.04999999985435
 20
-128.614213559503
 30
0.0
 11
37.04999999986674
 21
-128.6999999971574
 31
0.0
  0
LINE
  5
1A0
330
195
100
AcDbEntity
  8
0
  6
________________
 62
     7
370
     9
100
AcDbLine
 10
37.04999999986674
 20
-128.6999999971567
 30
0.0
 11
7.949999999855129
 21
-128.7000000013614
 31
0.0
  0
LINE
  5
1A1
330
195
100
AcDbEntity
  8
0
  6
________________
 62
     7
370
     9
100
AcDbLine
 10
7.949999999855129
 20
-128.700000001362
 30
0.0
 11
7.949999999842736
 21
-128.6142135637077
 31
0.0
  0
LINE
  5
1A2
330
195
100
AcDbEntity
  8
0
  6
________________
 62
     7
370
     9
100
AcDbLine
 10
7.949999999842867
 20
-128.6142135637071
 30
0.0
 11
7.749999999842785
 21
-128.6142135637359
 31
0.0
  0
LINE
  5
1A3
330
195
100
AcDbEntity
  8
0
  6
________________
 62
     7
370
     9
100
AcDbLine
 10
7.749999999842654
 20
-128.6142135637366
 30
0.0
 11
7.749999999855053
 21
-128.700000001391
 31
0.0
  0
LINE
  5
1A4
330
195
100
AcDbEntity
  8
0
  6
________________
 62
     7
370
     9
100
AcDbLine
 10
6.835786420157142
 20
-8.714213563835095
 30
0.0
 11
8.249999982355273
 21
-7.300000001228275
 31
0.0
  0
LINE
  5
1A5
330
195
100
AcDbEntity
  8
0
  6
________________
 62
   253
370
     9
100
AcDbLine
 10
8.249999982314336
 20
-7.300000001187329
 30
0.0
 11
8.249999999638915
 21
-127.2000000012352
 31
0.0
  0
LINE
  5
1A6
330
195
100
AcDbEntity
  8
0
  6
________________
 62
     7
370
     9
100
AcDbLine
 10
6.74999999985465
 20
-128.7000000015348
 30
0.0
 11
6.749999992427758
 21
-77.3000000015143
 31
0.0
  0
LINE
  5
1A7
330
195
100
AcDbEntity
  8
0
  6
________________
 62
     7
370
     9
100
AcDbLine
 10
6.835786430054211
 20
-77.30000000150191
 30
0.0
 11
6.749999992427099
 21
-77.3000000015143
 31
0.0
  0
LINE
  5
1A8
330
195
100
AcDbEntity
  8
0
  6
________________
 62
     7
370
     9
100
AcDbLine
 10
6.835786430054842
 20
-77.30000000147449
 30
0.0
 11
6.835786420144749
 21
-8.714213563820183
 31
0.0
  0
LINE
  5
1A9
330
195
100
AcDbEntity
  8
0
  6
________________
 62
     7
370
     9
100
AcDbLine
 10
38.16421354050883
 20
21.70000000309174
 30
0.0
 11
38.16421354053773
 21
21.50000000309165
 31
0.0
  0
LINE
  5
1AA
330
195
100
AcDbEntity
  8
0
  6
________________
 62
     7
370
     9
100
AcDbLine
 10
38.16421354053835
 20
21.50000000306421
 30
0.0
 11
38.24999997816519
 21
21.50000000307661
 31
0.0
  0
LINE
  5
1AB
330
195
100
AcDbEntity
  8
0
  6
________________
 62
     7
370
     9
100
AcDbLine
 10
38.24999997816452
 20
21.50000000307663
 30
0.0
 11
38.24999999986722
 21
-128.6999999969833
 31
0.0
  0
LINE
  5
1AC
330
195
100
AcDbEntity
  8
0
  6
________________
 62
   253
370
     9
100
AcDbLine
 10
36.7499999996503
 20
-127.1999999971172
 30
0.0
 11
36.74999997820768
 21
21.20000000294206
 31
0.0
  0
LINE
  5
1AD
330
195
100
AcDbEntity
  8
0
  6
________________
 62
     7
370
     9
100
AcDbLine
 10
36.74999997824864
 20
21.20000000290113
 30
0.0
 11
38.24999997799233
 21
22.7000000030783
 31
0.0
  0
LINE
  5
1AE
330
195
100
AcDbEntity
  8
0
  6
________________
 62
     7
370
     9
100
AcDbLine
 10
38.24999997799114
 20
22.70000000307714
 30
0.0
 11
38.24999997813563
 21
21.70000000307672
 31
0.0
  0
LINE
  5
1AF
330
195
100
AcDbEntity
  8
0
  6
________________
 62
     7
370
     9
100
AcDbLine
 10
38.24999997813623
 20
21.70000000307672
 30
0.0
 11
38.16421354050946
 21
21.70000000306432
 31
0.0
  0
LINE
  5
1B0
330
195
100
AcDbEntity
  8
0
  6
________________
 62
   253
370
     9
100
AcDbLine
 10
-104.5000000177307
 20
-7.300000017478797
 30
0.0
 11
8.249999982314336
 21
-7.300000001187329
 31
0.0
  0
LINE
  5
1B1
330
195
100
AcDbEntity
  8
0
  6
________________
 62
   253
370
     9
100
AcDbLine
 10
-104.5000000218487
 20
21.1999999825326
 30
0.0
 11
-104.5000000177307
 21
-7.300000017478797
 31
0.0
  0
LINE
  5
1B2
330
195
100
AcDbEntity
  8
0
  6
________________
 62
   253
370
     9
100
AcDbLine
 10
36.74999997820768
 20
21.20000000294208
 30
0.0
 11
-104.5000000218487
 21
21.1999999825326
 31
0.0
  0
LINE
  5
1B3
330
195
100
AcDbEntity
  8
0
  6
________________
 62
     7
370
     9
100
AcDbLine
 10
-106.0000000176884
 20
-7.600000017777941
 30
0.0
 11
-106.0000000218931
 21
21.49999998223367
 31
0.0
  0
LINE
  5
1B4
330
195
100
AcDbEntity
  8
0
  6
________________
 62
     7
370
     9
100
AcDbLine
 10
-106.0000000218937
 20
21.49999998223367
 30
0.0
 11
-105.9142135842666
 21
21.49999998224605
 31
0.0
  0
LINE
  5
1B5
330
195
100
AcDbEntity
  8
0
  6
________________
 62
     7
370
     9
100
AcDbLine
 10
-105.914213584266
 20
21.4999999822735
 30
0.0
 11
-105.9142135842949
 21
21.69999998227359
 31
0.0
  0
LINE
  5
1B6
330
195
100
AcDbEntity
  8
0
  6
________________
 62
     7
370
     9
100
AcDbLine
 10
-105.9142135842955
 20
21.69999998224615
 30
0.0
 11
-106.0000000219226
 21
21.69999998223376
 31
0.0
  0
LINE
  5
1B7
330
195
100
AcDbEntity
  8
0
  6
________________
 62
     7
370
     9
100
AcDbLine
 10
-106.000000021922
 20
21.69999998223376
 30
0.0
 11
-106.0000000220665
 21
22.69999998223417
 31
0.0
  0
LINE
  5
1B8
330
195
100
AcDbEntity
  8
0
  6
________________
 62
     7
370
     9
100
AcDbLine
 10
-104.5000000218901
 20
21.19999998249125
 30
0.0
 11
-106.0000000220677
 21
22.69999998223535
 31
0.0
  0
LINE
  5
1B9
330
195
100
AcDbEntity
  8
0
  6
________________
 62
     7
370
     9
100
AcDbLine
 10
-106.0000000175161
 20
-8.800000017779634
 30
0.0
 11
-104.5000000176897
 21
-7.300000017519744
 31
0.0
  0
LINE
  5
1BA
330
195
100
AcDbEntity
  8
0
  6
________________
 62
     7
370
     9
100
AcDbLine
 10
-106.000000017515
 20
-8.800000017778434
 30
0.0
 11
-106.0000000176595
 21
-7.80000001777803
 31
0.0
  0
LINE
  5
1BB
330
195
100
AcDbEntity
  8
0
  6
________________
 62
     7
370
     9
100
AcDbLine
 10
-106.0000000176601
 20
-7.80000001777803
 30
0.0
 11
-105.914213580033
 21
-7.800000017765631
 31
0.0
  0
LINE
  5
1BC
330
195
100
AcDbEntity
  8
0
  6
________________
 62
     7
370
     9
100
AcDbLine
 10
-105.9142135800324
 20
-7.800000017738201
 30
0.0
 11
-105.9142135800613
 21
-7.600000017738112
 31
0.0
  0
LINE
  5
1BD
330
195
100
AcDbEntity
  8
0
  6
________________
 62
     7
370
     9
100
AcDbLine
 10
-105.9142135800619
 20
-7.600000017765542
 30
0.0
 11
-106.000000017689
 21
-7.600000017777941
 31
0.0
  0
LINE
  5
1BE
330
195
100
AcDbEntity
  8
0
  6
________________
 62
     7
370
     9
100
AcDbLine
 10
6.835786420144749
 20
-8.714213563820183
 30
0.0
 11
-61.75000001750955
 21
-8.71421357373027
 31
0.0
  0
LINE
  5
1BF
330
195
100
AcDbEntity
  8
0
  6
________________
 62
     7
370
     9
100
AcDbLine
 10
-61.75000001749729
 20
-8.800000011385263
 30
0.0
 11
-61.75000001750968
 21
-8.714213573730914
 31
0.0
  0
LINE
  5
1C0
330
195
100
AcDbEntity
  8
0
  6
________________
 62
     7
370
     9
100
AcDbLine
 10
-61.75000001749729
 20
-8.80000001138466
 30
0.0
 11
-106.000000017515
 21
-8.800000017778434
 31
0.0
  0
LINE
  5
1C1
330
195
100
AcDbEntity
  8
0
  6
________________
 62
     7
370
     9
100
AcDbLine
 10
-106.0000000220665
 20
22.69999998223417
 30
0.0
 11
38.24999997799115
 21
22.70000000307714
 31
0.0
  0
LINE
  5
1C2
330
195
100
AcDbEntity
  8
0
  6
________________
 62
     7
370
     9
100
AcDbLine
 10
6.835786433852562
 20
-76.80000000135601
 30
0.0
 11
6.749999999952156
 21
-76.80000000135593
 31
0.0
  0
LINE
  5
1C3
330
195
100
AcDbEntity
  8
0
  6
________________
 62
     7
370
     9
100
AcDbLine
 10
6.749999999952156
 20
-76.80000000135593
 30
0.0
 11
6.750000000027762
 21
-8.800000001328787
 31
0.0
  0
LINE
  5
1C4
330
195
100
AcDbEntity
  8
0
  6
________________
 62
     7
370
     9
100
AcDbLine
 10
6.750000000027762
 20
-8.800000001328787
 30
0.0
 11
-61.24999999999937
 21
-8.80000000125318
 31
0.0
  0
LINE
  5
1C5
330
195
100
AcDbEntity
  8
0
  6
________________
 62
     7
370
     9
100
AcDbLine
 10
-61.24999999999937
 20
-8.80000000125318
 30
0.0
 11
-61.24999999999928
 21
-8.714213570307667
 31
0.0
  0
ARC
  5
1C6
330
195
100
AcDbEntity
  8
0
  6
________________
 62
     7
370
     9
100
AcDbCircle
 10
-72.75026661763624
 20
-8.050000002597944
 30
0.0
 40
1.499999999999996
100
AcDbArc
 50
269.8356702399711
 51
329.9999997541477
  0
ARC
  5
1C7
330
195
100
AcDbEntity
  8
0
  6
________________
 62
     7
370
     9
100
AcDbCircle
 10
-72.75049315941321
 20
-8.050000001470645
 30
0.0
 40
1.500000000000003
100
AcDbArc
 50
210.0000005156387
 51
329.9999995009187
  0
ARC
  5
1C8
330
195
100
AcDbEntity
  8
0
  6
________________
 62
     7
370
     9
100
AcDbCircle
 10
7.49999999991352
 20
-112.3000000026773
 30
0.0
 40
1.500000000000003
100
AcDbArc
 50
179.9808309861526
 51
239.9999999538953
  0
ARC
  5
1C9
330
195
100
AcDbEntity
  8
0
  6
________________
 62
     7
370
     9
100
AcDbCircle
 10
7.499999999911799
 20
-112.299547545359
 30
0.0
 40
1.500000000000002
100
AcDbArc
 50
120.0000001153065
 51
239.999999901251
  0
ARC
  5
1CA
330
195
100
AcDbEntity
  8
0
  6
________________
 62
     7
370
     9
100
AcDbCircle
 10
-105.249999999947
 20
6.200329912712229
 30
0.0
 40
1.50000000000001
100
AcDbArc
 50
168.2664193587553
 51
239.9999995708287
  0
ARC
  5
1CB
330
195
100
AcDbEntity
  8
0
  6
________________
 62
     7
370
     9
100
AcDbCircle
 10
-105.2500000000015
 20
6.200510926888198
 30
0.0
 40
1.500000000000003
100
AcDbArc
 50
120.00000043499
 51
239.9999995732304
  0
ARC
  5
1CC
330
195
100
AcDbEntity
  8
0
  6
________________
 62
     7
370
     9
100
AcDbCircle
 10
37.24999999994474
 20
-87.20000000162446
 30
0.0
 40
1.5
100
AcDbArc
 50
311.8103147482748
 51
48.18968525994524
  0
ARC
  5
1CD
330
195
100
AcDbEntity
  8
0
  6
________________
 62
     7
370
     9
100
AcDbCircle
 10
37.25000000000148
 20
-36.20000000160407
 30
0.0
 40
1.500000000000004
100
AcDbArc
 50
311.8103145578845
 51
48.18968545033556
  0
ENDBLK
  5
1D1
330
195
100
AcDbEntity
  8
0
100
AcDbBlockEnd
  0
BLOCK
  5
212
330
1CF
100
AcDbEntity
  8
0
100
AcDbBlockBegin
  2
D_FRAME_VIEW@410
 70
     0
 10
0.0
 20
0.0
 30
0.0
  3
D_FRAME_VIEW@410
  1

  0
LINE
  5
1D2
330
1CF
100
AcDbEntity
  8
0
  6
________________
 62
     7
370
     9
100
AcDbLine
 10
33.74998749261698
 20
458.2000249984437
 30
0.0
 11
84.24998749263713
 21
458.2000250020663
 31
0.0
  0
LINE
  5
1D3
330
1CF
100
AcDbEntity
  8
0
  6
________________
 62
     7
370
     9
100
AcDbLine
 10
84.24998749263713
 20
458.2000250020663
 30
0.0
 11
84.24998750744301
 21
251.8000250019837
 31
0.0
  0
LINE
  5
1D4
330
1CF
100
AcDbEntity
  8
0
  6
________________
 62
     7
370
     9
100
AcDbLine
 10
33.74998749405166
 20
438.2000249924099
 30
0.0
 11
33.74998749261698
 21
458.2000249984437
 31
0.0
  0
LINE
  5
1D5
330
1CF
100
AcDbEntity
  8
0
  6
________________
 62
     7
370
     9
100
AcDbLine
 10
33.74998750491216
 20
286.8000249912007
 30
0.0
 11
33.74998750742284
 21
251.8000249983612
 31
0.0
  0
LINE
  5
1D6
330
1CF
100
AcDbEntity
  8
0
  6
________________
 62
     7
370
     9
100
AcDbLine
 10
84.24998750744301
 20
251.8000250019837
 30
0.0
 11
33.74998750742285
 21
251.8000249983612
 31
0.0
  0
LINE
  5
1D7
330
1CF
100
AcDbEntity
  8
0
  6
________________
 62
     7
370
     9
100
AcDbLine
 10
-80.00001251386384
 20
406.7000249902634
 30
0.0
 11
-116.2500125037487
 21
406.700024987663
 31
0.0
  0
LINE
  5
1D8
330
1CF
100
AcDbEntity
  8
0
  6
________________
 62
     7
370
     9
100
AcDbLine
 10
-116.2500125037487
 20
406.700024987663
 30
0.0
 11
-116.250012507443
 21
458.2000249876836
 31
0.0
  0
LINE
  5
1D9
330
1CF
100
AcDbEntity
  8
0
  6
________________
 62
     7
370
     9
100
AcDbLine
 10
-116.250012507443
 20
458.2000249876836
 30
0.0
 11
30.74998749261577
 21
458.2000249982285
 31
0.0
  0
LINE
  5
1DA
330
1CF
100
AcDbEntity
  8
0
  6
________________
 62
     7
370
     9
100
AcDbLine
 10
30.74998749261577
 20
458.2000249982285
 30
0.0
 11
30.74998749405045
 21
438.2000249919764
 31
0.0
  0
LINE
  5
1DB
330
1CF
100
AcDbEntity
  8
0
  6
________________
 62
     7
370
     9
100
AcDbLine
 10
32.83577391498818
 20
406.7858114299046
 30
0.0
 11
34.24998747718632
 21
408.2000249925115
 31
0.0
  0
LINE
  5
1DC
330
1CF
100
AcDbEntity
  8
0
  6
________________
 62
   253
370
     9
100
AcDbLine
 10
34.24998747714537
 20
408.2000249925524
 30
0.0
 11
34.24998749446996
 21
288.3000249925046
 31
0.0
  0
LINE
  5
1DD
330
1CF
100
AcDbEntity
  8
0
  6
________________
 62
     7
370
     9
100
AcDbLine
 10
32.74998749468449
 20
286.8000249922037
 30
0.0
 11
34.2499874945109
 21
288.3000249924636
 31
0.0
  0
LINE
  5
1DE
330
1CF
100
AcDbEntity
  8
0
  6
________________
 62
     7
370
     9
100
AcDbLine
 10
32.74998749468569
 20
286.8000249922049
 30
0.0
 11
32.7499874872588
 21
338.2000249922255
 31
0.0
  0
LINE
  5
1DF
330
1CF
100
AcDbEntity
  8
0
  6
________________
 62
     7
370
     9
100
AcDbLine
 10
32.83577392488525
 20
338.2000249922378
 30
0.0
 11
32.74998748725814
 21
338.2000249922255
 31
0.0
  0
LINE
  5
1E0
330
1CF
100
AcDbEntity
  8
0
  6
________________
 62
     7
370
     9
100
AcDbLine
 10
32.83577392488588
 20
338.2000249922652
 30
0.0
 11
32.83577391497579
 21
406.7858114299195
 31
0.0
  0
LINE
  5
1E1
330
1CF
100
AcDbEntity
  8
0
  6
________________
 62
     7
370
     9
100
AcDbLine
 10
33.7499874946861
 20
286.8000249923494
 30
0.0
 11
32.74998749468569
 21
286.8000249922049
 31
0.0
  0
LINE
  5
1E2
330
1CF
100
AcDbEntity
  8
0
  6
________________
 62
   253
370
     9
100
AcDbLine
 10
34.24998749446996
 20
288.3000249925046
 30
0.0
 11
62.74998749448132
 21
288.3000249966225
 31
0.0
  0
LINE
  5
1E3
330
1CF
100
AcDbEntity
  8
0
  6
________________
 62
     7
370
     9
100
AcDbLine
 10
62.74998749443998
 20
288.3000249965813
 30
0.0
 11
64.24998749469945
 21
286.8000249967552
 31
0.0
  0
LINE
  5
1E4
330
1CF
100
AcDbEntity
  8
0
  6
________________
 62
     7
370
     9
100
AcDbLine
 10
64.24998749469826
 20
286.8000249967564
 30
0.0
 11
63.24998749469787
 21
286.8000249966119
 31
0.0
  0
LINE
  5
1E5
330
1CF
100
AcDbEntity
  8
0
  6
________________
 62
     7
370
     9
100
AcDbLine
 10
63.24998749469787
 20
286.8000249966113
 30
0.0
 11
63.24998749468546
 21
286.8858114342657
 31
0.0
  0
LINE
  5
1E6
330
1CF
100
AcDbEntity
  8
0
  6
________________
 62
     7
370
     9
100
AcDbLine
 10
63.24998749468561
 20
286.8858114342663
 30
0.0
 11
63.04998749468553
 21
286.8858114342374
 31
0.0
  0
LINE
  5
1E7
330
1CF
100
AcDbEntity
  8
0
  6
________________
 62
     7
370
     9
100
AcDbLine
 10
63.04998749468539
 20
286.8858114342368
 30
0.0
 11
63.04998749469778
 21
286.8000249965823
 31
0.0
  0
LINE
  5
1E8
330
1CF
100
AcDbEntity
  8
0
  6
________________
 62
     7
370
     9
100
AcDbLine
 10
63.04998749469778
 20
286.800024996583
 30
0.0
 11
33.94998749468617
 21
286.8000249923783
 31
0.0
  0
LINE
  5
1E9
330
1CF
100
AcDbEntity
  8
0
  6
________________
 62
     7
370
     9
100
AcDbLine
 10
33.94998749468617
 20
286.8000249923777
 30
0.0
 11
33.94998749467378
 21
286.885811430032
 31
0.0
  0
LINE
  5
1EA
330
1CF
100
AcDbEntity
  8
0
  6
________________
 62
     7
370
     9
100
AcDbLine
 10
33.94998749467391
 20
286.8858114300327
 30
0.0
 11
33.74998749467382
 21
286.8858114300038
 31
0.0
  0
LINE
  5
1EB
330
1CF
100
AcDbEntity
  8
0
  6
________________
 62
     7
370
     9
100
AcDbLine
 10
33.74998749467369
 20
286.8858114300031
 30
0.0
 11
33.7499874946861
 21
286.8000249923487
 31
0.0
  0
LINE
  5
1EC
330
1CF
100
AcDbEntity
  8
0
  6
________________
 62
     7
370
     9
100
AcDbLine
 10
64.16420103533987
 20
437.2000249968315
 30
0.0
 11
64.16420103536876
 21
437.0000249968314
 31
0.0
  0
LINE
  5
1ED
330
1CF
100
AcDbEntity
  8
0
  6
________________
 62
     7
370
     9
100
AcDbLine
 10
64.16420103536939
 20
437.000024996804
 30
0.0
 11
64.24998747299624
 21
437.0000249968163
 31
0.0
  0
LINE
  5
1EE
330
1CF
100
AcDbEntity
  8
0
  6
________________
 62
     7
370
     9
100
AcDbLine
 10
64.24998747299557
 20
437.0000249968164
 30
0.0
 11
64.24998749469826
 21
286.8000249967565
 31
0.0
  0
LINE
  5
1EF
330
1CF
100
AcDbEntity
  8
0
  6
________________
 62
   253
370
     9
100
AcDbLine
 10
62.74998749448134
 20
288.3000249966225
 30
0.0
 11
62.74998747303872
 21
436.7000249966818
 31
0.0
  0
LINE
  5
1F0
330
1CF
100
AcDbEntity
  8
0
  6
________________
 62
     7
370
     9
100
AcDbLine
 10
62.74998747307968
 20
436.7000249966409
 30
0.0
 11
64.24998747282338
 21
438.2000249968181
 31
0.0
  0
LINE
  5
1F1
330
1CF
100
AcDbEntity
  8
0
  6
________________
 62
     7
370
     9
100
AcDbLine
 10
64.24998747282218
 20
438.2000249968169
 30
0.0
 11
64.24998747296667
 21
437.2000249968165
 31
0.0
  0
LINE
  5
1F2
330
1CF
100
AcDbEntity
  8
0
  6
________________
 62
     7
370
     9
100
AcDbLine
 10
64.24998747296726
 20
437.2000249968165
 30
0.0
 11
64.1642010353405
 21
437.200024996804
 31
0.0
  0
LINE
  5
1F3
330
1CF
100
AcDbEntity
  8
0
  6
________________
 62
   253
370
     9
100
AcDbLine
 10
-78.50001252289967
 20
408.2000249762609
 30
0.0
 11
34.24998747714537
 21
408.2000249925524
 31
0.0
  0
LINE
  5
1F4
330
1CF
100
AcDbEntity
  8
0
  6
________________
 62
   253
370
     9
100
AcDbLine
 10
-78.50001252701767
 20
436.7000249762723
 30
0.0
 11
-78.50001252289967
 21
408.2000249762609
 31
0.0
  0
LINE
  5
1F5
330
1CF
100
AcDbEntity
  8
0
  6
________________
 62
   253
370
     9
100
AcDbLine
 10
62.74998747303872
 20
436.7000249966819
 30
0.0
 11
-78.50001252701766
 21
436.7000249762723
 31
0.0
  0
LINE
  5
1F6
330
1CF
100
AcDbEntity
  8
0
  6
________________
 62
     7
370
     9
100
AcDbLine
 10
-80.00001252268511
 20
406.7000249759601
 30
0.0
 11
-78.5000125228587
 21
408.20002497622
 31
0.0
  0
LINE
  5
1F7
330
1CF
100
AcDbEntity
  8
0
  6
________________
 62
     7
370
     9
100
AcDbLine
 10
32.83577391497579
 20
406.7858114299196
 30
0.0
 11
-35.75001252267851
 21
406.7858114200095
 31
0.0
  0
LINE
  5
1F8
330
1CF
100
AcDbEntity
  8
0
  6
________________
 62
     7
370
     9
100
AcDbLine
 10
-35.75001252266625
 20
406.7000249823545
 30
0.0
 11
-35.75001252267865
 21
406.7858114200088
 31
0.0
  0
LINE
  5
1F9
330
1CF
100
AcDbEntity
  8
0
  6
________________
 62
     7
370
     9
100
AcDbLine
 10
-35.75001252266625
 20
406.700024982355
 30
0.0
 11
-80.00001252268393
 21
406.7000249759613
 31
0.0
  0
LINE
  5
1FA
330
1CF
100
AcDbEntity
  8
0
  6
________________
 62
     7
370
     9
100
AcDbLine
 10
-80.0000125228573
 20
407.9000249759619
 30
0.0
 11
-80.00001252706205
 21
437.0000249759735
 31
0.0
  0
LINE
  5
1FB
330
1CF
100
AcDbEntity
  8
0
  6
________________
 62
     7
370
     9
100
AcDbLine
 10
-80.00001252706264
 20
437.0000249759734
 30
0.0
 11
-79.91422608943562
 21
437.0000249759858
 31
0.0
  0
LINE
  5
1FC
330
1CF
100
AcDbEntity
  8
0
  6
________________
 62
     7
370
     9
100
AcDbLine
 10
-79.91422608943495
 20
437.0000249760133
 30
0.0
 11
-79.91422608946384
 21
437.2000249760133
 31
0.0
  0
LINE
  5
1FD
330
1CF
100
AcDbEntity
  8
0
  6
________________
 62
     7
370
     9
100
AcDbLine
 10
-79.91422608946448
 20
437.2000249759859
 30
0.0
 11
-80.00001252709156
 21
437.2000249759735
 31
0.0
  0
LINE
  5
1FE
330
1CF
100
AcDbEntity
  8
0
  6
________________
 62
     7
370
     9
100
AcDbLine
 10
-80.00001252709092
 20
437.2000249759735
 30
0.0
 11
-80.00001252723541
 21
438.2000249759739
 31
0.0
  0
LINE
  5
1FF
330
1CF
100
AcDbEntity
  8
0
  6
________________
 62
     7
370
     9
100
AcDbLine
 10
-78.50001252705903
 20
436.700024976231
 30
0.0
 11
-80.0000125272366
 21
438.2000249759751
 31
0.0
  0
LINE
  5
200
330
1CF
100
AcDbEntity
  8
0
  6
________________
 62
     7
370
     9
100
AcDbLine
 10
-80.00001252268395
 20
406.7000249759613
 30
0.0
 11
-80.00001252282844
 21
407.7000249759617
 31
0.0
  0
LINE
  5
201
330
1CF
100
AcDbEntity
  8
0
  6
________________
 62
     7
370
     9
100
AcDbLine
 10
-80.00001252282902
 20
407.7000249759618
 30
0.0
 11
-79.91422608520197
 21
407.7000249759741
 31
0.0
  0
LINE
  5
202
330
1CF
100
AcDbEntity
  8
0
  6
________________
 62
     7
370
     9
100
AcDbLine
 10
-79.91422608520134
 20
407.7000249760015
 30
0.0
 11
-79.91422608523023
 21
407.9000249760016
 31
0.0
  0
LINE
  5
203
330
1CF
100
AcDbEntity
  8
0
  6
________________
 62
     7
370
     9
100
AcDbLine
 10
-79.91422608523087
 20
407.9000249759742
 30
0.0
 11
-80.00001252285794
 21
407.9000249759619
 31
0.0
  0
LINE
  5
204
330
1CF
100
AcDbEntity
  8
0
  6
________________
 62
     7
370
     9
100
AcDbLine
 10
-80.00001252723541
 20
438.2000249759739
 30
0.0
 11
64.2499874728222
 21
438.2000249968169
 31
0.0
  0
LINE
  5
205
330
1CF
100
AcDbEntity
  8
0
  6
________________
 62
     7
370
     9
100
AcDbLine
 10
32.8357739286836
 20
338.7000249923837
 30
0.0
 11
32.74998749478319
 21
338.7000249923838
 31
0.0
  0
LINE
  5
206
330
1CF
100
AcDbEntity
  8
0
  6
________________
 62
     7
370
     9
100
AcDbLine
 10
32.74998749478319
 20
338.7000249923838
 30
0.0
 11
32.7499874948588
 21
406.700024992411
 31
0.0
  0
LINE
  5
207
330
1CF
100
AcDbEntity
  8
0
  6
________________
 62
     7
370
     9
100
AcDbLine
 10
32.7499874948588
 20
406.700024992411
 30
0.0
 11
-35.25001250516834
 21
406.7000249924866
 31
0.0
  0
LINE
  5
208
330
1CF
100
AcDbEntity
  8
0
  6
________________
 62
     7
370
     9
100
AcDbLine
 10
-35.25001250516834
 20
406.7000249924866
 30
0.0
 11
-35.25001250516824
 21
406.7858114234321
 31
0.0
  0
ARC
  5
209
330
1CF
100
AcDbEntity
  8
0
  6
________________
 62
     7
370
     9
100
AcDbCircle
 10
-46.7502791228052
 20
407.4500249911418
 30
0.0
 40
1.499999999999996
100
AcDbArc
 50
269.8356702399711
 51
329.9999997541477
  0
ARC
  5
20A
330
1CF
100
AcDbEntity
  8
0
  6
________________
 62
     7
370
     9
100
AcDbCircle
 10
-46.75050566458218
 20
407.4500249922691
 30
0.0
 40
1.500000000000003
100
AcDbArc
 50
210.0000005156387
 51
329.9999995009187
  0
ARC
  5
20B
330
1CF
100
AcDbEntity
  8
0
  6
________________
 62
     7
370
     9
100
AcDbCircle
 10
33.49998749474456
 20
303.2000249910624
 30
0.0
 40
1.500000000000003
100
AcDbArc
 50
179.9808309861526
 51
239.9999999538953
  0
ARC
  5
20C
330
1CF
100
AcDbEntity
  8
0
  6
________________
 62
     7
370
     9
100
AcDbCircle
 10
33.49998749474284
 20
303.2004774483808
 30
0.0
 40
1.500000000000002
100
AcDbArc
 50
120.0000001153065
 51
239.999999901251
  0
ARC
  5
20D
330
1CF
100
AcDbEntity
  8
0
  6
________________
 62
     7
370
     9
100
AcDbCircle
 10
-79.25001250517046
 20
421.7005359206279
 30
0.0
 40
1.500000000000011
100
AcDbArc
 50
120.0000008763176
 51
239.9999991402397
  0
ARC
  5
20E
330
1CF
100
AcDbEntity
  8
0
  6
________________
 62
     7
370
     9
100
AcDbCircle
 10
63.24998749477578
 20
328.3000249921153
 30
0.0
 40
1.500000000000003
100
AcDbArc
 50
311.8103145927665
 51
48.18968542379133
  0
ARC
  5
20F
330
1CF
100
AcDbEntity
  8
0
  6
________________
 62
     7
370
     9
100
AcDbCircle
 10
63.24998749483252
 20
379.3000249921357
 30
0.0
 40
1.5
100
AcDbArc
 50
311.8103142122161
 51
48.18968580434142
  0
ENDBLK
  5
213
330
1CF
100
AcDbEntity
  8
0
100
AcDbBlockEnd
  0
BLOCK
  5
235
330
211
100
AcDbEntity
  8
0
100
AcDbBlockBegin
  2
D_FRAME_VIEW@416
 70
     0
 10
0.0
 20
0.0
 30
0.0
  3
D_FRAME_VIEW@416
  1

  0
LINE
  5
214
330
211
100
AcDbEntity
  8
0
  6
________________
 62
     7
370
     9
100
AcDbLine
 10
390.7499875014083
 20
350.7000249991111
 30
0.0
 11
380.7499875014043
 21
350.7000249983938
 31
0.0
  0
ARC
  5
215
330
211
100
AcDbEntity
  8
0
  6
________________
 62
     7
370
     9
100
AcDbCircle
 10
-390.7499875009779
 20
356.7000249991135
 30
0.0
 40
6.000000000000005
210
0.0
220
0.0
230
-1.0
100
AcDbArc
 50
179.9999999958901
 51
269.99999999589
  0
LINE
  5
216
330
211
100
AcDbEntity
  8
0
  6
________________
 62
     7
370
     9
100
AcDbLine
 10
396.7499874964909
 20
419.2836171345712
 30
0.0
 11
396.7499875009803
 21
356.7000249995439
 31
0.0
  0
ARC
  5
217
330
211
100
AcDbEntity
  8
0
  6
________________
 62
     7
370
     9
100
AcDbCircle
 10
402.7499874964934
 20
419.2836171350016
 30
0.0
 40
5.999999999999994
100
AcDbArc
 50
131.8103148998887
 51
180.0000000041101
  0
LINE
  5
218
330
211
100
AcDbEntity
  8
0
  6
________________
 62
     7
370
     9
100
AcDbLine
 10
380.7499874946614
 20
444.7000249984324
 30
0.0
 11
380.7499874926169
 21
473.2000249984438
 31
0.0
  0
ARC
  5
219
330
211
100
AcDbEntity
  8
0
  6
________________
 62
     7
370
     9
100
AcDbCircle
 10
-399.7499875039944
 20
314.7000249997432
 30
0.0
 40
8.0
210
0.0
220
0.0
230
-1.0
100
AcDbArc
 50
269.9999999958901
 51
359.99999999589
  0
ARC
  5
21A
330
211
100
AcDbEntity
  8
0
  6
________________
 62
     7
370
     9
100
AcDbCircle
 10
-399.7499875039944
 20
314.7000249997432
 30
0.0
 40
8.000000000000007
210
0.0
220
0.0
230
-1.0
100
AcDbArc
 50
179.9999999958899
 51
269.9999999958901
  0
LINE
  5
21B
330
211
100
AcDbEntity
  8
0
  6
________________
 62
     7
370
     9
100
AcDbLine
 10
407.7499875037106
 20
318.7000250003188
 30
0.0
 11
407.7499875039975
 21
314.7000250003171
 31
0.0
  0
ARC
  5
21C
330
211
100
AcDbEntity
  8
0
  6
________________
 62
     7
370
     9
100
AcDbCircle
 10
-399.7499875037075
 20
318.7000249997449
 30
0.0
 40
7.999999999999993
210
0.0
220
0.0
230
-1.0
100
AcDbArc
 50
89.99999999588998
 51
179.9999999958901
  0
ARC
  5
21D
330
211
100
AcDbEntity
  8
0
  6
________________
 62
     7
370
     9
100
AcDbCircle
 10
-399.7499875037075
 20
318.7000249997449
 30
0.0
 40
8.000000000000014
210
0.0
220
0.0
230
-1.0
100
AcDbArc
 50
359.99999999589
 51
89.99999999589
  0
LINE
  5
21E
330
211
100
AcDbEntity
  8
0
  6
________________
 62
     7
370
     9
100
AcDbLine
 10
391.7499875039911
 20
314.7000249991694
 30
0.0
 11
391.7499875037042
 21
318.7000249991709
 31
0.0
  0
LINE
  5
21F
330
211
100
AcDbEntity
  8
0
  6
________________
 62
     7
370
     9
100
AcDbLine
 10
431.2499874926371
 20
473.2000250020663
 30
0.0
 11
431.249987507443
 21
266.8000250019837
 31
0.0
  0
LINE
  5
220
330
211
100
AcDbEntity
  8
0
  6
________________
 62
     7
370
     9
100
AcDbLine
 10
380.749987492617
 20
473.2000249984438
 30
0.0
 11
431.2499874926372
 21
473.2000250020663
 31
0.0
  0
LINE
  5
221
330
211
100
AcDbEntity
  8
0
  6
________________
 62
     7
370
     9
100
AcDbLine
 10
380.7499875014043
 20
350.7000249983938
 30
0.0
 11
380.7499875074228
 21
266.8000249983612
 31
0.0
  0
LINE
  5
222
330
211
100
AcDbEntity
  8
0
  6
________________
 62
     7
370
     9
100
AcDbLine
 10
431.2499875074431
 20
266.8000250019837
 30
0.0
 11
380.7499875074228
 21
266.8000249983612
 31
0.0
  0
LINE
  5
223
330
211
100
AcDbEntity
  8
0
  6
________________
 62
     7
370
     9
100
AcDbLine
 10
380.7499874946614
 20
444.7000249984324
 30
0.0
 11
390.7499874946654
 21
444.7000249991497
 31
0.0
  0
ARC
  5
224
330
211
100
AcDbEntity
  8
0
  6
________________
 62
     7
370
     9
100
AcDbCircle
 10
390.7499874955261
 20
432.7000249991449
 30
0.0
 40
11.99999999999999
100
AcDbArc
 50
311.8103148998886
 51
90.00000000411
  0
ARC
  5
225
330
211
100
AcDbEntity
  8
0
  6
________________
 62
     7
370
     9
100
AcDbCircle
 10
-314.7499874954958
 20
432.7000249936921
 30
0.0
 40
6.000000000000005
210
0.0
220
0.0
230
-1.0
100
AcDbArc
 50
359.99999999589
 51
89.99999999588994
  0
LINE
  5
226
330
211
100
AcDbEntity
  8
0
  6
________________
 62
     7
370
     9
100
AcDbLine
 10
308.7499874962825
 20
421.7000249932582
 30
0.0
 11
308.7499874954934
 21
432.7000249932617
 31
0.0
  0
LINE
  5
227
330
211
100
AcDbEntity
  8
0
  6
________________
 62
     7
370
     9
100
AcDbLine
 10
308.7499874962825
 20
421.7000249932582
 30
0.0
 11
230.7499874962513
 21
421.700024987663
 31
0.0
  0
LINE
  5
228
330
211
100
AcDbEntity
  8
0
  6
________________
 62
     7
370
     9
100
AcDbLine
 10
230.7499874962513
 20
421.7000249876631
 30
0.0
 11
230.749987492557
 21
473.2000249876837
 31
0.0
  0
LINE
  5
229
330
211
100
AcDbEntity
  8
0
  6
________________
 62
     7
370
     9
100
AcDbLine
 10
230.749987492557
 20
473.2000249876837
 30
0.0
 11
377.7499874926158
 21
473.2000249982285
 31
0.0
  0
LINE
  5
22A
330
211
100
AcDbEntity
  8
0
  6
________________
 62
     7
370
     9
100
AcDbLine
 10
377.7499874926158
 20
473.2000249982285
 30
0.0
 11
377.7499874948754
 21
441.700024998215
 31
0.0
  0
ARC
  5
22B
330
211
100
AcDbEntity
  8
0
  6
________________
 62
     7
370
     9
100
AcDbCircle
 10
374.7499874948742
 20
441.7000249979998
 30
0.0
 40
3.000000000000003
100
AcDbArc
 50
270.0000000041101
 51
0.0000000041102339
  0
LINE
  5
22C
330
211
100
AcDbEntity
  8
0
  6
________________
 62
     7
370
     9
100
AcDbLine
 10
314.7499874950655
 20
438.7000249936945
 30
0.0
 11
374.7499874950894
 21
438.7000249979986
 31
0.0
  0
ARC
  5
22D
330
211
100
AcDbEntity
  8
0
  6
________________
 62
     7
370
     9
100
AcDbCircle
 10
-282.7499874948373
 20
441.7000249914012
 30
0.0
 40
8.000000000000007
210
0.0
220
0.0
230
-1.0
100
AcDbArc
 50
269.99999999589
 51
359.99999999589
  0
LINE
  5
22E
330
211
100
AcDbEntity
  8
0
  6
________________
 62
     7
370
     9
100
AcDbLine
 10
286.7499874954128
 20
433.700024991685
 30
0.0
 11
282.7499874954112
 21
433.700024991398
 31
0.0
  0
ARC
  5
22F
330
211
100
AcDbEntity
  8
0
  6
________________
 62
     7
370
     9
100
AcDbCircle
 10
-286.749987494839
 20
441.7000249916882
 30
0.0
 40
7.999999999999993
210
0.0
220
0.0
230
-1.0
100
AcDbArc
 50
179.9999999958901
 51
269.99999999589
  0
ARC
  5
230
330
211
100
AcDbEntity
  8
0
  6
________________
 62
     7
370
     9
100
AcDbCircle
 10
-286.749987494839
 20
441.7000249916882
 30
0.0
 40
8.000000000000007
210
0.0
220
0.0
230
-1.0
100
AcDbArc
 50
89.99999999588985
 51
179.9999999958901
  0
LINE
  5
231
330
211
100
AcDbEntity
  8
0
  6
________________
 62
     7
370
     9
100
AcDbLine
 10
282.7499874942635
 20
449.7000249914044
 30
0.0
 11
286.749987494265
 21
449.7000249916914
 31
0.0
  0
ARC
  5
232
330
211
100
AcDbEntity
  8
0
  6
________________
 62
     7
370
     9
100
AcDbCircle
 10
-282.7499874948373
 20
441.7000249914012
 30
0.0
 40
8.000000000000007
210
0.0
220
0.0
230
-1.0
100
AcDbArc
 50
359.99999999589
 51
89.99999999588994
  0
ENDBLK
  5
236
330
211
100
AcDbEntity
  8
0
100
AcDbBlockEnd
  0
BLOCK
  5
2D1
330
234
100
AcDbEntity
  8
0
100
AcDbBlockBegin
  2
D_FRAME_VIEW@420
 70
     0
 10
0.0
 20
0.0
 30
0.0
  3
D_FRAME_VIEW@420
  1

  0
ARC
  5
237
330
234
100
AcDbEntity
  8
0
  6
________________
 62
   253
370
     9
100
AcDbCircle
 10
224.0000000004292
 20
-60.80000000210688
 30
0.0
 40
3.000000000000003
210
0.0
220
0.0
230
-1.0
100
AcDbArc
 50
180.0000000031437
 51
90.00000000314374
  0
ARC
  5
238
330
234
100
AcDbEntity
  8
0
  6
________________
 62
   253
370
     9
100
AcDbCircle
 10
223.9999999990575
 20
-35.80000000209689
 30
0.0
 40
3.000000000000003
210
0.0
220
0.0
230
-1.0
100
AcDbArc
 50
180.0000000031436
 51
90.00000000314367
  0
LINE
  5
239
330
234
100
AcDbEntity
  8
0
  6
________________
 62
   253
370
     9
100
AcDbLine
 10
-218.4999999963079
 20
14.19999999760482
 30
0.0
 11
-217.4499999963076
 21
14.19999999754721
 31
0.0
  0
LINE
  5
23A
330
234
100
AcDbEntity
  8
0
  6
________________
 62
     7
370
     9
100
AcDbLine
 10
-218.4999999960076
 20
19.69999999761063
 30
0.0
 11
-217.4499999960058
 21
19.69999999755302
 31
0.0
  0
LINE
  5
23B
330
234
100
AcDbEntity
  8
0
  6
________________
 62
     7
370
     9
100
AcDbLine
 10
-218.4999999960076
 20
19.69999999761093
 30
0.0
 11
-218.4999999963094
 21
14.19999999760482
 31
0.0
  0
LINE
  5
23C
330
234
100
AcDbEntity
  8
0
  6
________________
 62
     7
370
     9
100
AcDbLine
 10
-218.499999998744
 20
-30.20000000239274
 30
0.0
 11
-217.4499999987436
 21
-30.20000000245035
 31
0.0
  0
LINE
  5
23D
330
234
100
AcDbEntity
  8
0
  6
________________
 62
     7
370
     9
100
AcDbLine
 10
-218.4999999963079
 20
14.19999999760482
 30
0.0
 11
-218.499999998744
 21
-30.20000000239274
 31
0.0
  0
LINE
  5
23E
330
234
100
AcDbEntity
  8
0
  6
________________
 62
     7
370
     9
100
AcDbLine
 10
-218.5000000015422
 20
-81.20000000238993
 30
0.0
 11
-217.4500000015418
 21
-81.20000000244754
 31
0.0
  0
LINE
  5
23F
330
234
100
AcDbEntity
  8
0
  6
________________
 62
     7
370
     9
100
AcDbLine
 10
-217.449999999402
 20
-42.20000000244969
 30
0.0
 11
-218.4999999994023
 21
-42.20000000239209
 31
0.0
  0
LINE
  5
240
330
234
100
AcDbEntity
  8
0
  6
________________
 62
     7
370
     9
100
AcDbLine
 10
-218.4999999994023
 20
-42.20000000239209
 30
0.0
 11
-218.5000000015422
 21
-81.20000000238993
 31
0.0
  0
LINE
  5
241
330
234
100
AcDbEntity
  8
0
  6
________________
 62
     7
370
     9
100
AcDbLine
 10
-217.4500000022002
 20
-93.2000000024469
 30
0.0
 11
-218.5000000022006
 21
-93.20000000238927
 31
0.0
  0
LINE
  5
242
330
234
100
AcDbEntity
  8
0
  6
________________
 62
   253
370
     9
100
AcDbLine
 10
-218.5000000036874
 20
-120.3000000023878
 30
0.0
 11
-217.4500000036871
 21
-120.3000000024454
 31
0.0
  0
LINE
  5
243
330
234
100
AcDbEntity
  8
0
  6
________________
 62
     7
370
     9
100
AcDbLine
 10
-218.5000000022006
 20
-93.20000000238927
 30
0.0
 11
-218.5000000036874
 21
-120.3000000023878
 31
0.0
  0
LINE
  5
244
330
234
100
AcDbEntity
  8
0
  6
________________
 62
     7
370
     9
100
AcDbLine
 10
-217.4500000039889
 20
-125.800000002439
 30
0.0
 11
-218.5000000039907
 21
-125.8000000023814
 31
0.0
  0
LINE
  5
245
330
234
100
AcDbEntity
  8
0
  6
________________
 62
     7
370
     9
100
AcDbLine
 10
-218.5000000039907
 20
-125.8000000023817
 30
0.0
 11
-218.5000000036889
 21
-120.3000000023878
 31
0.0
  0
LINE
  5
246
330
234
100
AcDbEntity
  8
0
  6
________________
 62
     7
370
     9
100
AcDbLine
 10
-218.4999999987448
 20
-30.20000000238941
 30
0.0
 11
-218.4999999994032
 21
-42.20000000238874
 31
0.0
  0
LINE
  5
247
330
234
100
AcDbEntity
  8
0
  6
________________
 62
     7
370
     9
100
AcDbLine
 10
-218.500000001543
 20
-81.2000000023866
 30
0.0
 11
-218.5000000022013
 21
-93.20000000238595
 31
0.0
  0
LINE
  5
248
330
234
100
AcDbEntity
  8
0
  6
________________
 62
     7
370
     9
100
AcDbLine
 10
-219.6400000033347
 20
-120.7000000023729
 30
0.0
 11
-219.6400000033354
 21
-106.9000000023729
 31
0.0
  0
LINE
  5
249
330
234
100
AcDbEntity
  8
0
  6
________________
 62
     7
370
     9
100
AcDbLine
 10
-225.6400000033347
 20
-120.7000000023732
 30
0.0
 11
-225.6400000033354
 21
-106.9000000023732
 31
0.0
  0
LINE
  5
24A
330
234
100
AcDbEntity
  8
0
  6
________________
 62
     7
370
     9
100
AcDbLine
 10
-219.6400000033411
 20
12.19999999768699
 30
0.0
 11
-219.6400000033411
 21
18.09999999780494
 31
0.0
  0
LINE
  5
24B
330
234
100
AcDbEntity
  8
0
  6
________________
 62
     7
370
     9
100
AcDbLine
 10
-225.6400000033411
 20
12.19999999801619
 30
0.0
 11
-225.6400000033411
 21
18.09999999780494
 31
0.0
  0
LINE
  5
24C
330
234
100
AcDbEntity
  8
0
  6
________________
 62
     7
370
     9
100
AcDbLine
 10
-238.5499999958984
 20
21.70000000309173
 30
0.0
 11
-238.5499999959094
 21
21.50000000309164
 31
0.0
  0
LINE
  5
24D
330
234
100
AcDbEntity
  8
0
  6
________________
 62
     7
370
     9
100
AcDbLine
 10
-238.5499999959096
 20
21.50000000288731
 30
0.0
 11
-238.0499999959092
 21
21.50000000285988
 31
0.0
  0
LINE
  5
24E
330
234
100
AcDbEntity
  8
0
  6
________________
 62
   253
370
     9
100
AcDbLine
 10
-238.0499999959094
 20
21.50000000307663
 30
0.0
 11
-238.0500000041503
 21
-128.6999999969833
 31
0.0
  0
LINE
  5
24F
330
234
100
AcDbEntity
  8
0
  6
________________
 62
     7
370
     9
100
AcDbLine
 10
-239.5500000040684
 20
-127.1999999971172
 30
0.0
 11
-239.5499999959262
 21
21.20000000294206
 31
0.0
  0
ARC
  5
250
330
234
100
AcDbEntity
  8
0
  6
________________
 62
     7
370
     9
100
AcDbCircle
 10
238.0499999959262
 20
21.20000000285978
 30
0.0
 40
1.500000000217337
210
0.0
220
0.0
230
-1.0
100
AcDbArc
 50
0.0000000031437133
 51
90.00000000315829
  0
LINE
  5
251
330
234
100
AcDbEntity
  8
0
  6
________________
 62
   253
370
     9
100
AcDbLine
 10
-238.0499999958435
 20
22.70000000307713
 30
0.0
 11
-238.0499999958984
 21
21.70000000307672
 31
0.0
  0
LINE
  5
252
330
234
100
AcDbEntity
  8
0
  6
________________
 62
     7
370
     9
100
AcDbLine
 10
-238.0499999958984
 20
21.70000000285997
 30
0.0
 11
-238.5499999958988
 21
21.70000000288741
 31
0.0
  0
ARC
  5
253
330
234
100
AcDbEntity
  8
0
  6
________________
 62
     7
370
     9
100
AcDbCircle
 10
-238.0500000040684
 20
-127.1999999971995
 30
0.0
 40
1.5
100
AcDbArc
 50
179.9999999968555
 51
269.9999999968725
  0
CIRCLE
  5
254
330
234
100
AcDbEntity
  8
0
  6
________________
 62
     7
370
     9
100
AcDbCircle
 10
233.2999999990751
 20
-36.19999999720701
 30
0.0
 40
1.750000000000002
210
0.0
220
0.0
230
-1.0
  0
CIRCLE
  5
255
330
234
100
AcDbEntity
  8
0
  6
________________
 62
     7
370
     9
100
AcDbCircle
 10
233.3000000018733
 20
-87.19999999722737
 30
0.0
 40
1.750000000000002
210
0.0
220
0.0
230
-1.0
  0
LINE
  5
256
330
234
100
AcDbEntity
  8
0
  6
________________
 62
     7
370
     9
100
AcDbLine
 10
-229.5499999959094
 20
21.50000000261025
 30
0.0
 11
-229.5500000041503
 21
-128.6999999974497
 31
0.0
  0
LINE
  5
257
330
234
100
AcDbEntity
  8
0
  6
________________
 62
     7
370
     9
100
AcDbLine
 10
-238.0500000041503
 20
-128.6999999969833
 30
0.0
 11
-229.5500000041503
 21
-128.6999999974497
 31
0.0
  0
LINE
  5
258
330
234
100
AcDbEntity
  8
0
  6
________________
 62
     7
370
     9
100
AcDbLine
 10
-238.0499999959094
 20
21.50000000307663
 30
0.0
 11
-229.5499999959094
 21
21.50000000261025
 31
0.0
  0
LINE
  5
259
330
234
100
AcDbEntity
  8
0
  6
________________
 62
     7
370
     9
100
AcDbLine
 10
-238.0499999958435
 20
22.70000000307713
 30
0.0
 11
-229.5499999958435
 21
22.70000000261076
 31
0.0
  0
LINE
  5
25A
330
234
100
AcDbEntity
  8
0
  6
________________
 62
     7
370
     9
100
AcDbLine
 10
-229.5499999958435
 20
22.70000000261076
 30
0.0
 11
-229.5499999958984
 21
21.70000000261034
 31
0.0
  0
LINE
  5
25B
330
234
100
AcDbEntity
  8
0
  6
________________
 62
     7
370
     9
100
AcDbLine
 10
-229.5499999958984
 20
21.70000000261034
 30
0.0
 11
-238.0499999958984
 21
21.70000000307672
 31
0.0
  0
ARC
  5
25C
330
234
100
AcDbEntity
  8
0
  6
________________
 62
     7
370
     9
100
AcDbCircle
 10
-238.0499999959262
 20
21.20000000285978
 30
0.0
 40
0.5000000000000004
100
AcDbArc
 50
89.99999999685646
 51
143.130102351005
  0
CIRCLE
  5
25D
330
234
100
AcDbEntity
  8
0
  6
________________
 62
     7
370
     9
100
AcDbCircle
 10
213.6999999990728
 20
-36.20000000052
 30
0.0
 40
1.750000000000002
210
0.0
220
0.0
230
-1.0
  0
CIRCLE
  5
25E
330
234
100
AcDbEntity
  8
0
  6
________________
 62
     7
370
     9
100
AcDbCircle
 10
213.700000001871
 20
-87.20000000054036
 30
0.0
 40
1.750000000000002
210
0.0
220
0.0
230
-1.0
  0
LINE
  5
25F
330
234
100
AcDbEntity
  8
0
  6
________________
 62
   253
370
     9
100
AcDbLine
 10
-208.950000004148
 20
-128.7000000008175
 30
0.0
 11
-208.949999995907
 21
21.4999999992424
 31
0.0
  0
LINE
  5
260
330
234
100
AcDbEntity
  8
0
  6
________________
 62
     7
370
     9
100
AcDbLine
 10
-208.950000004148
 20
-128.7000000008175
 30
0.0
 11
-217.450000004148
 21
-128.7000000003512
 31
0.0
  0
LINE
  5
261
330
234
100
AcDbEntity
  8
0
  6
________________
 62
     7
370
     9
100
AcDbLine
 10
-217.4499999959071
 20
21.49999999970877
 30
0.0
 11
-217.450000004148
 21
-128.7000000003512
 31
0.0
  0
LINE
  5
262
330
234
100
AcDbEntity
  8
0
  6
________________
 62
     7
370
     9
100
AcDbLine
 10
-217.4499999959071
 20
21.49999999970877
 30
0.0
 11
-208.949999995907
 21
21.49999999924239
 31
0.0
  0
LINE
  5
263
330
234
100
AcDbEntity
  8
0
  6
________________
 62
   253
370
     9
100
AcDbLine
 10
-208.9499999958961
 20
21.69999999924248
 30
0.0
 11
-208.9499999958412
 21
22.69999999924289
 31
0.0
  0
ARC
  5
264
330
234
100
AcDbEntity
  8
0
  6
________________
 62
     7
370
     9
100
AcDbCircle
 10
208.9499999959239
 20
21.19999999913468
 30
0.0
 40
1.5000000001082
210
0.0
220
0.0
230
-1.0
100
AcDbArc
 50
90.00000000315936
 51
180.0000000031437
  0
LINE
  5
265
330
234
100
AcDbEntity
  8
0
  6
________________
 62
     7
370
     9
100
AcDbLine
 10
-207.4499999959239
 20
21.19999999905238
 30
0.0
 11
-207.4500000040661
 21
-127.2000000010068
 31
0.0
  0
LINE
  5
266
330
234
100
AcDbEntity
  8
0
  6
________________
 62
     7
370
     9
100
AcDbLine
 10
-208.949999995907
 20
21.49999999913478
 30
0.0
 11
-208.4499999959067
 21
21.49999999910735
 31
0.0
  0
LINE
  5
267
330
234
100
AcDbEntity
  8
0
  6
________________
 62
     7
370
     9
100
AcDbLine
 10
-208.4499999959071
 20
21.49999999920883
 30
0.0
 11
-208.4499999958961
 21
21.69999999920892
 31
0.0
  0
LINE
  5
268
330
234
100
AcDbEntity
  8
0
  6
________________
 62
     7
370
     9
100
AcDbLine
 10
-208.4499999958959
 20
21.69999999910744
 30
0.0
 11
-208.9499999958962
 21
21.69999999913487
 31
0.0
  0
ARC
  5
269
330
234
100
AcDbEntity
  8
0
  6
________________
 62
     7
370
     9
100
AcDbCircle
 10
-208.9500000040661
 20
-127.2000000009245
 30
0.0
 40
1.5
100
AcDbArc
 50
269.9999999968714
 51
359.9999999968566
  0
LINE
  5
26A
330
234
100
AcDbEntity
  8
0
  6
________________
 62
     7
370
     9
100
AcDbLine
 10
-217.4499999958412
 20
22.69999999970927
 30
0.0
 11
-217.4499999958961
 21
21.69999999970885
 31
0.0
  0
LINE
  5
26B
330
234
100
AcDbEntity
  8
0
  6
________________
 62
     7
370
     9
100
AcDbLine
 10
-208.9499999958412
 20
22.69999999924289
 30
0.0
 11
-217.4499999958412
 21
22.69999999970927
 31
0.0
  0
LINE
  5
26C
330
234
100
AcDbEntity
  8
0
  6
________________
 62
     7
370
     9
100
AcDbLine
 10
-208.9499999958961
 20
21.69999999924248
 30
0.0
 11
-217.4499999958961
 21
21.69999999970885
 31
0.0
  0
ARC
  5
26D
330
234
100
AcDbEntity
  8
0
  6
________________
 62
     7
370
     9
100
AcDbCircle
 10
-208.9499999959239
 20
21.19999999913468
 30
0.0
 40
0.5000000000000102
100
AcDbArc
 50
36.86989764271165
 51
89.99999999685642
  0
LINE
  5
26E
330
234
100
AcDbEntity
  8
0
  6
________________
 62
     7
370
     9
100
AcDbLine
 10
-214.9463000230834
 20
-35.3652927186766
 30
0.0
 11
-215.0222627083705
 21
-35.60379824140384
 31
0.0
  0
LWPOLYLINE
  5
26F
330
234
100
AcDbEntity
  8
0
  6
________________
 62
     7
370
     9
100
AcDbPolyline
 90
       19
 70
     0
 43
0.0
 10
-214.6667881279049
 20
-36.20000000266599
 10
-214.6736009609445
 20
-36.20632460014904
 10
-214.7114708314303
 20
-36.24241521568113
 10
-214.7476152910074
 20
-36.27855025788012
 10
-214.7820542171683
 20
-36.31484187648525
 10
-214.8145602955926
 20
-36.35114696522959
 10
-214.8455836070266
 20
-36.38812160118314
 10
-214.8744070641295
 20
-36.42507751700458
 10
-214.9010318781746
 20
-36.46213738558302
 10
-214.9252509325635
 20
-36.49914278650903
 10
-214.9459322948867
 20
-36.53420209482067
 10
-214.9642878105901
 20
-36.56917597018293
 10
-214.9802991283377
 20
-36.604173436002
 10
-214.9938263090436
 20
-36.63905078974254
 10
-215.00498879771
 20
-36.67445731357233
 10
-215.0134350894315
 20
-36.70970209652803
 10
-215.019118987093
 20
-36.74490557246895
 10
-215.0219409971908
 20
-36.77990451804038
 10
-215.0222627084852
 20
-36.79620316855396
  0
LINE
  5
270
330
234
100
AcDbEntity
  8
0
  6
________________
 62
     7
370
     9
100
AcDbLine
 10
-215.0222627084852
 20
-36.79620316855396
 30
0.0
 11
-214.9463002863157
 21
-37.0347068937321
 31
0.0
  0
LWPOLYLINE
  5
271
330
234
100
AcDbEntity
  8
0
  6
________________
 62
     7
370
     9
100
AcDbPolyline
 90
        6
 70
     0
 43
0.0
 10
-215.0222627083705
 20
-35.60379824140384
 10
-215.0059623460301
 20
-35.72198982577004
 10
-214.9656120724013
 20
-35.82811573936389
 10
-214.9019936207688
 20
-35.93645988494997
 10
-214.9019936207688
 20
-35.93645988494997
 42
0.0523229768423449
 10
-214.6667881279049
 20
-36.2000000026629
  0
LINE
  5
272
330
234
100
AcDbEntity
  8
0
  6
________________
 62
     7
370
     9
100
AcDbLine
 10
-213.6999999991667
 20
-37.9500000005181
 30
0.0
 11
-213.699999999153
 21
-37.70000000271682
 31
0.0
  0
LINE
  5
273
330
234
100
AcDbEntity
  8
0
  6
________________
 62
     7
370
     9
100
AcDbLine
 10
-213.6999999989884
 20
-34.70000000271561
 30
0.0
 11
-213.6999999989747
 21
-34.45000000051391
 31
0.0
  0
LINE
  5
274
330
234
100
AcDbEntity
  8
0
  6
________________
 62
     7
370
     9
100
AcDbLine
 10
-214.7534772463876
 20
-37.59738530507467
 30
0.0
 11
-214.7534772463695
 21
-37.26779478141697
 31
0.0
  0
LINE
  5
275
330
234
100
AcDbEntity
  8
0
  6
________________
 62
     7
370
     9
100
AcDbLine
 10
-214.7534772462524
 20
-35.13220522389187
 30
0.0
 11
-214.7534772462343
 21
-34.80261469584174
 31
0.0
  0
LINE
  5
276
330
234
100
AcDbEntity
  8
0
  6
________________
 62
     7
370
     9
100
AcDbLine
 10
-214.9462999914863
 20
-86.36529271867786
 30
0.0
 11
-215.0222626767731
 21
-86.60379824140519
 31
0.0
  0
LWPOLYLINE
  5
277
330
234
100
AcDbEntity
  8
0
  6
________________
 62
     7
370
     9
100
AcDbPolyline
 90
       19
 70
     0
 43
0.0
 10
-214.666788096307
 20
-87.200000002667
 10
-214.6736009293466
 20
-87.20632460015005
 10
-214.7114707998323
 20
-87.24241521568219
 10
-214.7476152594094
 20
-87.27855025788121
 10
-214.7820541855702
 20
-87.31484187648637
 10
-214.8145602639945
 20
-87.35114696523074
 10
-214.8455835754284
 20
-87.38812160118432
 10
-214.8744070325314
 20
-87.42507751700579
 10
-214.9010318465764
 20
-87.46213738558426
 10
-214.9252509009653
 20
-87.49914278651029
 10
-214.9459322632885
 20
-87.53420209482195
 10
-214.9642877789918
 20
-87.56917597018422
 10
-214.9802990967393
 20
-87.60417343600331
 10
-214.9938262774453
 20
-87.63905078974386
 10
-215.0049887661116
 20
-87.67445731357367
 10
-215.0134350578331
 20
-87.70970209652937
 10
-215.0191189554946
 20
-87.7449055724703
 10
-215.0219409655923
 20
-87.77990451804172
 10
-215.0222626768867
 20
-87.79620316855531
  0
LINE
  5
278
330
234
100
AcDbEntity
  8
0
  6
________________
 62
     7
370
     9
100
AcDbLine
 10
-215.0222626768867
 20
-87.79620316855531
 30
0.0
 11
-214.946300254717
 21
-88.03470689373339
 31
0.0
  0
LWPOLYLINE
  5
279
330
234
100
AcDbEntity
  8
0
  6
________________
 62
     7
370
     9
100
AcDbPolyline
 90
        6
 70
     0
 43
0.0
 10
-215.0222626767731
 20
-86.60379824140519
 10
-215.0059623144326
 20
-86.72198982577136
 10
-214.9656120408037
 20
-86.82811573936517
 10
-214.9019935891711
 20
-86.9364598849512
 10
-214.9019935891711
 20
-86.9364598849512
 42
0.0523229768423814
 10
-214.666788096307
 20
-87.20000000266393
  0
LINE
  5
27A
330
234
100
AcDbEntity
  8
0
  6
________________
 62
     7
370
     9
100
AcDbLine
 10
-213.6999999675672
 20
-88.95000000053845
 30
0.0
 11
-213.6999999675537
 21
-88.70000000271693
 31
0.0
  0
LINE
  5
27B
330
234
100
AcDbEntity
  8
0
  6
________________
 62
     7
370
     9
100
AcDbLine
 10
-213.6999999673918
 20
-85.70000000271574
 30
0.0
 11
-213.6999999673784
 21
-85.45000000053427
 31
0.0
  0
LINE
  5
27C
330
234
100
AcDbEntity
  8
0
  6
________________
 62
     7
370
     9
100
AcDbLine
 10
-214.7534772147884
 20
-88.59738533102694
 30
0.0
 11
-214.7534772147706
 21
-88.26779478141806
 31
0.0
  0
LINE
  5
27D
330
234
100
AcDbEntity
  8
0
  6
________________
 62
     7
370
     9
100
AcDbLine
 10
-214.7534772146554
 20
-86.13220522389298
 30
0.0
 11
-214.7534772146376
 21
-85.80261466993213
 31
0.0
  0
LINE
  5
27E
330
234
100
AcDbEntity
  8
0
  6
________________
 62
     7
370
     9
100
AcDbLine
 10
-228.5000000022033
 20
-93.20000000191378
 30
0.0
 11
-229.5500000022108
 21
-93.20000000185617
 31
0.0
  0
LINE
  5
27F
330
234
100
AcDbEntity
  8
0
  6
________________
 62
     7
370
     9
100
AcDbLine
 10
-228.5000000022033
 20
-93.20000000191378
 30
0.0
 11
-228.5000000030606
 21
-108.8250628163911
 31
0.0
  0
LINE
  5
280
330
234
100
AcDbEntity
  8
0
  6
________________
 62
   253
370
     9
100
AcDbLine
 10
-229.5500000030598
 20
-108.8250628163335
 30
0.0
 11
-228.5000000030606
 21
-108.8250628163911
 31
0.0
  0
LINE
  5
281
330
234
100
AcDbEntity
  8
0
  6
________________
 62
     7
370
     9
100
AcDbLine
 10
-228.5000000031157
 20
-109.8250628163901
 30
0.0
 11
-228.5000000030608
 21
-108.8250628163911
 31
0.0
  0
LINE
  5
282
330
234
100
AcDbEntity
  8
0
  6
________________
 62
   253
370
     9
100
AcDbLine
 10
-229.5500000036057
 20
-118.7749371874064
 30
0.0
 11
-228.5000000036065
 21
-118.774937187464
 31
0.0
  0
LINE
  5
283
330
234
100
AcDbEntity
  8
0
  6
________________
 62
     7
370
     9
100
AcDbLine
 10
-228.5000000036067
 20
-118.774937187464
 30
0.0
 11
-228.5000000035519
 21
-117.7749371874629
 31
0.0
  0
LINE
  5
284
330
234
100
AcDbEntity
  8
0
  6
________________
 62
     7
370
     9
100
AcDbLine
 10
-228.5000000036065
 20
-118.774937187464
 30
0.0
 11
-228.5000000036901
 21
-120.300000001932
 31
0.0
  0
LINE
  5
285
330
234
100
AcDbEntity
  8
0
  6
________________
 62
   253
370
     9
100
AcDbLine
 10
-229.5500000036894
 20
-120.3000000018744
 30
0.0
 11
-228.5000000036901
 21
-120.300000001932
 31
0.0
  0
LINE
  5
286
330
234
100
AcDbEntity
  8
0
  6
________________
 62
   253
370
     9
100
AcDbLine
 10
-229.5499999963099
 20
14.19999999821592
 30
0.0
 11
-228.4999999963106
 21
14.1999999981583
 31
0.0
  0
LINE
  5
287
330
234
100
AcDbEntity
  8
0
  6
________________
 62
     7
370
     9
100
AcDbLine
 10
-229.5499999960468
 20
19.69999999822571
 30
0.0
 11
-228.4999999960103
 21
19.69999999816811
 31
0.0
  0
LINE
  5
288
330
234
100
AcDbEntity
  8
0
  6
________________
 62
     7
370
     9
100
AcDbLine
 10
-228.4999999960103
 20
19.69999999816442
 30
0.0
 11
-228.4999999963121
 21
14.1999999981583
 31
0.0
  0
LINE
  5
289
330
234
100
AcDbEntity
  8
0
  6
________________
 62
     7
370
     9
100
AcDbLine
 10
-229.549999998746
 20
-30.20000000181389
 30
0.0
 11
-228.4999999987467
 21
-30.2000000018715
 31
0.0
  0
LINE
  5
28A
330
234
100
AcDbEntity
  8
0
  6
________________
 62
     7
370
     9
100
AcDbLine
 10
-228.4999999963106
 20
14.1999999981583
 30
0.0
 11
-228.4999999987467
 21
-30.2000000018715
 31
0.0
  0
LINE
  5
28B
330
234
100
AcDbEntity
  8
0
  6
________________
 62
     7
370
     9
100
AcDbLine
 10
-228.4999999994051
 20
-42.20000000187955
 30
0.0
 11
-229.5499999994043
 21
-42.20000000182195
 31
0.0
  0
LINE
  5
28C
330
234
100
AcDbEntity
  8
0
  6
________________
 62
     7
370
     9
100
AcDbLine
 10
-229.5500000015523
 20
-81.2000000018481
 30
0.0
 11
-228.5000000015449
 21
-81.20000000190572
 31
0.0
  0
LINE
  5
28D
330
234
100
AcDbEntity
  8
0
  6
________________
 62
     7
370
     9
100
AcDbLine
 10
-228.4999999994051
 20
-42.20000000187955
 30
0.0
 11
-228.5000000015449
 21
-81.20000000190572
 31
0.0
  0
LINE
  5
28E
330
234
100
AcDbEntity
  8
0
  6
________________
 62
     7
370
     9
100
AcDbLine
 10
-228.5000000039934
 20
-125.8000000019296
 30
0.0
 11
-229.5500000039994
 21
-125.800000001872
 31
0.0
  0
LINE
  5
28F
330
234
100
AcDbEntity
  8
0
  6
________________
 62
     7
370
     9
100
AcDbLine
 10
-228.5000000036916
 20
-120.300000001932
 30
0.0
 11
-228.5000000039934
 21
-125.8000000019259
 31
0.0
  0
LINE
  5
290
330
234
100
AcDbEntity
  8
0
  6
________________
 62
     7
370
     9
100
AcDbLine
 10
-228.4999999987475
 20
-30.20000000186816
 30
0.0
 11
-228.4999999994059
 21
-42.20000000187621
 31
0.0
  0
LINE
  5
291
330
234
100
AcDbEntity
  8
0
  6
________________
 62
     7
370
     9
100
AcDbLine
 10
-228.5000000015457
 20
-81.20000000190238
 30
0.0
 11
-228.5000000022041
 21
-93.20000000191045
 31
0.0
  0
LINE
  5
292
330
234
100
AcDbEntity
  8
0
  6
________________
 62
     7
370
     9
100
AcDbLine
 10
-232.0536999778608
 20
-88.03470728566408
 30
0.0
 11
-231.9777372925736
 21
-87.79620176293768
 31
0.0
  0
LWPOLYLINE
  5
293
330
234
100
AcDbEntity
  8
0
  6
________________
 62
     7
370
     9
100
AcDbPolyline
 90
       19
 70
     0
 43
0.0
 10
-232.3332118730387
 20
-87.20000000167724
 10
-232.3263990399991
 20
-87.19367540419418
 10
-232.2885291695134
 20
-87.157584788662
 10
-232.2523847099362
 20
-87.12144974646293
 10
-232.2179457837754
 20
-87.08515812785772
 10
-232.1854397053511
 20
-87.04885303911328
 10
-232.1544163939172
 20
-87.01187840315964
 10
-232.1255929368142
 20
-86.9749224873381
 10
-232.0989681227692
 20
-86.93786261875957
 10
-232.0747490683804
 20
-86.90085721783345
 10
-232.0540677060571
 20
-86.8657979095217
 10
-232.0357121903538
 20
-86.83082403415933
 10
-232.0197008726062
 20
-86.79582656834017
 10
-232.0061736919003
 20
-86.7609492145995
 10
-231.995011203234
 20
-86.72554269076961
 10
-231.9865649115125
 20
-86.6902979078138
 10
-231.980881013851
 20
-86.65509443187274
 10
-231.9780590037533
 20
-86.6200954863012
 10
-231.9777372924588
 20
-86.60379683578756
  0
LINE
  5
294
330
234
100
AcDbEntity
  8
0
  6
________________
 62
     7
370
     9
100
AcDbLine
 10
-231.9777372924588
 20
-86.60379683578756
 30
0.0
 11
-232.0536997146286
 21
-86.36529311060858
 31
0.0
  0
LWPOLYLINE
  5
295
330
234
100
AcDbEntity
  8
0
  6
________________
 62
     7
370
     9
100
AcDbPolyline
 90
        6
 70
     0
 43
0.0
 10
-231.9777372925736
 20
-87.79620176293768
 10
-231.9940376549139
 20
-87.6780101785719
 10
-232.0343879285425
 20
-87.57188426497838
 10
-232.098006380175
 20
-87.4635401193926
 10
-232.098006380175
 20
-87.4635401193926
 42
0.0523229768422647
 10
-232.3332118730387
 20
-87.20000000168032
  0
LINE
  5
296
330
234
100
AcDbEntity
  8
0
  6
________________
 62
     7
370
     9
100
AcDbLine
 10
-233.3000000017775
 20
-85.44999999722926
 30
0.0
 11
-233.3000000017912
 21
-85.70000000162386
 31
0.0
  0
LINE
  5
297
330
234
100
AcDbEntity
  8
0
  6
________________
 62
     7
370
     9
100
AcDbLine
 10
-233.3000000019558
 20
-88.70000000162506
 30
0.0
 11
-233.3000000019696
 21
-88.94999999723343
 31
0.0
  0
LINE
  5
298
330
234
100
AcDbEntity
  8
0
  6
________________
 62
     7
370
     9
100
AcDbLine
 10
-232.2465227545581
 20
-85.80261469267305
 30
0.0
 11
-232.2465227545762
 21
-86.13220522292227
 31
0.0
  0
LINE
  5
299
330
234
100
AcDbEntity
  8
0
  6
________________
 62
     7
370
     9
100
AcDbLine
 10
-232.2465227546933
 20
-88.26779478045023
 30
0.0
 11
-232.2465227547114
 21
-88.59738530190526
 31
0.0
  0
LINE
  5
29A
330
234
100
AcDbEntity
  8
0
  6
________________
 62
     7
370
     9
100
AcDbLine
 10
-232.0536999750626
 20
-37.03470728564369
 30
0.0
 11
-231.9777372897754
 21
-36.7962017629173
 31
0.0
  0
LWPOLYLINE
  5
29B
330
234
100
AcDbEntity
  8
0
  6
________________
 62
     7
370
     9
100
AcDbPolyline
 90
       19
 70
     0
 43
0.0
 10
-232.3332118702406
 20
-36.20000000165686
 10
-232.326399037201
 20
-36.1936754041738
 10
-232.2885291667152
 20
-36.15758478864162
 10
-232.252384707138
 20
-36.12144974644254
 10
-232.2179457809773
 20
-36.08515812783734
 10
-232.185439702553
 20
-36.0488530390929
 10
-232.154416391119
 20
-36.01187840313926
 10
-232.1255929340161
 20
-35.97492248731772
 10
-232.098968119971
 20
-35.93786261873918
 10
-232.0747490655822
 20
-35.90085721781305
 10
-232.0540677032589
 20
-35.86579790950131
 10
-232.0357121875556
 20
-35.83082403413895
 10
-232.019700869808
 20
-35.79582656831978
 10
-232.0061736891022
 20
-35.76094921457913
 10
-231.9950112004358
 20
-35.72554269074922
 10
-231.9865649087143
 20
-35.69029790779341
 10
-231.9808810110528
 20
-35.65509443185235
 10
-231.9780590009551
 20
-35.62009548628082
 10
-231.9777372896607
 20
-35.60379683576717
  0
LINE
  5
29C
330
234
100
AcDbEntity
  8
0
  6
________________
 62
     7
370
     9
100
AcDbLine
 10
-231.9777372896607
 20
-35.60379683576717
 30
0.0
 11
-232.0536997118304
 21
-35.36529311058818
 31
0.0
  0
LWPOLYLINE
  5
29D
330
234
100
AcDbEntity
  8
0
  6
________________
 62
     7
370
     9
100
AcDbPolyline
 90
        6
 70
     0
 43
0.0
 10
-231.9777372897754
 20
-36.7962017629173
 10
-231.9940376521157
 20
-36.6780101785515
 10
-232.0343879257443
 20
-36.57188426495799
 10
-232.0980063773768
 20
-36.46354011937222
 10
-232.0980063773768
 20
-36.46354011937222
 42
0.0523229768423481
 10
-232.3332118702406
 20
-36.20000000165993
  0
LINE
  5
29E
330
234
100
AcDbEntity
  8
0
  6
________________
 62
     7
370
     9
100
AcDbLine
 10
-233.2999999989793
 20
-34.44999999720889
 30
0.0
 11
-233.2999999989931
 21
-34.70000000160348
 31
0.0
  0
LINE
  5
29F
330
234
100
AcDbEntity
  8
0
  6
________________
 62
     7
370
     9
100
AcDbLine
 10
-233.2999999991576
 20
-37.70000000160467
 30
0.0
 11
-233.2999999991713
 21
-37.94999999721308
 31
0.0
  0
LINE
  5
2A0
330
234
100
AcDbEntity
  8
0
  6
________________
 62
     7
370
     9
100
AcDbLine
 10
-232.2465227517599
 20
-34.80261469265267
 30
0.0
 11
-232.246522751778
 21
-35.13220522290187
 31
0.0
  0
LINE
  5
2A1
330
234
100
AcDbEntity
  8
0
  6
________________
 62
     7
370
     9
100
AcDbLine
 10
-232.2465227518952
 20
-37.26779478042983
 30
0.0
 11
-232.2465227519133
 21
-37.59738530188491
 31
0.0
  0
LINE
  5
2A2
330
234
100
AcDbEntity
  8
0
  6
________________
 62
   253
370
     9
100
AcDbLine
 10
-228.773518201415
 20
-117.7749371874456
 30
0.0
 11
-228.7735182009789
 21
-109.8250628163773
 31
0.0
  0
LINE
  5
2A3
330
234
100
AcDbEntity
  8
0
  6
________________
 62
   253
370
     9
100
AcDbLine
 10
-228.1119209730327
 20
-108.5269907551461
 30
0.0
 11
-228.1119209736113
 21
-119.07300924867
 31
0.0
  0
LINE
  5
2A4
330
234
100
AcDbEntity
  8
0
  6
________________
 62
     7
370
     9
100
AcDbLine
 10
-218.9987820287201
 20
-118.435756495958
 30
0.0
 11
-218.9987820282114
 21
-109.1642435088581
 31
0.0
  0
LINE
  5
2A5
330
234
100
AcDbEntity
  8
0
  6
________________
 62
   253
370
     9
100
AcDbLine
 10
-228.4999999973973
 20
-5.606247499838367
 30
0.0
 11
-218.4999999974004
 21
-5.606247500387198
 31
0.0
  0
LINE
  5
2A6
330
234
100
AcDbEntity
  8
0
  6
________________
 62
   253
370
     9
100
AcDbLine
 10
-228.4999999976543
 20
-10.2899959986365
 30
0.0
 11
-218.4999999976579
 21
-10.28999599918533
 31
0.0
  0
LINE
  5
2A7
330
234
100
AcDbEntity
  8
0
  6
________________
 62
   253
370
     9
100
AcDbLine
 10
-228.5000000009742
 20
-70.80000000186384
 30
0.0
 11
-218.5000000009779
 21
-70.80000000241269
 31
0.0
  0
CIRCLE
  5
2A8
330
234
100
AcDbEntity
  8
0
  6
________________
 62
     7
370
     9
100
AcDbCircle
 10
223.9999999990575
 20
-35.80000000209689
 30
0.0
 40
2.500000000000002
210
0.0
220
0.0
230
-1.0
  0
CIRCLE
  5
2A9
330
234
100
AcDbEntity
  8
0
  6
________________
 62
     7
370
     9
100
AcDbCircle
 10
224.0000000004292
 20
-60.80000000210688
 30
0.0
 40
2.500000000000002
210
0.0
220
0.0
230
-1.0
  0
LINE
  5
2AA
330
234
100
AcDbEntity
  8
0
  6
________________
 62
     7
370
     9
100
AcDbLine
 10
-228.5000000013034
 20
-76.80000000185957
 30
0.0
 11
-218.5000000013087
 21
-76.80000000240841
 31
0.0
  0
LINE
  5
2AB
330
234
100
AcDbEntity
  8
0
  6
________________
 62
   253
370
     9
100
AcDbLine
 10
-228.1119209662053
 20
16.4730092450317
 30
0.0
 11
-228.1119209664398
 21
12.19999999815181
 31
0.0
  0
LINE
  5
2AC
330
234
100
AcDbEntity
  8
0
  6
________________
 62
     7
370
     9
100
AcDbLine
 10
-218.9987820215836
 20
12.19999999765182
 30
0.0
 11
-218.9987820213841
 21
15.83575649131967
 31
0.0
  0
LINE
  5
2AD
330
234
100
AcDbEntity
  8
0
  6
________________
 62
     7
370
     9
100
AcDbLine
 10
-219.6400000033354
 20
-106.9000000023701
 30
0.0
 11
-225.6400000033354
 21
-106.9000000023704
 31
0.0
  0
LINE
  5
2AE
330
234
100
AcDbEntity
  8
0
  6
________________
 62
     7
370
     9
100
AcDbLine
 10
-225.6400000033347
 20
-120.7000000023759
 30
0.0
 11
-219.6400000033347
 21
-120.7000000023756
 31
0.0
  0
LINE
  5
2AF
330
234
100
AcDbEntity
  8
0
  6
________________
 62
     7
370
     9
100
AcDbLine
 10
-219.6400000033411
 20
18.0999999978077
 30
0.0
 11
-225.6400000033411
 21
18.0999999978077
 31
0.0
  0
ARC
  5
2B0
330
234
100
AcDbEntity
  8
0
  6
________________
 62
     7
370
     9
100
AcDbCircle
 10
-213.6999999990707
 20
-36.20000000271621
 30
0.0
 40
1.500000000000001
100
AcDbArc
 50
269.9999999968562
 51
89.99999999658081
  0
ARC
  5
2B1
330
234
100
AcDbEntity
  8
0
  6
________________
 62
     7
370
     9
100
AcDbCircle
 10
-213.6999999990707
 20
-36.20000000271621
 30
0.0
 40
1.49999999999999
100
AcDbArc
 50
213.8123029827735
 51
269.9999999968564
  0
ARC
  5
2B2
330
234
100
AcDbEntity
  8
0
  6
________________
 62
     7
370
     9
100
AcDbCircle
 10
-213.6999999990707
 20
-36.20000000271621
 30
0.0
 40
1.499999999999994
100
AcDbArc
 50
89.99999999685635
 51
146.1876668950157
  0
LINE
  5
2B3
330
234
100
AcDbEntity
  8
0
  6
________________
 62
     7
370
     9
100
AcDbLine
 10
-215.0222627086488
 20
-35.60383454753775
 30
0.0
 11
-215.0222627087143
 21
-36.79616969956592
 31
0.0
  0
ARC
  5
2B4
330
234
100
AcDbEntity
  8
0
  6
________________
 62
     7
370
     9
100
AcDbCircle
 10
-213.6999999674728
 20
-87.20000000271634
 30
0.0
 40
1.500000000000001
100
AcDbArc
 50
269.999999996909
 51
89.99999999663339
  0
ARC
  5
2B5
330
234
100
AcDbEntity
  8
0
  6
________________
 62
     7
370
     9
100
AcDbCircle
 10
-213.6999999674728
 20
-87.20000000271634
 30
0.0
 40
1.500000000000005
100
AcDbArc
 50
213.8123029828262
 51
269.999999996909
  0
ARC
  5
2B6
330
234
100
AcDbEntity
  8
0
  6
________________
 62
     7
370
     9
100
AcDbCircle
 10
-213.6999999674728
 20
-87.20000000271634
 30
0.0
 40
1.500000000000001
100
AcDbArc
 50
89.99999999690903
 51
146.1876668950686
  0
LINE
  5
2B7
330
234
100
AcDbEntity
  8
0
  6
________________
 62
     7
370
     9
100
AcDbLine
 10
-215.0222626770515
 20
-86.60383454753908
 30
0.0
 11
-215.0222626771158
 21
-87.79616969956726
 31
0.0
  0
LINE
  5
2B8
330
234
100
AcDbEntity
  8
0
  6
________________
 62
     7
370
     9
100
AcDbLine
 10
-229.5500000031229
 20
-109.8250628163331
 30
0.0
 11
-228.5000000031157
 21
-109.8250628163907
 31
0.0
  0
LINE
  5
2B9
330
234
100
AcDbEntity
  8
0
  6
________________
 62
     7
370
     9
100
AcDbLine
 10
-228.5000000035519
 20
-117.7749371874622
 30
0.0
 11
-229.5500000035591
 21
-117.7749371874046
 31
0.0
  0
ARC
  5
2BA
330
234
100
AcDbEntity
  8
0
  6
________________
 62
     7
370
     9
100
AcDbCircle
 10
-233.3000000018735
 20
-87.20000000162446
 30
0.0
 40
1.500000000000001
100
AcDbArc
 50
89.99999999685635
 51
269.9999999965808
  0
ARC
  5
2BB
330
234
100
AcDbEntity
  8
0
  6
________________
 62
     7
370
     9
100
AcDbCircle
 10
-233.3000000018735
 20
-87.20000000162446
 30
0.0
 40
1.50000000000001
100
AcDbArc
 50
33.81230298277337
 51
89.99999999685633
  0
ARC
  5
2BC
330
234
100
AcDbEntity
  8
0
  6
________________
 62
     7
370
     9
100
AcDbCircle
 10
-233.3000000018735
 20
-87.20000000162446
 30
0.0
 40
1.500000000000001
100
AcDbArc
 50
269.9999999968564
 51
326.1876668950158
  0
LINE
  5
2BD
330
234
100
AcDbEntity
  8
0
  6
________________
 62
     7
370
     9
100
AcDbLine
 10
-231.9777372922952
 20
-87.79616545680378
 30
0.0
 11
-231.9777372922298
 21
-86.60383030477561
 31
0.0
  0
ARC
  5
2BE
330
234
100
AcDbEntity
  8
0
  6
________________
 62
     7
370
     9
100
AcDbCircle
 10
-233.2999999990753
 20
-36.20000000160407
 30
0.0
 40
1.500000000000001
100
AcDbArc
 50
89.99999999685635
 51
269.9999999965808
  0
ARC
  5
2BF
330
234
100
AcDbEntity
  8
0
  6
________________
 62
     7
370
     9
100
AcDbCircle
 10
-233.2999999990753
 20
-36.20000000160407
 30
0.0
 40
1.500000000000014
100
AcDbArc
 50
33.81230298277342
 51
89.99999999685635
  0
ARC
  5
2C0
330
234
100
AcDbEntity
  8
0
  6
________________
 62
     7
370
     9
100
AcDbCircle
 10
-233.2999999990753
 20
-36.20000000160407
 30
0.0
 40
1.500000000000001
100
AcDbArc
 50
269.9999999968564
 51
326.1876668950158
  0
LINE
  5
2C1
330
234
100
AcDbEntity
  8
0
  6
________________
 62
     7
370
     9
100
AcDbLine
 10
-231.977737289497
 20
-36.79616545678339
 30
0.0
 11
-231.9777372894316
 21
-35.60383030475522
 31
0.0
  0
ARC
  5
2C2
330
234
100
AcDbEntity
  8
0
  6
________________
 62
     7
370
     9
100
AcDbCircle
 10
228.0421644992338
 20
-107.5294267048851
 30
0.0
 40
0.9999999999999959
210
0.0
220
0.0
230
-1.0
100
AcDbArc
 50
274.0000000031375
 51
297.2475244780041
  0
ARC
  5
2C3
330
234
100
AcDbEntity
  8
0
  6
________________
 62
     7
370
     9
100
AcDbCircle
 10
228.0421644999219
 20
-120.0705732989387
 30
0.0
 40
0.9999999999999996
210
0.0
220
0.0
230
-1.0
100
AcDbArc
 50
62.75247552828298
 51
86.00000000314962
  0
LINE
  5
2C4
330
234
100
AcDbEntity
  8
0
  6
________________
 62
     7
370
     9
100
AcDbLine
 10
-228.1119209736113
 20
-119.0730092486721
 30
0.0
 11
-225.6400000033348
 21
-118.9001556959806
 31
0.0
  0
LINE
  5
2C5
330
234
100
AcDbEntity
  8
0
  6
________________
 62
     7
370
     9
100
AcDbLine
 10
-219.6400000033347
 20
-118.4805948246502
 30
0.0
 11
-218.9987820287201
 21
-118.4357564959598
 31
0.0
  0
LINE
  5
2C6
330
234
100
AcDbEntity
  8
0
  6
________________
 62
     7
370
     9
100
AcDbLine
 10
-218.9987820282114
 20
-109.1642435088563
 30
0.0
 11
-219.6400000033352
 21
-109.1194051800596
 31
0.0
  0
LINE
  5
2C7
330
234
100
AcDbEntity
  8
0
  6
________________
 62
     7
370
     9
100
AcDbLine
 10
-225.6400000033352
 20
-108.6998443080676
 30
0.0
 11
-228.1119209730327
 21
-108.526990755144
 31
0.0
  0
LINE
  5
2C8
330
234
100
AcDbEntity
  8
0
  6
________________
 62
     7
370
     9
100
AcDbLine
 10
-218.9987820287201
 20
-118.4357564959598
 30
0.0
 11
-218.5000000035608
 21
-117.9008782591149
 31
0.0
  0
LINE
  5
2C9
330
234
100
AcDbEntity
  8
0
  6
________________
 62
     7
370
     9
100
AcDbLine
 10
-218.5000000031108
 20
-109.6991217457559
 30
0.0
 11
-218.9987820282114
 21
-109.1642435088562
 31
0.0
  0
LINE
  5
2CA
330
234
100
AcDbEntity
  8
0
  6
________________
 62
     7
370
     9
100
AcDbLine
 10
-218.4999999964251
 20
12.19999999762485
 30
0.0
 11
-228.4999999964559
 21
12.1999999981735
 31
0.0
  0
ARC
  5
2CB
330
234
100
AcDbEntity
  8
0
  6
________________
 62
     7
370
     9
100
AcDbCircle
 10
228.0421644924065
 20
17.47057329529274
 30
0.0
 40
1.000000000000001
210
0.0
220
0.0
230
-1.0
100
AcDbArc
 50
274.0000000031373
 51
297.2475244780038
  0
LINE
  5
2CC
330
234
100
AcDbEntity
  8
0
  6
________________
 62
     7
370
     9
100
AcDbLine
 10
-218.9987820213841
 20
15.83575649132153
 30
0.0
 11
-219.640000003341
 21
15.88059482059601
 31
0.0
  0
LINE
  5
2CD
330
234
100
AcDbEntity
  8
0
  6
________________
 62
     7
370
     9
100
AcDbLine
 10
-225.6400000033411
 20
16.30015569258805
 30
0.0
 11
-228.1119209662053
 21
16.47300924503382
 31
0.0
  0
LINE
  5
2CE
330
234
100
AcDbEntity
  8
0
  6
________________
 62
     7
370
     9
100
AcDbLine
 10
-218.4999999962835
 20
15.30087825442188
 30
0.0
 11
-218.9987820213841
 21
15.83575649132153
 31
0.0
  0
ENDBLK
  5
2D2
330
234
100
AcDbEntity
  8
0
100
AcDbBlockEnd
  0
BLOCK
  5
3B5
330
2D0
100
AcDbEntity
  8
0
100
AcDbBlockBegin
  2
D_FRAME_VIEW@424
 70
     0
 10
0.0
 20
0.0
 30
0.0
  3
D_FRAME_VIEW@424
  1

  0
ARC
  5
2D3
330
2D0
100
AcDbEntity
  8
0
  6
________________
 62
   253
370
     9
100
AcDbCircle
 10
-17.24999999998517
 20
107.4999999975786
 30
0.0
 40
2.000000000000002
100
AcDbArc
 50
359.9999999999844
 51
269.9999999999843
  0
ARC
  5
2D4
330
2D0
100
AcDbEntity
  8
0
  6
________________
 62
   253
370
     9
100
AcDbCircle
 10
-37.24999999999356
 20
107.499999997584
 30
0.0
 40
2.000000000000002
100
AcDbArc
 50
359.9999999999844
 51
269.9999999999849
  0
ARC
  5
2D5
330
2D0
100
AcDbEntity
  8
0
  6
________________
 62
   253
370
     9
100
AcDbCircle
 10
-44.7499999999964
 20
107.4999999975942
 30
0.0
 40
3.000000000000003
100
AcDbArc
 50
179.9999999999845
 51
89.99999999998465
  0
ARC
  5
2D6
330
2D0
100
AcDbEntity
  8
0
  6
________________
 62
   253
370
     9
100
AcDbCircle
 10
-9.749999999982405
 20
107.4999999975847
 30
0.0
 40
3.000000000000003
100
AcDbArc
 50
179.9999999999845
 51
89.99999999998454
  0
LINE
  5
2D7
330
2D0
100
AcDbEntity
  8
0
  6
________________
 62
   253
370
     9
100
AcDbLine
 10
29.74999999984777
 20
100.9500000041503
 30
0.0
 11
29.74999999984806
 21
102.0000000039907
 31
0.0
  0
LINE
  5
2D8
330
2D0
100
AcDbEntity
  8
0
  6
________________
 62
     7
370
     9
100
AcDbLine
 10
29.74999999984806
 20
102.0000000036889
 30
0.0
 11
35.24999999985417
 21
102.0000000036874
 31
0.0
  0
LINE
  5
2D9
330
2D0
100
AcDbEntity
  8
0
  6
________________
 62
     7
370
     9
100
AcDbLine
 10
35.24999999985387
 20
102.0000000036874
 30
0.0
 11
35.24999999985359
 21
100.9499999958969
 31
0.0
  0
LINE
  5
2DA
330
2D0
100
AcDbEntity
  8
0
  6
________________
 62
   253
370
     9
100
AcDbLine
 10
14.99999999984886
 20
102.0000000039947
 30
0.0
 11
14.99999999984857
 21
100.9500000041543
 31
0.0
  0
LINE
  5
2DB
330
2D0
100
AcDbEntity
  8
0
  6
________________
 62
     7
370
     9
100
AcDbLine
 10
29.74999999984806
 20
102.0000000039907
 30
0.0
 11
14.99999999984886
 21
102.0000000039947
 31
0.0
  0
LINE
  5
2DC
330
2D0
100
AcDbEntity
  8
0
  6
________________
 62
     7
370
     9
100
AcDbLine
 10
9.499999999854985
 20
100.9499999959039
 30
0.0
 11
9.49999999985527
 21
102.0000000036944
 31
0.0
  0
LINE
  5
2DD
330
2D0
100
AcDbEntity
  8
0
  6
________________
 62
     7
370
     9
100
AcDbLine
 10
9.499999999854971
 20
102.0000000036944
 30
0.0
 11
14.99999999984886
 21
102.0000000036929
 31
0.0
  0
LINE
  5
2DE
330
2D0
100
AcDbEntity
  8
0
  6
________________
 62
   253
370
     9
100
AcDbLine
 10
-97.75000000001184
 20
101.9999999974548
 30
0.0
 11
-97.75000000001212
 21
100.9499999976062
 31
0.0
  0
LINE
  5
2DF
330
2D0
100
AcDbEntity
  8
0
  6
________________
 62
     7
370
     9
100
AcDbLine
 10
-78.75000000001316
 20
100.9499999959276
 30
0.0
 11
-78.75000000001286
 21
101.9999999974497
 31
0.0
  0
LINE
  5
2E0
330
2D0
100
AcDbEntity
  8
0
  6
________________
 62
     7
370
     9
100
AcDbLine
 10
-78.75000000001286
 20
101.9999999974497
 30
0.0
 11
-97.75000000001184
 21
101.9999999974548
 31
0.0
  0
LINE
  5
2E1
330
2D0
100
AcDbEntity
  8
0
  6
________________
 62
     7
370
     9
100
AcDbLine
 10
-103.2500000000057
 20
100.9499999959342
 30
0.0
 11
-103.2500000000054
 21
101.9999999971545
 31
0.0
  0
LINE
  5
2E2
330
2D0
100
AcDbEntity
  8
0
  6
________________
 62
     7
370
     9
100
AcDbLine
 10
-103.2500000000057
 20
101.9999999971545
 30
0.0
 11
-97.75000000001184
 21
101.999999997153
 31
0.0
  0
LINE
  5
2E3
330
2D0
100
AcDbEntity
  8
0
  6
________________
 62
     7
370
     9
100
AcDbLine
 10
-61.75000000000769
 20
101.9999999971433
 30
0.0
 11
-61.75000000000797
 21
100.9499999959231
 31
0.0
  0
LINE
  5
2E4
330
2D0
100
AcDbEntity
  8
0
  6
________________
 62
     7
370
     9
100
AcDbLine
 10
-66.7500000000135
 20
101.9999999974452
 30
0.0
 11
-66.75000000001378
 21
100.9499999959244
 31
0.0
  0
LINE
  5
2E5
330
2D0
100
AcDbEntity
  8
0
  6
________________
 62
     7
370
     9
100
AcDbLine
 10
-66.75000000001347
 20
101.9999999971447
 30
0.0
 11
-61.75000000000738
 21
101.9999999971433
 31
0.0
  0
LINE
  5
2E6
330
2D0
100
AcDbEntity
  8
0
  6
________________
 62
     7
370
     9
100
AcDbLine
 10
-66.7500000000102
 20
102.0000099972819
 30
0.0
 11
-78.75000000000952
 21
102.0000099972851
 31
0.0
  0
LINE
  5
2E7
330
2D0
100
AcDbEntity
  8
0
  6
________________
 62
   253
370
     9
100
AcDbLine
 10
-56.25000000000049
 20
101.9999999967715
 30
0.0
 11
-56.25000000000104
 21
99.99999999677152
 31
0.0
  0
LINE
  5
2E8
330
2D0
100
AcDbEntity
  8
0
  6
________________
 62
     7
370
     9
100
AcDbLine
 10
-61.25000000000482
 20
101.9999999970746
 30
0.0
 11
-61.75000000000662
 21
101.9999999970748
 31
0.0
  0
LINE
  5
2E9
330
2D0
100
AcDbEntity
  8
0
  6
________________
 62
   253
370
     9
100
AcDbLine
 10
5.260004003198787
 20
99.99999999675495
 30
0.0
 11
5.260004003199328
 21
101.9999999967549
 31
0.0
  0
LINE
  5
2EA
330
2D0
100
AcDbEntity
  8
0
  6
________________
 62
     7
370
     9
100
AcDbLine
 10
-71.91603416158415
 20
98.4466178550274
 30
0.0
 11
-72.15456843025258
 21
98.52248964301717
 31
0.0
  0
LWPOLYLINE
  5
2EB
330
2D0
100
AcDbEntity
  8
0
  6
________________
 62
     7
370
     9
100
AcDbPolyline
 90
       19
 70
     0
 43
0.0
 10
-72.75063485021279
 20
98.16678800555489
 10
-72.7569620421247
 20
98.17359842917091
 10
-72.79315663048648
 20
98.21154627883392
 10
-72.82950341334963
 20
98.24786531727923
 10
-72.86587894107679
 20
98.28234055819618
 10
-72.90253509094896
 20
98.31510663836819
 10
-72.93918809284801
 20
98.34580591958627
 10
-72.9760907327967
 20
98.3745453128374
 10
-73.01295606299631
 20
98.40099682908337
 10
-73.04987605630136
 20
98.42513685321153
 10
-73.08503274501462
 20
98.44585472659568
 10
-73.12021108627033
 20
98.46428791224324
 10
-73.15528537419384
 20
98.48029607182166
 10
-73.19050482400118
 20
98.49390284125865
 10
-73.22558279801335
 20
98.50490818250356
 10
-73.26076713262265
 20
98.5133005268478
 10
-73.29576871304678
 20
98.51892267805567
 10
-73.33067459501568
 20
98.52171997358842
 10
-73.34698326050128
 20
98.52203547343119
  0
LINE
  5
2EC
330
2D0
100
AcDbEntity
  8
0
  6
________________
 62
     7
370
     9
100
AcDbLine
 10
-73.34698326050128
 20
98.52203547343119
 30
0.0
 11
-73.58544821905309
 21
98.4459821667803
 31
0.0
  0
LWPOLYLINE
  5
2ED
330
2D0
100
AcDbEntity
  8
0
  6
________________
 62
     7
370
     9
100
AcDbPolyline
 90
       19
 70
     0
 43
0.0
 10
-72.15456843025258
 20
98.52248964301717
 10
-72.17086564835049
 20
98.52216172442365
 10
-72.20455994563838
 20
98.51948321658257
 10
-72.23868453138081
 20
98.5141021779161
 10
-72.27311511304214
 20
98.50604637316412
 10
-72.30810510440932
 20
98.49525089861297
 10
-72.34336982119814
 20
98.48180241767741
 10
-72.37916793998481
 20
98.46560572759779
 10
-72.41520939075326
 20
98.44680005624872
 10
-72.45159053197999
 20
98.42536472964827
 10
-72.48727401143451
 20
98.40203242834718
 10
-72.5232468295872
 20
98.3762806219571
 10
-72.55938592840218
 20
98.34823685306715
 10
-72.59594449578682
 20
98.31773408030305
 10
-72.63263938916778
 20
98.28504227958092
 10
-72.66972683017569
 20
98.24997169201879
 10
-72.70691965735692
 20
98.2128368331292
 10
-72.74431284807227
 20
98.1736032470265
 10
-72.75063485020792
 20
98.16678800555489
  0
LINE
  5
2EE
330
2D0
100
AcDbEntity
  8
0
  6
________________
 62
     7
370
     9
100
AcDbLine
 10
-71.25026672643884
 20
97.20057127036748
 30
0.0
 11
-71.00000013563005
 21
97.20066659251155
 31
0.0
  0
LINE
  5
2EF
330
2D0
100
AcDbEntity
  8
0
  6
________________
 62
     7
370
     9
100
AcDbLine
 10
-74.49999988176098
 20
97.19933350414762
 30
0.0
 11
-74.25026650883366
 21
97.1994286231984
 31
0.0
  0
LINE
  5
2F0
330
2D0
100
AcDbEntity
  8
0
  6
________________
 62
     7
370
     9
100
AcDbLine
 10
-74.14778642474941
 20
98.2529449795665
 30
0.0
 11
-73.81846257001769
 21
98.25307041323236
 31
0.0
  0
LINE
  5
2F1
330
2D0
100
AcDbEntity
  8
0
  6
________________
 62
     7
370
     9
100
AcDbLine
 10
-71.68287316710467
 20
98.25388382168656
 30
0.0
 11
-71.35301609450437
 21
98.25400945844572
 31
0.0
  0
LINE
  5
2F2
330
2D0
100
AcDbEntity
  8
0
  6
________________
 62
     7
370
     9
100
AcDbLine
 10
-73.58607819785072
 20
115.5542884698926
 30
0.0
 11
-73.34762642058739
 21
115.4781578225139
 31
0.0
  0
LWPOLYLINE
  5
2F3
330
2D0
100
AcDbEntity
  8
0
  6
________________
 62
     7
370
     9
100
AcDbPolyline
 90
       19
 70
     0
 43
0.0
 10
-72.7511742746447
 20
115.8332122826168
 10
-72.74485447846358
 20
115.8263949955043
 10
-72.70870109985417
 20
115.7884078827403
 10
-72.67239375892838
 20
115.7520494150432
 10
-72.63605567190561
 20
115.7175347125885
 10
-72.59943510778743
 20
115.6847288652858
 10
-72.56281544834584
 20
115.6539898191361
 10
-72.52594402374773
 20
115.6252103888426
 10
-72.48910742562487
 20
115.5987188747023
 10
-72.45221365554521
 20
115.574538791987
 10
-72.417079474631
 20
115.5537827718832
 10
-72.38192116139689
 20
115.5353114146685
 10
-72.34686426932085
 20
115.5192651950334
 10
-72.311659608988
 20
115.5056202065669
 10
-72.27659360078802
 20
115.4945767983174
 10
-72.241418395918
 20
115.4861462699858
 10
-72.20642293836984
 20
115.4804861315194
 10
-72.17152011313436
 20
115.4776509509348
 10
-72.15521179962703
 20
115.4773177499199
  0
LINE
  5
2F4
330
2D0
100
AcDbEntity
  8
0
  6
________________
 62
     7
370
     9
100
AcDbLine
 10
-72.15521179962703
 20
115.4773177499199
 30
0.0
 11
-71.9166644335932
 21
115.5531121829509
 31
0.0
  0
LWPOLYLINE
  5
2F5
330
2D0
100
AcDbEntity
  8
0
  6
________________
 62
     7
370
     9
100
AcDbPolyline
 90
       19
 70
     0
 43
0.0
 10
-73.34762642058739
 20
115.4781578225139
 10
-73.33132885609756
 20
115.4784680519868
 10
-73.29763167141628
 20
115.4811099866109
 10
-73.26350126521865
 20
115.4864539834353
 10
-73.22906196010275
 20
115.4944724126429
 10
-73.19406027198475
 20
115.505229902855
 10
-73.15878097904528
 20
115.5186400997029
 10
-73.12296530152778
 20
115.5347979251238
 10
-73.08690346039484
 20
115.5535644661658
 10
-73.05049907478723
 20
115.5749602922115
 10
-73.01479029157271
 20
115.5982538490792
 10
-72.97878954371006
 20
115.6239665955637
 10
-72.94262002759687
 20
115.6519711227175
 10
-72.9060283741689
 20
115.6824341970075
 10
-72.8692980188634
 20
115.7150861499983
 10
-72.8321725342372
 20
115.7501164623582
 10
-72.79493942294857
 20
115.7872109304437
 10
-72.75750367029437
 20
115.8264039070322
 10
-72.75117427464838
 20
115.8332122826168
  0
LINE
  5
2F6
330
2D0
100
AcDbEntity
  8
0
  6
________________
 62
     7
370
     9
100
AcDbLine
 10
-74.2504927871595
 20
116.8010569416238
 30
0.0
 11
-74.49999958333557
 21
116.8012327225591
 31
0.0
  0
LINE
  5
2F7
330
2D0
100
AcDbEntity
  8
0
  6
________________
 62
     7
370
     9
100
AcDbLine
 10
-71.00000045192452
 20
116.7987669255132
 30
0.0
 11
-71.25049353166695
 21
116.7989434012987
 31
0.0
  0
LINE
  5
2F8
330
2D0
100
AcDbEntity
  8
0
  6
________________
 62
     7
370
     9
100
AcDbLine
 10
-71.35335737964598
 20
115.7455383614511
 30
0.0
 11
-71.68344083467738
 21
115.7457709097397
 31
0.0
  0
LINE
  5
2F9
330
2D0
100
AcDbEntity
  8
0
  6
________________
 62
     7
370
     9
100
AcDbLine
 10
-73.81902986192128
 20
115.7472754612887
 30
0.0
 11
-74.14812703337671
 21
115.7475073147272
 31
0.0
  0
LINE
  5
2FA
330
2D0
100
AcDbEntity
  8
0
  6
________________
 62
     7
370
     9
100
AcDbLine
 10
7.749999999950123
 20
96.11713103477572
 30
0.0
 11
7.949999999949976
 21
95.25083585991872
 31
0.0
  0
LINE
  5
2FB
330
2D0
100
AcDbEntity
  8
0
  6
________________
 62
     7
370
     9
100
AcDbLine
 10
7.9499999999505
 20
97.2000000035303
 30
0.0
 11
7.749999999950418
 21
97.20000000353036
 31
0.0
  0
LINE
  5
2FC
330
2D0
100
AcDbEntity
  8
0
  6
________________
 62
     7
370
     9
100
AcDbLine
 10
7.950150391463614
 20
98.07637515199809
 30
0.0
 11
7.750129949262271
 21
98.29688725733611
 31
0.0
  0
LINE
  5
2FD
330
2D0
100
AcDbEntity
  8
0
  6
________________
 62
     7
370
     9
100
AcDbLine
 10
6.74988762247862
 20
98.4521593516844
 30
0.0
 11
6.353125676393973
 21
98.16678813208932
 31
0.0
  0
LINE
  5
2FE
330
2D0
100
AcDbEntity
  8
0
  6
________________
 62
     7
370
     9
100
AcDbLine
 10
7.749999999854064
 20
117.8796370684257
 30
0.0
 11
7.949999999854379
 21
118.7459320623181
 31
0.0
  0
LINE
  5
2FF
330
2D0
100
AcDbEntity
  8
0
  6
________________
 62
     7
370
     9
100
AcDbLine
 10
7.949999999853851
 20
116.7967683262877
 30
0.0
 11
7.749999999853769
 21
116.7967683262878
 31
0.0
  0
LINE
  5
300
330
2D0
100
AcDbEntity
  8
0
  6
________________
 62
     7
370
     9
100
AcDbLine
 10
7.749999999854061
 20
117.8861007284941
 30
0.0
 11
7.836718238064265
 21
118.2617186066968
 31
0.0
  0
LINE
  5
301
330
2D0
100
AcDbEntity
  8
0
  6
________________
 62
     7
370
     9
100
AcDbLine
 10
7.836718238064265
 20
118.2617186066968
 30
0.0
 11
7.949999999854379
 21
118.7523957223865
 31
0.0
  0
ELLIPSE
  5
302
330
2D0
100
AcDbEntity
  8
0
  6
________________
 62
     7
370
     9
100
AcDbEllipse
 10
7.499999999911807
 20
116.8000001563461
 30
0.0
 11
-0.3374265145963257
 21
-1.461555112627425
 31
0.0
210
0.0
220
0.0
230
1.0
 40
0.0001454007147302
 41
2.404578798747164
 42
3.141592653598114
  0
LINE
  5
303
330
2D0
100
AcDbEntity
  8
0
  6
________________
 62
     7
370
     9
100
AcDbLine
 10
6.353125676391735
 20
115.8332122294704
 30
0.0
 11
6.7498839971342
 21
115.5476191314151
 31
0.0
  0
LINE
  5
304
330
2D0
100
AcDbEntity
  8
0
  6
________________
 62
     7
370
     9
100
AcDbLine
 10
7.750107760183079
 20
115.7024537623549
 30
0.0
 11
7.950102129260353
 21
115.9228216286989
 31
0.0
  0
LINE
  5
305
330
2D0
100
AcDbEntity
  8
0
  6
________________
 62
     7
370
     9
100
AcDbLine
 10
19.84999999991411
 20
103.140000003335
 30
0.0
 11
33.6499999999141
 21
103.140000003335
 31
0.0
  0
LINE
  5
306
330
2D0
100
AcDbEntity
  8
0
  6
________________
 62
     7
370
     9
100
AcDbLine
 10
19.84999999991412
 20
109.140000003335
 30
0.0
 11
33.64999999991409
 21
109.140000003335
 31
0.0
  0
LINE
  5
307
330
2D0
100
AcDbEntity
  8
0
  6
________________
 62
     7
370
     9
100
AcDbLine
 10
-95.14999999999283
 20
103.1400000033411
 30
0.0
 11
-81.34999999999286
 21
103.1400000033411
 31
0.0
  0
LINE
  5
308
330
2D0
100
AcDbEntity
  8
0
  6
________________
 62
     7
370
     9
100
AcDbLine
 10
-95.14999999999283
 20
109.1400000033411
 30
0.0
 11
-81.34999999999286
 21
109.1400000033411
 31
0.0
  0
LINE
  5
309
330
2D0
100
AcDbEntity
  8
0
  6
________________
 62
   253
370
     9
100
AcDbLine
 10
7.74999999985505
 20
121.5500000041585
 30
0.0
 11
6.74999999985465
 21
121.5500000041588
 31
0.0
  0
LINE
  5
30A
330
2D0
100
AcDbEntity
  8
0
  6
________________
 62
     7
370
     9
100
AcDbLine
 10
7.74999999985505
 20
121.5500000041585
 30
0.0
 11
7.74999999985276
 21
113.0500000041585
 31
0.0
  0
LINE
  5
30B
330
2D0
100
AcDbEntity
  8
0
  6
________________
 62
     7
370
     9
100
AcDbLine
 10
7.74999999985276
 20
113.0500000041585
 30
0.0
 11
6.74999999985236
 21
113.0500000041588
 31
0.0
  0
LINE
  5
30C
330
2D0
100
AcDbEntity
  8
0
  6
________________
 62
     7
370
     9
100
AcDbLine
 10
6.74999999985465
 20
121.5500000041588
 30
0.0
 11
6.74999999985236
 21
113.0500000041588
 31
0.0
  0
LINE
  5
30D
330
2D0
100
AcDbEntity
  8
0
  6
________________
 62
   253
370
     9
100
AcDbLine
 10
37.04999999986675
 20
121.5500000041506
 30
0.0
 11
7.949999999855132
 21
121.5500000041585
 31
0.0
  0
LINE
  5
30E
330
2D0
100
AcDbEntity
  8
0
  6
________________
 62
     7
370
     9
100
AcDbLine
 10
37.04999999986675
 20
121.5500000041506
 30
0.0
 11
37.04999999986445
 21
113.0500000041506
 31
0.0
  0
LINE
  5
30F
330
2D0
100
AcDbEntity
  8
0
  6
________________
 62
     7
370
     9
100
AcDbLine
 10
37.04999999986445
 20
113.0500000041506
 30
0.0
 11
7.949999999852839
 21
113.0500000041585
 31
0.0
  0
LINE
  5
310
330
2D0
100
AcDbEntity
  8
0
  6
________________
 62
     7
370
     9
100
AcDbLine
 10
7.949999999852839
 20
113.0500000041585
 30
0.0
 11
7.949999999855129
 21
121.5500000041585
 31
0.0
  0
LINE
  5
311
330
2D0
100
AcDbEntity
  8
0
  6
________________
 62
     7
370
     9
100
AcDbLine
 10
8.249999999638915
 20
123.0500000040761
 30
0.0
 11
36.74999999965029
 21
123.0500000040684
 31
0.0
  0
ARC
  5
312
330
2D0
100
AcDbEntity
  8
0
  6
________________
 62
     7
370
     9
100
AcDbCircle
 10
-36.74999999964989
 20
121.5500000040684
 30
0.0
 40
1.500000000224867
210
0.0
220
0.0
230
-1.0
100
AcDbArc
 50
90.00000000001539
 51
179.9999999968714
  0
LINE
  5
313
330
2D0
100
AcDbEntity
  8
0
  6
________________
 62
   253
370
     9
100
AcDbLine
 10
38.24999999986722
 20
121.5500000041503
 30
0.0
 11
37.24999999986682
 21
121.5500000041506
 31
0.0
  0
LINE
  5
314
330
2D0
100
AcDbEntity
  8
0
  6
________________
 62
     7
370
     9
100
AcDbLine
 10
37.24999999965009
 20
121.5500000041506
 30
0.0
 11
37.24999999965023
 21
122.0500000041463
 31
0.0
  0
LINE
  5
315
330
2D0
100
AcDbEntity
  8
0
  6
________________
 62
     7
370
     9
100
AcDbLine
 10
37.24999999985457
 20
122.0500000041459
 30
0.0
 11
37.04999999985449
 21
122.0500000041459
 31
0.0
  0
LINE
  5
316
330
2D0
100
AcDbEntity
  8
0
  6
________________
 62
     7
370
     9
100
AcDbLine
 10
37.04999999965015
 20
122.0500000041461
 30
0.0
 11
37.04999999965001
 21
121.5500000041504
 31
0.0
  0
LINE
  5
317
330
2D0
100
AcDbEntity
  8
0
  6
________________
 62
     7
370
     9
100
AcDbLine
 10
7.949999999842867
 20
122.0500000041538
 30
0.0
 11
7.749999999842789
 21
122.0500000041538
 31
0.0
  0
ARC
  5
318
330
2D0
100
AcDbEntity
  8
0
  6
________________
 62
     7
370
     9
100
AcDbCircle
 10
-8.249999999638511
 20
121.5500000040761
 30
0.0
 40
1.500000000007569
210
0.0
220
0.0
230
-1.0
100
AcDbArc
 50
0.0000000031588209
 51
90.00000000001539
  0
LINE
  5
319
330
2D0
100
AcDbEntity
  8
0
  6
________________
 62
     7
370
     9
100
AcDbLine
 10
7.949999999638388
 20
121.5500000041585
 30
0.0
 11
7.949999999638524
 21
122.0500000041542
 31
0.0
  0
LINE
  5
31A
330
2D0
100
AcDbEntity
  8
0
  6
________________
 62
     7
370
     9
100
AcDbLine
 10
7.749999999638446
 20
122.050000004154
 30
0.0
 11
7.74999999963831
 21
121.5500000041583
 31
0.0
  0
LINE
  5
31B
330
2D0
100
AcDbEntity
  8
0
  6
________________
 62
     7
370
     9
100
AcDbLine
 10
38.24999999986722
 20
121.5500000041503
 30
0.0
 11
38.24999999986493
 21
113.0500000041503
 31
0.0
  0
LINE
  5
31C
330
2D0
100
AcDbEntity
  8
0
  6
________________
 62
     7
370
     9
100
AcDbLine
 10
37.24999999986454
 20
113.0500000041506
 30
0.0
 11
37.24999999986682
 21
121.5500000041506
 31
0.0
  0
LINE
  5
31D
330
2D0
100
AcDbEntity
  8
0
  6
________________
 62
     7
370
     9
100
AcDbLine
 10
38.24999999986493
 20
113.0500000041503
 30
0.0
 11
37.24999999986454
 21
113.0500000041506
 31
0.0
  0
ARC
  5
31E
330
2D0
100
AcDbEntity
  8
0
  6
________________
 62
     7
370
     9
100
AcDbCircle
 10
8.249999999638511
 20
121.5500000040761
 30
0.0
 40
0.4999999999999915
100
AcDbArc
 50
126.8698976458399
 51
179.9999999999845
  0
ARC
  5
31F
330
2D0
100
AcDbEntity
  8
0
  6
________________
 62
     7
370
     9
100
AcDbCircle
 10
36.74999999964989
 20
121.5500000040684
 30
0.0
 40
0.5000000000000004
100
AcDbArc
 50
359.9999999999847
 51
53.13010235412925
  0
LINE
  5
320
330
2D0
100
AcDbEntity
  8
0
  6
________________
 62
   253
370
     9
100
AcDbLine
 10
-61.75000001749729
 20
121.5499999975988
 30
0.0
 11
-106.000000017515
 21
121.5499999976107
 31
0.0
  0
LINE
  5
321
330
2D0
100
AcDbEntity
  8
0
  6
________________
 62
     7
370
     9
100
AcDbLine
 10
-61.75000001749958
 20
113.0499999975988
 30
0.0
 11
-61.75000001749729
 21
121.5499999975988
 31
0.0
  0
CIRCLE
  5
322
330
2D0
100
AcDbEntity
  8
0
  6
________________
 62
     7
370
     9
100
AcDbCircle
 10
72.75000001750297
 20
116.7999999976017
 30
0.0
 40
1.750000000000002
210
0.0
220
0.0
230
-1.0
  0
LINE
  5
323
330
2D0
100
AcDbEntity
  8
0
  6
________________
 62
     7
370
     9
100
AcDbLine
 10
-61.75000001749958
 20
113.0499999975988
 30
0.0
 11
-106.0000000175173
 21
113.0499999976107
 31
0.0
  0
LINE
  5
324
330
2D0
100
AcDbEntity
  8
0
  6
________________
 62
     7
370
     9
100
AcDbLine
 10
-106.000000017515
 20
121.5499999976107
 30
0.0
 11
-106.0000000175173
 21
113.0499999976107
 31
0.0
  0
ARC
  5
325
330
2D0
100
AcDbEntity
  8
0
  6
________________
 62
     7
370
     9
100
AcDbCircle
 10
104.5000000177311
 20
121.549999997528
 30
0.0
 40
1.500000000007569
210
0.0
220
0.0
230
-1.0
100
AcDbArc
 50
0.0000000031588209
 51
90.0000000000159
  0
LINE
  5
326
330
2D0
100
AcDbEntity
  8
0
  6
________________
 62
     7
370
     9
100
AcDbLine
 10
-61.75000001771402
 20
121.5499999975988
 30
0.0
 11
-61.75000001771389
 21
122.0499999975945
 31
0.0
  0
LINE
  5
327
330
2D0
100
AcDbEntity
  8
0
  6
________________
 62
     7
370
     9
100
AcDbLine
 10
-104.5000000177307
 20
123.049999997528
 30
0.0
 11
8.249999982314336
 21
123.0499999974976
 31
0.0
  0
LINE
  5
328
330
2D0
100
AcDbEntity
  8
0
  6
________________
 62
     7
370
     9
100
AcDbLine
 10
6.835786420144749
 20
122.0499999975756
 30
0.0
 11
-61.75000001750955
 21
122.0499999975941
 31
0.0
  0
LINE
  5
329
330
2D0
100
AcDbEntity
  8
0
  6
________________
 62
   253
370
     9
100
AcDbLine
 10
7.949999999855125
 20
121.5499999959066
 30
0.0
 11
7.74999999972836
 21
121.5499999959066
 31
0.0
  0
LINE
  5
32A
330
2D0
100
AcDbEntity
  8
0
  6
________________
 62
   253
370
     9
100
AcDbLine
 10
6.74999999994388
 20
121.5499999959069
 30
0.0
 11
-61.75000001749729
 21
121.5499999959254
 31
0.0
  0
LINE
  5
32B
330
2D0
100
AcDbEntity
  8
0
  6
________________
 62
     7
370
     9
100
AcDbLine
 10
37.04999999986445
 20
113.0499999958987
 30
0.0
 11
37.24999999986454
 21
113.0499999958987
 31
0.0
  0
LINE
  5
32C
330
2D0
100
AcDbEntity
  8
0
  6
________________
 62
     7
370
     9
100
AcDbLine
 10
7.749999999942847
 20
91.9500000041515
 30
0.0
 11
7.949999999942926
 21
91.95000000415145
 31
0.0
  0
LINE
  5
32D
330
2D0
100
AcDbEntity
  8
0
  6
________________
 62
     7
370
     9
100
AcDbLine
 10
7.949999999841486
 20
91.95000000415122
 30
0.0
 11
7.949999999841622
 21
92.45000000415635
 31
0.0
  0
LINE
  5
32E
330
2D0
100
AcDbEntity
  8
0
  6
________________
 62
   253
370
     9
100
AcDbLine
 10
7.949999999949219
 20
92.45000000415615
 30
0.0
 11
37.04999999996082
 21
92.45000000414831
 31
0.0
  0
LINE
  5
32F
330
2D0
100
AcDbEntity
  8
0
  6
________________
 62
     7
370
     9
100
AcDbLine
 10
37.04999999985323
 20
92.45000000414831
 30
0.0
 11
37.04999999985309
 21
91.95000000414319
 31
0.0
  0
LINE
  5
330
330
2D0
100
AcDbEntity
  8
0
  6
________________
 62
     7
370
     9
100
AcDbLine
 10
37.04999999995454
 20
91.9500000041436
 30
0.0
 11
37.24999999995462
 21
91.95000000414355
 31
0.0
  0
LINE
  5
331
330
2D0
100
AcDbEntity
  8
0
  6
________________
 62
     7
370
     9
100
AcDbLine
 10
37.24999999985318
 20
91.95000000414332
 30
0.0
 11
37.24999999985331
 21
92.45000000414845
 31
0.0
  0
LINE
  5
332
330
2D0
100
AcDbEntity
  8
0
  6
________________
 62
   253
370
     9
100
AcDbLine
 10
37.24999999996091
 20
92.45000000414825
 30
0.0
 11
38.2499999999613
 21
92.450000004148
 31
0.0
  0
ARC
  5
333
330
2D0
100
AcDbEntity
  8
0
  6
________________
 62
     7
370
     9
100
AcDbCircle
 10
-36.74999999985311
 20
92.4500000040661
 30
0.0
 40
1.500000000122071
210
0.0
220
0.0
230
-1.0
100
AcDbArc
 50
179.9999999968719
 51
270.0000000000151
  0
LINE
  5
334
330
2D0
100
AcDbEntity
  8
0
  6
________________
 62
     7
370
     9
100
AcDbLine
 10
36.7499999998527
 20
90.9500000040661
 30
0.0
 11
8.249999999841336
 21
90.95000000407377
 31
0.0
  0
ARC
  5
335
330
2D0
100
AcDbEntity
  8
0
  6
________________
 62
     7
370
     9
100
AcDbCircle
 10
8.249999999841734
 20
92.45000000407377
 30
0.0
 40
1.500000000013995
100
AcDbArc
 50
179.9999999968406
 51
269.9999999999847
  0
LINE
  5
336
330
2D0
100
AcDbEntity
  8
0
  6
________________
 62
   253
370
     9
100
AcDbLine
 10
6.749999999948734
 20
92.45000000415648
 30
0.0
 11
7.749999999949134
 21
92.45000000415621
 31
0.0
  0
LINE
  5
337
330
2D0
100
AcDbEntity
  8
0
  6
________________
 62
     7
370
     9
100
AcDbLine
 10
7.749999999841537
 20
92.45000000415621
 30
0.0
 11
7.749999999841401
 21
91.95000000415108
 31
0.0
  0
LINE
  5
338
330
2D0
100
AcDbEntity
  8
0
  6
________________
 62
     7
370
     9
100
AcDbLine
 10
7.749999999951427
 20
100.9500000041562
 30
0.0
 11
6.749999999951028
 21
100.9500000041565
 31
0.0
  0
LINE
  5
339
330
2D0
100
AcDbEntity
  8
0
  6
________________
 62
     7
370
     9
100
AcDbLine
 10
7.749999999951427
 20
100.9500000041562
 30
0.0
 11
7.749999999949134
 21
92.45000000415621
 31
0.0
  0
LINE
  5
33A
330
2D0
100
AcDbEntity
  8
0
  6
________________
 62
     7
370
     9
100
AcDbLine
 10
6.749999999948734
 20
92.45000000415648
 30
0.0
 11
6.749999999951028
 21
100.9500000041565
 31
0.0
  0
LINE
  5
33B
330
2D0
100
AcDbEntity
  8
0
  6
________________
 62
     7
370
     9
100
AcDbLine
 10
37.04999999996312
 20
100.9500000041483
 30
0.0
 11
7.949999999951507
 21
100.9500000041562
 31
0.0
  0
LINE
  5
33C
330
2D0
100
AcDbEntity
  8
0
  6
________________
 62
     7
370
     9
100
AcDbLine
 10
37.04999999996312
 20
100.9500000041483
 30
0.0
 11
37.04999999996083
 21
92.45000000414831
 31
0.0
  0
LINE
  5
33D
330
2D0
100
AcDbEntity
  8
0
  6
________________
 62
     7
370
     9
100
AcDbLine
 10
7.949999999949219
 20
92.45000000415615
 30
0.0
 11
7.949999999951507
 21
100.9500000041562
 31
0.0
  0
LINE
  5
33E
330
2D0
100
AcDbEntity
  8
0
  6
________________
 62
     7
370
     9
100
AcDbLine
 10
38.2499999999636
 20
100.950000004148
 30
0.0
 11
37.24999999996321
 21
100.9500000041483
 31
0.0
  0
LINE
  5
33F
330
2D0
100
AcDbEntity
  8
0
  6
________________
 62
     7
370
     9
100
AcDbLine
 10
38.2499999999613
 20
92.450000004148
 30
0.0
 11
38.2499999999636
 21
100.950000004148
 31
0.0
  0
LINE
  5
340
330
2D0
100
AcDbEntity
  8
0
  6
________________
 62
     7
370
     9
100
AcDbLine
 10
37.24999999996091
 20
92.45000000414825
 30
0.0
 11
37.24999999996321
 21
100.9500000041483
 31
0.0
  0
ARC
  5
341
330
2D0
100
AcDbEntity
  8
0
  6
________________
 62
     7
370
     9
100
AcDbCircle
 10
8.249999999841734
 20
92.45000000407377
 30
0.0
 40
0.5000000000000004
100
AcDbArc
 50
179.9999999999845
 51
233.1301023541295
  0
ARC
  5
342
330
2D0
100
AcDbEntity
  8
0
  6
________________
 62
     7
370
     9
100
AcDbCircle
 10
36.74999999985311
 20
92.4500000040661
 30
0.0
 40
0.5000000000000004
100
AcDbArc
 50
306.869897645839
 51
359.9999999999847
  0
ARC
  5
343
330
2D0
100
AcDbEntity
  8
0
  6
________________
 62
     7
370
     9
100
AcDbCircle
 10
104.5000000088042
 20
92.44999999752571
 30
0.0
 40
1.500000000013995
210
0.0
220
0.0
230
-1.0
100
AcDbArc
 50
270.000000000016
 51
0.0000000031588456
  0
LINE
  5
344
330
2D0
100
AcDbEntity
  8
0
  6
________________
 62
   253
370
     9
100
AcDbLine
 10
-106.0000000086972
 20
92.4499999976084
 30
0.0
 11
-61.75000000867953
 21
92.44999999759648
 31
0.0
  0
LINE
  5
345
330
2D0
100
AcDbEntity
  8
0
  6
________________
 62
     7
370
     9
100
AcDbLine
 10
-61.7500000087871
 20
92.44999999759648
 30
0.0
 11
-61.75000000878723
 21
91.94999999759135
 31
0.0
  0
LINE
  5
346
330
2D0
100
AcDbEntity
  8
0
  6
________________
 62
     7
370
     9
100
AcDbLine
 10
-61.75000000868579
 20
91.94999999759176
 30
0.0
 11
6.835786428968496
 21
91.94999999757327
 31
0.0
  0
LINE
  5
347
330
2D0
100
AcDbEntity
  8
0
  6
________________
 62
     7
370
     9
100
AcDbLine
 10
8.249999991240449
 20
90.94999999749531
 30
0.0
 11
-104.5000000088046
 21
90.94999999752571
 31
0.0
  0
LINE
  5
348
330
2D0
100
AcDbEntity
  8
0
  6
________________
 62
     7
370
     9
100
AcDbLine
 10
-61.75000000867721
 20
100.9499999975965
 30
0.0
 11
-106.0000000086949
 21
100.9499999976084
 31
0.0
  0
LINE
  5
349
330
2D0
100
AcDbEntity
  8
0
  6
________________
 62
     7
370
     9
100
AcDbLine
 10
-61.75000000867721
 20
100.9499999975965
 30
0.0
 11
-61.7500000086795
 21
92.44999999759648
 31
0.0
  0
CIRCLE
  5
34A
330
2D0
100
AcDbEntity
  8
0
  6
________________
 62
     7
370
     9
100
AcDbCircle
 10
72.75000000868262
 20
97.19999999759943
 30
0.0
 40
1.750000000000002
210
0.0
220
0.0
230
-1.0
  0
LINE
  5
34B
330
2D0
100
AcDbEntity
  8
0
  6
________________
 62
     7
370
     9
100
AcDbLine
 10
-106.0000000086972
 20
92.4499999976084
 30
0.0
 11
-106.0000000086949
 21
100.9499999976084
 31
0.0
  0
LINE
  5
34C
330
2D0
100
AcDbEntity
  8
0
  6
________________
 62
   253
370
     9
100
AcDbLine
 10
-61.75000000875853
 20
92.44999999592305
 30
0.0
 11
6.749999999924386
 21
92.44999999590459
 31
0.0
  0
LINE
  5
34D
330
2D0
100
AcDbEntity
  8
0
  6
________________
 62
   253
370
     9
100
AcDbLine
 10
7.749999999817975
 20
92.44999999590432
 30
0.0
 11
7.949999999949227
 21
92.44999999590426
 31
0.0
  0
LINE
  5
34E
330
2D0
100
AcDbEntity
  8
0
  6
________________
 62
     7
370
     9
100
AcDbLine
 10
37.04999999996311
 20
100.9499999958964
 30
0.0
 11
37.24999999996319
 21
100.9499999958964
 31
0.0
  0
LINE
  5
34F
330
2D0
100
AcDbEntity
  8
0
  6
________________
 62
     7
370
     9
100
AcDbLine
 10
7.949999999949369
 20
93.00000000130811
 30
0.0
 11
7.749999999949283
 21
93.00000000130817
 31
0.0
  0
LINE
  5
350
330
2D0
100
AcDbEntity
  8
0
  6
________________
 62
     7
370
     9
100
AcDbLine
 10
7.749999999951171
 20
100.0000000013082
 30
0.0
 11
7.949999999951249
 21
100.0000000013081
 31
0.0
  0
LINE
  5
351
330
2D0
100
AcDbEntity
  8
0
  6
________________
 62
     7
370
     9
100
AcDbLine
 10
-61.24999999996568
 20
92.99999999759585
 30
0.0
 11
-61.24999999996346
 21
99.99999999759585
 31
0.0
  0
LINE
  5
352
330
2D0
100
AcDbEntity
  8
0
  6
________________
 62
     7
370
     9
100
AcDbLine
 10
6.750000000029607
 20
92.99999999757752
 30
0.0
 11
-61.24999999996568
 21
92.99999999759585
 31
0.0
  0
LINE
  5
353
330
2D0
100
AcDbEntity
  8
0
  6
________________
 62
     7
370
     9
100
AcDbLine
 10
-61.24999999996346
 20
99.99999999759585
 30
0.0
 11
6.750000000031606
 21
99.99999999757752
 31
0.0
  0
LINE
  5
354
330
2D0
100
AcDbEntity
  8
0
  6
________________
 62
     7
370
     9
100
AcDbLine
 10
-61.24999999996427
 20
92.99999999752727
 30
0.0
 11
-61.75000000867934
 21
92.99999999752741
 31
0.0
  0
LINE
  5
355
330
2D0
100
AcDbEntity
  8
0
  6
________________
 62
     7
370
     9
100
AcDbLine
 10
-61.75000000867747
 20
99.99999999752741
 30
0.0
 11
-61.24999999996206
 21
99.99999999752727
 31
0.0
  0
LINE
  5
356
330
2D0
100
AcDbEntity
  8
0
  6
________________
 62
     7
370
     9
100
AcDbLine
 10
-106.0001123883022
 20
98.45232200047346
 30
0.0
 11
-106.3968743234665
 21
98.1667879404954
 31
0.0
  0
LINE
  5
357
330
2D0
100
AcDbEntity
  8
0
  6
________________
 62
     7
370
     9
100
AcDbLine
 10
37.24999999994169
 20
97.19999996774254
 30
0.0
 11
37.04999999996188
 21
96.3337047929746
 31
0.0
  0
LINE
  5
358
330
2D0
100
AcDbEntity
  8
0
  6
________________
 62
     7
370
     9
100
AcDbLine
 10
37.0499999999621
 20
97.1999999677426
 30
0.0
 11
37.24999999994169
 21
97.19999996774254
 31
0.0
  0
LINE
  5
359
330
2D0
100
AcDbEntity
  8
0
  6
________________
 62
     7
370
     9
100
AcDbLine
 10
38.3968743234659
 20
98.16678809630697
 30
0.0
 11
38.25014067469057
 21
98.30855926526735
 31
0.0
  0
LINE
  5
35A
330
2D0
100
AcDbEntity
  8
0
  6
________________
 62
     7
370
     9
100
AcDbLine
 10
37.2499951884157
 20
98.4463024896739
 30
0.0
 11
37.0498413652748
 21
98.33512915396219
 31
0.0
  0
LINE
  5
35B
330
2D0
100
AcDbEntity
  8
0
  6
________________
 62
   253
370
     9
100
AcDbLine
 10
29.74999999990763
 20
112.0000000039934
 30
0.0
 11
29.74999999990791
 21
113.0500000041526
 31
0.0
  0
LINE
  5
35C
330
2D0
100
AcDbEntity
  8
0
  6
________________
 62
     7
370
     9
100
AcDbLine
 10
35.24999999991771
 20
113.0499999958992
 30
0.0
 11
35.24999999991743
 21
112.0000000036902
 31
0.0
  0
LINE
  5
35D
330
2D0
100
AcDbEntity
  8
0
  6
________________
 62
     7
370
     9
100
AcDbLine
 10
35.24999999991374
 20
112.0000000036902
 30
0.0
 11
29.74999999990763
 21
112.0000000036916
 31
0.0
  0
LINE
  5
35E
330
2D0
100
AcDbEntity
  8
0
  6
________________
 62
   253
370
     9
100
AcDbLine
 10
14.999999999898
 20
113.0500000041566
 30
0.0
 11
14.99999999989772
 21
112.0000000039974
 31
0.0
  0
LINE
  5
35F
330
2D0
100
AcDbEntity
  8
0
  6
________________
 62
     7
370
     9
100
AcDbLine
 10
14.99999999989772
 20
112.0000000039974
 30
0.0
 11
29.74999999990763
 21
112.0000000039934
 31
0.0
  0
LINE
  5
360
330
2D0
100
AcDbEntity
  8
0
  6
________________
 62
     7
370
     9
100
AcDbLine
 10
9.499999999900133
 20
112.0000000036971
 30
0.0
 11
9.499999999900414
 21
113.0499999959062
 31
0.0
  0
LINE
  5
361
330
2D0
100
AcDbEntity
  8
0
  6
________________
 62
     7
370
     9
100
AcDbLine
 10
14.99999999989772
 20
112.0000000036956
 30
0.0
 11
9.499999999903828
 21
112.0000000036971
 31
0.0
  0
LINE
  5
362
330
2D0
100
AcDbEntity
  8
0
  6
________________
 62
     7
370
     9
100
AcDbLine
 10
32.13153637318612
 20
112.0000000033344
 30
0.0
 11
33.4166666665905
 21
112.000000003334
 31
0.0
  0
LINE
  5
363
330
2D0
100
AcDbEntity
  8
0
  6
________________
 62
   253
370
     9
100
AcDbLine
 10
-97.75000000004465
 20
113.0499999976085
 30
0.0
 11
-97.75000000004492
 21
111.9999999974575
 31
0.0
  0
LINE
  5
364
330
2D0
100
AcDbEntity
  8
0
  6
________________
 62
     7
370
     9
100
AcDbLine
 10
-78.75000000003219
 20
111.9999999974524
 30
0.0
 11
-78.75000000003189
 21
113.04999999593
 31
0.0
  0
LINE
  5
365
330
2D0
100
AcDbEntity
  8
0
  6
________________
 62
     7
370
     9
100
AcDbLine
 10
-78.75000000003219
 20
111.9999999974524
 30
0.0
 11
-97.75000000004492
 21
111.9999999974575
 31
0.0
  0
LINE
  5
366
330
2D0
100
AcDbEntity
  8
0
  6
________________
 62
     7
370
     9
100
AcDbLine
 10
-103.2500000000425
 20
111.9999999971572
 30
0.0
 11
-103.2500000000422
 21
113.0499999959365
 31
0.0
  0
LINE
  5
367
330
2D0
100
AcDbEntity
  8
0
  6
________________
 62
     7
370
     9
100
AcDbLine
 10
-97.75000000004492
 20
111.9999999971558
 30
0.0
 11
-103.2500000000388
 21
111.9999999971572
 31
0.0
  0
LINE
  5
368
330
2D0
100
AcDbEntity
  8
0
  6
________________
 62
     7
370
     9
100
AcDbLine
 10
-61.75000000001439
 20
113.0499999959254
 30
0.0
 11
-61.75000000001467
 21
111.9999999971461
 31
0.0
  0
LINE
  5
369
330
2D0
100
AcDbEntity
  8
0
  6
________________
 62
     7
370
     9
100
AcDbLine
 10
-66.7500000000238
 20
113.0499999959267
 30
0.0
 11
-66.7500000000241
 21
111.9999999974479
 31
0.0
  0
LINE
  5
36A
330
2D0
100
AcDbEntity
  8
0
  6
________________
 62
     7
370
     9
100
AcDbLine
 10
-61.75000000001836
 20
111.9999999971461
 30
0.0
 11
-66.75000000002444
 21
111.9999999971474
 31
0.0
  0
LINE
  5
36B
330
2D0
100
AcDbEntity
  8
0
  6
________________
 62
     7
370
     9
100
AcDbLine
 10
-66.7500000000208
 20
111.9999999972846
 30
0.0
 11
-78.75000000002885
 21
111.9999999972878
 31
0.0
  0
LINE
  5
36C
330
2D0
100
AcDbEntity
  8
0
  6
________________
 62
     7
370
     9
100
AcDbLine
 10
-61.75000000000959
 20
111.9999999970775
 30
0.0
 11
-61.24999999999851
 21
111.9999999970773
 31
0.0
  0
LINE
  5
36D
330
2D0
100
AcDbEntity
  8
0
  6
________________
 62
     7
370
     9
100
AcDbLine
 10
-106.3968743235216
 20
115.8332123188042
 30
0.0
 11
-106.0001160246571
 21
115.5475903788685
 31
0.0
  0
LINE
  5
36E
330
2D0
100
AcDbEntity
  8
0
  6
________________
 62
     7
370
     9
100
AcDbLine
 10
37.24999999993918
 20
116.8000000021479
 30
0.0
 11
37.0499999998657
 21
117.6662951773237
 31
0.0
  0
LINE
  5
36F
330
2D0
100
AcDbEntity
  8
0
  6
________________
 62
     7
370
     9
100
AcDbLine
 10
37.04999999986547
 20
116.8000000021479
 30
0.0
 11
37.24999999993918
 21
116.8000000021479
 31
0.0
  0
LINE
  5
370
330
2D0
100
AcDbEntity
  8
0
  6
________________
 62
     7
370
     9
100
AcDbLine
 10
37.04983871145996
 20
115.6648727170534
 30
0.0
 11
37.24999505062965
 21
115.5536975367672
 31
0.0
  0
LINE
  5
371
330
2D0
100
AcDbEntity
  8
0
  6
________________
 62
     7
370
     9
100
AcDbLine
 10
38.25017583583405
 20
115.691468333983
 30
0.0
 11
38.39687432346289
 21
115.8332118730388
 31
0.0
  0
LINE
  5
372
330
2D0
100
AcDbEntity
  8
0
  6
________________
 62
   253
370
     9
100
AcDbLine
 10
32.02300924667843
 20
111.6119209733205
 30
0.0
 11
21.47699075315449
 21
111.6119209733234
 31
0.0
  0
LINE
  5
373
330
2D0
100
AcDbEntity
  8
0
  6
________________
 62
     7
370
     9
100
AcDbLine
 10
22.11424350636407
 20
102.498782028467
 30
0.0
 11
31.38575649346394
 21
102.4987820284645
 31
0.0
  0
LINE
  5
374
330
2D0
100
AcDbEntity
  8
0
  6
________________
 62
     7
370
     9
100
AcDbLine
 10
30.85087825659173
 20
102.0000000033347
 30
0.0
 11
29.74999999991389
 21
102.000000003335
 31
0.0
  0
LINE
  5
375
330
2D0
100
AcDbEntity
  8
0
  6
________________
 62
     7
370
     9
100
AcDbLine
 10
21.74999999995999
 20
103.1400000033349
 30
0.0
 11
21.74999999995968
 21
102.0000000009779
 31
0.0
  0
LINE
  5
376
330
2D0
100
AcDbEntity
  8
0
  6
________________
 62
   253
370
     9
100
AcDbLine
 10
15.74999999995311
 20
112.0000000039972
 30
0.0
 11
15.74999999995061
 21
102.0000000013087
 31
0.0
  0
LINE
  5
377
330
2D0
100
AcDbEntity
  8
0
  6
________________
 62
   253
370
     9
100
AcDbLine
 10
9.249999999950992
 20
113.0500000041581
 30
0.0
 11
9.249999999948015
 21
102.0000000013105
 31
0.0
  0
LINE
  5
378
330
2D0
100
AcDbEntity
  8
0
  6
________________
 62
     7
370
     9
100
AcDbLine
 10
9.249999999948015
 20
102.0000000013105
 30
0.0
 11
9.49999999987083
 21
102.0000000013104
 31
0.0
  0
LINE
  5
379
330
2D0
100
AcDbEntity
  8
0
  6
________________
 62
     7
370
     9
100
AcDbLine
 10
6.749999999950004
 20
113.0500000041588
 30
0.0
 11
6.749999999947014
 21
102.0000000013112
 31
0.0
  0
LINE
  5
37A
330
2D0
100
AcDbEntity
  8
0
  6
________________
 62
     7
370
     9
100
AcDbLine
 10
6.749999999947014
 20
102.0000000013112
 30
0.0
 11
9.249999999948015
 21
102.0000000013105
 31
0.0
  0
LINE
  5
37B
330
2D0
100
AcDbEntity
  8
0
  6
________________
 62
     7
370
     9
100
AcDbLine
 10
7.949999999854979
 20
121.0000000013108
 30
0.0
 11
7.749999999854904
 21
121.0000000013109
 31
0.0
  0
LINE
  5
37C
330
2D0
100
AcDbEntity
  8
0
  6
________________
 62
     7
370
     9
100
AcDbLine
 10
-61.24999999999937
 20
120.9999999975986
 30
0.0
 11
-61.25000000000455
 21
101.9999999975986
 31
0.0
  0
CIRCLE
  5
37D
330
2D0
100
AcDbEntity
  8
0
  6
________________
 62
     7
370
     9
100
AcDbCircle
 10
17.24999999998536
 20
107.4999999975867
 30
0.0
 40
2.149999999999999
210
0.0
220
0.0
230
-1.0
  0
CIRCLE
  5
37E
330
2D0
100
AcDbEntity
  8
0
  6
________________
 62
     7
370
     9
100
AcDbCircle
 10
37.24999999999348
 20
107.4999999975921
 30
0.0
 40
2.149999999999999
210
0.0
220
0.0
230
-1.0
  0
ARC
  5
37F
330
2D0
100
AcDbEntity
  8
0
  6
________________
 62
     7
370
     9
100
AcDbCircle
 10
9.749999999982439
 20
107.4999999975847
 30
0.0
 40
3.000000000000003
210
0.0
220
0.0
230
-1.0
100
AcDbArc
 50
90.00000000001536
 51
0.0000000000158025
  0
ARC
  5
380
330
2D0
100
AcDbEntity
  8
0
  6
________________
 62
     7
370
     9
100
AcDbCircle
 10
9.749999999982439
 20
107.4999999975847
 30
0.0
 40
3.000000000000003
210
0.0
220
0.0
230
-1.0
100
AcDbArc
 50
0.0000000000157839
 51
90.00000000001536
  0
ARC
  5
381
330
2D0
100
AcDbEntity
  8
0
  6
________________
 62
     7
370
     9
100
AcDbCircle
 10
44.74999999999642
 20
107.4999999975941
 30
0.0
 40
3.000000000000003
210
0.0
220
0.0
230
-1.0
100
AcDbArc
 50
90.00000000001536
 51
0.0000000000158025
  0
ARC
  5
382
330
2D0
100
AcDbEntity
  8
0
  6
________________
 62
     7
370
     9
100
AcDbCircle
 10
44.74999999999642
 20
107.4999999975941
 30
0.0
 40
3.000000000000003
210
0.0
220
0.0
230
-1.0
100
AcDbArc
 50
0.0000000000157839
 51
90.00000000001536
  0
LINE
  5
383
330
2D0
100
AcDbEntity
  8
0
  6
________________
 62
     7
370
     9
100
AcDbLine
 10
-61.25000000000455
 20
101.9999999975986
 30
0.0
 11
6.750000000022626
 21
101.9999999975802
 31
0.0
  0
LINE
  5
384
330
2D0
100
AcDbEntity
  8
0
  6
________________
 62
     7
370
     9
100
AcDbLine
 10
6.750000000027762
 20
120.9999999975802
 30
0.0
 11
-61.24999999999937
 21
120.9999999975986
 31
0.0
  0
CIRCLE
  5
385
330
2D0
100
AcDbEntity
  8
0
  6
________________
 62
     7
370
     9
100
AcDbCircle
 10
-9.749999999981885
 20
107.4999999975573
 30
0.0
 40
2.500000000000002
  0
CIRCLE
  5
386
330
2D0
100
AcDbEntity
  8
0
  6
________________
 62
     7
370
     9
100
AcDbCircle
 10
-44.74999999999586
 20
107.4999999975667
 30
0.0
 40
2.500000000000002
  0
CIRCLE
  5
387
330
2D0
100
AcDbEntity
  8
0
  6
________________
 62
     7
370
     9
100
AcDbCircle
 10
-17.24999999998481
 20
107.4999999975593
 30
0.0
 40
1.649999999999999
  0
CIRCLE
  5
388
330
2D0
100
AcDbEntity
  8
0
  6
________________
 62
     7
370
     9
100
AcDbCircle
 10
-37.24999999999292
 20
107.4999999975647
 30
0.0
 40
1.649999999999999
  0
LINE
  5
389
330
2D0
100
AcDbEntity
  8
0
  6
________________
 62
     7
370
     9
100
AcDbLine
 10
-61.24999999999801
 20
120.99999999753
 30
0.0
 11
-61.75000001749743
 21
120.9999999975301
 31
0.0
  0
LINE
  5
38A
330
2D0
100
AcDbEntity
  8
0
  6
________________
 62
     7
370
     9
100
AcDbLine
 10
-61.24999999999993
 20
113.99999999753
 30
0.0
 11
-61.75000000005205
 21
113.9999999973038
 31
0.0
  0
LINE
  5
38B
330
2D0
100
AcDbEntity
  8
0
  6
________________
 62
   253
370
     9
100
AcDbLine
 10
-82.97699075322853
 20
111.6119209664932
 30
0.0
 11
-93.52300924675251
 21
111.6119209664961
 31
0.0
  0
LINE
  5
38C
330
2D0
100
AcDbEntity
  8
0
  6
________________
 62
     7
370
     9
100
AcDbLine
 10
-92.8857564935429
 20
102.4987820216397
 30
0.0
 11
-83.61424350644302
 21
102.4987820216372
 31
0.0
  0
ARC
  5
38D
330
2D0
100
AcDbEntity
  8
0
  6
________________
 62
     7
370
     9
100
AcDbCircle
 10
-72.75026661763624
 20
97.19999994678294
 30
0.0
 40
1.500000000000002
100
AcDbArc
 50
0.0218229539479471
 51
56.20949550139466
  0
ARC
  5
38E
330
2D0
100
AcDbEntity
  8
0
  6
________________
 62
     7
370
     9
100
AcDbCircle
 10
-72.75026661763624
 20
97.19999994678294
 30
0.0
 40
1.500000000000002
100
AcDbArc
 50
180.021822953948
 51
0.0218229539479466
  0
ARC
  5
38F
330
2D0
100
AcDbEntity
  8
0
  6
________________
 62
     7
370
     9
100
AcDbCircle
 10
-72.75026661763624
 20
97.19999994678294
 30
0.0
 40
1.499999999999995
100
AcDbArc
 50
123.8341318415101
 51
180.021822953948
  0
LINE
  5
390
330
2D0
100
AcDbEntity
  8
0
  6
________________
 62
     7
370
     9
100
AcDbLine
 10
-72.15460454501475
 20
98.52248962953655
 30
0.0
 11
-73.34697258591217
 21
98.52203547751479
 31
0.0
  0
ARC
  5
391
330
2D0
100
AcDbEntity
  8
0
  6
________________
 62
     7
370
     9
100
AcDbCircle
 10
-72.75049315941321
 20
116.8000001714613
 30
0.0
 40
1.499999999999999
100
AcDbArc
 50
179.9596343501274
 51
236.1473068933697
  0
ARC
  5
392
330
2D0
100
AcDbEntity
  8
0
  6
________________
 62
     7
370
     9
100
AcDbCircle
 10
-72.75049315941321
 20
116.8000001714613
 30
0.0
 40
1.499999999999999
100
AcDbArc
 50
359.9596343501265
 51
179.9596343501274
  0
ARC
  5
393
330
2D0
100
AcDbEntity
  8
0
  6
________________
 62
     7
370
     9
100
AcDbCircle
 10
-72.75049315941321
 20
116.8000001714613
 30
0.0
 40
1.499999999999996
100
AcDbArc
 50
303.7719432414277
 51
359.9596343501265
  0
LINE
  5
394
330
2D0
100
AcDbEntity
  8
0
  6
________________
 62
     7
370
     9
100
AcDbLine
 10
-73.3475903058319
 20
115.4781577967957
 30
0.0
 11
-72.15522247421411
 21
115.4773177574224
 31
0.0
  0
ARC
  5
395
330
2D0
100
AcDbEntity
  8
0
  6
________________
 62
     7
370
     9
100
AcDbCircle
 10
7.499999999913516
 20
97.2000000032561
 30
0.0
 40
1.500000000000005
100
AcDbArc
 50
139.5000000000071
 51
240.0000000016069
  0
ARC
  5
396
330
2D0
100
AcDbEntity
  8
0
  6
________________
 62
     7
370
     9
100
AcDbCircle
 10
7.499999999913516
 20
97.2000000032561
 30
0.0
 40
1.499999999999999
100
AcDbArc
 50
279.594068228273
 51
282.9999999999881
  0
ARC
  5
397
330
2D0
100
AcDbEntity
  8
0
  6
________________
 62
     7
370
     9
100
AcDbCircle
 10
7.499999999911803
 20
116.8000001563461
 30
0.0
 40
1.500000000000001
100
AcDbArc
 50
77.00000262336206
 51
80.4059317753724
  0
ARC
  5
398
330
2D0
100
AcDbEntity
  8
0
  6
________________
 62
     7
370
     9
100
AcDbCircle
 10
7.499999999911803
 20
116.8000001563461
 30
0.0
 40
1.50000000000001
100
AcDbArc
 50
119.999999998249
 51
220.4999999999619
  0
LINE
  5
399
330
2D0
100
AcDbEntity
  8
0
  6
________________
 62
     7
370
     9
100
AcDbLine
 10
33.64999999991687
 20
103.140000003335
 30
0.0
 11
33.64999999991686
 21
109.140000003335
 31
0.0
  0
LINE
  5
39A
330
2D0
100
AcDbEntity
  8
0
  6
________________
 62
     7
370
     9
100
AcDbLine
 10
19.84999999991135
 20
109.140000003335
 30
0.0
 11
19.84999999991135
 21
103.140000003335
 31
0.0
  0
LINE
  5
39B
330
2D0
100
AcDbEntity
  8
0
  6
________________
 62
     7
370
     9
100
AcDbLine
 10
-81.34999999999009
 20
103.1400000033411
 30
0.0
 11
-81.34999999999009
 21
109.1400000033411
 31
0.0
  0
LINE
  5
39C
330
2D0
100
AcDbEntity
  8
0
  6
________________
 62
     7
370
     9
100
AcDbLine
 10
-95.14999999999561
 20
109.1400000033411
 30
0.0
 11
-95.14999999999561
 21
103.1400000033411
 31
0.0
  0
ARC
  5
39D
330
2D0
100
AcDbEntity
  8
0
  6
________________
 62
     7
370
     9
100
AcDbCircle
 10
-105.249999999947
 20
97.19999991903894
 30
0.0
 40
1.499999999999987
100
AcDbArc
 50
139.84538642562
 51
239.9999995176128
  0
ARC
  5
39E
330
2D0
100
AcDbEntity
  8
0
  6
________________
 62
     7
370
     9
100
AcDbCircle
 10
37.24999999994724
 20
97.19999996747282
 30
0.0
 40
1.500000000000004
100
AcDbArc
 50
262.3377443397916
 51
269.9999999999844
  0
ARC
  5
39F
330
2D0
100
AcDbEntity
  8
0
  6
________________
 62
     7
370
     9
100
AcDbCircle
 10
37.24999999994724
 20
97.19999996747282
 30
0.0
 40
1.499999999999997
100
AcDbArc
 50
311.8103143436407
 51
40.49999999996186
  0
ARC
  5
3A0
330
2D0
100
AcDbEntity
  8
0
  6
________________
 62
     7
370
     9
100
AcDbCircle
 10
-105.2500000000015
 20
116.8000001901083
 30
0.0
 40
1.500000000000006
100
AcDbArc
 50
120.0000009668663
 51
220.4999999999616
  0
ARC
  5
3A1
330
2D0
100
AcDbEntity
  8
0
  6
________________
 62
     7
370
     9
100
AcDbCircle
 10
37.24999999994474
 20
116.8000000018735
 30
0.0
 40
1.499999999999996
100
AcDbArc
 50
319.500000000007
 51
48.18968622193882
  0
ARC
  5
3A2
330
2D0
100
AcDbEntity
  8
0
  6
________________
 62
     7
370
     9
100
AcDbCircle
 10
37.24999999994474
 20
116.8000000018735
 30
0.0
 40
1.500000000000001
100
AcDbArc
 50
90.00000000300969
 51
97.66225566380598
  0
ARC
  5
3A3
330
2D0
100
AcDbEntity
  8
0
  6
________________
 62
     7
370
     9
100
AcDbCircle
 10
-33.02057329694325
 20
111.5421644995761
 30
0.0
 40
0.9999999999999954
210
0.0
220
0.0
230
-1.0
100
AcDbArc
 50
4.000000000008521
 51
27.24752447487379
  0
ARC
  5
3A4
330
2D0
100
AcDbEntity
  8
0
  6
________________
 62
     7
370
     9
100
AcDbCircle
 10
-20.47942670288964
 20
111.5421644995795
 30
0.0
 40
1.000000000000003
210
0.0
220
0.0
230
-1.0
100
AcDbArc
 50
152.7524754827252
 51
176.0000000000222
  0
LINE
  5
3A5
330
2D0
100
AcDbEntity
  8
0
  6
________________
 62
     7
370
     9
100
AcDbLine
 10
21.47699075315238
 20
111.6119209733234
 30
0.0
 11
21.64984430595939
 21
109.1400000033348
 31
0.0
  0
LINE
  5
3A6
330
2D0
100
AcDbEntity
  8
0
  6
________________
 62
     7
370
     9
100
AcDbLine
 10
22.069405177619
 20
103.1400000033347
 30
0.0
 11
22.11424350636222
 21
102.498782028467
 31
0.0
  0
LINE
  5
3A7
330
2D0
100
AcDbEntity
  8
0
  6
________________
 62
     7
370
     9
100
AcDbLine
 10
31.3857564934658
 20
102.4987820284645
 30
0.0
 11
31.43059482220954
 21
103.1400000033348
 31
0.0
  0
LINE
  5
3A8
330
2D0
100
AcDbEntity
  8
0
  6
________________
 62
     7
370
     9
100
AcDbLine
 10
31.8501556938724
 20
109.1400000033348
 30
0.0
 11
32.02300924668054
 21
111.6119209733205
 31
0.0
  0
LINE
  5
3A9
330
2D0
100
AcDbEntity
  8
0
  6
________________
 62
     7
370
     9
100
AcDbLine
 10
22.11424350636222
 20
102.498782028467
 30
0.0
 11
22.64912174323437
 21
102.0000000033369
 31
0.0
  0
LINE
  5
3AA
330
2D0
100
AcDbEntity
  8
0
  6
________________
 62
     7
370
     9
100
AcDbLine
 10
30.85087825659337
 20
102.0000000033347
 30
0.0
 11
31.38575649346579
 21
102.4987820284645
 31
0.0
  0
ARC
  5
3AB
330
2D0
100
AcDbEntity
  8
0
  6
________________
 62
     7
370
     9
100
AcDbCircle
 10
81.97942670296372
 20
111.5421644927489
 30
0.0
 40
1.000000000000002
210
0.0
220
0.0
230
-1.0
100
AcDbArc
 50
4.000000000008338
 51
27.24749278468503
  0
ARC
  5
3AC
330
2D0
100
AcDbEntity
  8
0
  6
________________
 62
     7
370
     9
100
AcDbCircle
 10
94.52057329701734
 20
111.5421644927522
 30
0.0
 40
1.000000000000011
210
0.0
220
0.0
230
-1.0
100
AcDbArc
 50
152.7524754641614
 51
176.0000000000225
  0
LINE
  5
3AD
330
2D0
100
AcDbEntity
  8
0
  6
________________
 62
     7
370
     9
100
AcDbLine
 10
-93.5230092467546
 20
111.6119209664961
 30
0.0
 11
-93.35015569442541
 21
109.1400000033411
 31
0.0
  0
LINE
  5
3AE
330
2D0
100
AcDbEntity
  8
0
  6
________________
 62
     7
370
     9
100
AcDbLine
 10
-92.93059482276581
 20
103.1400000033411
 30
0.0
 11
-92.88575649354476
 21
102.4987820216397
 31
0.0
  0
LINE
  5
3AF
330
2D0
100
AcDbEntity
  8
0
  6
________________
 62
     7
370
     9
100
AcDbLine
 10
-83.61424350644117
 20
102.4987820216372
 30
0.0
 11
-83.56940517721956
 21
103.1400000033411
 31
0.0
  0
LINE
  5
3B0
330
2D0
100
AcDbEntity
  8
0
  6
________________
 62
     7
370
     9
100
AcDbLine
 10
-83.14984430555671
 20
109.1400000033411
 30
0.0
 11
-82.97699075322642
 21
111.6119209664932
 31
0.0
  0
LINE
  5
3B1
330
2D0
100
AcDbEntity
  8
0
  6
________________
 62
     7
370
     9
100
AcDbLine
 10
-92.88575649354476
 20
102.4987820216397
 30
0.0
 11
-92.35087825667262
 21
101.9999999965096
 31
0.0
  0
LINE
  5
3B2
330
2D0
100
AcDbEntity
  8
0
  6
________________
 62
     7
370
     9
100
AcDbLine
 10
-84.1491217433136
 20
101.9999999965074
 30
0.0
 11
-83.61424350644117
 21
102.4987820216372
 31
0.0
  0
ENDBLK
  5
3B6
330
2D0
100
AcDbEntity
  8
0
100
AcDbBlockEnd
  0
BLOCK
  5
4A9
330
3B4
100
AcDbEntity
  8
0
100
AcDbBlockBegin
  2
D_FRAME_VIEW@428
 70
     0
 10
0.0
 20
0.0
 30
0.0
  3
D_FRAME_VIEW@428
  1

  0
ELLIPSE
  5
3B7
330
3B4
100
AcDbEntity
  8
0
  6
________________
 62
     7
370
     9
100
AcDbEllipse
 10
266.0908643830178
 20
-332.1643365727621
 30
0.0
 11
3.478505425897534
 21
4.260281681063057
 31
0.0
210
0.0
220
0.0
230
1.0
 40
0.8164965809500152
 41
2.356194490136096
 42
3.141592653589795
  0
LINE
  5
3B8
330
3B4
100
AcDbEntity
  8
0
  6
________________
 62
     7
370
     9
100
AcDbLine
 10
261.1715148325193
 20
-333.1684945948497
 30
0.0
 11
261.1715148324722
 21
-331.3427527364588
 31
0.0
  0
LINE
  5
3B9
330
3B4
100
AcDbEntity
  8
0
  6
________________
 62
     7
370
     9
100
AcDbLine
 10
263.6535502853002
 20
-330.836113935572
 30
0.0
 11
261.1715193046081
 21
-331.3427563879425
 31
0.0
  0
LINE
  5
3BA
330
3B4
100
AcDbEntity
  8
0
  6
________________
 62
     7
370
     9
100
AcDbLine
 10
261.1715193043256
 20
-320.388305237597
 30
0.0
 11
263.653550283455
 21
-319.8816627855455
 31
0.0
  0
LINE
  5
3BB
330
3B4
100
AcDbEntity
  8
0
  6
________________
 62
     7
370
     9
100
AcDbLine
 10
261.1715148321897
 20
-320.3883015861132
 30
0.0
 11
261.1715148316364
 21
-298.9358347500198
 31
0.0
  0
ELLIPSE
  5
3BC
330
3B4
100
AcDbEntity
  8
0
  6
________________
 62
     7
370
     9
100
AcDbEllipse
 10
266.090864382135
 20
-297.9316767279321
 30
0.0
 11
3.478505425897531
 21
4.260281681063052
 31
0.0
210
0.0
220
0.0
230
1.0
 40
0.8164965809500151
 41
1.864261471949362
 42
2.356194490136098
  0
ELLIPSE
  5
3BD
330
3B4
100
AcDbEntity
  8
0
  6
________________
 62
     7
370
     9
100
AcDbEllipse
 10
165.2441985949772
 20
-243.4332822544033
 30
0.0
 11
3.478505425897529
 21
4.26028168106305
 31
0.0
210
0.0
220
0.0
230
1.0
 40
0.8164965809500152
 41
2.356194490136095
 42
3.141592653589791
  0
LINE
  5
3BE
330
3B4
100
AcDbEntity
  8
0
  6
________________
 62
     7
370
     9
100
AcDbLine
 10
160.3248490444786
 20
-244.4374402764909
 30
0.0
 11
160.324849044461
 21
-243.7527870795944
 31
0.0
  0
LINE
  5
3BF
330
3B4
100
AcDbEntity
  8
0
  6
________________
 62
     7
370
     9
100
AcDbLine
 10
162.8068844818108
 20
-243.2461437175125
 30
0.0
 11
160.324849044461
 21
-243.7527870795944
 31
0.0
  0
LINE
  5
3C0
330
3B4
100
AcDbEntity
  8
0
  6
________________
 62
     7
370
     9
100
AcDbLine
 10
160.3248490441785
 20
-232.7983359292488
 30
0.0
 11
162.8068844799655
 21
-232.2916925674859
 31
0.0
  0
LINE
  5
3C1
330
3B4
100
AcDbEntity
  8
0
  6
________________
 62
     7
370
     9
100
AcDbLine
 10
160.3248490441785
 20
-232.7983359292488
 30
0.0
 11
160.3248490441314
 21
-230.9725940708579
 31
0.0
  0
ELLIPSE
  5
3C2
330
3B4
100
AcDbEntity
  8
0
  6
________________
 62
     7
370
     9
100
AcDbEllipse
 10
165.24419859463
 20
-229.9684360487701
 30
0.0
 11
-3.478505425897544
 21
-4.260281681063067
 31
0.0
210
0.0
220
0.0
230
-1.0
 40
0.8164965809500153
 41
0.7853981634536938
 42
2.356194490248593
  0
LINE
  5
3C3
330
3B4
100
AcDbEntity
  8
0
  6
________________
 62
     7
370
     9
100
AcDbLine
 10
165.2441985945005
 20
-224.9476459381951
 30
0.0
 11
279.2836654469681
 21
-201.6694372443437
 31
0.0
  0
ELLIPSE
  5
3C4
330
3B4
100
AcDbEntity
  8
0
  6
________________
 62
     7
370
     9
100
AcDbEllipse
 10
279.2836654470976
 20
-206.6902273549187
 30
0.0
 11
-3.478505425897527
 21
-4.260281681063049
 31
0.0
210
0.0
220
0.0
230
-1.0
 40
0.816496580950015
 41
2.356194490248591
 42
3.141592653589791
  0
LINE
  5
3C5
330
3B4
100
AcDbEntity
  8
0
  6
________________
 62
   253
370
     9
100
AcDbLine
 10
165.2441985945005
 20
-224.9476459381951
 30
0.0
 11
164.3497714035001
 21
-224.2173491949552
 31
0.0
  0
LINE
  5
3C6
330
3B4
100
AcDbEntity
  8
0
  6
________________
 62
   253
370
     9
100
AcDbLine
 10
160.3248490441314
 20
-230.9725940708578
 30
0.0
 11
159.430421853131
 21
-230.2422973276179
 31
0.0
  0
ELLIPSE
  5
3C7
330
3B4
100
AcDbEntity
  8
0
  6
________________
 62
     7
370
     9
100
AcDbEllipse
 10
164.3497714036296
 20
-229.2381393055302
 30
0.0
 11
-3.478505425897535
 21
-4.260281681063057
 31
0.0
210
0.0
220
0.0
230
-1.0
 40
0.816496580950015
 41
0.7853981634536963
 42
2.356194490248592
  0
LINE
  5
3C8
330
3B4
100
AcDbEntity
  8
0
  6
________________
 62
     7
370
     9
100
AcDbLine
 10
160.3248490441785
 20
-232.7983359292488
 30
0.0
 11
159.4304218531781
 21
-232.0680391860088
 31
0.0
  0
LINE
  5
3C9
330
3B4
100
AcDbEntity
  8
0
  6
________________
 62
     7
370
     9
100
AcDbLine
 10
159.4304218531781
 20
-232.0680391860088
 30
0.0
 11
159.430421853131
 21
-230.2422973276179
 31
0.0
  0
LINE
  5
3CA
330
3B4
100
AcDbEntity
  8
0
  6
________________
 62
   253
370
     9
100
AcDbLine
 10
279.2836654469681
 20
-201.6694372443437
 30
0.0
 11
278.3892382559677
 21
-200.9391405011037
 31
0.0
  0
LINE
  5
3CB
330
3B4
100
AcDbEntity
  8
0
  6
________________
 62
     7
370
     9
100
AcDbLine
 10
164.3497714035001
 20
-224.2173491949551
 30
0.0
 11
278.3892382559677
 21
-200.9391405011037
 31
0.0
  0
LINE
  5
3CC
330
3B4
100
AcDbEntity
  8
0
  6
________________
 62
     7
370
     9
100
AcDbLine
 10
162.8068844817762
 20
-243.0407477404037
 30
0.0
 11
162.1137034264598
 21
-242.4747677788521
 31
0.0
  0
LINE
  5
3CD
330
3B4
100
AcDbEntity
  8
0
  6
________________
 62
     7
370
     9
100
AcDbLine
 10
162.1137034262009
 20
-232.4331875575758
 30
0.0
 11
162.1137034264598
 21
-242.474767778852
 31
0.0
  0
LINE
  5
3CE
330
3B4
100
AcDbEntity
  8
0
  6
________________
 62
     7
370
     9
100
AcDbLine
 10
159.4304218534606
 20
-243.0224903363544
 30
0.0
 11
160.324849044461
 21
-243.7527870795944
 31
0.0
  0
LINE
  5
3CF
330
3B4
100
AcDbEntity
  8
0
  6
________________
 62
     7
370
     9
100
AcDbLine
 10
162.1137034264598
 20
-242.474767778852
 30
0.0
 11
159.4304218534606
 21
-243.0224903363544
 31
0.0
  0
LINE
  5
3D0
330
3B4
100
AcDbEntity
  8
0
  6
________________
 62
   253
370
     9
100
AcDbLine
 10
159.4304218534782
 20
-243.707143533251
 30
0.0
 11
160.3248490444786
 21
-244.4374402764909
 31
0.0
  0
LINE
  5
3D1
330
3B4
100
AcDbEntity
  8
0
  6
________________
 62
     7
370
     9
100
AcDbLine
 10
159.4304218534782
 20
-243.707143533251
 30
0.0
 11
159.4304218534606
 21
-243.0224903363544
 31
0.0
  0
ELLIPSE
  5
3D2
330
3B4
100
AcDbEntity
  8
0
  6
________________
 62
     7
370
     9
100
AcDbEllipse
 10
164.3497714039769
 20
-242.7029855111633
 30
0.0
 11
-3.478505425897526
 21
-4.260281681063048
 31
0.0
210
0.0
220
0.0
230
-1.0
 40
0.8164965809500159
 41
0.0
 42
0.7853981634536967
  0
ELLIPSE
  5
3D3
330
3B4
100
AcDbEntity
  8
0
  6
________________
 62
     7
370
     9
100
AcDbEllipse
 10
165.2441985949772
 20
-243.4332822544033
 30
0.0
 11
3.478505425897528
 21
4.26028168106305
 31
0.0
210
0.0
220
0.0
230
1.0
 40
0.8164965809500152
 41
3.141592653589791
 42
3.408632771635653
  0
ELLIPSE
  5
3D4
330
3B4
100
AcDbEntity
  8
0
  6
________________
 62
     7
370
     9
100
AcDbEllipse
 10
279.2836654470976
 20
-206.6902273549187
 30
0.0
 11
-3.478505425897527
 21
-4.260281681063049
 31
0.0
210
0.0
220
0.0
230
-1.0
 40
0.8164965809500151
 41
3.141592653589791
 42
3.355473221975571
  0
ELLIPSE
  5
3D5
330
3B4
100
AcDbEntity
  8
0
  6
________________
 62
     7
370
     9
100
AcDbEllipse
 10
278.3892382560973
 20
-205.9599306116787
 30
0.0
 11
-3.478505425897534
 21
-4.260281681063056
 31
0.0
210
0.0
220
0.0
230
-1.0
 40
0.8164965809500151
 41
2.356194490248593
 42
3.141592653589794
  0
LINE
  5
3D6
330
3B4
100
AcDbEntity
  8
0
  6
________________
 62
   253
370
     9
100
AcDbLine
 10
261.1715148316364
 20
-298.9358347500198
 30
0.0
 11
260.277087640636
 21
-298.2055380067799
 31
0.0
  0
ELLIPSE
  5
3D7
330
3B4
100
AcDbEntity
  8
0
  6
________________
 62
     7
370
     9
100
AcDbEllipse
 10
265.1964371911346
 20
-297.2013799846922
 30
0.0
 11
-3.478505425897534
 21
-4.260281681063057
 31
0.0
210
0.0
220
0.0
230
-1.0
 40
0.8164965809500152
 41
0.7853981634536955
 42
1.27733118164043
  0
LINE
  5
3D8
330
3B4
100
AcDbEntity
  8
0
  6
________________
 62
     7
370
     9
100
AcDbLine
 10
261.1715148321897
 20
-320.3883015861132
 30
0.0
 11
260.2770876411893
 21
-319.6580048428733
 31
0.0
  0
LINE
  5
3D9
330
3B4
100
AcDbEntity
  8
0
  6
________________
 62
     7
370
     9
100
AcDbLine
 10
260.2770876411893
 20
-319.6580048428733
 30
0.0
 11
260.2770876406361
 21
-298.2055380067799
 31
0.0
  0
LINE
  5
3DA
330
3B4
100
AcDbEntity
  8
0
  6
________________
 62
     7
370
     9
100
AcDbLine
 10
263.6535502852657
 20
-330.6307134099061
 30
0.0
 11
262.960369214471
 21
-330.0647334357164
 31
0.0
  0
LINE
  5
3DB
330
3B4
100
AcDbEntity
  8
0
  6
________________
 62
     7
370
     9
100
AcDbLine
 10
262.9603692142121
 20
-320.023157778795
 30
0.0
 11
262.960369214471
 21
-330.0647334357164
 31
0.0
  0
LINE
  5
3DC
330
3B4
100
AcDbEntity
  8
0
  6
________________
 62
     7
370
     9
100
AcDbLine
 10
260.2770876414718
 20
-330.6124559932189
 30
0.0
 11
261.1715148324722
 21
-331.3427527364588
 31
0.0
  0
LINE
  5
3DD
330
3B4
100
AcDbEntity
  8
0
  6
________________
 62
   253
370
     9
100
AcDbLine
 10
260.2770876415188
 20
-332.4381978516097
 30
0.0
 11
261.1715148325193
 21
-333.1684945948497
 31
0.0
  0
LINE
  5
3DE
330
3B4
100
AcDbEntity
  8
0
  6
________________
 62
     7
370
     9
100
AcDbLine
 10
260.2770876415188
 20
-332.4381978516097
 30
0.0
 11
260.2770876414718
 21
-330.6124559932189
 31
0.0
  0
LINE
  5
3DF
330
3B4
100
AcDbEntity
  8
0
  6
________________
 62
     7
370
     9
100
AcDbLine
 10
262.960369214471
 20
-330.0647334357164
 30
0.0
 11
260.2770876414718
 21
-330.6124559932189
 31
0.0
  0
ELLIPSE
  5
3E0
330
3B4
100
AcDbEntity
  8
0
  6
________________
 62
     7
370
     9
100
AcDbEllipse
 10
265.1964371920175
 20
-331.4340398295221
 30
0.0
 11
-3.478505425897533
 21
-4.260281681063054
 31
0.0
210
0.0
220
0.0
230
-1.0
 40
0.8164965809500151
 41
0.0
 42
0.7853981634536963
  0
ELLIPSE
  5
3E1
330
3B4
100
AcDbEntity
  8
0
  6
________________
 62
     7
370
     9
100
AcDbEllipse
 10
266.0908643830178
 20
-332.1643365727621
 30
0.0
 11
3.478505425897534
 21
4.260281681063057
 31
0.0
210
0.0
220
0.0
230
1.0
 40
0.8164965809500152
 41
3.141592653589794
 42
3.408632775296006
  0
LINE
  5
3E2
330
3B4
100
AcDbEntity
  8
0
  6
________________
 62
     7
370
     9
100
AcDbLine
 10
261.6187284277709
 20
-320.2970190575343
 30
0.0
 11
261.6187284279945
 21
-328.96928832078
 31
0.0
  0
LINE
  5
3E3
330
3B4
100
AcDbEntity
  8
0
  6
________________
 62
     7
370
     9
100
AcDbLine
 10
261.6187284279945
 20
-328.9692883207799
 30
0.0
 11
260.1283652280069
 21
-328.9327679756172
 31
0.0
  0
LINE
  5
3E4
330
3B4
100
AcDbEntity
  8
0
  6
________________
 62
     7
370
     9
100
AcDbLine
 10
260.1283652277897
 20
-320.509946514717
 30
0.0
 11
260.1283652280069
 21
-328.9327679756173
 31
0.0
  0
LINE
  5
3E5
330
3B4
100
AcDbEntity
  8
0
  6
________________
 62
     7
370
     9
100
AcDbLine
 10
257.3374990568482
 20
-325.5041190344627
 30
0.0
 11
256.6426004075449
 21
-325.0403741060387
 31
0.0
  0
LINE
  5
3E6
330
3B4
100
AcDbEntity
  8
0
  6
________________
 62
     7
370
     9
100
AcDbLine
 10
256.6426004075449
 20
-325.040374106035
 30
0.0
 11
257.2956108285316
 21
-324.6372786477583
 31
0.0
  0
LINE
  5
3E7
330
3B4
100
AcDbEntity
  8
0
  6
________________
 62
     7
370
     9
100
AcDbLine
 10
257.2360351920144
 20
-325.9779633492283
 30
0.0
 11
257.2360351920146
 21
-325.9854672796034
 31
0.0
  0
LINE
  5
3E8
330
3B4
100
AcDbEntity
  8
0
  6
________________
 62
     7
370
     9
100
AcDbLine
 10
260.1283652280069
 20
-328.9327679756172
 30
0.0
 11
259.1366929720672
 21
-328.2190924764331
 31
0.0
  0
LINE
  5
3E9
330
3B4
100
AcDbEntity
  8
0
  6
________________
 62
     7
370
     9
100
AcDbLine
 10
266.0009437317449
 20
-333.1436064098928
 30
0.0
 11
266.0009466292494
 21
-333.1344583794804
 31
0.0
  0
ELLIPSE
  5
3EA
330
3B4
100
AcDbEntity
  8
0
  6
________________
 62
     7
370
     9
100
AcDbEllipse
 10
174.2510804111253
 20
-231.3888632170749
 30
0.0
 11
4.363943171032366
 21
5.344717017766224
 31
0.0
210
0.0
220
0.0
230
1.0
 40
0.8164965809277256
 41
0.4632286337082683
 42
1.107567693375888
  0
LINE
  5
3EB
330
3B4
100
AcDbEntity
  8
0
  6
________________
 62
   253
370
     9
100
AcDbLine
 10
166.6082000456115
 20
-258.5139100219284
 30
0.0
 11
166.6082000411366
 21
-231.949365983102
 31
0.0
  0
ELLIPSE
  5
3EC
330
3B4
100
AcDbEntity
  8
0
  6
________________
 62
     7
370
     9
100
AcDbEllipse
 10
167.9498408276369
 20
-231.6755047041513
 30
0.0
 11
-1.500000000000002
 21
-2.526825831905557E-10
 31
0.0
210
0.0
220
0.0
230
1.0
 40
0.4082482904782181
 41
0.4636476089321463
 42
0.8034845183862347
  0
LINE
  5
3ED
330
3B4
100
AcDbEntity
  8
0
  6
________________
 62
     7
370
     9
100
AcDbLine
 10
166.9085365613193
 20
-232.1162777798952
 30
0.0
 11
166.9085365612885
 21
-231.9337035940614
 31
0.0
  0
ELLIPSE
  5
3EE
330
3B4
100
AcDbEntity
  8
0
  6
________________
 62
     7
370
     9
100
AcDbEllipse
 10
167.9498408276062
 20
-231.4929305183174
 30
0.0
 11
1.499999999999987
 21
2.526808762226530E-10
 31
0.0
210
0.0
220
0.0
230
-1.0
 40
0.4082482904782183
 41
2.33810813520368
 42
2.677945044657756
  0
LINE
  5
3EF
330
3B4
100
AcDbEntity
  8
0
  6
________________
 62
   253
370
     9
100
AcDbLine
 10
166.6082000411059
 20
-231.7667917972681
 30
0.0
 11
166.6082000409522
 21
-230.8539208680988
 31
0.0
  0
LINE
  5
3F0
330
3B4
100
AcDbEntity
  8
0
  6
________________
 62
     7
370
     9
100
AcDbLine
 10
168.6206612209738
 20
-232.4970885402835
 30
0.0
 11
166.608200040991
 21
-230.853920868049
 31
0.0
  0
LINE
  5
3F1
330
3B4
100
AcDbEntity
  8
0
  6
________________
 62
   253
370
     9
100
AcDbLine
 10
168.6206612209333
 20
-232.497088540332
 30
0.0
 11
168.6206612253159
 21
-258.513910021657
 31
0.0
  0
ELLIPSE
  5
3F2
330
3B4
100
AcDbEntity
  8
0
  6
________________
 62
     7
370
     9
100
AcDbEllipse
 10
167.9498408320656
 20
-257.966187464227
 30
0.0
 11
1.34164078624559
 21
1.643167672724213
 31
0.0
210
0.0
220
0.0
230
1.0
 40
0.408248290441411
 41
3.141592653554051
 42
3.60524026255768
  0
LINE
  5
3F3
330
3B4
100
AcDbEntity
  8
0
  6
________________
 62
   253
370
     9
100
AcDbLine
 10
166.608200045796
 20
-259.6093551369316
 30
0.0
 11
166.6082000456422
 21
-258.6964842077623
 31
0.0
  0
ELLIPSE
  5
3F4
330
3B4
100
AcDbEntity
  8
0
  6
________________
 62
     7
370
     9
100
AcDbEllipse
 10
167.9498408321425
 20
-258.4226229288116
 30
0.0
 11
-1.499999999999988
 21
-2.526825831905534E-10
 31
0.0
210
0.0
220
0.0
230
1.0
 40
0.4082482904782181
 41
0.4636476089321468
 42
0.803484518386226
  0
LINE
  5
3F5
330
3B4
100
AcDbEntity
  8
0
  6
________________
 62
     7
370
     9
100
AcDbLine
 10
166.9085365658249
 20
-258.8633960045556
 30
0.0
 11
166.9085365657942
 21
-258.6808218187217
 31
0.0
  0
ELLIPSE
  5
3F6
330
3B4
100
AcDbEntity
  8
0
  6
________________
 62
     7
370
     9
100
AcDbEllipse
 10
167.9498408321118
 20
-258.2400487429778
 30
0.0
 11
1.499999999999987
 21
2.526808762226530E-10
 31
0.0
210
0.0
220
0.0
230
-1.0
 40
0.4082482904782183
 41
2.338108135203707
 42
2.677945044657774
  0
LINE
  5
3F7
330
3B4
100
AcDbEntity
  8
0
  6
________________
 62
   253
370
     9
100
AcDbLine
 10
294.9585019497049
 20
-206.7084847724751
 30
0.0
 11
168.6206612209334
 21
-232.497088540332
 31
0.0
  0
LINE
  5
3F8
330
3B4
100
AcDbEntity
  8
0
  6
________________
 62
   253
370
     9
100
AcDbLine
 10
166.6082000409522
 20
-230.8539208680988
 30
0.0
 11
295.6293223427242
 21
-204.5175945423404
 31
0.0
  0
ELLIPSE
  5
3F9
330
3B4
100
AcDbEntity
  8
0
  6
________________
 62
     7
370
     9
100
AcDbEllipse
 10
294.2876815564546
 20
-206.1607622150451
 30
0.0
 11
1.34164078624559
 21
1.643167672724213
 31
0.0
210
0.0
220
0.0
230
1.0
 40
0.408248290441411
 41
4.712388980348945
 42
5.819537698211697
  0
LINE
  5
3FA
330
3B4
100
AcDbEntity
  8
0
  6
________________
 62
   253
370
     9
100
AcDbLine
 10
294.958501972525
 20
-342.1785306611985
 30
0.0
 11
294.9585019497048
 21
-206.7084847724751
 31
0.0
  0
LINE
  5
3FB
330
3B4
100
AcDbEntity
  8
0
  6
________________
 62
   253
370
     9
100
AcDbLine
 10
269.4673270290206
 20
-347.3818949612617
 30
0.0
 11
294.958501972525
 21
-342.1785306611985
 31
0.0
  0
LINE
  5
3FC
330
3B4
100
AcDbEntity
  8
0
  6
________________
 62
   253
370
     9
100
AcDbLine
 10
269.4673270105831
 20
-237.9286705538631
 30
0.0
 11
269.4673270290206
 21
-347.3818949612617
 31
0.0
  0
LINE
  5
3FD
330
3B4
100
AcDbEntity
  8
0
  6
________________
 62
   253
370
     9
100
AcDbLine
 10
168.6206612253159
 20
-258.513910021657
 30
0.0
 11
269.4673270105831
 21
-237.9286705538631
 31
0.0
  0
LINE
  5
3FE
330
3B4
100
AcDbEntity
  8
0
  6
________________
 62
     7
370
     9
100
AcDbLine
 10
162.8068844793542
 20
-228.6630306384984
 30
0.0
 11
162.8068844792004
 21
-227.750159709329
 31
0.0
  0
LINE
  5
3FF
330
3B4
100
AcDbEntity
  8
0
  6
________________
 62
     7
370
     9
100
AcDbLine
 10
166.6082000409522
 20
-230.8539208680988
 30
0.0
 11
162.8068844792004
 21
-227.750159709329
 31
0.0
  0
LINE
  5
400
330
3B4
100
AcDbEntity
  8
0
  6
________________
 62
     7
370
     9
100
AcDbLine
 10
166.6082000411059
 20
-231.7667917972681
 30
0.0
 11
162.8068844793542
 21
-228.6630306384983
 31
0.0
  0
LINE
  5
401
330
3B4
100
AcDbEntity
  8
0
  6
________________
 62
     7
370
     9
100
AcDbLine
 10
162.8068844792004
 20
-227.750159709329
 30
0.0
 11
291.8280067809725
 21
-201.4138333835706
 31
0.0
  0
LINE
  5
402
330
3B4
100
AcDbEntity
  8
0
  6
________________
 62
     7
370
     9
100
AcDbLine
 10
295.6293223427242
 20
-204.5175945423404
 30
0.0
 11
291.8280067809724
 21
-201.4138333835706
 31
0.0
  0
LINE
  5
403
330
3B4
100
AcDbEntity
  8
0
  6
________________
 62
     7
370
     9
100
AcDbLine
 10
162.806884479385
 20
-228.8456048243322
 30
0.0
 11
162.985769917553
 21
-228.8090899871453
 31
0.0
  0
LINE
  5
404
330
3B4
100
AcDbEntity
  8
0
  6
________________
 62
     7
370
     9
100
AcDbLine
 10
162.806884479385
 20
-228.8456048243322
 30
0.0
 11
166.6082000411366
 21
-231.949365983102
 31
0.0
  0
ELLIPSE
  5
405
330
3B4
100
AcDbEntity
  8
0
  6
________________
 62
     7
370
     9
100
AcDbEllipse
 10
164.4839354648634
 20
-244.1818364341973
 30
0.0
 11
-0.3500000002429926
 21
1.714642819898626
 31
0.0
210
0.0
220
0.0
230
-1.0
 40
0.4082482904052524
 41
3.60524026259344
 42
4.325015995464404
  0
ELLIPSE
  5
406
330
3B4
100
AcDbEntity
  8
0
  6
________________
 62
     7
370
     9
100
AcDbEllipse
 10
164.4839354648634
 20
-244.1818364341973
 30
0.0
 11
-0.3500000002429678
 21
1.714642819898632
 31
0.0
210
0.0
220
0.0
230
-1.0
 40
0.4082482904052508
 41
5.100615619365319
 42
6.283185307179586
  0
LINE
  5
407
330
3B4
100
AcDbEntity
  8
0
  6
________________
 62
     7
370
     9
100
AcDbLine
 10
162.8068844838598
 20
-255.4101488631587
 30
0.0
 11
162.806884479385
 21
-228.8456048243322
 31
0.0
  0
LINE
  5
408
330
3B4
100
AcDbEntity
  8
0
  6
________________
 62
     7
370
     9
100
AcDbLine
 10
166.6082000456115
 20
-258.5139100219284
 30
0.0
 11
162.8068844838598
 21
-255.4101488631587
 31
0.0
  0
ELLIPSE
  5
409
330
3B4
100
AcDbEntity
  8
0
  6
________________
 62
     7
370
     9
100
AcDbEllipse
 10
164.4839354648634
 20
-244.1818364341973
 30
0.0
 11
-0.3500000002429711
 21
1.714642819898632
 31
0.0
210
0.0
220
0.0
230
-1.0
 40
0.4082482904052577
 41
3.141592653589789
 42
3.605240262593604
  0
ELLIPSE
  5
40A
330
3B4
100
AcDbEntity
  8
0
  6
________________
 62
     7
370
     9
100
AcDbEllipse
 10
164.4839354648634
 20
-244.1818364341973
 30
0.0
 11
-0.3500000002429711
 21
1.714642819898632
 31
0.0
210
0.0
220
0.0
230
-1.0
 40
0.4082482904052577
 41
0.0
 42
3.141592653589789
  0
ELLIPSE
  5
40B
330
3B4
100
AcDbEntity
  8
0
  6
________________
 62
     7
370
     9
100
AcDbEllipse
 10
167.9498408320656
 20
-257.966187464227
 30
0.0
 11
1.34164078624559
 21
1.643167672724213
 31
0.0
210
0.0
220
0.0
230
1.0
 40
0.408248290441411
 41
3.60524026255768
 42
4.71238898034894
  0
ELLIPSE
  5
40C
330
3B4
100
AcDbEntity
  8
0
  6
________________
 62
     7
370
     9
100
AcDbEllipse
 10
268.7965066173328
 20
-237.3809479964332
 30
0.0
 11
-1.34164078624559
 21
-1.643167672724213
 31
0.0
210
0.0
220
0.0
230
1.0
 40
0.408248290441411
 41
0.4636476089678909
 42
1.570796326759153
  0
LINE
  5
40D
330
3B4
100
AcDbEntity
  8
0
  6
________________
 62
     7
370
     9
100
AcDbLine
 10
162.8068844838906
 20
-255.5927230489926
 30
0.0
 11
166.6082000456422
 21
-258.6964842077624
 31
0.0
  0
LINE
  5
40E
330
3B4
100
AcDbEntity
  8
0
  6
________________
 62
     7
370
     9
100
AcDbLine
 10
162.9857699220586
 20
-255.5562082118056
 30
0.0
 11
162.8068844838906
 21
-255.5927230489926
 31
0.0
  0
LINE
  5
40F
330
3B4
100
AcDbEntity
  8
0
  6
________________
 62
     7
370
     9
100
AcDbLine
 10
166.608200045796
 20
-259.6093551369316
 30
0.0
 11
162.8068844840443
 21
-256.5055939781618
 31
0.0
  0
LINE
  5
410
330
3B4
100
AcDbEntity
  8
0
  6
________________
 62
     7
370
     9
100
AcDbLine
 10
162.8068844840443
 20
-256.5055939781619
 30
0.0
 11
162.8068844838906
 21
-255.5927230489926
 31
0.0
  0
ELLIPSE
  5
411
330
3B4
100
AcDbEntity
  8
0
  6
________________
 62
     7
370
     9
100
AcDbEllipse
 10
294.2876815564546
 20
-206.1607622150451
 30
0.0
 11
1.34164078624559
 21
1.643167672724213
 31
0.0
210
0.0
220
0.0
230
1.0
 40
0.408248290441411
 41
5.819537698211697
 42
6.283185307179586
  0
LINE
  5
412
330
3B4
100
AcDbEntity
  8
0
  6
________________
 62
     7
370
     9
100
AcDbLine
 10
294.9585019725655
 20
-342.1785306611499
 30
0.0
 11
295.7876815794648
 21
-342.8555529749641
 31
0.0
  0
ELLIPSE
  5
413
330
3B4
100
AcDbEntity
  8
0
  6
________________
 62
     7
370
     9
100
AcDbEllipse
 10
268.7965066357704
 20
-346.8341724038317
 30
0.0
 11
-1.34164078624559
 21
-1.643167672724213
 31
0.0
210
0.0
220
0.0
230
1.0
 40
0.408248290441411
 41
0.0
 42
0.4636476089678874
  0
LINE
  5
414
330
3B4
100
AcDbEntity
  8
0
  6
________________
 62
   253
370
     9
100
AcDbLine
 10
267.4548658495008
 20
-348.4773400765363
 30
0.0
 11
267.4548658415968
 21
-301.5557743172345
 31
0.0
  0
ELLIPSE
  5
415
330
3B4
100
AcDbEntity
  8
0
  6
________________
 62
     7
370
     9
100
AcDbEllipse
 10
268.7965066280971
 20
-301.2819130382838
 30
0.0
 11
1.499999999999995
 21
2.526756304188628E-10
 31
0.0
210
0.0
220
0.0
230
-1.0
 40
0.4082482904782151
 41
2.338108135203696
 42
2.677945044657772
  0
LINE
  5
416
330
3B4
100
AcDbEntity
  8
0
  6
________________
 62
     7
370
     9
100
AcDbLine
 10
267.7552023617795
 20
-301.7226861140277
 30
0.0
 11
267.7552023512347
 21
-239.1244344291147
 31
0.0
  0
LINE
  5
417
330
3B4
100
AcDbEntity
  8
0
  6
________________
 62
     7
370
     9
100
AcDbLine
 10
267.4548658415968
 20
-301.5557743172346
 30
0.0
 11
263.6535502798451
 21
-298.4520131584648
 31
0.0
  0
LINE
  5
418
330
3B4
100
AcDbEntity
  8
0
  6
________________
 62
     7
370
     9
100
AcDbLine
 10
263.6535502798451
 20
-298.4520131584648
 30
0.0
 11
264.1007638822285
 21
-298.3607260640762
 31
0.0
  0
LINE
  5
419
330
3B4
100
AcDbEntity
  8
0
  6
________________
 62
     7
370
     9
100
AcDbLine
 10
267.7552023616389
 20
-300.8881271297359
 30
0.0
 11
267.6561119594714
 21
-300.8072201551746
 31
0.0
  0
LINE
  5
41A
330
3B4
100
AcDbEntity
  8
0
  6
________________
 62
     7
370
     9
100
AcDbLine
 10
267.4548658495008
 20
-348.4773400765363
 30
0.0
 11
263.6535502877492
 21
-345.3735789177665
 31
0.0
  0
LINE
  5
41B
330
3B4
100
AcDbEntity
  8
0
  6
________________
 62
     7
370
     9
100
AcDbLine
 10
263.6535502877491
 20
-345.3735789177665
 30
0.0
 11
263.6535502798451
 21
-298.4520131584648
 31
0.0
  0
ELLIPSE
  5
41C
330
3B4
100
AcDbEntity
  8
0
  6
________________
 62
     7
370
     9
100
AcDbEllipse
 10
265.330601268353
 20
-331.771802072965
 30
0.0
 11
-0.3500000002429742
 21
1.714642819898638
 31
0.0
210
0.0
220
0.0
230
-1.0
 40
0.4082482904052577
 41
3.605240262593427
 42
4.324946824018094
  0
ELLIPSE
  5
41D
330
3B4
100
AcDbEntity
  8
0
  6
________________
 62
     7
370
     9
100
AcDbEllipse
 10
265.330601268353
 20
-331.771802072965
 30
0.0
 11
-0.350000000242975
 21
1.714642819898638
 31
0.0
210
0.0
220
0.0
230
-1.0
 40
0.4082482904052576
 41
5.100587091908647
 42
6.283185307179586
  0
ELLIPSE
  5
41E
330
3B4
100
AcDbEntity
  8
0
  6
________________
 62
     7
370
     9
100
AcDbEllipse
 10
265.330601268353
 20
-331.771802072965
 30
0.0
 11
-0.3500000002429762
 21
1.714642819898637
 31
0.0
210
0.0
220
0.0
230
-1.0
 40
0.4082482904052575
 41
3.141592653589786
 42
3.605240262593588
  0
ELLIPSE
  5
41F
330
3B4
100
AcDbEntity
  8
0
  6
________________
 62
     7
370
     9
100
AcDbEllipse
 10
265.330601268353
 20
-331.771802072965
 30
0.0
 11
-0.3500000002429725
 21
1.714642819898638
 31
0.0
210
0.0
220
0.0
230
-1.0
 40
0.4082482904052576
 41
0.0
 42
3.141592653589794
  0
ELLIPSE
  5
420
330
3B4
100
AcDbEntity
  8
0
  6
________________
 62
     7
370
     9
100
AcDbEllipse
 10
268.7965066357704
 20
-346.8341724038317
 30
0.0
 11
-1.34164078624559
 21
-1.643167672724213
 31
0.0
210
0.0
220
0.0
230
1.0
 40
0.408248290441411
 41
0.4636476089678879
 42
1.570796326759152
  0
LINE
  5
421
330
3B4
100
AcDbEntity
  8
0
  6
________________
 62
   253
370
     9
100
AcDbLine
 10
153.5942844218391
 20
-220.2281032443886
 30
0.0
 11
153.5942844219278
 21
-221.1409741735712
 31
0.0
  0
LINE
  5
422
330
3B4
100
AcDbEntity
  8
0
  6
________________
 62
     7
370
     9
100
AcDbLine
 10
153.5942844218391
 20
-220.2281032443886
 30
0.0
 11
157.3955999835908
 21
-223.3318644031584
 31
0.0
  0
LINE
  5
423
330
3B4
100
AcDbEntity
  8
0
  6
________________
 62
     7
370
     9
100
AcDbLine
 10
157.3955999836795
 20
-224.244735332341
 30
0.0
 11
157.3955999835908
 21
-223.3318644031584
 31
0.0
  0
LINE
  5
424
330
3B4
100
AcDbEntity
  8
0
  6
________________
 62
     7
370
     9
100
AcDbLine
 10
157.3955999836795
 20
-224.244735332341
 30
0.0
 11
153.5942844219278
 21
-221.1409741735712
 31
0.0
  0
LINE
  5
425
330
3B4
100
AcDbEntity
  8
0
  6
________________
 62
     7
370
     9
100
AcDbLine
 10
157.3955999835908
 20
-223.3318644031584
 30
0.0
 11
286.4167222853628
 21
-196.995538086981
 31
0.0
  0
LINE
  5
426
330
3B4
100
AcDbEntity
  8
0
  6
________________
 62
   253
370
     9
100
AcDbLine
 10
282.6154067236111
 20
-193.8917769282112
 30
0.0
 11
153.5942844218391
 21
-220.2281032443886
 31
0.0
  0
LINE
  5
427
330
3B4
100
AcDbEntity
  8
0
  6
________________
 62
     7
370
     9
100
AcDbLine
 10
282.6154067236111
 20
-193.8917769282112
 30
0.0
 11
286.4167222853628
 21
-196.995538086981
 31
0.0
  0
LINE
  5
428
330
3B4
100
AcDbEntity
  8
0
  6
________________
 62
     7
370
     9
100
AcDbLine
 10
286.4167222853628
 20
-196.995538086981
 30
0.0
 11
286.4167222854515
 21
-197.9084090161635
 31
0.0
  0
LINE
  5
429
330
3B4
100
AcDbEntity
  8
0
  6
________________
 62
     7
370
     9
100
AcDbLine
 10
157.3955999836795
 20
-224.244735332341
 30
0.0
 11
286.4167222854515
 21
-197.9084090161635
 31
0.0
  0
ELLIPSE
  5
42A
330
3B4
100
AcDbEntity
  8
0
  6
________________
 62
     7
370
     9
100
AcDbEllipse
 10
154.9359252084458
 20
-221.0496870805567
 30
0.0
 11
-1.50000000000003
 21
-1.457331755272435E-10
 31
0.0
210
0.0
220
0.0
230
1.0
 40
0.4082482904485124
 41
0.1238106995073647
 42
0.4636476089613845
  0
LINE
  5
42B
330
3B4
100
AcDbEntity
  8
0
  6
________________
 62
     7
370
     9
100
AcDbLine
 10
153.5525478064324
 20
-221.1038500780921
 30
0.0
 11
153.447407346628
 21
-221.1253117845867
 31
0.0
  0
LINE
  5
42C
330
3B4
100
AcDbEntity
  8
0
  6
________________
 62
     7
370
     9
100
AcDbLine
 10
158.2900271746974
 20
-224.2447353322768
 30
0.0
 11
158.1111417364855
 21
-224.0986759836192
 31
0.0
  0
LINE
  5
42D
330
3B4
100
AcDbEntity
  8
0
  6
________________
 62
     7
370
     9
100
AcDbLine
 10
158.2900271746974
 20
-224.2447353322768
 30
0.0
 11
157.3955999836973
 21
-224.4273095181775
 31
0.0
  0
LINE
  5
42E
330
3B4
100
AcDbEntity
  8
0
  6
________________
 62
     7
370
     9
100
AcDbLine
 10
153.5942844219456
 20
-221.3235483594078
 30
0.0
 11
157.3955999836973
 21
-224.4273095181775
 31
0.0
  0
ELLIPSE
  5
42F
330
3B4
100
AcDbEntity
  8
0
  6
________________
 62
     7
370
     9
100
AcDbEllipse
 10
155.7185490019286
 20
-237.0249283410961
 30
0.0
 11
-0.3500000001207422
 21
1.714642819923573
 31
0.0
210
0.0
220
0.0
230
-1.0
 40
0.4082482904349598
 41
0.463647608974539
 42
3.141592653589613
  0
LINE
  5
430
330
3B4
100
AcDbEntity
  8
0
  6
________________
 62
   253
370
     9
100
AcDbLine
 10
153.5942844219456
 20
-221.3235483594078
 30
0.0
 11
153.5942844245267
 21
-247.8880923986208
 31
0.0
  0
LINE
  5
431
330
3B4
100
AcDbEntity
  8
0
  6
________________
 62
     7
370
     9
100
AcDbLine
 10
157.3955999862783
 20
-250.9918535573906
 30
0.0
 11
157.3955999836972
 21
-224.4273095181775
 31
0.0
  0
LINE
  5
432
330
3B4
100
AcDbEntity
  8
0
  6
________________
 62
     7
370
     9
100
AcDbLine
 10
157.3955999862783
 20
-250.9918535573906
 30
0.0
 11
153.5942844245266
 21
-247.8880923986208
 31
0.0
  0
LINE
  5
433
330
3B4
100
AcDbEntity
  8
0
  6
________________
 62
     7
370
     9
100
AcDbLine
 10
158.2900271772785
 20
-250.8092793714899
 30
0.0
 11
158.2900271746974
 21
-224.2447353322769
 31
0.0
  0
LINE
  5
434
330
3B4
100
AcDbEntity
  8
0
  6
________________
 62
     7
370
     9
100
AcDbLine
 10
157.3955999862783
 20
-250.9918535573906
 30
0.0
 11
158.2900271772785
 21
-250.8092793714898
 31
0.0
  0
LINE
  5
435
330
3B4
100
AcDbEntity
  8
0
  6
________________
 62
     7
370
     9
100
AcDbLine
 10
153.5942844218455
 20
-220.2281032443787
 30
0.0
 11
153.435925208355
 21
-220.0988034880267
 31
0.0
  0
ELLIPSE
  5
436
330
3B4
100
AcDbEntity
  8
0
  6
________________
 62
     7
370
     9
100
AcDbEllipse
 10
281.273765937244
 20
-195.5349446008361
 30
0.0
 11
1.341640786362728
 21
1.64316767262857
 31
0.0
210
0.0
220
0.0
230
1.0
 40
0.408248290441411
 41
0.0
 42
0.4636476089678864
  0
ELLIPSE
  5
437
330
3B4
100
AcDbEntity
  8
0
  6
________________
 62
     7
370
     9
100
AcDbEllipse
 10
154.9359252110003
 20
-247.340369841015
 30
0.0
 11
-1.341640786362728
 21
-1.64316767262857
 31
0.0
210
0.0
220
0.0
230
1.0
 40
0.408248290441411
 41
5.819537698211699
 42
6.283185307179586
  0
LINE
  5
438
330
3B4
100
AcDbEntity
  8
0
  6
________________
 62
     7
370
     9
100
AcDbLine
 10
153.4474073492091
 20
-247.6898558237997
 30
0.0
 11
153.4474073492268
 21
-247.8724300096362
 31
0.0
  0
ELLIPSE
  5
439
330
3B4
100
AcDbEntity
  8
0
  6
________________
 62
     7
370
     9
100
AcDbEllipse
 10
154.9359252110446
 20
-247.7968053056062
 30
0.0
 11
-1.499999999999974
 21
-1.457482468047974E-10
 31
0.0
210
0.0
220
0.0
230
1.0
 40
0.4082482904485134
 41
0.1238106995073548
 42
0.463647608961378
  0
LINE
  5
43A
330
3B4
100
AcDbEntity
  8
0
  6
________________
 62
   253
370
     9
100
AcDbLine
 10
153.5942844245444
 20
-248.0706665844573
 30
0.0
 11
153.5942844246331
 21
-248.9835375136399
 31
0.0
  0
LINE
  5
43B
330
3B4
100
AcDbEntity
  8
0
  6
________________
 62
     7
370
     9
100
AcDbLine
 10
153.4474073466103
 20
-220.9427375987502
 30
0.0
 11
153.447407346628
 21
-221.1253117845867
 31
0.0
  0
ELLIPSE
  5
43C
330
3B4
100
AcDbEntity
  8
0
  6
________________
 62
     7
370
     9
100
AcDbEllipse
 10
154.9359252110269
 20
-247.6142311197697
 30
0.0
 11
1.500000000000001
 21
1.457526183079595E-10
 31
0.0
210
0.0
220
0.0
230
-1.0
 40
0.408248290448515
 41
2.677945044628536
 42
3.017781954082548
  0
ELLIPSE
  5
43D
330
3B4
100
AcDbEntity
  8
0
  6
________________
 62
     7
370
     9
100
AcDbEllipse
 10
154.935925208428
 20
-220.8671128947202
 30
0.0
 11
1.500000000000029
 21
1.457254317216467E-10
 31
0.0
210
0.0
220
0.0
230
-1.0
 40
0.4082482904485076
 41
2.677945044628537
 42
3.017781954082549
  0
ELLIPSE
  5
43E
330
3B4
100
AcDbEntity
  8
0
  6
________________
 62
     7
370
     9
100
AcDbEllipse
 10
155.7185490019286
 20
-237.0249283410961
 30
0.0
 11
-0.3500000001207393
 21
1.714642819923573
 31
0.0
210
0.0
220
0.0
230
-1.0
 40
0.4082482904349606
 41
0.0
 42
0.4636476089747129
  0
ELLIPSE
  5
43F
330
3B4
100
AcDbEntity
  8
0
  6
________________
 62
     7
370
     9
100
AcDbEllipse
 10
155.7185490019286
 20
-237.0249283410961
 30
0.0
 11
-0.3500000001207098
 21
1.714642819923581
 31
0.0
210
0.0
220
0.0
230
-1.0
 40
0.4082482904349606
 41
3.14159265358973
 42
4.324801936904894
  0
ELLIPSE
  5
440
330
3B4
100
AcDbEntity
  8
0
  6
________________
 62
     7
370
     9
100
AcDbEllipse
 10
155.7185490019286
 20
-237.0249283410961
 30
0.0
 11
-0.3500000001207408
 21
1.714642819923573
 31
0.0
210
0.0
220
0.0
230
-1.0
 40
0.4082482904349641
 41
5.100527419200272
 42
6.283185307179586
  0
LINE
  5
441
330
3B4
100
AcDbEntity
  8
0
  6
________________
 62
   253
370
     9
100
AcDbLine
 10
281.0501591398576
 20
-199.0956022744429
 30
0.0
 11
281.0501591398486
 21
-199.0038541314865
 31
0.0
  0
LINE
  5
442
330
3B4
100
AcDbEntity
  8
0
  6
________________
 62
     7
370
     9
100
AcDbLine
 10
254.2940731406586
 20
-290.7317201275204
 30
0.0
 11
254.6869176967906
 21
-290.6515310682622
 31
0.0
  0
LINE
  5
443
330
3B4
100
AcDbEntity
  8
0
  6
________________
 62
     7
370
     9
100
AcDbLine
 10
254.2940731359112
 20
-241.8721759260362
 30
0.0
 11
254.2940731406586
 21
-290.7317201275204
 31
0.0
  0
LINE
  5
444
330
3B4
100
AcDbEntity
  8
0
  6
________________
 62
     7
370
     9
100
AcDbLine
 10
162.8068844829602
 20
-250.0698539203418
 30
0.0
 11
157.3955999862961
 21
-251.1744277432271
 31
0.0
  0
LINE
  5
445
330
3B4
100
AcDbEntity
  8
0
  6
________________
 62
     7
370
     9
100
AcDbLine
 10
153.5942844245444
 20
-248.0706665844573
 30
0.0
 11
157.3955999862961
 21
-251.1744277432271
 31
0.0
  0
LINE
  5
446
330
3B4
100
AcDbEntity
  8
0
  6
________________
 62
     7
370
     9
100
AcDbLine
 10
153.5525478090313
 20
-247.8509683031417
 30
0.0
 11
153.4474073492268
 21
-247.8724300096363
 31
0.0
  0
LINE
  5
447
330
3B4
100
AcDbEntity
  8
0
  6
________________
 62
   253
370
     9
100
AcDbLine
 10
158.6035284517361
 20
-247.0481589287812
 30
0.0
 11
158.2900271769193
 21
-247.1121521085553
 31
0.0
  0
LINE
  5
448
330
3B4
100
AcDbEntity
  8
0
  6
________________
 62
     7
370
     9
100
AcDbLine
 10
157.3955999863848
 20
-252.0872986724097
 30
0.0
 11
157.3955999862961
 21
-251.1744277432271
 31
0.0
  0
LINE
  5
449
330
3B4
100
AcDbEntity
  8
0
  6
________________
 62
     7
370
     9
100
AcDbLine
 10
153.5942844246331
 20
-248.9835375136399
 30
0.0
 11
157.3955999863848
 21
-252.0872986724097
 31
0.0
  0
LINE
  5
44A
330
3B4
100
AcDbEntity
  8
0
  6
________________
 62
     7
370
     9
100
AcDbLine
 10
162.806884483114
 20
-250.9827248495111
 30
0.0
 11
157.3955999863848
 21
-252.0872986724097
 31
0.0
  0
LINE
  5
44B
330
3B4
100
AcDbEntity
  8
0
  6
________________
 62
     7
370
     9
100
AcDbLine
 10
286.4167222854693
 20
-198.0909832020001
 30
0.0
 11
285.5222950944691
 21
-198.2735573879008
 31
0.0
  0
LINE
  5
44C
330
3B4
100
AcDbEntity
  8
0
  6
________________
 62
     7
370
     9
100
AcDbLine
 10
285.3434096562573
 20
-198.1274980392432
 30
0.0
 11
285.5222950944691
 21
-198.2735573879008
 31
0.0
  0
LINE
  5
44D
330
3B4
100
AcDbEntity
  8
0
  6
________________
 62
     7
370
     9
100
AcDbLine
 10
286.4167222854693
 20
-198.0909832020001
 30
0.0
 11
286.2378368472574
 21
-197.9449238533425
 31
0.0
  0
LINE
  5
44E
330
3B4
100
AcDbEntity
  8
0
  6
________________
 62
     7
370
     9
100
AcDbLine
 10
286.4167222854693
 20
-198.0909832020001
 30
0.0
 11
286.4167222858994
 21
-202.518407206533
 31
0.0
  0
LINE
  5
44F
330
3B4
100
AcDbEntity
  8
0
  6
________________
 62
     7
370
     9
100
AcDbLine
 10
285.5222950944691
 20
-198.2735573879008
 30
0.0
 11
285.5222950948992
 21
-202.7009813925001
 31
0.0
  0
LINE
  5
450
330
3B4
100
AcDbEntity
  8
0
  6
________________
 62
   253
370
     9
100
AcDbLine
 10
281.7209795330766
 20
-198.8669234920655
 30
0.0
 11
281.720979533152
 21
-199.643324831909
 31
0.0
  0
ELLIPSE
  5
451
330
3B4
100
AcDbEntity
  8
0
  6
________________
 62
     7
370
     9
100
AcDbEllipse
 10
255.7825910024764
 20
-290.6560954234904
 30
0.0
 11
-1.499999999999995
 21
-1.457407527993832E-10
 31
0.0
210
0.0
220
0.0
230
1.0
 40
0.4082482904485129
 41
0.1238106995073638
 42
0.4636476089613654
  0
LINE
  5
452
330
3B4
100
AcDbEntity
  8
0
  6
________________
 62
   253
370
     9
100
AcDbLine
 10
254.4409502159761
 20
-290.9299567023414
 30
0.0
 11
254.4409502205352
 21
-337.851522462326
 31
0.0
  0
ELLIPSE
  5
453
330
3B4
100
AcDbEntity
  8
0
  6
________________
 62
     7
370
     9
100
AcDbEllipse
 10
255.7825910069024
 20
-336.2083547897011
 30
0.0
 11
-1.341640786362728
 21
-1.64316767262857
 31
0.0
210
0.0
220
0.0
230
-1.0
 40
0.408248290441411
 41
0.0
 42
0.4636476089678878
  0
LINE
  5
454
330
3B4
100
AcDbEntity
  8
0
  6
________________
 62
     7
370
     9
100
AcDbLine
 10
258.2422657822868
 20
-340.9552836210958
 30
0.0
 11
258.2422657777277
 21
-294.0337178611113
 31
0.0
  0
LINE
  5
455
330
3B4
100
AcDbEntity
  8
0
  6
________________
 62
     7
370
     9
100
AcDbLine
 10
254.4409502205351
 20
-337.851522462326
 30
0.0
 11
258.2422657822868
 21
-340.9552836210958
 31
0.0
  0
LINE
  5
456
330
3B4
100
AcDbEntity
  8
0
  6
________________
 62
     7
370
     9
100
AcDbLine
 10
254.4409502159761
 20
-290.9299567023414
 30
0.0
 11
258.2422657777278
 21
-294.0337178611112
 31
0.0
  0
ELLIPSE
  5
457
330
3B4
100
AcDbEntity
  8
0
  6
________________
 62
     7
370
     9
100
AcDbEllipse
 10
256.5652147977065
 20
-324.6148939889266
 30
0.0
 11
-0.3500000001207361
 21
1.714642819923577
 31
0.0
210
0.0
220
0.0
230
-1.0
 40
0.4082482904349612
 41
0.4636476089745228
 42
3.141592653589631
  0
LINE
  5
458
330
3B4
100
AcDbEntity
  8
0
  6
________________
 62
     7
370
     9
100
AcDbLine
 10
258.2646264574012
 20
-293.1391043504688
 30
0.0
 11
258.711840056274
 21
-293.5042527248426
 31
0.0
  0
LINE
  5
459
330
3B4
100
AcDbEntity
  8
0
  6
________________
 62
     7
370
     9
100
AcDbLine
 10
258.2422657777278
 20
-294.0337178611113
 30
0.0
 11
258.7118400562852
 21
-293.9378664128434
 31
0.0
  0
LINE
  5
45A
330
3B4
100
AcDbEntity
  8
0
  6
________________
 62
     7
370
     9
100
AcDbLine
 10
259.136692973287
 20
-340.7727094351951
 30
0.0
 11
259.1366929687723
 21
-294.307579136315
 31
0.0
  0
LINE
  5
45B
330
3B4
100
AcDbEntity
  8
0
  6
________________
 62
     7
370
     9
100
AcDbLine
 10
259.136692973287
 20
-340.7727094351951
 30
0.0
 11
258.2422657822869
 21
-340.9552836210958
 31
0.0
  0
ELLIPSE
  5
45C
330
3B4
100
AcDbEntity
  8
0
  6
________________
 62
     7
370
     9
100
AcDbEllipse
 10
256.5652147977065
 20
-324.6148939889266
 30
0.0
 11
-0.3500000001207361
 21
1.714642819923576
 31
0.0
210
0.0
220
0.0
230
-1.0
 40
0.4082482904349605
 41
0.0
 42
0.4636476089746828
  0
ELLIPSE
  5
45D
330
3B4
100
AcDbEntity
  8
0
  6
________________
 62
     7
370
     9
100
AcDbEllipse
 10
256.5652147977065
 20
-324.6148939889266
 30
0.0
 11
-0.3500000001207399
 21
1.714642819923576
 31
0.0
210
0.0
220
0.0
230
-1.0
 40
0.4082482904349606
 41
3.141592653589799
 42
4.324411907901609
  0
ELLIPSE
  5
45E
330
3B4
100
AcDbEntity
  8
0
  6
________________
 62
     7
370
     9
100
AcDbEllipse
 10
256.5652147977065
 20
-324.6148939889266
 30
0.0
 11
-0.3500000001207383
 21
1.714642819923576
 31
0.0
210
0.0
220
0.0
230
-1.0
 40
0.4082482904349606
 41
5.100366052999261
 42
6.283185307179586
  0
LINE
  5
45F
330
3B4
100
AcDbEntity
  8
0
  6
________________
 62
     7
370
     9
100
AcDbLine
 10
259.3155784113983
 20
-339.8233236688324
 30
0.0
 11
259.1366929731805
 21
-339.67726432017
 31
0.0
  0
LINE
  5
460
330
3B4
100
AcDbEntity
  8
0
  6
________________
 62
     7
370
     9
100
AcDbLine
 10
259.3155784113983
 20
-339.8233236688324
 30
0.0
 11
259.315578411487
 21
-340.7361945980149
 31
0.0
  0
LINE
  5
461
330
3B4
100
AcDbEntity
  8
0
  6
________________
 62
     7
370
     9
100
AcDbLine
 10
259.1366929732692
 20
-340.5901352493526
 30
0.0
 11
259.315578411487
 21
-340.736194598015
 31
0.0
  0
LINE
  5
462
330
3B4
100
AcDbEntity
  8
0
  6
________________
 62
     7
370
     9
100
AcDbLine
 10
263.6535502868188
 20
-339.8507097966045
 30
0.0
 11
259.315578411487
 21
-340.7361945980149
 31
0.0
  0
LINE
  5
463
330
3B4
100
AcDbEntity
  8
0
  6
________________
 62
     7
370
     9
100
AcDbLine
 10
263.6535502866651
 20
-338.9378388674352
 30
0.0
 11
259.3155784113983
 21
-339.8233236688324
 31
0.0
  0
LINE
  5
464
330
3B4
100
AcDbEntity
  8
0
  6
________________
 62
   253
370
     9
100
AcDbLine
 10
259.5843583111381
 20
-335.8887577526747
 30
0.0
 11
259.1366929728213
 21
-335.9801370572414
 31
0.0
  0
LINE
  5
465
330
3B4
100
AcDbEntity
  8
0
  6
________________
 62
   253
370
     9
100
AcDbLine
 10
164.3274107305814
 20
-222.8297853882117
 30
0.0
 11
164.3497714035137
 21
-222.8480428012056
 31
0.0
  0
ELLIPSE
  5
466
330
3B4
100
AcDbEntity
  8
0
  6
________________
 62
     7
370
     9
100
AcDbEllipse
 10
164.3497714036785
 20
-229.2381393055737
 30
0.0
 11
4.427188723869566
 21
5.422176684989315
 31
0.0
210
0.0
220
0.0
230
1.0
 40
0.8164965809500148
 41
0.7853981633412118
 42
2.101964118760938
  0
LINE
  5
467
330
3B4
100
AcDbEntity
  8
0
  6
________________
 62
     7
370
     9
100
AcDbLine
 10
257.8174128639496
 20
-241.1529772151686
 30
0.0
 11
257.8174128652927
 21
-293.2303914426936
 31
0.0
  0
ELLIPSE
  5
468
330
3B4
100
AcDbEntity
  8
0
  6
________________
 62
     7
370
     9
100
AcDbEllipse
 10
164.3497714040258
 20
-242.7029855112066
 30
0.0
 11
4.427188723869567
 21
5.422176684989318
 31
0.0
210
0.0
220
0.0
230
1.0
 40
0.8164965809500149
 41
2.610424862267266
 42
3.141592653589769
  0
LINE
  5
469
330
3B4
100
AcDbEntity
  8
0
  6
________________
 62
     7
370
     9
100
AcDbLine
 10
161.2192762354878
 20
-241.8357581284535
 30
0.0
 11
158.2900271764647
 21
-242.4336885887951
 31
0.0
  0
LINE
  5
46A
330
3B4
100
AcDbEntity
  8
0
  6
________________
 62
     7
370
     9
100
AcDbLine
 10
161.2192762352499
 20
-232.6157617434
 30
0.0
 11
161.2192762354878
 21
-241.8357581284535
 31
0.0
  0
LINE
  5
46B
330
3B4
100
AcDbEntity
  8
0
  6
________________
 62
     7
370
     9
100
AcDbLine
 10
158.29002717556
 20
-233.1224051111372
 30
0.0
 11
160.2354063252419
 21
-232.7253062550583
 31
0.0
  0
LINE
  5
46C
330
3B4
100
AcDbEntity
  8
0
  6
________________
 62
     7
370
     9
100
AcDbLine
 10
278.3892382559792
 20
-199.5698341073546
 30
0.0
 11
164.3497714035136
 21
-222.8480428012056
 31
0.0
  0
ELLIPSE
  5
46D
330
3B4
100
AcDbEntity
  8
0
  6
________________
 62
     7
370
     9
100
AcDbEllipse
 10
278.389238256144
 20
-205.9599306117228
 30
0.0
 11
4.427188723869589
 21
5.422176684989344
 31
0.0
210
0.0
220
0.0
230
1.0
 40
0.816496580950014
 41
5.783814125348375
 42
6.283185307179586
  0
ELLIPSE
  5
46E
330
3B4
100
AcDbEntity
  8
0
  6
________________
 62
     7
370
     9
100
AcDbEllipse
 10
265.1964371920646
 20
-331.4340398295641
 30
0.0
 11
4.427188723869566
 21
5.422176684989318
 31
0.0
210
0.0
220
0.0
230
1.0
 40
0.8164965809500141
 41
2.610424867252468
 42
3.141592653589795
  0
LINE
  5
46F
330
3B4
100
AcDbEntity
  8
0
  6
________________
 62
     7
370
     9
100
AcDbLine
 10
262.0659420234973
 20
-329.4257237853164
 30
0.0
 11
259.1366929722425
 21
-330.0236542440723
 31
0.0
  0
LINE
  5
470
330
3B4
100
AcDbEntity
  8
0
  6
________________
 62
     7
370
     9
100
AcDbLine
 10
262.0659420232595
 20
-320.2057319646195
 30
0.0
 11
262.0659420234973
 21
-329.4257237853164
 31
0.0
  0
LINE
  5
471
330
3B4
100
AcDbEntity
  8
0
  6
________________
 62
     7
370
     9
100
AcDbLine
 10
259.1366929713378
 20
-320.7123707664144
 30
0.0
 11
261.0820721132513
 21
-320.3152719119212
 31
0.0
  0
LINE
  5
472
330
3B4
100
AcDbEntity
  8
0
  6
________________
 62
     7
370
     9
100
AcDbLine
 10
257.8174128652927
 20
-293.2303914426936
 30
0.0
 11
258.7118400562622
 21
-293.0478172568656
 31
0.0
  0
LINE
  5
473
330
3B4
100
AcDbEntity
  8
0
  6
________________
 62
   253
370
     9
100
AcDbLine
 10
278.3892382559792
 20
-199.5698341073546
 30
0.0
 11
278.3668775747396
 21
-199.5515766875779
 31
0.0
  0
LINE
  5
474
330
3B4
100
AcDbEntity
  8
0
  6
________________
 62
     7
370
     9
100
AcDbLine
 10
160.6565267679868
 20
-241.3762751123835
 30
0.0
 11
161.2192762354878
 21
-241.8357581284535
 31
0.0
  0
ELLIPSE
  5
475
330
3B4
100
AcDbEntity
  8
0
  6
________________
 62
     7
370
     9
100
AcDbEllipse
 10
164.3497714040258
 20
-242.7029855112066
 30
0.0
 11
4.42718872386958
 21
5.422176684989331
 31
0.0
210
0.0
220
0.0
230
1.0
 40
0.8164965809500152
 41
3.141592653589774
 42
3.677997368134364
  0
ELLIPSE
  5
476
330
3B4
100
AcDbEntity
  8
0
  6
________________
 62
     7
370
     9
100
AcDbEllipse
 10
278.389238256144
 20
-205.9599306117228
 30
0.0
 11
4.427188723869588
 21
5.422176684989344
 31
0.0
210
0.0
220
0.0
230
1.0
 40
0.8164965809500141
 41
0.0
 42
0.7853981633412013
  0
LINE
  5
477
330
3B4
100
AcDbEntity
  8
0
  6
________________
 62
     7
370
     9
100
AcDbLine
 10
254.6869176967911
 20
-290.674352841354
 30
0.0
 11
257.8174128652927
 21
-293.2303914426936
 31
0.0
  0
LINE
  5
478
330
3B4
100
AcDbEntity
  8
0
  6
________________
 62
     7
370
     9
100
AcDbLine
 10
254.6869176967911
 20
-290.674352841354
 30
0.0
 11
254.6869176955305
 21
-241.791986866037
 31
0.0
  0
LINE
  5
479
330
3B4
100
AcDbEntity
  8
0
  6
________________
 62
     7
370
     9
100
AcDbLine
 10
262.0659420234973
 20
-329.4257237853164
 30
0.0
 11
261.5034658199108
 21
-328.9664638882982
 31
0.0
  0
ELLIPSE
  5
47A
330
3B4
100
AcDbEntity
  8
0
  6
________________
 62
     7
370
     9
100
AcDbEllipse
 10
265.1964371920646
 20
-331.4340398295641
 30
0.0
 11
4.427188723869566
 21
5.422176684989315
 31
0.0
210
0.0
220
0.0
230
1.0
 40
0.8164965809500151
 41
3.141592653589795
 42
3.677997370712334
  0
LINE
  5
47B
330
3B4
100
AcDbEntity
  8
0
  6
________________
 62
     7
370
     9
100
AcDbLine
 10
160.7711144991504
 20
-232.7072423747065
 30
0.0
 11
160.773116391491
 21
-241.3791069341139
 31
0.0
  0
LINE
  5
47C
330
3B4
100
AcDbEntity
  8
0
  6
________________
 62
     7
370
     9
100
AcDbLine
 10
160.773116391491
 20
-241.3791069341139
 30
0.0
 11
159.2827532285832
 21
-241.3429078053746
 31
0.0
  0
LINE
  5
47D
330
3B4
100
AcDbEntity
  8
0
  6
________________
 62
     7
370
     9
100
AcDbLine
 10
159.2808088452388
 20
-232.9201626497035
 30
0.0
 11
159.2827532285832
 21
-241.3429078053746
 31
0.0
  0
LINE
  5
47E
330
3B4
100
AcDbEntity
  8
0
  6
________________
 62
     7
370
     9
100
AcDbLine
 10
156.4909109995668
 20
-237.9133602356247
 30
0.0
 11
155.7959345367456
 21
-237.4496912577448
 31
0.0
  0
LINE
  5
47F
330
3B4
100
AcDbEntity
  8
0
  6
________________
 62
     7
370
     9
100
AcDbLine
 10
155.7959345367456
 20
-237.4496912577415
 30
0.0
 11
156.448788847605
 21
-237.0464153855226
 31
0.0
  0
LINE
  5
480
330
3B4
100
AcDbEntity
  8
0
  6
________________
 62
     7
370
     9
100
AcDbLine
 10
156.3897156428743
 20
-238.387696453946
 30
0.0
 11
156.3897172372282
 21
-238.3946029293319
 31
0.0
  0
LINE
  5
481
330
3B4
100
AcDbEntity
  8
0
  6
________________
 62
     7
370
     9
100
AcDbLine
 10
159.2827532285832
 20
-241.3429078053746
 30
0.0
 11
158.2900271762894
 21
-240.6293383787237
 31
0.0
  0
LINE
  5
482
330
3B4
100
AcDbEntity
  8
0
  6
________________
 62
     7
370
     9
100
AcDbLine
 10
165.1542160944334
 20
-245.5537997244295
 30
0.0
 11
165.1542194424545
 21
-245.5444393391002
 31
0.0
  0
LINE
  5
483
330
3B4
100
AcDbEntity
  8
0
  6
________________
 62
     7
370
     9
100
AcDbLine
 10
267.7552023616218
 20
-300.7869934115351
 30
0.0
 11
267.2088983707895
 21
-300.8985072467
 31
0.0
  0
LINE
  5
484
330
3B4
100
AcDbEntity
  8
0
  6
________________
 62
     7
370
     9
100
AcDbLine
 10
267.2088983707895
 20
-300.8985072467
 30
0.0
 11
267.2088983691993
 21
-239.2359482625652
 31
0.0
  0
LINE
  5
485
330
3B4
100
AcDbEntity
  8
0
  6
________________
 62
     7
370
     9
100
AcDbLine
 10
267.2088983707895
 20
-300.8985072467
 30
0.0
 11
258.7118400562857
 21
-293.9606881859204
 31
0.0
  0
ELLIPSE
  5
486
330
3B4
100
AcDbEntity
  8
0
  6
________________
 62
     7
370
     9
100
AcDbEllipse
 10
261.1715148311602
 20
-281.3630693626962
 30
0.0
 11
-0.5999999999971873
 21
2.939387691340396
 31
0.0
210
0.0
220
0.0
230
-1.0
 40
0.4082482904646996
 41
2.034443935740599
 42
2.677945044588215
  0
ELLIPSE
  5
487
330
3B4
100
AcDbEntity
  8
0
  6
________________
 62
     7
370
     9
100
AcDbEllipse
 10
261.1715148305716
 20
-258.5412961327992
 30
0.0
 11
-0.5999999999971865
 21
2.939387691340392
 31
0.0
210
0.0
220
0.0
230
-1.0
 40
0.4082482904646997
 41
2.034443935740598
 42
2.677945044588215
  0
LINE
  5
488
330
3B4
100
AcDbEntity
  8
0
  6
________________
 62
     7
370
     9
100
AcDbLine
 10
258.7118400549192
 20
-240.9704030292077
 30
0.0
 11
258.7118400562857
 21
-293.9606881859204
 31
0.0
  0
ELLIPSE
  5
489
330
3B4
100
AcDbEntity
  8
0
  6
________________
 62
     7
370
     9
100
AcDbEllipse
 10
261.1715148305716
 20
-258.5412961327992
 30
0.0
 11
-0.5999999999971884
 21
2.939387691340393
 31
0.0
210
0.0
220
0.0
230
-1.0
 40
0.4082482904646997
 41
0.4636476090016418
 42
2.034443935740602
  0
ELLIPSE
  5
48A
330
3B4
100
AcDbEntity
  8
0
  6
________________
 62
     7
370
     9
100
AcDbEllipse
 10
261.1715148305716
 20
-258.5412961327992
 30
0.0
 11
-0.5999999999971868
 21
2.939387691340386
 31
0.0
210
0.0
220
0.0
230
-1.0
 40
0.4082482904647001
 41
2.677945044588028
 42
6.746832916181415
  0
ELLIPSE
  5
48B
330
3B4
100
AcDbEntity
  8
0
  6
________________
 62
     7
370
     9
100
AcDbEllipse
 10
261.6187284260717
 20
-258.450009039882
 30
0.0
 11
0.4999999999976564
 21
-2.449489742783657
 31
0.0
210
0.0
220
0.0
230
1.0
 40
0.4082482904647002
 41
2.869935529910492
 42
3.141592653589901
  0
ELLIPSE
  5
48C
330
3B4
100
AcDbEntity
  8
0
  6
________________
 62
     7
370
     9
100
AcDbEllipse
 10
261.6187284260717
 20
-258.450009039882
 30
0.0
 11
0.4999999999976545
 21
-2.449489742783661
 31
0.0
210
0.0
220
0.0
230
1.0
 40
0.4082482904647002
 41
0.0
 42
0.271657123679369
  0
ELLIPSE
  5
48D
330
3B4
100
AcDbEntity
  8
0
  6
________________
 62
     7
370
     9
100
AcDbEllipse
 10
261.6187284260717
 20
-258.450009039882
 30
0.0
 11
0.4999999999976576
 21
-2.449489742783657
 31
0.0
210
0.0
220
0.0
230
1.0
 40
0.4082482904647002
 41
3.14159265358979
 42
6.283185307179586
  0
ELLIPSE
  5
48E
330
3B4
100
AcDbEntity
  8
0
  6
________________
 62
     7
370
     9
100
AcDbEllipse
 10
261.1715148311602
 20
-281.3630693626962
 30
0.0
 11
-0.5999999999971855
 21
2.939387691340396
 31
0.0
210
0.0
220
0.0
230
-1.0
 40
0.4082482904647001
 41
0.4636476090016353
 42
2.034443935740596
  0
ELLIPSE
  5
48F
330
3B4
100
AcDbEntity
  8
0
  6
________________
 62
     7
370
     9
100
AcDbEllipse
 10
261.1715148311602
 20
-281.3630693626962
 30
0.0
 11
-0.5999999999971888
 21
2.939387691340396
 31
0.0
210
0.0
220
0.0
230
-1.0
 40
0.4082482904647001
 41
2.677945044588025
 42
6.746832916181415
  0
ELLIPSE
  5
490
330
3B4
100
AcDbEntity
  8
0
  6
________________
 62
     7
370
     9
100
AcDbEllipse
 10
261.6187284266602
 20
-281.2717822697791
 30
0.0
 11
0.499999999997657
 21
-2.44948974278366
 31
0.0
210
0.0
220
0.0
230
1.0
 40
0.4082482904647003
 41
2.869935529909851
 42
3.141592653589893
  0
ELLIPSE
  5
491
330
3B4
100
AcDbEntity
  8
0
  6
________________
 62
     7
370
     9
100
AcDbEllipse
 10
261.6187284266602
 20
-281.2717822697791
 30
0.0
 11
0.4999999999976543
 21
-2.44948974278366
 31
0.0
210
0.0
220
0.0
230
1.0
 40
0.4082482904647002
 41
0.0
 42
0.2716571236798015
  0
ELLIPSE
  5
492
330
3B4
100
AcDbEntity
  8
0
  6
________________
 62
     7
370
     9
100
AcDbEllipse
 10
261.6187284266602
 20
-281.2717822697791
 30
0.0
 11
0.4999999999976583
 21
-2.44948974278366
 31
0.0
210
0.0
220
0.0
230
1.0
 40
0.4082482904647003
 41
3.141592653589799
 42
6.283185307179586
  0
LINE
  5
493
330
3B4
100
AcDbEntity
  8
0
  6
________________
 62
     7
370
     9
100
AcDbLine
 10
160.8712659780795
 20
-246.9632671922261
 30
0.0
 11
161.7656931690799
 21
-247.693563935466
 31
0.0
  0
LINE
  5
494
330
3B4
100
AcDbEntity
  8
0
  6
________________
 62
     7
370
     9
100
AcDbLine
 10
282.762170872995
 20
-202.4299456738559
 30
0.0
 11
281.8677436819946
 21
-201.6996489306159
 31
0.0
  0
LINE
  5
495
330
3B4
100
AcDbEntity
  8
0
  6
________________
 62
     7
370
     9
100
AcDbLine
 10
261.7179317661201
 20
-335.6943215105849
 30
0.0
 11
262.6123589571205
 21
-336.4246182538249
 31
0.0
  0
ARC
  5
496
330
3B4
100
AcDbEntity
  8
0
  6
________________
 62
     7
370
     9
100
AcDbCircle
 10
257.2360351919758
 20
-324.4779633492208
 30
0.0
 40
1.499999999999982
100
AcDbArc
 50
112.9639794059094
 51
270.1099386708969
  0
ARC
  5
497
330
3B4
100
AcDbEntity
  8
0
  6
________________
 62
     7
370
     9
100
AcDbCircle
 10
266.0014217322373
 20
-331.6344584547233
 30
0.0
 40
1.500000000000008
100
AcDbArc
 50
112.9756798895149
 51
270.1159206676152
  0
LINE
  5
498
330
3B4
100
AcDbEntity
  8
0
  6
________________
 62
     7
370
     9
100
AcDbLine
 10
167.0498408322755
 20
-259.68083028431
 30
0.0
 11
267.8965066175427
 21
-239.0955908165162
 31
0.0
  0
LINE
  5
499
330
3B4
100
AcDbEntity
  8
0
  6
________________
 62
     7
370
     9
100
AcDbLine
 10
295.7876815794815
 20
-342.8555529749412
 30
0.0
 11
295.7876815562487
 21
-204.936017343367
 31
0.0
  0
LINE
  5
49A
330
3B4
100
AcDbEntity
  8
0
  6
________________
 62
     7
370
     9
100
AcDbLine
 10
267.8965066359803
 20
-348.5488152239147
 30
0.0
 11
295.7876815794815
 21
-342.8555529749412
 31
0.0
  0
LINE
  5
49B
330
3B4
100
AcDbEntity
  8
0
  6
________________
 62
     7
370
     9
100
AcDbLine
 10
282.1737659371562
 20
-193.8203017808173
 30
0.0
 11
153.4359252083529
 21
-220.0988034880318
 31
0.0
  0
LINE
  5
49C
330
3B4
100
AcDbEntity
  8
0
  6
________________
 62
     7
370
     9
100
AcDbLine
 10
153.4359252083529
 20
-220.0988034880318
 30
0.0
 11
153.4359252111188
 21
-248.5651147125861
 31
0.0
  0
LINE
  5
49D
330
3B4
100
AcDbEntity
  8
0
  6
________________
 62
     7
370
     9
100
AcDbLine
 10
254.2825909977361
 20
-241.8745197076784
 30
0.0
 11
254.2825910070209
 21
-337.4330996612722
 31
0.0
  0
LINE
  5
49E
330
3B4
100
AcDbEntity
  8
0
  6
________________
 62
     7
370
     9
100
AcDbLine
 10
158.2900271768882
 20
-246.7921862097866
 30
0.0
 11
159.9225826801561
 21
-248.1251621961959
 31
0.0
  0
LINE
  5
49F
330
3B4
100
AcDbEntity
  8
0
  6
________________
 62
     7
370
     9
100
AcDbLine
 10
282.8164269800133
 20
-200.537753926734
 30
0.0
 11
280.9769262602484
 21
-199.0358078786388
 31
0.0
  0
LINE
  5
4A0
330
3B4
100
AcDbEntity
  8
0
  6
________________
 62
     7
370
     9
100
AcDbLine
 10
259.136692972777
 20
-335.5232405345533
 30
0.0
 11
260.7692484681952
 21
-336.8562165145534
 31
0.0
  0
ARC
  5
4A1
330
3B4
100
AcDbEntity
  8
0
  6
________________
 62
     7
370
     9
100
AcDbCircle
 10
156.3893693691969
 20
-236.8876964939076
 30
0.0
 40
1.499999999999989
100
AcDbArc
 50
112.9725104027153
 51
270.0132266803002
  0
ARC
  5
4A2
330
3B4
100
AcDbEntity
  8
0
  6
________________
 62
     7
370
     9
100
AcDbCircle
 10
165.1547559621733
 20
-244.0444394350532
 30
0.0
 40
1.500000000000006
100
AcDbArc
 50
112.9771933630965
 51
270.1166924600051
  0
ENDBLK
  5
4AA
330
3B4
100
AcDbEntity
  8
0
100
AcDbBlockEnd
  0
BLOCK
  5
5B4
330
57B
100
AcDbEntity
  8
0
100
AcDbBlockBegin
  2
HzQ360
 70
     0
 10
0.0
 20
0.0
 30
0.0
  3
HzQ360
  1

  0
LINE
  5
595
330
57B
100
AcDbEntity
  8
0
  6
CENTER
 62
     1
100
AcDbLine
 10
-40.49999999122889
 20
-122.5000000029552
 30
0.0
 11
-50.49999999123293
 21
-122.5000000036725
 31
0.0
  0
ARC
  5
596
330
57B
100
AcDbEntity
  8
0
  6
CENTER
 62
     1
100
AcDbCircle
 10
40.49999999165931
 20
-116.5000000029528
 30
0.0
 40
6.000000000000005
210
0.0
220
0.0
230
-1.0
100
AcDbArc
 50
179.9999999958904
 51
269.9999999958898
  0
LINE
  5
597
330
57B
100
AcDbEntity
  8
0
  6
CENTER
 62
     1
100
AcDbLine
 10
-34.4999999961463
 20
-53.91640786749508
 30
0.0
 11
-34.49999999165692
 21
-116.5000000025224
 31
0.0
  0
ARC
  5
598
330
57B
100
AcDbEntity
  8
0
  6
CENTER
 62
     1
100
AcDbCircle
 10
-28.4999999961438
 20
-53.91640786706472
 30
0.0
 40
5.999999999999994
100
AcDbArc
 50
131.8103148998887
 51
180.0000000041102
  0
LINE
  5
599
330
57B
100
AcDbEntity
  8
0
  6
CENTER
 62
     1
100
AcDbLine
 10
-50.49999999797581
 20
-28.50000000363389
 30
0.0
 11
-50.50000000002029
 21
-0.0000000036225174
 31
0.0
  0
ARC
  5
59A
330
57B
100
AcDbEntity
  8
0
  6
CENTER
 62
     1
100
AcDbCircle
 10
31.4999999886428
 20
-158.5000000023231
 30
0.0
 40
8.0
210
0.0
220
0.0
230
-1.0
100
AcDbArc
 50
269.9999999958902
 51
359.9999999958898
  0
ARC
  5
59B
330
57B
100
AcDbEntity
  8
0
  6
CENTER
 62
     1
100
AcDbCircle
 10
31.4999999886428
 20
-158.5000000023231
 30
0.0
 40
8.000000000000007
210
0.0
220
0.0
230
-1.0
100
AcDbArc
 50
179.9999999958898
 51
269.9999999958902
  0
LINE
  5
59C
330
57B
100
AcDbEntity
  8
0
  6
CENTER
 62
     1
100
AcDbLine
 10
-23.49999998892662
 20
-154.5000000017475
 30
0.0
 11
-23.49999998863973
 21
-158.5000000017492
 31
0.0
  0
ARC
  5
59D
330
57B
100
AcDbEntity
  8
0
  6
CENTER
 62
     1
100
AcDbCircle
 10
31.49999998892974
 20
-154.5000000023214
 30
0.0
 40
7.999999999999993
210
0.0
220
0.0
230
-1.0
100
AcDbArc
 50
89.99999999588981
 51
179.9999999958902
  0
ARC
  5
59E
330
57B
100
AcDbEntity
  8
0
  6
CENTER
 62
     1
100
AcDbCircle
 10
31.49999998892974
 20
-154.5000000023214
 30
0.0
 40
8.000000000000014
210
0.0
220
0.0
230
-1.0
100
AcDbArc
 50
359.9999999958898
 51
89.99999999588981
  0
LINE
  5
59F
330
57B
100
AcDbEntity
  8
0
  6
CENTER
 62
     1
100
AcDbLine
 10
-39.4999999886461
 20
-158.5000000028969
 30
0.0
 11
-39.49999998893304
 21
-154.5000000028954
 31
0.0
  0
LINE
  5
5A0
330
57B
100
AcDbEntity
  8
0
  6
CENTER
 62
     1
100
AcDbLine
 10
-0.0000000000001137
 20
0.0
 30
0.0
 11
0.0000000148057779
 21
-206.4000000000826
 31
0.0
  0
LINE
  5
5A1
330
57B
100
AcDbEntity
  8
0
  6
CENTER
 62
     1
100
AcDbLine
 10
-50.50000000002024
 20
-0.0000000036225174
 30
0.0
 11
0.0
 21
0.0
 31
0.0
  0
LINE
  5
5A2
330
57B
100
AcDbEntity
  8
0
  6
CENTER
 62
     1
100
AcDbLine
 10
-50.49999999123293
 20
-122.5000000036725
 30
0.0
 11
-50.4999999852144
 21
-206.4000000037051
 31
0.0
  0
LINE
  5
5A3
330
57B
100
AcDbEntity
  8
0
  6
CENTER
 62
     1
100
AcDbLine
 10
0.0000000148058916
 20
-206.4000000000826
 30
0.0
 11
-50.4999999852144
 21
-206.4000000037051
 31
0.0
  0
LINE
  5
5A4
330
57B
100
AcDbEntity
  8
0
  6
CENTER
 62
     1
100
AcDbLine
 10
-50.49999999797581
 20
-28.50000000363389
 30
0.0
 11
-40.49999999797183
 21
-28.50000000291658
 31
0.0
  0
ARC
  5
5A5
330
57B
100
AcDbEntity
  8
0
  6
CENTER
 62
     1
100
AcDbCircle
 10
-40.4999999971111
 20
-40.50000000292141
 30
0.0
 40
11.99999999999999
100
AcDbArc
 50
311.8103148998887
 51
90.00000000410994
  0
ARC
  5
5A6
330
57B
100
AcDbEntity
  8
0
  6
CENTER
 62
     1
100
AcDbCircle
 10
116.4999999971414
 20
-40.50000000837417
 30
0.0
 40
6.000000000000005
210
0.0
220
0.0
230
-1.0
100
AcDbArc
 50
359.9999999958898
 51
89.99999999588981
  0
LINE
  5
5A7
330
57B
100
AcDbEntity
  8
0
  6
CENTER
 62
     1
100
AcDbLine
 10
-122.4999999963547
 20
-51.50000000880812
 30
0.0
 11
-122.4999999971438
 21
-40.50000000880459
 31
0.0
  0
LINE
  5
5A8
330
57B
100
AcDbEntity
  8
0
  6
CENTER
 62
     1
100
AcDbLine
 10
-122.4999999963547
 20
-51.50000000880812
 30
0.0
 11
-200.4999999963859
 21
-51.50000001440327
 31
0.0
  0
LINE
  5
5A9
330
57B
100
AcDbEntity
  8
0
  6
CENTER
 62
     1
100
AcDbLine
 10
-200.4999999963859
 20
-51.50000001440321
 30
0.0
 11
-200.5000000000802
 21
-0.0000000143825787
 31
0.0
  0
LINE
  5
5AA
330
57B
100
AcDbEntity
  8
0
  6
CENTER
 62
     1
100
AcDbLine
 10
-200.5000000000802
 20
-0.0000000143825787
 30
0.0
 11
-53.50000000002143
 21
-0.0000000038377834
 31
0.0
  0
LINE
  5
5AB
330
57B
100
AcDbEntity
  8
0
  6
CENTER
 62
     1
100
AcDbLine
 10
-53.50000000002143
 20
-0.0000000038377834
 30
0.0
 11
-53.49999999776179
 21
-31.50000000385131
 31
0.0
  0
ARC
  5
5AC
330
57B
100
AcDbEntity
  8
0
  6
CENTER
 62
     1
100
AcDbCircle
 10
-56.49999999776304
 20
-31.50000000406652
 30
0.0
 40
3.000000000000003
100
AcDbArc
 50
270.0000000041102
 51
0.0000000041101926
  0
LINE
  5
5AD
330
57B
100
AcDbEntity
  8
0
  6
CENTER
 62
     1
100
AcDbLine
 10
-116.4999999975717
 20
-34.50000000837179
 30
0.0
 11
-56.49999999754783
 21
-34.50000000406772
 31
0.0
  0
ARC
  5
5AE
330
57B
100
AcDbEntity
  8
0
  6
CENTER
 62
     1
100
AcDbCircle
 10
148.4999999977999
 20
-31.50000001066508
 30
0.0
 40
8.000000000000007
210
0.0
220
0.0
230
-1.0
100
AcDbArc
 50
269.9999999958898
 51
359.9999999958898
  0
LINE
  5
5AF
330
57B
100
AcDbEntity
  8
0
  6
CENTER
 62
     1
100
AcDbLine
 10
-144.4999999972244
 20
-39.50000001038131
 30
0.0
 11
-148.499999997226
 21
-39.50000001066832
 31
0.0
  0
ARC
  5
5B0
330
57B
100
AcDbEntity
  8
0
  6
CENTER
 62
     1
100
AcDbCircle
 10
144.4999999977982
 20
-31.50000001037807
 30
0.0
 40
7.999999999999993
210
0.0
220
0.0
230
-1.0
100
AcDbArc
 50
179.9999999958902
 51
269.9999999958898
  0
ARC
  5
5B1
330
57B
100
AcDbEntity
  8
0
  6
CENTER
 62
     1
100
AcDbCircle
 10
144.4999999977982
 20
-31.50000001037807
 30
0.0
 40
8.000000000000007
210
0.0
220
0.0
230
-1.0
100
AcDbArc
 50
89.99999999588981
 51
179.9999999958902
  0
LINE
  5
5B2
330
57B
100
AcDbEntity
  8
0
  6
CENTER
 62
     1
100
AcDbLine
 10
-148.4999999983737
 20
-23.50000001066189
 30
0.0
 11
-144.4999999983722
 21
-23.50000001037489
 31
0.0
  0
ARC
  5
5B3
330
57B
100
AcDbEntity
  8
0
  6
CENTER
 62
     1
100
AcDbCircle
 10
148.4999999977999
 20
-31.50000001066508
 30
0.0
 40
8.000000000000007
210
0.0
220
0.0
230
-1.0
100
AcDbArc
 50
359.9999999958898
 51
89.99999999588981
  0
ENDBLK
  5
5B5
330
57B
100
AcDbEntity
  8
0
100
AcDbBlockEnd
  0
ENDSEC
  0
SECTION
  2
ENTITIES
  0
INSERT
  5
97
330
1F
100
AcDbEntity
  8
0
  6
________________
 62
     7
370
    20
100
AcDbBlockReference
  2
D_FRAME_VIEW@426
 10
0.0
 20
0.0
 30
0.0
  0
INSERT
  5
194
330
1F
100
AcDbEntity
  8
0
  6
________________
 62
     7
370
    20
100
AcDbBlockReference
  2
D_FRAME_VIEW@422
 10
0.0
 20
0.0
 30
0.0
  0
INSERT
  5
1CE
330
1F
100
AcDbEntity
  8
0
  6
________________
 62
     7
370
    20
100
AcDbBlockReference
  2
D_FRAME_VIEW@418
 10
0.0
 20
0.0
 30
0.0
  0
INSERT
  5
2CF
330
1F
100
AcDbEntity
  8
0
  6
________________
 62
     7
370
    20
100
AcDbBlockReference
  2
D_FRAME_VIEW@420
 10
0.0
 20
0.0
 30
0.0
  0
INSERT
  5
3B3
330
1F
100
AcDbEntity
  8
0
  6
________________
 62
     7
370
    20
100
AcDbBlockReference
  2
D_FRAME_VIEW@424
 10
0.0
 20
0.0
 30
0.0
  0
INSERT
  5
4A3
330
1F
100
AcDbEntity
  8
0
  6
________________
 62
     7
370
    20
100
AcDbBlockReference
  2
D_FRAME_VIEW@428
 10
0.0
 20
0.0
 30
0.0
  0
INSERT
  5
5B7
330
1F
100
AcDbEntity
  8
0
100
AcDbBlockReference
  2
HzQ360
 10
58.24999999780604
 20
42.70000000832653
 30
0.0
  0
TEXT
  5
5D7
330
1F
100
AcDbEntity
  8
0
  6
Continuous
 62
     7
370
     0
100
AcDbText
 10
100.3638
 20
107.6207
 30
0.0
 40
20.0
  1
8205
100
AcDbText
  0
INSERT
  5
5D9
330
1F
100
AcDbEntity
  8
0
100
AcDbBlockReference
  2
HzQ360
 10
451.0818452991213
 20
135.1942879887859
 30
0.0
 41
-1.0
  0
LINE
  5
5DA
330
1F
100
AcDbEntity
  8
0
  6
CENTER
 62
     1
100
AcDbLine
 10
491.5818452755441
 20
-257.8048016833834
 30
0.0
 11
501.5818452755482
 21
-257.8048016841007
 31
0.0
  0
ARC
  5
5DB
330
1F
100
AcDbEntity
  8
0
  6
CENTER
 62
     1
100
AcDbCircle
 10
-491.5818452759745
 20
-251.804801683381
 30
0.0
 40
6.000000000000005
210
0.0
220
0.0
230
-1.0
100
AcDbArc
 50
270.0000000041102
 51
0.0000000041096498
  0
LINE
  5
5DC
330
1F
100
AcDbEntity
  8
0
  6
CENTER
 62
     1
100
AcDbLine
 10
485.5818452802044
 20
-192.8048016894515
 30
0.0
 11
485.5818452759722
 21
-251.8048016829506
 31
0.0
  0
ARC
  5
5DF
330
1F
100
AcDbEntity
  8
0
  6
CENTER
 62
     1
100
AcDbCircle
 10
-482.581845272958
 20
-293.8048016827513
 30
0.0
 40
8.0
210
0.0
220
0.0
230
-1.0
100
AcDbArc
 50
180.0000000041102
 51
270.0000000041094
  0
ARC
  5
5E0
330
1F
100
AcDbEntity
  8
0
  6
CENTER
 62
     1
100
AcDbCircle
 10
-482.581845272958
 20
-293.8048016827513
 30
0.0
 40
8.000000000000007
210
0.0
220
0.0
230
-1.0
100
AcDbArc
 50
270.0000000041094
 51
0.0000000041101926
  0
LINE
  5
5E1
330
1F
100
AcDbEntity
  8
0
  6
CENTER
 62
     1
100
AcDbLine
 10
474.5818452732419
 20
-289.8048016821757
 30
0.0
 11
474.581845272955
 21
-293.8048016821774
 31
0.0
  0
ARC
  5
5E2
330
1F
100
AcDbEntity
  8
0
  6
CENTER
 62
     1
100
AcDbCircle
 10
-482.581845273245
 20
-289.8048016827496
 30
0.0
 40
7.999999999999993
210
0.0
220
0.0
230
-1.0
100
AcDbArc
 50
0.0000000041101926
 51
90.00000000411019
  0
ARC
  5
5E3
330
1F
100
AcDbEntity
  8
0
  6
CENTER
 62
     1
100
AcDbCircle
 10
-482.581845273245
 20
-289.8048016827496
 30
0.0
 40
8.000000000000014
210
0.0
220
0.0
230
-1.0
100
AcDbArc
 50
90.00000000411019
 51
180.0000000041102
  0
LINE
  5
5E4
330
1F
100
AcDbEntity
  8
0
  6
CENTER
 62
     1
100
AcDbLine
 10
490.5818452729613
 20
-293.8048016833251
 30
0.0
 11
490.5818452732483
 21
-289.8048016833236
 31
0.0
  0
LINE
  5
5E5
330
1F
100
AcDbEntity
  8
0
  6
CENTER
 62
     1
100
AcDbLine
 10
451.0818452843154
 20
-135.3048016804282
 30
0.0
 11
451.0818452806211
 21
-186.8048016892363
 31
0.0
  0
LINE
  5
5E7
330
1F
100
AcDbEntity
  8
0
  6
CENTER
 62
     1
100
AcDbLine
 10
501.5818452755482
 20
-257.8048016841007
 30
0.0
 11
501.5818452695296
 21
-341.7048016841333
 31
0.0
  0
LINE
  5
5E8
330
1F
100
AcDbEntity
  8
0
  6
CENTER
 62
     1
100
AcDbLine
 10
451.0818452695094
 20
-341.7048016805107
 30
0.0
 11
501.5818452695296
 21
-341.7048016841333
 31
0.0
  0
ARC
  5
5EA
330
1F
100
AcDbEntity
  8
0
  6
CENTER
 62
     1
100
AcDbCircle
 10
491.5818452814264
 20
-175.8048016833496
 30
0.0
 40
11.99999999999999
100
AcDbArc
 50
41.81031489167483
 51
180.0
  0
ARC
  5
5EB
330
1F
100
AcDbEntity
  8
0
  6
CENTER
 62
     1
100
AcDbCircle
 10
-567.5818452814567
 20
-175.8048016888024
 30
0.0
 40
6.000000000000005
210
0.0
220
0.0
230
-1.0
100
AcDbArc
 50
90.00000000411019
 51
180.0000000041102
  0
LINE
  5
5EC
330
1F
100
AcDbEntity
  8
0
  6
CENTER
 62
     1
100
AcDbLine
 10
573.58184528067
 20
-186.8048016892363
 30
0.0
 11
573.5818452814591
 21
-175.8048016892328
 31
0.0
  0
LINE
  5
5ED
330
1F
100
AcDbEntity
  8
0
  6
CENTER
 62
     1
100
AcDbLine
 10
573.58184528067
 20
-186.8048016892363
 30
0.0
 11
651.5818452807011
 21
-186.8048016948315
 31
0.0
  0
LINE
  5
5EE
330
1F
100
AcDbEntity
  8
0
  6
CENTER
 62
     1
100
AcDbLine
 10
651.5818452807011
 20
-186.8048016948314
 30
0.0
 11
651.5818452843955
 21
-135.3048016948108
 31
0.0
  0
LINE
  5
5EF
330
1F
100
AcDbEntity
  8
0
  6
CENTER
 62
     1
100
AcDbLine
 10
651.5818452843955
 20
-135.3048016948108
 30
0.0
 11
451.0818452843154
 21
-135.3048016804282
 31
0.0
  0
LINE
  5
5F2
330
1F
100
AcDbEntity
  8
0
  6
CENTER
 62
     1
100
AcDbLine
 10
567.5818452818869
 20
-169.8048016888
 30
0.0
 11
504.9982531468542
 21
-169.8048016843106
 31
0.0
  0
ARC
  5
5F3
330
1F
100
AcDbEntity
  8
0
  6
CENTER
 62
     1
100
AcDbCircle
 10
-599.5818452821152
 20
-166.8048016910933
 30
0.0
 40
8.000000000000007
210
0.0
220
0.0
230
-1.0
100
AcDbArc
 50
180.0000000041102
 51
270.0000000041102
  0
LINE
  5
5F4
330
1F
100
AcDbEntity
  8
0
  6
CENTER
 62
     1
100
AcDbLine
 10
595.5818452815397
 20
-174.8048016908095
 30
0.0
 11
599.5818452815413
 21
-174.8048016910965
 31
0.0
  0
ARC
  5
5F5
330
1F
100
AcDbEntity
  8
0
  6
CENTER
 62
     1
100
AcDbCircle
 10
-595.5818452821135
 20
-166.8048016908063
 30
0.0
 40
7.999999999999993
210
0.0
220
0.0
230
-1.0
100
AcDbArc
 50
270.0000000041102
 51
0.0000000041097855
  0
ARC
  5
5F6
330
1F
100
AcDbEntity
  8
0
  6
CENTER
 62
     1
100
AcDbCircle
 10
-595.5818452821135
 20
-166.8048016908063
 30
0.0
 40
8.000000000000007
210
0.0
220
0.0
230
-1.0
100
AcDbArc
 50
0.0000000041097855
 51
90.00000000411019
  0
LINE
  5
5F7
330
1F
100
AcDbEntity
  8
0
  6
CENTER
 62
     1
100
AcDbLine
 10
599.581845282689
 20
-158.8048016910901
 30
0.0
 11
595.5818452826875
 21
-158.8048016908031
 31
0.0
  0
ARC
  5
5F8
330
1F
100
AcDbEntity
  8
0
  6
CENTER
 62
     1
100
AcDbCircle
 10
-599.5818452821152
 20
-166.8048016910933
 30
0.0
 40
8.000000000000007
210
0.0
220
0.0
230
-1.0
100
AcDbArc
 50
90.00000000411019
 51
180.0000000041102
  0
LINE
  5
5F9
330
1F
100
AcDbEntity
  8
0
  6
CENTER
 62
     1
100
AcDbLine
 10
479.0818452814264
 20
-186.8048016892363
 30
0.0
 11
451.0818452806211
 21
-186.8048016892363
 31
0.0
  0
LINE
  5
5FB
330
1F
100
AcDbEntity
  8
0
  6
CENTER
 62
     1
100
AcDbLine
 10
479.5818452814264
 20
-175.8048016833496
 30
0.0
 11
479.5818452814264
 21
-186.3048016892363
 31
0.0
  0
ARC
  5
5FC
330
1F
100
AcDbEntity
  8
0
  6
CENTER
 62
     1
100
AcDbCircle
 10
479.0818452814264
 20
-186.3048016892363
 30
0.0
 40
0.5000000000000002
100
AcDbArc
 50
270.0
 51
0.0
  0
LINE
  5
5FE
330
1F
100
AcDbEntity
  8
0
  6
CENTER
 62
     1
100
AcDbLine
 10
451.0818452804059
 20
-189.8048016892363
 30
0.0
 11
482.5818452802044
 21
-189.8048016892363
 31
0.0
  0
ARC
  5
5FF
330
1F
100
AcDbEntity
  8
0
  6
CENTER
 62
     1
100
AcDbCircle
 10
482.5818452802044
 20
-192.8048016892363
 30
0.0
 40
3.000000000000001
100
AcDbArc
 50
359.9999999958898
 51
90.0
  0
LINE
  5
600
330
1F
100
AcDbEntity
  8
0
  6
CENTER
 62
     1
100
AcDbLine
 10
451.0818452804059
 20
-189.8048016892363
 30
0.0
 11
451.0818452695095
 21
-341.7048016805107
 31
0.0
  0
ARC
  5
603
330
1F
100
AcDbEntity
  8
0
  6
CENTER
 62
     1
100
AcDbCircle
 10
504.9982531472846
 20
-163.8048016843106
 30
0.0
 40
6.0
100
AcDbArc
 50
221.8103148916748
 51
269.9999999958898
  0
ENDSEC
  0
SECTION
  2
OBJECTS
  0
DICTIONARY
  5
C
330
0
100
AcDbDictionary
281
     1
  3
ACAD_GROUP
350
D
  3
ACAD_IMAGE_VARS
350
4F6
  3
ACAD_LAYOUT
350
1A
  3
ACAD_MLINESTYLE
350
17
  3
ACAD_PLOTSETTINGS
350
19
  3
ACAD_PLOTSTYLENAME
350
E
  3
ACAD_SCALELIST
350
4D1
  3
AcDbVariableDictionary
350
4A4
  3
APPDATA
350
4F5
  3
DWGPROPS
350
609
  0
DICTIONARY
  5
D
102
{ACAD_REACTORS
330
C
102
}
330
C
100
AcDbDictionary
281
     1
  0
RASTERVARIABLES
  5
4F6
102
{ACAD_REACTORS
330
C
102
}
330
C
100
AcDbRasterVariables
 90
        0
 70
     1
 71
     1
 72
     1
  0
DICTIONARY
  5
1A
102
{ACAD_REACTORS
330
C
102
}
330
C
100
AcDbDictionary
281
     1
  3
Layout1
350
1E
  3
Layout2
350
26
  3
Model
350
22
  0
DICTIONARY
  5
17
102
{ACAD_REACTORS
330
C
102
}
330
C
100
AcDbDictionary
281
     1
  3
Standard
350
18
  0
DICTIONARY
  5
19
102
{ACAD_REACTORS
330
C
102
}
330
C
100
AcDbDictionary
281
     1
  0
ACDBDICTIONARYWDFLT
  5
E
102
{ACAD_REACTORS
330
C
102
}
330
C
100
AcDbDictionary
281
     1
  3
Normal
350
F
100
AcDbDictionaryWithDefault
340
F
  0
DICTIONARY
  5
4D1
102
{ACAD_REACTORS
330
C
102
}
330
C
100
AcDbDictionary
281
     1
  3
A0
350
4D2
  3
A1
350
4D3
  3
A2
350
4D4
  3
A3
350
4D5
  3
A4
350
4D6
  3
A5
350
4D7
  3
A6
350
4D8
  3
A7
350
4D9
  3
A8
350
4DA
  3
A9
350
4DB
  3
B0
350
4DC
  3
B1
350
4DD
  3
B2
350
4DE
  3
B3
350
4DF
  3
B4
350
4E0
  3
B5
350
4E1
  3
B6
350
4E2
  3
B7
350
4E3
  3
B8
350
4E4
  3
B9
350
4E5
  3
C0
350
4E6
  3
C1
350
4E7
  3
C2
350
4E8
  3
C3
350
4E9
  3
C4
350
4EA
  3
C5
350
4EB
  3
C6
350
4EC
  3
C7
350
4ED
  3
C8
350
4EE
  3
C9
350
4EF
  3
D0
350
4F0
  3
D1
350
4F1
  3
D2
350
4F2
  0
DICTIONARY
  5
4A4
102
{ACAD_REACTORS
330
C
102
}
330
C
100
AcDbDictionary
281
     1
  3
CANNOSCALE
350
60A
  3
DIMASSOC
350
4A7
  3
HIDETEXT
350
4A8
  0
DICTIONARY
  5
4F5
102
{ACAD_REACTORS
330
C
102
}
330
C
100
AcDbDictionary
281
     1
  0
XRECORD
  5
609
102
{ACAD_REACTORS
330
C
102
}
330
C
100
AcDbXrecord
280
     1
  1
DWGPROPS COOKIE
  2

  3

  4

  6

  7

  8
emilio
  9

300
=
301
=
302
=
303
=
304
=
305
=
306
=
307
=
308
=
309
=
 40
0.0
 41
2456615.397421852
 42
2456615.536385567
  1

 90
        0
  0
LAYOUT
  5
1E
102
{ACAD_REACTORS
330
1A
102
}
330
1A
100
AcDbPlotSettings
  1

  2
none_device
  4

  6

 40
0.0
 41
0.0
 42
0.0
 43
0.0
 44
0.0
 45
0.0
 46
0.0
 47
0.0
 48
0.0
 49
0.0
140
0.0
141
0.0
142
1.0
143
1.0
 70
   688
 72
     0
 73
     0
 74
     5
  7

 75
    16
147
1.0
148
0.0
149
0.0
100
AcDbLayout
  1
Layout1
 70
     1
 71
     1
 10
0.0
 20
0.0
 11
12.0
 21
9.0
 12
0.0
 22
0.0
 32
0.0
 14
1.000000000000000E+20
 24
1.000000000000000E+20
 34
1.000000000000000E+20
 15
-1.000000000000000E+20
 25
-1.000000000000000E+20
 35
-1.000000000000000E+20
146
0.0
 13
0.0
 23
0.0
 33
0.0
 16
1.0
 26
0.0
 36
0.0
 17
0.0
 27
1.0
 37
0.0
 76
     0
330
1B
  0
LAYOUT
  5
26
102
{ACAD_REACTORS
330
1A
102
}
330
1A
100
AcDbPlotSettings
  1

  2
none_device
  4

  6

 40
0.0
 41
0.0
 42
0.0
 43
0.0
 44
0.0
 45
0.0
 46
0.0
 47
0.0
 48
0.0
 49
0.0
140
0.0
141
0.0
142
1.0
143
1.0
 70
   688
 72
     0
 73
     0
 74
     5
  7

 75
    16
147
1.0
148
0.0
149
0.0
100
AcDbLayout
  1
Layout2
 70
     1
 71
     2
 10
0.0
 20
0.0
 11
0.0
 21
0.0
 12
0.0
 22
0.0
 32
0.0
 14
0.0
 24
0.0
 34
0.0
 15
0.0
 25
0.0
 35
0.0
146
0.0
 13
0.0
 23
0.0
 33
0.0
 16
1.0
 26
0.0
 36
0.0
 17
0.0
 27
1.0
 37
0.0
 76
     0
330
23
  0
LAYOUT
  5
22
102
{ACAD_REACTORS
330
1A
102
}
330
1A
100
AcDbPlotSettings
  1

  2
none_device
  4

  6

 40
0.0
 41
0.0
 42
0.0
 43
0.0
 44
0.0
 45
0.0
 46
0.0
 47
0.0
 48
0.0
 49
0.0
140
0.0
141
0.0
142
1.0
143
1.0
 70
  1712
 72
     0
 73
     0
 74
     0
  7

 75
     0
147
1.0
148
0.0
149
0.0
100
AcDbLayout
  1
Model
 70
     1
 71
     0
 10
0.0
 20
0.0
 11
12.0
 21
9.0
 12
0.0
 22
0.0
 32
0.0
 14
-239.5500000040684
 24
-348.5662232115562
 34
-0.0000000000000008
 15
499.0622710622711
 25
473.2000250020663
 35
5.0
146
0.0
 13
0.0
 23
0.0
 33
0.0
 16
1.0
 26
0.0
 36
0.0
 17
0.0
 27
1.0
 37
0.0
 76
     0
330
1F
331
29
  0
MLINESTYLE
  5
18
102
{ACAD_REACTORS
330
17
102
}
330
17
100
AcDbMlineStyle
  2
Standard
 70
     0
  3

 62
   256
 51
90.0
 52
90.0
 71
     2
 49
0.5
 62
   256
  6
BYLAYER
 49
-0.5
 62
   256
  6
BYLAYER
  0
ACDBPLACEHOLDER
  5
F
102
{ACAD_REACTORS
330
E
102
}
330
E
  0
SCALE
  5
4D2
102
{ACAD_REACTORS
330
4D1
102
}
330
4D1
100
AcDbScale
 70
     0
300
1:1
140
1.0
141
1.0
290
     1
  0
SCALE
  5
4D3
102
{ACAD_REACTORS
330
4D1
102
}
330
4D1
100
AcDbScale
 70
     0
300
1:2
140
1.0
141
2.0
290
     0
  0
SCALE
  5
4D4
102
{ACAD_REACTORS
330
4D1
102
}
330
4D1
100
AcDbScale
 70
     0
300
1:4
140
1.0
141
4.0
290
     0
  0
SCALE
  5
4D5
102
{ACAD_REACTORS
330
4D1
102
}
330
4D1
100
AcDbScale
 70
     0
300
1:5
140
1.0
141
5.0
290
     0
  0
SCALE
  5
4D6
102
{ACAD_REACTORS
330
4D1
102
}
330
4D1
100
AcDbScale
 70
     0
300
1:8
140
1.0
141
8.0
290
     0
  0
SCALE
  5
4D7
102
{ACAD_REACTORS
330
4D1
102
}
330
4D1
100
AcDbScale
 70
     0
300
1:10
140
1.0
141
10.0
290
     0
  0
SCALE
  5
4D8
102
{ACAD_REACTORS
330
4D1
102
}
330
4D1
100
AcDbScale
 70
     0
300
1:16
140
1.0
141
16.0
290
     0
  0
SCALE
  5
4D9
102
{ACAD_REACTORS
330
4D1
102
}
330
4D1
100
AcDbScale
 70
     0
300
1:20
140
1.0
141
20.0
290
     0
  0
SCALE
  5
4DA
102
{ACAD_REACTORS
330
4D1
102
}
330
4D1
100
AcDbScale
 70
     0
300
1:30
140
1.0
141
30.0
290
     0
  0
SCALE
  5
4DB
102
{ACAD_REACTORS
330
4D1
102
}
330
4D1
100
AcDbScale
 70
     0
300
1:40
140
1.0
141
40.0
290
     0
  0
SCALE
  5
4DC
102
{ACAD_REACTORS
330
4D1
102
}
330
4D1
100
AcDbScale
 70
     0
300
1:50
140
1.0
141
50.0
290
     0
  0
SCALE
  5
4DD
102
{ACAD_REACTORS
330
4D1
102
}
330
4D1
100
AcDbScale
 70
     0
300
1:100
140
1.0
141
100.0
290
     0
  0
SCALE
  5
4DE
102
{ACAD_REACTORS
330
4D1
102
}
330
4D1
100
AcDbScale
 70
     0
300
2:1
140
2.0
141
1.0
290
     0
  0
SCALE
  5
4DF
102
{ACAD_REACTORS
330
4D1
102
}
330
4D1
100
AcDbScale
 70
     0
300
4:1
140
4.0
141
1.0
290
     0
  0
SCALE
  5
4E0
102
{ACAD_REACTORS
330
4D1
102
}
330
4D1
100
AcDbScale
 70
     0
300
8:1
140
8.0
141
1.0
290
     0
  0
SCALE
  5
4E1
102
{ACAD_REACTORS
330
4D1
102
}
330
4D1
100
AcDbScale
 70
     0
300
10:1
140
10.0
141
1.0
290
     0
  0
SCALE
  5
4E2
102
{ACAD_REACTORS
330
4D1
102
}
330
4D1
100
AcDbScale
 70
     0
300
100:1
140
100.0
141
1.0
290
     0
  0
SCALE
  5
4E3
102
{ACAD_REACTORS
330
4D1
102
}
330
4D1
100
AcDbScale
 70
     0
300
1/128" = 1'-0"
140
0.0078125
141
12.0
290
     0
  0
SCALE
  5
4E4
102
{ACAD_REACTORS
330
4D1
102
}
330
4D1
100
AcDbScale
 70
     0
300
1/64" = 1'-0"
140
0.015625
141
12.0
290
     0
  0
SCALE
  5
4E5
102
{ACAD_REACTORS
330
4D1
102
}
330
4D1
100
AcDbScale
 70
     0
300
1/32" = 1'-0"
140
0.03125
141
12.0
290
     0
  0
SCALE
  5
4E6
102
{ACAD_REACTORS
330
4D1
102
}
330
4D1
100
AcDbScale
 70
     0
300
1/16" = 1'-0"
140
0.0625
141
12.0
290
     0
  0
SCALE
  5
4E7
102
{ACAD_REACTORS
330
4D1
102
}
330
4D1
100
AcDbScale
 70
     0
300
3/32" = 1'-0"
140
0.09375
141
12.0
290
     0
  0
SCALE
  5
4E8
102
{ACAD_REACTORS
330
4D1
102
}
330
4D1
100
AcDbScale
 70
     0
300
1/8" = 1'-0"
140
0.125
141
12.0
290
     0
  0
SCALE
  5
4E9
102
{ACAD_REACTORS
330
4D1
102
}
330
4D1
100
AcDbScale
 70
     0
300
3/16" = 1'-0"
140
0.1875
141
12.0
290
     0
  0
SCALE
  5
4EA
102
{ACAD_REACTORS
330
4D1
102
}
330
4D1
100
AcDbScale
 70
     0
300
1/4" = 1'-0"
140
0.25
141
12.0
290
     0
  0
SCALE
  5
4EB
102
{ACAD_REACTORS
330
4D1
102
}
330
4D1
100
AcDbScale
 70
     0
300
3/8" = 1'-0"
140
0.375
141
12.0
290
     0
  0
SCALE
  5
4EC
102
{ACAD_REACTORS
330
4D1
102
}
330
4D1
100
AcDbScale
 70
     0
300
1/2" = 1'-0"
140
0.5
141
12.0
290
     0
  0
SCALE
  5
4ED
102
{ACAD_REACTORS
330
4D1
102
}
330
4D1
100
AcDbScale
 70
     0
300
3/4" = 1'-0"
140
0.75
141
12.0
290
     0
  0
SCALE
  5
4EE
102
{ACAD_REACTORS
330
4D1
102
}
330
4D1
100
AcDbScale
 70
     0
300
1" = 1'-0"
140
1.0
141
12.0
290
     0
  0
SCALE
  5
4EF
102
{ACAD_REACTORS
330
4D1
102
}
330
4D1
100
AcDbScale
 70
     0
300
1-1/2" = 1'-0"
140
1.5
141
12.0
290
     0
  0
SCALE
  5
4F0
102
{ACAD_REACTORS
330
4D1
102
}
330
4D1
100
AcDbScale
 70
     0
300
3" = 1'-0"
140
3.0
141
12.0
290
     0
  0
SCALE
  5
4F1
102
{ACAD_REACTORS
330
4D1
102
}
330
4D1
100
AcDbScale
 70
     0
300
6" = 1'-0"
140
6.0
141
12.0
290
     0
  0
SCALE
  5
4F2
102
{ACAD_REACTORS
330
4D1
102
}
330
4D1
100
AcDbScale
 70
     0
300
1'-0" = 1'-0"
140
12.0
141
12.0
290
     0
  0
DICTIONARYVAR
  5
60A
102
{ACAD_REACTORS
330
4A4
102
}
330
4A4
100
DictionaryVariables
280
     0
  1
1:1
  0
DICTIONARYVAR
  5
4A7
102
{ACAD_REACTORS
330
4A4
102
}
330
4A4
100
DictionaryVariables
280
     0
  1
2
  0
DICTIONARYVAR
  5
4A8
102
{ACAD_REACTORS
330
4A4
102
}
330
4A4
100
DictionaryVariables
280
     0
  1
1
  0
ENDSEC
  0
EOF
