  0
SECTION
  2
HEADER
  9
$ACADVER
  1
AC1015
  9
$ACADMAINTVER
 70
    20
  9
$DWGCODEPAGE
  3
ANSI_1252
  9
$INSBASE
 10
0.0
 20
0.0
 30
0.0
  9
$EXTMIN
 10
-66.5
 20
-34.19788741927627
 30
-0.0000000000000001
  9
$EXTMAX
 10
112.2829710000001
 20
135.5
 30
0.0000000000000001
  9
$LIMMIN
 10
-20.0
 20
-0.021978
  9
$LIMMAX
 10
2645.85
 20
758.35
  9
$ORTHOMODE
 70
     0
  9
$REGENMODE
 70
     1
  9
$FILLMODE
 70
     1
  9
$QTEXTMODE
 70
     0
  9
$MIRRTEXT
 70
     1
  9
$LTSCALE
 40
10.0
  9
$ATTMODE
 70
     1
  9
$TEXTSIZE
 40
0.0
  9
$TRACEWID
 40
0.05
  9
$TEXTSTYLE
  7
Standard
  9
$CLAYER
  8
0
  9
$CELTYPE
  6
Continuous
  9
$CECOLOR
 62
   256
  9
$CELTSCALE
 40
1.0
  9
$DISPSILH
 70
     0
  9
$DIMSCALE
 40
1.0
  9
$DIMASZ
 40
1.25
  9
$DIMEXO
 40
0.0
  9
$DIMDLI
 40
0.38
  9
$DIMRND
 40
0.0
  9
$DIMDLE
 40
0.0
  9
$DIMEXE
 40
0.75
  9
$DIMTP
 40
0.0
  9
$DIMTM
 40
0.0
  9
$DIMTXT
 40
2.5
  9
$DIMCEN
 40
0.09
  9
$DIMTSZ
 40
0.0
  9
$DIMTOL
 70
     0
  9
$DIMLIM
 70
     0
  9
$DIMTIH
 70
     0
  9
$DIMTOH
 70
     0
  9
$DIMSE1
 70
     0
  9
$DIMSE2
 70
     0
  9
$DIMTAD
 70
     1
  9
$DIMZIN
 70
     0
  9
$DIMBLK
  1

  9
$DIMASO
 70
     1
  9
$DIMSHO
 70
     1
  9
$DIMPOST
  1

  9
$DIMAPOST
  1

  9
$DIMALT
 70
     0
  9
$DIMALTD
 70
     2
  9
$DIMALTF
 40
25.4
  9
$DIMLFAC
 40
1.0
  9
$DIMTOFL
 70
     0
  9
$DIMTVP
 40
0.0
  9
$DIMTIX
 70
     0
  9
$DIMSOXD
 70
     0
  9
$DIMSAH
 70
     0
  9
$DIMBLK1
  1

  9
$DIMBLK2
  1

  9
$DIMSTYLE
  2
Standard
  9
$DIMCLRD
 70
     7
  9
$DIMCLRE
 70
     7
  9
$DIMCLRT
 70
     7
  9
$DIMTFAC
 40
0.8
  9
$DIMGAP
 40
1.25
  9
$DIMJUST
 70
     0
  9
$DIMSD1
 70
     0
  9
$DIMSD2
 70
     0
  9
$DIMTOLJ
 70
     1
  9
$DIMTZIN
 70
     0
  9
$DIMALTZ
 70
     0
  9
$DIMALTTZ
 70
     0
  9
$DIMUPT
 70
     0
  9
$DIMDEC
 70
     2
  9
$DIMTDEC
 70
     4
  9
$DIMALTU
 70
     2
  9
$DIMALTTD
 70
     2
  9
$DIMTXSTY
  7
Standard
  9
$DIMAUNIT
 70
     0
  9
$DIMADEC
 70
     0
  9
$DIMALTRND
 40
0.0
  9
$DIMAZIN
 70
     0
  9
$DIMDSEP
 70
     0
  9
$DIMATFIT
 70
     3
  9
$DIMFRAC
 70
     0
  9
$DIMLDRBLK
  1

  9
$DIMLUNIT
 70
     2
  9
$DIMLWD
 70
     0
  9
$DIMLWE
 70
     0
  9
$DIMTMOVE
 70
     0
  9
$LUNITS
 70
     2
  9
$LUPREC
 70
     4
  9
$SKETCHINC
 40
0.1
  9
$FILLETRAD
 40
0.0
  9
$AUNITS
 70
     0
  9
$AUPREC
 70
     0
  9
$MENU
  1
acad
  9
$ELEVATION
 40
0.0
  9
$PELEVATION
 40
0.0
  9
$THICKNESS
 40
0.0
  9
$LIMCHECK
 70
     0
  9
$CHAMFERA
 40
0.0
  9
$CHAMFERB
 40
0.0
  9
$CHAMFERC
 40
0.0
  9
$CHAMFERD
 40
0.0
  9
$SKPOLY
 70
     0
  9
$TDCREATE
 40
2455329.702198484
  9
$TDUCREATE
 40
2455329.618865150
  9
$TDUPDATE
 40
2455383.413419965
  9
$TDUUPDATE
 40
2455383.330086632
  9
$TDINDWG
 40
0.0289967014
  9
$TDUSRTIMER
 40
0.0289939931
  9
$USRTIMER
 70
     1
  9
$ANGBASE
 50
0.0
  9
$ANGDIR
 70
     0
  9
$PDMODE
 70
     0
  9
$PDSIZE
 40
0.0
  9
$PLINEWID
 40
0.0
  9
$SPLFRAME
 70
     0
  9
$SPLINETYPE
 70
     6
  9
$SPLINESEGS
 70
     8
  9
$HANDSEED
  5
7374
  9
$SURFTAB1
 70
     6
  9
$SURFTAB2
 70
     6
  9
$SURFTYPE
 70
     6
  9
$SURFU
 70
     6
  9
$SURFV
 70
     6
  9
$UCSBASE
  2

  9
$UCSNAME
  2

  9
$UCSORG
 10
0.0
 20
0.0
 30
0.0
  9
$UCSXDIR
 10
1.0
 20
0.0
 30
0.0
  9
$UCSYDIR
 10
0.0
 20
1.0
 30
0.0
  9
$UCSORTHOREF
  2

  9
$UCSORTHOVIEW
 70
     0
  9
$UCSORGTOP
 10
0.0
 20
0.0
 30
0.0
  9
$UCSORGBOTTOM
 10
0.0
 20
0.0
 30
0.0
  9
$UCSORGLEFT
 10
0.0
 20
0.0
 30
0.0
  9
$UCSORGRIGHT
 10
0.0
 20
0.0
 30
0.0
  9
$UCSORGFRONT
 10
0.0
 20
0.0
 30
0.0
  9
$UCSORGBACK
 10
0.0
 20
0.0
 30
0.0
  9
$PUCSBASE
  2

  9
$PUCSNAME
  2

  9
$PUCSORG
 10
0.0
 20
0.0
 30
0.0
  9
$PUCSXDIR
 10
1.0
 20
0.0
 30
0.0
  9
$PUCSYDIR
 10
0.0
 20
1.0
 30
0.0
  9
$PUCSORTHOREF
  2

  9
$PUCSORTHOVIEW
 70
     0
  9
$PUCSORGTOP
 10
0.0
 20
0.0
 30
0.0
  9
$PUCSORGBOTTOM
 10
0.0
 20
0.0
 30
0.0
  9
$PUCSORGLEFT
 10
0.0
 20
0.0
 30
0.0
  9
$PUCSORGRIGHT
 10
0.0
 20
0.0
 30
0.0
  9
$PUCSORGFRONT
 10
0.0
 20
0.0
 30
0.0
  9
$PUCSORGBACK
 10
0.0
 20
0.0
 30
0.0
  9
$USERI1
 70
     0
  9
$USERI2
 70
     0
  9
$USERI3
 70
     0
  9
$USERI4
 70
     0
  9
$USERI5
 70
     0
  9
$USERR1
 40
0.0
  9
$USERR2
 40
0.0
  9
$USERR3
 40
0.0
  9
$USERR4
 40
0.0
  9
$USERR5
 40
0.0
  9
$WORLDVIEW
 70
     1
  9
$SHADEDGE
 70
     3
  9
$SHADEDIF
 70
    70
  9
$TILEMODE
 70
     1
  9
$MAXACTVP
 70
    16
  9
$PINSBASE
 10
0.0
 20
0.0
 30
0.0
  9
$PLIMCHECK
 70
     0
  9
$PEXTMIN
 10
1.000000000000000E+20
 20
1.000000000000000E+20
 30
1.000000000000000E+20
  9
$PEXTMAX
 10
-1.000000000000000E+20
 20
-1.000000000000000E+20
 30
-1.000000000000000E+20
  9
$PLIMMIN
 10
0.0
 20
0.0
  9
$PLIMMAX
 10
12.0
 20
9.0
  9
$UNITMODE
 70
     0
  9
$VISRETAIN
 70
     0
  9
$PLINEGEN
 70
     1
  9
$PSLTSCALE
 70
     0
  9
$TREEDEPTH
 70
  3020
  9
$CMLSTYLE
  2
Standard
  9
$CMLJUST
 70
     0
  9
$CMLSCALE
 40
1.0
  9
$PROXYGRAPHICS
 70
     0
  9
$MEASUREMENT
 70
     1
  9
$CELWEIGHT
370
     0
  9
$ENDCAPS
280
     0
  9
$JOINSTYLE
280
     0
  9
$LWDISPLAY
290
     0
  9
$INSUNITS
 70
     0
  9
$HYPERLINKBASE
  1

  9
$STYLESHEET
  1

  9
$XEDIT
290
     1
  9
$CEPSNTYPE
380
     0
  9
$PSTYLEMODE
290
     1
  9
$FINGERPRINTGUID
  2

  9
$VERSIONGUID
  2
{DB349BA1-5970-49A3-BF35-BFB8013922DA}
  9
$EXTNAMES
290
     1
  9
$PSVPSCALE
 40
0.0
  9
$OLESTARTUP
290
     0
  0
ENDSEC
  0
SECTION
  2
CLASSES
  0
CLASS
  1
IMAGE
  2
AcDbRasterImage
  3
ISM
 90
    34943
280
     0
281
     1
  0
CLASS
  1
DICTIONARYVAR
  2
AcDbDictionaryVar
  3
ObjectDBX Classes
 90
        0
280
     0
281
     0
  0
CLASS
  1
RASTERVARIABLES
  2
AcDbRasterVariables
  3
ISM
 90
    32768
280
     0
281
     0
  0
CLASS
  1
IMAGEDEF
  2
AcDbRasterImageDef
  3
ISM
 90
    32768
280
     0
281
     0
  0
CLASS
  1
IMAGEDEF_REACTOR
  2
AcDbRasterImageDefReactor
  3
ISM
 90
    32769
280
     0
281
     0
  0
CLASS
  1
IDBUFFER
  2
AcDbIdBuffer
  3
ObjectDBX Classes
 90
    32768
280
     0
281
     0
  0
CLASS
  1
SPATIAL_FILTER
  2
AcDbSpatialFilter
  3
ObjectDBX Classes
 90
    32768
280
     0
281
     0
  0
CLASS
  1
SORTENTSTABLE
  2
AcDbSortentsTable
  3
ObjectDBX Classes
 90
        0
280
     0
281
     0
  0
CLASS
  1
LAYER_INDEX
  2
AcDbLayerIndex
  3
ObjectDBX Classes
 90
    32768
280
     0
281
     0
  0
CLASS
  1
SPATIAL_INDEX
  2
AcDbSpatialIndex
  3
ObjectDBX Classes
 90
    32768
280
     0
281
     0
  0
CLASS
  1
OBJECT_PTR
  2
CAseDLPNTableRecord
  3
ASE-LPNTableRecord
 90
    32769
280
     0
281
     0
  0
CLASS
  1
PLOTSETTINGS
  2
AcDbPlotSettings
  3
ObjectDBX Classes
 90
    32768
280
     0
281
     0
  0
CLASS
  1
ACDBDICTIONARYWDFLT
  2
AcDbDictionaryWithDefault
  3
ObjectDBX Classes
 90
        0
280
     0
281
     0
  0
CLASS
  1
WIPEOUT
  2
AcDbWipeout
  3
"WipeOut|Product Desc: Object Enabler for WipeOut entity                        |Company: Autodesk, Inc.                        |WEB Address: www.autodesk.com"
 90
    34943
280
     0
281
     1
  0
CLASS
  1
WIPEOUTVARIABLES
  2
AcDbWipeoutVariables
  3
"WipeOut|Product Desc:     WipeOut Dbx Application|Company:          Autodesk, Inc.|WEB Address:      www.autodesk.com"
 90
        0
280
     0
281
     0
  0
CLASS
  1
RTEXT
  2
RText
  3
RText|AutoCAD Express Tool|expresstools@autodesk.com
 90
    35839
280
     0
281
     1
  0
CLASS
  1
ARCALIGNEDTEXT
  2
AcDbArcAlignedText
  3
ATEXT|AutoCAD Express Tool|expresstools@autodesk.com
 90
    32768
280
     0
281
     1
  0
CLASS
  1
MATERIAL
  2
AcDbMaterial
  3
ObjectDBX Classes
 90
     1153
280
     0
281
     0
  0
CLASS
  1
VISUALSTYLE
  2
AcDbVisualStyle
  3
ObjectDBX Classes
 90
     4095
280
     0
281
     0
  0
CLASS
  1
TABLESTYLE
  2
AcDbTableStyle
  3
ObjectDBX Classes
 90
     4095
280
     0
281
     0
  0
CLASS
  1
SCALE
  2
AcDbScale
  3
ObjectDBX Classes
 90
     1153
280
     0
281
     0
  0
CLASS
  1
MLEADERSTYLE
  2
AcDbMLeaderStyle
  3
ACDB_MLEADERSTYLE_CLASS
 90
     4095
280
     0
281
     0
  0
CLASS
  1
CELLSTYLEMAP
  2
AcDbCellStyleMap
  3
ObjectDBX Classes
 90
     1152
280
     0
281
     0
  0
CLASS
  1
ACDBPLACEHOLDER
  2
AcDbPlaceHolder
  3
ObjectDBX Classes
 90
        0
280
     0
281
     0
  0
CLASS
  1
LAYOUT
  2
AcDbLayout
  3
ObjectDBX Classes
 90
        0
280
     0
281
     0
  0
ENDSEC
  0
SECTION
  2
TABLES
  0
TABLE
  2
VPORT
  5
7
330
0
100
AcDbSymbolTable
 70
     1
  0
VPORT
  5
15
330
7
100
AcDbSymbolTableRecord
100
AcDbViewportTableRecord
  2
*ACTIVE
 70
     0
 10
0.0
 20
0.0
 11
1.0
 21
1.0
 12
22.44093279255395
 22
49.40439059179903
 13
0.0
 23
0.0
 14
1.0
 24
1.0
 15
0.0
 25
0.0
 16
0.0
 26
0.0
 36
1.0
 17
0.0
 27
0.0
 37
0.0
 40
192.0672746246496
 41
1.611330698287219
 42
50.0
 43
0.0
 44
0.0
 50
0.0
 51
0.0
 71
     0
 72
   100
 73
     1
 74
     1
 75
     0
 76
     0
 77
     0
 78
     0
281
     0
 65
     0
110
0.0
120
0.0
130
0.0
111
1.0
121
0.0
131
0.0
112
0.0
122
1.0
132
0.0
 79
     0
146
0.0
  0
ENDTAB
  0
TABLE
  2
LTYPE
  5
4
330
0
100
AcDbSymbolTable
 70
     2
  0
LTYPE
  5
11
330
4
100
AcDbSymbolTableRecord
100
AcDbLinetypeTableRecord
  2
ByBlock
 70
     0
  3

 72
    65
 73
     0
 40
0.0
  0
LTYPE
  5
12
330
4
100
AcDbSymbolTableRecord
100
AcDbLinetypeTableRecord
  2
ByLayer
 70
     0
  3

 72
    65
 73
     0
 40
0.0
  0
LTYPE
  5
13
330
4
100
AcDbSymbolTableRecord
100
AcDbLinetypeTableRecord
  2
Continuous
 70
     0
  3
Solid line
 72
    65
 73
     0
 40
0.0
  0
LTYPE
  5
2A2
330
4
100
AcDbSymbolTableRecord
100
AcDbLinetypeTableRecord
  2
CENTER
 70
     0
  3
____ _ ____ _ ____ _ ____ _ ____ _ ____ _ ____
 72
    65
 73
     4
 40
2.0
 49
1.25
 74
     0
 49
-0.25
 74
     0
 49
0.25
 74
     0
 49
-0.25
 74
     0
  0
ENDTAB
  0
TABLE
  2
LAYER
  5
2
330
0
100
AcDbSymbolTable
 70
     1
  0
LAYER
  5
14
102
{ACAD_XDICTIONARY
360
72C9
102
}
330
2
100
AcDbSymbolTableRecord
100
AcDbLayerTableRecord
  2
0
 70
     0
 62
     7
  6
Continuous
370
    -3
390
1D
  0
ENDTAB
  0
TABLE
  2
STYLE
  5
3
330
0
100
AcDbSymbolTable
 70
     1
  0
STYLE
  5
17
330
3
100
AcDbSymbolTableRecord
100
AcDbTextStyleTableRecord
  2
Standard
 70
     0
 40
0.0
 41
1.0
 50
0.0
 71
     0
 42
0.0
  3
IsonormD
  4

1001
ACAD
1000
IsonormD
1071
        0
  0
ENDTAB
  0
TABLE
  2
VIEW
  5
5
330
0
100
AcDbSymbolTable
 70
     0
  0
ENDTAB
  0
TABLE
  2
UCS
  5
6
330
0
100
AcDbSymbolTable
 70
     0
  0
ENDTAB
  0
TABLE
  2
APPID
  5
8
330
0
100
AcDbSymbolTable
 70
     5
  0
APPID
  5
16
330
8
100
AcDbSymbolTableRecord
100
AcDbRegAppTableRecord
  2
ACAD
 70
     0
  0
APPID
  5
26
330
8
100
AcDbSymbolTableRecord
100
AcDbRegAppTableRecord
  2
TopSolid_Draft
 70
     0
  0
APPID
  5
39AF
330
8
100
AcDbSymbolTableRecord
100
AcDbRegAppTableRecord
  2
ACAD_MLEADERVER
 70
     0
  0
APPID
  5
72C7
330
8
100
AcDbSymbolTableRecord
100
AcDbRegAppTableRecord
  2
DCO15
 70
     0
  0
APPID
  5
7315
330
8
100
AcDbSymbolTableRecord
100
AcDbRegAppTableRecord
  2
ACAD_EXEMPT_FROM_CAD_STANDARDS
 70
     0
  0
ENDTAB
  0
TABLE
  2
DIMSTYLE
  5
9
330
0
100
AcDbSymbolTable
 70
     1
100
AcDbDimStyleTable
 71
     1
340
18
  0
DIMSTYLE
105
18
330
9
100
AcDbSymbolTableRecord
100
AcDbDimStyleTableRecord
  2
Standard
 70
     0
 41
1.25
 42
0.0
 44
0.75
 73
     0
 74
     0
 77
     1
140
2.5
146
0.8
147
1.25
176
     7
177
     7
178
     7
271
     2
340
17
  0
ENDTAB
  0
TABLE
  2
BLOCK_RECORD
  5
1
330
0
100
AcDbSymbolTable
 70
     0
  0
BLOCK_RECORD
  5
A
102
{ACAD_XDICTIONARY
360
39B7
102
}
330
1
100
AcDbSymbolTableRecord
100
AcDbBlockTableRecord
  2
*MODEL_SPACE
340
20
  0
BLOCK_RECORD
  5
B
330
1
100
AcDbSymbolTableRecord
100
AcDbBlockTableRecord
  2
*PAPER_SPACE
340
21
  0
ENDTAB
  0
ENDSEC
  0
SECTION
  2
BLOCKS
  0
BLOCK
  5
D
330
A
100
AcDbEntity
  8
0
100
AcDbBlockBegin
  2
*MODEL_SPACE
 70
     0
 10
0.0
 20
0.0
 30
0.0
  3
*MODEL_SPACE
  1

  0
ENDBLK
  5
E
330
A
100
AcDbEntity
  8
0
100
AcDbBlockEnd
  0
BLOCK
  5
F
330
B
100
AcDbEntity
 67
     1
  8
0
100
AcDbBlockBegin
  2
*PAPER_SPACE
 70
     0
 10
0.0
 20
0.0
 30
0.0
  3
*PAPER_SPACE
  1

  0
ENDBLK
  5
10
330
B
100
AcDbEntity
 67
     1
  8
0
100
AcDbBlockEnd
  0
ENDSEC
  0
SECTION
  2
ENTITIES
  0
LINE
  5
3958
330
A
100
AcDbEntity
  8
0
  6
CENTER
 62
     1
100
AcDbLine
 10
15.5
 20
131.0
 30
0.0
 11
21.5
 21
131.0
 31
0.0
  0
LINE
  5
3959
330
A
100
AcDbEntity
  8
0
  6
CENTER
 62
     1
100
AcDbLine
 10
18.5
 20
128.0
 30
0.0
 11
18.5
 21
134.0
 31
0.0
  0
LINE
  5
395A
330
A
100
AcDbEntity
  8
0
  6
CENTER
 62
     1
100
AcDbLine
 10
15.0
 20
-17.5
 30
0.0
 11
22.0
 21
-17.5
 31
0.0
  0
LINE
  5
395B
330
A
100
AcDbEntity
  8
0
  6
CENTER
 62
     1
100
AcDbLine
 10
18.5
 20
-21.0
 30
0.0
 11
18.5
 21
-14.0
 31
0.0
  0
LINE
  5
3A72
330
A
100
AcDbEntity
  8
0
  6
Continuous
 62
     9
100
AcDbLine
 10
110.1363460000002
 20
7.369854999999972
 30
0.0
 11
110.4941170000011
 21
7.661972999999989
 31
0.0
  0
ELLIPSE
  5
3A73
330
A
100
AcDbEntity
  8
0
  6
Continuous
 62
     7
100
AcDbEllipse
 10
109.4208039999998
 20
7.515914000000009
 30
0.0
 11
-0.5059644255789311
 21
0.6196773354323338
 31
0.0
210
0.0
220
0.0
230
1.0
 40
0.8164969999999998
 41
3.926990817050448
 42
5.497787143845411
  0
LINE
  5
3A74
330
A
100
AcDbEntity
  8
0
  6
Continuous
 62
     9
100
AcDbLine
 10
109.4208039999998
 20
8.246210999999902
 30
0.0
 11
109.7785749999998
 21
8.538329999999973
 31
0.0
  0
ELLIPSE
  5
3A75
330
A
100
AcDbEntity
  8
0
  6
Continuous
 62
     7
100
AcDbEllipse
 10
109.7785749999998
 20
7.808033000000023
 30
0.0
 11
-0.5059644255789311
 21
0.6196773354323338
 31
0.0
210
0.0
220
0.0
230
1.0
 40
0.8164969999999998
 41
3.926990817050517
 42
5.497787143845411
  0
LINE
  5
3A76
330
A
100
AcDbEntity
  8
0
  6
Continuous
 62
     7
100
AcDbLine
 10
110.1363460000002
 20
7.369854999999972
 30
0.0
 11
110.1363460000002
 21
-26.22379500000003
 31
0.0
  0
ELLIPSE
  5
3A77
330
A
100
AcDbEntity
  8
0
  6
Continuous
 62
     7
100
AcDbEllipse
 10
109.4208039999998
 20
-26.07773599999999
 30
0.0
 11
-0.5059644255789311
 21
0.6196773354323061
 31
0.0000000000000001
210
0.0000000000000001
220
0.0
230
1.0
 40
0.8164969999999996
 41
3.141592653589748
 42
3.926990817050448
  0
LINE
  5
3A78
330
A
100
AcDbEntity
  8
0
  6
Continuous
 62
     7
100
AcDbLine
 10
109.4208039999998
 20
-26.808033
 30
0.0
 11
107.953943
 21
-26.50861099999997
 31
0.0
  0
LINE
  5
3A79
330
A
100
AcDbEntity
  8
0
  6
Continuous
 62
     7
100
AcDbLine
 10
83.6613010000001
 20
10.91179399999998
 30
0.0
 11
83.6613010000001
 21
12.77405099999998
 31
0.0
  0
ELLIPSE
  5
3A7A
330
A
100
AcDbEntity
  8
0
  6
Continuous
 62
     7
100
AcDbEllipse
 10
84.376843
 20
12.62799100000001
 30
0.0
 11
-0.5059644255789311
 21
0.6196773354323338
 31
0.0000000000000001
210
0.0000000000000001
220
0.0
230
1.0
 40
0.8164969999999998
 41
6.283185307179541
 42
7.068583470640237
  0
LINE
  5
3A7B
330
A
100
AcDbEntity
  8
0
  6
Continuous
 62
     7
100
AcDbLine
 10
84.376843
 20
13.35828800000001
 30
0.0
 11
109.4208039999998
 21
8.246210999999902
 31
0.0
  0
LINE
  5
3A7C
330
A
100
AcDbEntity
  8
0
  6
Continuous
 62
     9
100
AcDbLine
 10
110.1363460000002
 20
-26.22379500000003
 30
0.0
 11
110.4941170000011
 21
-25.93167700000001
 31
0.0
  0
LINE
  5
3A7D
330
A
100
AcDbEntity
  8
0
  6
Continuous
 62
     7
100
AcDbLine
 10
110.4941170000011
 20
7.661972999999989
 30
0.0
 11
110.4941170000011
 21
-25.93167700000001
 31
0.0
  0
LINE
  5
3A7E
330
A
100
AcDbEntity
  8
0
  6
Continuous
 62
     9
100
AcDbLine
 10
84.376843
 20
13.35828800000001
 30
0.0
 11
84.73461399999996
 21
13.65040699999997
 31
0.0
  0
LINE
  5
3A7F
330
A
100
AcDbEntity
  8
0
  6
Continuous
 62
     7
100
AcDbLine
 10
84.73461399999996
 20
13.65040699999997
 30
0.0
 11
109.7785749999998
 21
8.538329999999973
 31
0.0
  0
ELLIPSE
  5
3A80
330
A
100
AcDbEntity
  8
0
  6
Continuous
 62
     7
100
AcDbEllipse
 10
84.376843
 20
12.62799100000001
 30
0.0
 11
-0.5059644255789311
 21
0.6196773354323338
 31
0.0
210
0.0
220
0.0
230
1.0
 40
0.8164969999999998
 41
5.497787143845411
 42
6.283185307179541
  0
ELLIPSE
  5
3A81
330
A
100
AcDbEntity
  8
0
  6
Continuous
 62
     7
100
AcDbEllipse
 10
84.73461399999996
 20
12.92011000000002
 30
0.0
 11
-0.5059644255789311
 21
0.6196773354323338
 31
0.0
210
0.0
220
0.0
230
1.0
 40
0.8164969999999998
 41
5.497787143845411
 42
6.283185307179541
  0
ELLIPSE
  5
3A82
330
A
100
AcDbEntity
  8
0
  6
Continuous
 62
     7
100
AcDbEllipse
 10
109.4208039999998
 20
-26.07773599999999
 30
0.0
 11
-0.5059644255789311
 21
0.6196773354323061
 31
0.0
210
0.0
220
0.0
230
1.0
 40
0.8164969999999996
 41
2.356194490255619
 42
3.141592653589748
  0
ELLIPSE
  5
3A83
330
A
100
AcDbEntity
  8
0
  6
Continuous
 62
     7
100
AcDbEllipse
 10
109.7785749999998
 20
-25.785617
 30
0.0
 11
-0.5059644255789311
 21
0.6196773354323061
 31
0.0000000000000001
210
0.0000000000000001
220
0.0
230
1.0
 40
0.8164969999999996
 41
3.141592653589792
 42
3.926990817050482
  0
ELLIPSE
  5
3A84
330
A
100
AcDbEntity
  8
0
  6
Continuous
 62
     7
100
AcDbEllipse
 10
90.63783299999977
 20
6.420468999999968
 30
0.0
 11
0.7999999999999119
 21
0.0
 31
0.0
210
0.0
220
0.0
230
1.0
 40
0.4082480000000001
 41
3.378209679420971
 42
7.390334024973332
  0
ELLIPSE
  5
3A85
330
A
100
AcDbEntity
  8
0
  6
Continuous
 62
     7
100
AcDbEllipse
 10
90.63783299999977
 20
6.420468999999968
 30
0.0
 11
0.7999999999999119
 21
0.0
 31
0.0
210
0.0
220
0.0
230
1.0
 40
0.4082480000000001
 41
1.107148717793748
 42
2.03444393579654
  0
ELLIPSE
  5
3A86
330
A
100
AcDbEntity
  8
0
  6
Continuous
 62
     7
100
AcDbEllipse
 10
90.63783299999977
 20
6.420468999999968
 30
0.0
 11
0.7999999999999119
 21
0.0
 31
0.0
210
0.0
220
0.0
230
1.0
 40
0.4082480000000001
 41
2.03444393579654
 42
3.378209679420971
  0
LINE
  5
3A87
330
A
100
AcDbEntity
  8
0
  6
Continuous
 62
     7
100
AcDbLine
 10
89.9733470000001
 20
6.500529999999969
 30
0.0
 11
90.47542500000009
 21
6.695430999999985
 31
0.0
  0
LINE
  5
3A88
330
A
100
AcDbEntity
  8
0
  6
Continuous
 62
     7
100
AcDbLine
 10
90.13575500000071
 20
6.225568000000009
 30
0.0
 11
89.9733470000001
 21
6.500529999999969
 31
0.0
  0
LINE
  5
3A89
330
A
100
AcDbEntity
  8
0
  6
Continuous
 62
     7
100
AcDbLine
 10
90.80024099999992
 20
6.145507000000009
 30
0.0
 11
90.13575500000071
 21
6.225568000000009
 31
0.0
  0
LINE
  5
3A8A
330
A
100
AcDbEntity
  8
0
  6
Continuous
 62
     7
100
AcDbLine
 10
91.30231900000081
 20
6.340408000000024
 30
0.0
 11
90.80024099999992
 21
6.145507000000009
 31
0.0
  0
LINE
  5
3A8B
330
A
100
AcDbEntity
  8
0
  6
Continuous
 62
     7
100
AcDbLine
 10
91.13991099999976
 20
6.615370000000098
 30
0.0
 11
91.30231900000081
 21
6.340408000000024
 31
0.0
  0
LINE
  5
3A8C
330
A
100
AcDbEntity
  8
0
  6
Continuous
 62
     7
100
AcDbLine
 10
90.47542500000009
 20
6.695430999999985
 30
0.0
 11
91.13991099999976
 21
6.615370000000098
 31
0.0
  0
LINE
  5
3A8D
330
A
100
AcDbEntity
  8
0
  6
Continuous
 62
     7
100
AcDbLine
 10
91.13991099999976
 20
6.615370000000098
 30
0.0
 11
91.13991099999976
 21
6.277362999999979
 31
0.0
  0
LINE
  5
3A8E
330
A
100
AcDbEntity
  8
0
  6
Continuous
 62
     7
100
AcDbLine
 10
90.47542500000009
 20
6.695430999999985
 30
0.0
 11
90.47542500000009
 21
6.184642999999994
 31
0.0
  0
ELLIPSE
  5
3A8F
330
A
100
AcDbEntity
  8
0
  6
Continuous
 62
     7
100
AcDbEllipse
 10
102.623157
 20
1.600509999999985
 30
0.0
 11
0.5059644256273365
 21
-0.6196773353930875
 31
0.0
210
0.0
220
0.0
230
1.0
 40
0.8164969999999998
 41
0.7853981633970355
 42
2.356194490191628
  0
LINE
  5
3A90
330
A
100
AcDbEntity
  8
0
  6
Continuous
 62
     7
100
AcDbLine
 10
103.3386989999999
 20
1.454451000000005
 30
0.0
 11
103.3386989999999
 21
-33.59979300000001
 31
0.0
  0
ELLIPSE
  5
3A91
330
A
100
AcDbEntity
  8
0
  6
Continuous
 62
     7
100
AcDbEllipse
 10
102.623157
 20
-33.453733
 30
0.0
 11
0.5059644256273365
 21
-0.6196773353930875
 31
0.0
210
0.0
220
0.0
230
1.0
 40
0.8164969999999998
 41
5.497787143781398
 42
6.283185307179607
  0
LINE
  5
3A92
330
A
100
AcDbEntity
  8
0
  6
Continuous
 62
     7
100
AcDbLine
 10
75.43257100000073
 20
-28.63377500000002
 30
0.0
 11
102.623157
 21
-34.18402999999998
 31
0.0
  0
LINE
  5
3A93
330
A
100
AcDbEntity
  8
0
  6
Continuous
 62
     9
100
AcDbLine
 10
75.43257100000073
 20
7.881061999999985
 30
0.0
 11
75.43257100000073
 21
-28.63377500000002
 31
0.0
  0
LINE
  5
3A94
330
A
100
AcDbEntity
  8
0
  6
Continuous
 62
     7
100
AcDbLine
 10
75.43257100000073
 20
7.881061999999985
 30
0.0
 11
102.623157
 21
2.330806999999992
 31
0.0
  0
LINE
  5
3A95
330
A
100
AcDbEntity
  8
0
  6
Continuous
 62
     9
100
AcDbLine
 10
104.0542409999998
 20
2.038689000000033
 30
0.0
 11
103.3386989999999
 21
1.454451000000005
 31
0.0
  0
LINE
  5
3A96
330
A
100
AcDbEntity
  8
0
  6
Continuous
 62
     9
100
AcDbLine
 10
102.623157
 20
2.330806999999992
 30
0.0
 11
103.3386989999999
 21
2.91504500000002
 31
0.0
  0
ELLIPSE
  5
3A97
330
A
100
AcDbEntity
  8
0
  6
Continuous
 62
     7
100
AcDbEllipse
 10
103.3386989999999
 20
2.184748000000013
 30
0.0
 11
-0.5059644256273365
 21
0.6196773353930875
 31
0.0
210
0.0
220
0.0
230
1.0
 40
0.8164969999999998
 41
3.926990816986783
 42
5.497787143781375
  0
LINE
  5
3A98
330
A
100
AcDbEntity
  8
0
  6
Continuous
 62
     7
100
AcDbLine
 10
75.43257100000073
 20
8.611358999999993
 30
0.0
 11
103.3386989999999
 21
2.91504500000002
 31
0.0
  0
ELLIPSE
  5
3A99
330
A
100
AcDbEntity
  8
0
  6
Continuous
 62
     7
100
AcDbEllipse
 10
75.79034200000023
 20
8.173180999999999
 30
0.0
 11
-0.7999999999999119
 21
-0.000000000000111
 31
0.0
210
0.0
220
0.0
230
1.0
 40
0.4082480000000001
 41
5.819537698178826
 42
6.283185307179584
  0
LINE
  5
3A9A
330
A
100
AcDbEntity
  8
0
  6
Continuous
 62
     7
100
AcDbLine
 10
75.43257100000073
 20
8.611358999999993
 30
0.0
 11
75.07479999999986
 21
8.319241000000033
 31
0.0
  0
LINE
  5
3A9B
330
A
100
AcDbEntity
  8
0
  6
Continuous
 62
     7
100
AcDbLine
 10
106.045947
 20
-30.11131499999999
 30
0.0
 11
106.2008660000001
 21
-29.98482400000003
 31
0.0
  0
LINE
  5
3A9C
330
A
100
AcDbEntity
  8
0
  6
Continuous
 62
     7
100
AcDbLine
 10
104.0542409999998
 20
-29.390288
 30
0.0
 11
106.045947
 21
-30.11131499999999
 31
0.0
  0
LINE
  5
3A9D
330
A
100
AcDbEntity
  8
0
  6
Continuous
 62
     7
100
AcDbLine
 10
104.0542409999998
 20
-33.01555499999998
 30
0.0
 11
104.0542409999998
 21
-29.72922000000003
 31
0.0
  0
LINE
  5
3A9E
330
A
100
AcDbEntity
  8
0
  6
Continuous
 62
     7
100
AcDbLine
 10
104.0542409999998
 20
-29.72922000000003
 30
0.0
 11
104.0542409999998
 21
-29.390288
 31
0.0
  0
LINE
  5
3A9F
330
A
100
AcDbEntity
  8
0
  6
Continuous
 62
     9
100
AcDbLine
 10
103.3386989999999
 20
-33.59979300000001
 30
0.0
 11
104.0542409999998
 21
-33.01555499999998
 31
0.0
  0
LINE
  5
3AA0
330
A
100
AcDbEntity
  8
0
  6
Continuous
 62
     7
100
AcDbLine
 10
104.0542409999998
 20
-1.586579000000028
 30
0.0
 11
104.0542409999998
 21
-1.247647000000029
 31
0.0
  0
LINE
  5
3AA1
330
A
100
AcDbEntity
  8
0
  6
Continuous
 62
     7
100
AcDbLine
 10
104.0542409999998
 20
-1.247647000000029
 30
0.0
 11
104.0542409999998
 21
2.038689000000033
 31
0.0
  0
LINE
  5
3AA2
330
A
100
AcDbEntity
  8
0
  6
Continuous
 62
     7
100
AcDbLine
 10
106.045947
 20
2.386889999999993
 30
0.0
 11
104.0542409999998
 21
-1.586579000000028
 31
0.0
  0
LINE
  5
3AA3
330
A
100
AcDbEntity
  8
0
  6
Continuous
 62
     7
100
AcDbLine
 10
106.2008660000001
 20
2.513380999999981
 30
0.0
 11
106.045947
 21
2.386889999999993
 31
0.0
  0
LINE
  5
3AA4
330
A
100
AcDbEntity
  8
0
  6
Continuous
 62
     7
100
AcDbLine
 10
106.2008660000001
 20
-29.98482400000003
 30
0.0
 11
106.2008660000001
 21
2.513380999999981
 31
0.0
  0
LINE
  5
3AA5
330
A
100
AcDbEntity
  8
0
  6
Continuous
 62
     7
100
AcDbLine
 10
106.045947
 20
2.386889999999993
 30
0.0
 11
105.9680629999998
 21
2.402787999999986
 31
0.0
  0
LINE
  5
3AA6
330
A
100
AcDbEntity
  8
0
  6
Continuous
 62
     7
100
AcDbLine
 10
106.0399609999999
 20
2.54622599999999
 30
0.0
 11
106.2008660000001
 21
2.513380999999981
 31
0.0
  0
ELLIPSE
  5
3AA7
330
A
100
AcDbEntity
  8
0
  6
Continuous
 62
     7
100
AcDbEllipse
 10
75.79034200000023
 20
8.173180999999999
 30
0.0
 11
-0.7999999999999119
 21
-0.000000000000111
 31
0.0
210
0.0
220
-0.0000000000000001
230
1.0
 40
0.4082480000000001
 41
0.0
 42
1.107148717794196
  0
ELLIPSE
  5
3AA8
330
A
100
AcDbEntity
  8
0
  6
Continuous
 62
     7
100
AcDbEllipse
 10
75.79034200000023
 20
-28.341656
 30
0.0
 11
0.7999999999999119
 21
0.000000000000111
 31
0.0
210
0.0
220
0.0
230
1.0
 40
0.4082480000000001
 41
3.141592653589792
 42
4.248741371383496
  0
LINE
  5
3AA9
330
A
100
AcDbEntity
  8
0
  6
Continuous
 62
     7
100
AcDbLine
 10
104.9611670000008
 20
-29.88988500000002
 30
0.0
 11
106.045947
 21
-30.11131499999999
 31
0.0
  0
ELLIPSE
  5
3AAA
330
A
100
AcDbEntity
  8
0
  6
Continuous
 62
     7
100
AcDbEllipse
 10
102.623157
 20
-33.453733
 30
0.0
 11
0.5059644256273365
 21
-0.6196773353930875
 31
0.0
210
0.0
220
0.0
230
1.0
 40
0.8164969999999998
 41
0.0000000000000219
 42
0.785398163397014
  0
ELLIPSE
  5
3AAB
330
A
100
AcDbEntity
  8
0
  6
Continuous
 62
     7
100
AcDbEllipse
 10
103.3386989999999
 20
-32.869496
 30
0.0
 11
-0.5059644256268926
 21
0.6196773353928932
 31
0.0
210
0.0
220
0.0
230
1.0
 40
0.8164969999999998
 41
3.141592653590221
 42
3.926990816987236
  0
LINE
  5
3AAC
330
A
100
AcDbEntity
  8
0
  6
Continuous
 62
     9
100
AcDbLine
 10
103.3386989999999
 20
2.91504500000002
 30
0.0
 11
107.2384019999999
 21
6.099137999999982
 31
0.0
  0
ELLIPSE
  5
3AAD
330
A
100
AcDbEntity
  8
0
  6
Continuous
 62
     7
100
AcDbEllipse
 10
107.2384019999999
 20
5.368841999999972
 30
0.0
 11
-0.5059644256268925
 21
0.619677335393143
 31
0.0
210
0.0
220
0.0
230
1.0
 40
0.8164970000000002
 41
3.926990816987265
 42
5.497787143781988
  0
LINE
  5
3AAE
330
A
100
AcDbEntity
  8
0
  6
Continuous
 62
     9
100
AcDbLine
 10
107.953943
 20
5.222781999999995
 30
0.0
 11
104.0542409999998
 21
2.038689000000033
 31
0.0
  0
ELLIPSE
  5
3AAF
330
A
100
AcDbEntity
  8
0
  6
Continuous
 62
     7
100
AcDbEllipse
 10
103.3386989999999
 20
2.184748000000013
 30
0.0
 11
0.5059644256268925
 21
-0.619677335393143
 31
0.0
210
0.0
220
0.0
230
1.0
 40
0.8164970000000002
 41
0.7853981633974723
 42
2.356194490192193
  0
LINE
  5
3AB0
330
A
100
AcDbEntity
  8
0
  6
Continuous
 62
     7
100
AcDbLine
 10
75.43257100000073
 20
8.611358999999993
 30
0.0
 11
103.3386989999999
 21
2.91504500000002
 31
0.0
  0
LINE
  5
3AB1
330
A
100
AcDbEntity
  8
0
  6
Continuous
 62
     7
100
AcDbLine
 10
104.0542409999998
 20
2.038689000000033
 30
0.0
 11
104.0542409999998
 21
-1.247647000000029
 31
0.0
  0
LINE
  5
3AB2
330
A
100
AcDbEntity
  8
0
  6
Continuous
 62
     7
100
AcDbLine
 10
104.0542409999998
 20
-29.72922000000003
 30
0.0
 11
104.1965010000003
 21
-29.61306499999998
 31
0.0
  0
LINE
  5
3AB3
330
A
100
AcDbEntity
  8
0
  6
Continuous
 62
     7
100
AcDbLine
 10
104.1965010000003
 20
-29.61306499999998
 30
0.0
 11
106.2724199999998
 21
-30.36457799999997
 31
0.0
  0
LINE
  5
3AB4
330
A
100
AcDbEntity
  8
0
  6
Continuous
 62
     7
100
AcDbLine
 10
106.2724199999998
 20
-30.36457799999997
 30
0.0
 11
106.2724199999998
 21
3.009983000000033
 31
0.0
  0
LINE
  5
3AB5
330
A
100
AcDbEntity
  8
0
  6
Continuous
 62
     7
100
AcDbLine
 10
106.2724199999998
 20
3.009983000000033
 30
0.0
 11
104.1965010000003
 21
-1.13149199999998
 31
0.0
  0
LINE
  5
3AB6
330
A
100
AcDbEntity
  8
0
  6
Continuous
 62
     7
100
AcDbLine
 10
104.1965010000003
 20
-1.13149199999998
 30
0.0
 11
104.0542409999998
 21
-1.247647000000029
 31
0.0
  0
LINE
  5
3AB7
330
A
100
AcDbEntity
  8
0
  6
Continuous
 62
     7
100
AcDbLine
 10
107.953943
 20
5.222781999999995
 30
0.0
 11
107.953943
 21
-29.83146099999999
 31
0.0
  0
LINE
  5
3AB8
330
A
100
AcDbEntity
  8
0
  6
Continuous
 62
     9
100
AcDbLine
 10
104.0542409999998
 20
-33.01555499999998
 30
0.0
 11
107.953943
 21
-29.83146099999999
 31
0.0
  0
LINE
  5
3AB9
330
A
100
AcDbEntity
  8
0
  6
Continuous
 62
     7
100
AcDbLine
 10
104.0542409999998
 20
-29.72922000000003
 30
0.0
 11
104.0542409999998
 21
-33.01555499999998
 31
0.0
  0
LINE
  5
3ABA
330
A
100
AcDbEntity
  8
0
  6
Continuous
 62
     7
100
AcDbLine
 10
83.30353000000014
 20
15.03797099999997
 30
0.0
 11
75.43257100000073
 21
8.611358999999993
 31
0.0
  0
ELLIPSE
  5
3ABB
330
A
100
AcDbEntity
  8
0
  6
Continuous
 62
     7
100
AcDbEllipse
 10
84.01907200000005
 20
14.89191099999999
 30
0.0
 11
-0.7999999999999119
 21
0.0
 31
0.0
210
0.0
220
0.0
230
1.0
 40
0.4082480000000001
 41
4.248741371383601
 42
5.819537698178717
  0
LINE
  5
3ABC
330
A
100
AcDbEntity
  8
0
  6
Continuous
 62
     7
100
AcDbLine
 10
111.5674289999997
 20
9.633775000000014
 30
0.0
 11
84.376843
 21
15.18403000000001
 31
0.0
  0
LINE
  5
3ABD
330
A
100
AcDbEntity
  8
0
  6
Continuous
 62
     9
100
AcDbLine
 10
110.8518879999997
 20
9.049536999999986
 30
0.0
 11
111.5674289999997
 21
9.633775000000014
 31
0.0
  0
LINE
  5
3ABE
330
A
100
AcDbEntity
  8
0
  6
Continuous
 62
     7
100
AcDbLine
 10
84.01907200000005
 20
14.52676300000002
 30
0.0
 11
110.8518879999997
 21
9.049536999999986
 31
0.0
  0
LINE
  5
3ABF
330
A
100
AcDbEntity
  8
0
  6
Continuous
 62
     7
100
AcDbLine
 10
80.40558599999986
 20
11.57636400000001
 30
0.0
 11
84.01907200000005
 21
14.52676300000002
 31
0.0
  0
LINE
  5
3AC0
330
A
100
AcDbEntity
  8
0
  6
Continuous
 62
     7
100
AcDbLine
 10
107.2384019999999
 20
6.099137999999982
 30
0.0
 11
80.40558599999986
 21
11.57636400000001
 31
0.0
  0
ELLIPSE
  5
3AC1
330
A
100
AcDbEntity
  8
0
  6
Continuous
 62
     7
100
AcDbEllipse
 10
90.63783299999977
 20
6.420468999999968
 30
0.0
 11
1.199999999999861
 21
0.0
 31
0.0
210
0.0
220
0.0
230
1.0
 40
0.4082480000000003
 41
3.605240262590723
 42
5.819537698178652
  0
ELLIPSE
  5
3AC2
330
A
100
AcDbEntity
  8
0
  6
Continuous
 62
     7
100
AcDbEllipse
 10
90.63783299999977
 20
6.420468999999968
 30
0.0
 11
1.199999999999861
 21
0.0
 31
0.0
210
0.0
220
0.0000000000000001
230
1.0
 40
0.4082480000000003
 41
5.819537698178652
 42
9.888425569770307
  0
LINE
  5
3AC3
330
A
100
AcDbEntity
  8
0
  6
Continuous
 62
     7
100
AcDbLine
 10
84.01907200000005
 20
14.52676300000002
 30
0.0
 11
84.01907200000005
 21
13.36866800000001
 31
0.0
  0
ELLIPSE
  5
3AC4
330
A
100
AcDbEntity
  8
0
  6
Continuous
 62
     7
100
AcDbEllipse
 10
110.8518879999997
 20
8.319241000000033
 30
0.0
 11
0.5059644256268925
 21
-0.619677335393143
 31
0.0
210
0.0
220
0.0
230
1.0
 40
0.8164970000000002
 41
0.7853981633975283
 42
2.35619449019218
  0
LINE
  5
3AC5
330
A
100
AcDbEntity
  8
0
  6
Continuous
 62
     7
100
AcDbLine
 10
111.5674289999997
 20
8.173180999999999
 30
0.0
 11
111.5674289999997
 21
-26.88106200000002
 31
0.0
  0
ELLIPSE
  5
3AC6
330
A
100
AcDbEntity
  8
0
  6
Continuous
 62
     7
100
AcDbEllipse
 10
110.8518879999997
 20
-26.73500299999998
 30
0.0
 11
0.5059644256268925
 21
-0.6196773353931706
 31
0.0
210
0.0
220
0.0
230
1.0
 40
0.816497
 41
5.497787143781988
 42
6.283185307179584
  0
LINE
  5
3AC7
330
A
100
AcDbEntity
  8
0
  6
Continuous
 62
     7
100
AcDbLine
 10
107.953943
 20
-26.87376
 30
0.0
 11
110.8518879999997
 21
-27.46530000000002
 31
0.0
  0
ELLIPSE
  5
3AC8
330
A
100
AcDbEntity
  8
0
  6
Continuous
 62
     7
100
AcDbEllipse
 10
111.5674289999997
 20
8.903478000000006
 30
0.0
 11
-0.5059644256268925
 21
0.619677335393143
 31
0.0
210
0.0
220
0.0
230
1.0
 40
0.8164970000000002
 41
3.926990816987276
 42
5.497787143781931
  0
LINE
  5
3AC9
330
A
100
AcDbEntity
  8
0
  6
Continuous
 62
     9
100
AcDbLine
 10
112.2829710000001
 20
8.75741899999997
 30
0.0
 11
111.5674289999997
 21
8.173180999999999
 31
0.0
  0
LINE
  5
3ACA
330
A
100
AcDbEntity
  8
0
  6
Continuous
 62
     7
100
AcDbLine
 10
112.2829710000001
 20
8.75741899999997
 30
0.0
 11
112.2829710000001
 21
-26.29682500000001
 31
0.0
  0
LINE
  5
3ACB
330
A
100
AcDbEntity
  8
0
  6
Continuous
 62
     9
100
AcDbLine
 10
111.5674289999997
 20
-26.88106200000002
 30
0.0
 11
112.2829710000001
 21
-26.29682500000001
 31
0.0
  0
LINE
  5
3ACC
330
A
100
AcDbEntity
  8
0
  6
Continuous
 62
     7
100
AcDbLine
 10
104.0542409999998
 20
-29.58402599999997
 30
0.0
 11
104.1965010000003
 21
-29.61306499999998
 31
0.0
  0
ELLIPSE
  5
3ACD
330
A
100
AcDbEntity
  8
0
  6
Continuous
 62
     7
100
AcDbEllipse
 10
103.3386989999999
 20
-32.869496
 30
0.0
 11
0.5059644256268925
 21
-0.6196773353931706
 31
0.0
210
0.0
220
0.0
230
1.0
 40
0.816497
 41
0.0
 42
0.7853981633975283
  0
ELLIPSE
  5
3ACE
330
A
100
AcDbEntity
  8
0
  6
Continuous
 62
     7
100
AcDbEllipse
 10
107.2384019999999
 20
-29.68540200000001
 30
0.0
 11
-0.5059644256268925
 21
0.6196773353931706
 31
0.0
210
0.0
220
0.0
230
1.0
 40
0.816497
 41
3.141592653589792
 42
3.926990816987265
  0
ELLIPSE
  5
3ACF
330
A
100
AcDbEntity
  8
0
  6
Continuous
 62
     7
100
AcDbEllipse
 10
110.8518879999997
 20
-26.73500299999998
 30
0.0
 11
0.5059644256268925
 21
-0.6196773353931706
 31
0.0
210
0.0
220
0.0
230
1.0
 40
0.816497
 41
0.0
 42
0.7853981633974723
  0
ELLIPSE
  5
3AD0
330
A
100
AcDbEntity
  8
0
  6
Continuous
 62
     7
100
AcDbEllipse
 10
111.5674289999997
 20
-26.150766
 30
0.0
 11
-0.5059644256268925
 21
0.619677335393143
 31
0.0
210
0.0
220
0.0
230
1.0
 40
0.8164970000000002
 41
3.14159265358977
 42
3.926990816987243
  0
LINE
  5
3AD1
330
A
100
AcDbEntity
  8
0
  6
Continuous
 62
     7
100
AcDbLine
 10
84.22864899999968
 20
13.53978699999999
 30
0.0
 11
83.87087800000017
 21
13.24766899999997
 31
0.0
  0
LINE
  5
3AD2
330
A
100
AcDbEntity
  8
0
  6
Continuous
 62
     7
100
AcDbLine
 10
109.9267679999998
 20
-26.69741299999998
 30
0.0
 11
110.2845390000002
 21
-26.40529500000003
 31
0.0
  0
LINE
  5
3AD3
330
A
100
AcDbEntity
  8
0
  6
Continuous
 62
     7
100
AcDbLine
 10
91.17448899999999
 20
6.676072999999973
 30
0.0
 11
90.99560399999973
 21
6.712587999999982
 31
0.0
  0
LINE
  5
3AD4
330
A
100
AcDbEntity
  8
0
  6
Continuous
 62
     7
100
AcDbLine
 10
90.28006200000026
 20
6.712587999999982
 30
0.0
 11
90.101177
 21
6.676072999999973
 31
0.0
  0
LINE
  5
3AD5
330
A
100
AcDbEntity
  8
0
  6
Continuous
 62
     7
100
AcDbLine
 10
74.99034200000005
 20
8.173180999999999
 30
0.0
 11
74.99034200000005
 21
-28.341656
 31
0.0
  0
LINE
  5
3AD6
330
A
100
AcDbEntity
  8
0
  6
Continuous
 62
     7
100
AcDbLine
 10
103.1291219999998
 20
-34.073411
 30
0.0
 11
103.8446640000011
 21
-33.489173
 31
0.0
  0
LINE
  5
3AD7
330
A
100
AcDbEntity
  8
0
  6
Continuous
 62
     7
100
AcDbLine
 10
103.8446640000011
 20
-33.489173
 30
0.0
 11
107.7443659999999
 21
-30.30507900000001
 31
0.0
  0
LINE
  5
3AD8
330
A
100
AcDbEntity
  8
0
  6
Continuous
 62
     7
100
AcDbLine
 10
111.3578520000001
 20
-27.35467999999997
 30
0.0
 11
112.073394
 21
-26.77044300000003
 31
0.0
  0
LINE
  5
3AD9
330
A
100
AcDbEntity
  8
0
  6
Continuous
 62
     7
100
AcDbLine
 10
98.50000000000001
 20
88.0
 30
0.0
 11
98.50000000000001
 21
38.0
 31
0.0
  0
LINE
  5
3ADA
330
A
100
AcDbEntity
  8
0
  6
Continuous
 62
     9
100
AcDbLine
 10
97.5
 20
38.0
 30
0.0
 11
97.5
 21
88.0
 31
0.0
  0
LINE
  5
3ADB
330
A
100
AcDbEntity
  8
0
  6
Continuous
 62
     7
100
AcDbLine
 10
97.5
 20
88.0
 30
0.0
 11
98.50000000000001
 21
88.0
 31
0.0
  0
LINE
  5
3ADC
330
A
100
AcDbEntity
  8
0
  6
Continuous
 62
     7
100
AcDbLine
 10
98.50000000000001
 20
38.0
 30
0.0
 11
97.5
 21
38.0
 31
0.0
  0
LINE
  5
3ADD
330
A
100
AcDbEntity
  8
0
  6
Continuous
 62
     7
100
AcDbLine
 10
90.93301299999984
 20
85.25
 30
0.0
 11
96.5
 21
82.03589799999997
 31
0.0
  0
LINE
  5
3ADE
330
A
100
AcDbEntity
  8
0
  6
Continuous
 62
     7
100
AcDbLine
 10
96.5
 20
82.03589799999997
 30
0.0
 11
96.5
 21
82.5
 31
0.0
  0
LINE
  5
3ADF
330
A
100
AcDbEntity
  8
0
  6
Continuous
 62
     7
100
AcDbLine
 10
96.5
 20
82.5
 30
0.0
 11
96.5
 21
88.0
 31
0.0
  0
LINE
  5
3AE0
330
A
100
AcDbEntity
  8
0
  6
Continuous
 62
     7
100
AcDbLine
 10
96.5
 20
88.0
 30
0.0
 11
97.5
 21
88.0
 31
0.0
  0
LINE
  5
3AE1
330
A
100
AcDbEntity
  8
0
  6
Continuous
 62
     7
100
AcDbLine
 10
96.5
 20
38.0
 30
0.0
 11
96.5
 21
43.5
 31
0.0
  0
LINE
  5
3AE2
330
A
100
AcDbEntity
  8
0
  6
Continuous
 62
     7
100
AcDbLine
 10
96.5
 20
43.5
 30
0.0
 11
96.5
 21
43.96410200000002
 31
0.0
  0
LINE
  5
3AE3
330
A
100
AcDbEntity
  8
0
  6
Continuous
 62
     7
100
AcDbLine
 10
96.5
 20
43.96410200000002
 30
0.0
 11
90.93301299999984
 21
40.75
 31
0.0
  0
LINE
  5
3AE4
330
A
100
AcDbEntity
  8
0
  6
Continuous
 62
     7
100
AcDbLine
 10
90.93301299999984
 20
40.75
 30
0.0
 11
90.5
 21
40.75
 31
0.0
  0
LINE
  5
3AE5
330
A
100
AcDbEntity
  8
0
  6
Continuous
 62
     7
100
AcDbLine
 10
90.5
 20
40.75
 30
0.0
 11
90.5
 21
85.25
 31
0.0
  0
LINE
  5
3AE6
330
A
100
AcDbEntity
  8
0
  6
Continuous
 62
     7
100
AcDbLine
 10
90.5
 20
85.25
 30
0.0
 11
90.93301299999984
 21
85.25
 31
0.0
  0
LINE
  5
3AE7
330
A
100
AcDbEntity
  8
0
  6
Continuous
 62
     7
100
AcDbLine
 10
97.5
 20
38.0
 30
0.0
 11
96.5
 21
38.0
 31
0.0
  0
LINE
  5
3AE8
330
A
100
AcDbEntity
  8
0
  6
Continuous
 62
     7
100
AcDbLine
 10
96.5
 20
43.5
 30
0.0
 11
96.5
 21
38.0
 31
0.0
  0
LINE
  5
3AE9
330
A
100
AcDbEntity
  8
0
  6
Continuous
 62
     7
100
AcDbLine
 10
74.5
 20
38.0
 30
0.0
 11
96.5
 21
38.0
 31
0.0
  0
LINE
  5
3AEA
330
A
100
AcDbEntity
  8
0
  6
Continuous
 62
     9
100
AcDbLine
 10
74.5
 20
88.0
 30
0.0
 11
74.5
 21
38.0
 31
0.0
  0
LINE
  5
3AEB
330
A
100
AcDbEntity
  8
0
  6
Continuous
 62
     7
100
AcDbLine
 10
74.5
 20
88.0
 30
0.0
 11
96.5
 21
88.0
 31
0.0
  0
LINE
  5
3AEC
330
A
100
AcDbEntity
  8
0
  6
Continuous
 62
     7
100
AcDbLine
 10
96.5
 20
88.0
 30
0.0
 11
96.5
 21
82.5
 31
0.0
  0
LINE
  5
3AED
330
A
100
AcDbEntity
  8
0
  6
Continuous
 62
     7
100
AcDbLine
 10
90.30000000000018
 20
40.14999999999997
 30
0.0
 11
96.10237000000006
 21
43.5
 31
0.0
  0
LINE
  5
3AEE
330
A
100
AcDbEntity
  8
0
  6
Continuous
 62
     7
100
AcDbLine
 10
90.30000000000018
 20
85.85000000000002
 30
0.0
 11
90.30000000000018
 21
40.14999999999997
 31
0.0
  0
LINE
  5
3AEF
330
A
100
AcDbEntity
  8
0
  6
Continuous
 62
     7
100
AcDbLine
 10
96.10237000000006
 20
43.5
 30
0.0
 11
96.5
 21
43.5
 31
0.0
  0
LINE
  5
3AF0
330
A
100
AcDbEntity
  8
0
  6
Continuous
 62
     7
100
AcDbLine
 10
96.10237000000006
 20
82.5
 30
0.0
 11
90.30000000000018
 21
85.85000000000002
 31
0.0
  0
LINE
  5
3AF1
330
A
100
AcDbEntity
  8
0
  6
Continuous
 62
     7
100
AcDbLine
 10
96.5
 20
82.5
 30
0.0
 11
96.10237000000006
 21
82.5
 31
0.0
  0
LINE
  5
3AF2
330
A
100
AcDbEntity
  8
0
  6
Continuous
 62
     7
100
AcDbLine
 10
73.5
 20
88.0
 30
0.0
 11
73.5
 21
38.0
 31
0.0
  0
LINE
  5
3AF3
330
A
100
AcDbEntity
  8
0
  6
Continuous
 62
     7
100
AcDbLine
 10
73.5
 20
38.0
 30
0.0
 11
74.5
 21
38.0
 31
0.0
  0
LINE
  5
3AF4
330
A
100
AcDbEntity
  8
0
  6
Continuous
 62
     7
100
AcDbLine
 10
73.5
 20
88.0
 30
0.0
 11
74.5
 21
88.0
 31
0.0
  0
LINE
  5
3AF5
330
A
100
AcDbEntity
  8
0
  6
Continuous
 62
     9
100
AcDbLine
 10
-52.5999999999999
 20
86.0
 30
0.0
 11
-53.59999999999991
 21
86.0
 31
0.0
  0
LINE
  5
3AF6
330
A
100
AcDbEntity
  8
0
  6
Continuous
 62
     7
100
AcDbLine
 10
-52.5999999999999
 20
40.0
 30
0.0
 11
-52.5999999999999
 21
86.0
 31
0.0
  0
LINE
  5
3AF7
330
A
100
AcDbEntity
  8
0
  6
Continuous
 62
     9
100
AcDbLine
 10
-52.5999999999999
 20
40.0
 30
0.0
 11
-53.59999999999991
 21
40.0
 31
0.0
  0
LINE
  5
3AF8
330
A
100
AcDbEntity
  8
0
  6
Continuous
 62
     7
100
AcDbLine
 10
-52.5999999999999
 20
87.0
 30
0.0
 11
-53.59999999999991
 21
87.0
 31
0.0
  0
LINE
  5
3AF9
330
A
100
AcDbEntity
  8
0
  6
Continuous
 62
     7
100
AcDbLine
 10
-52.5999999999999
 20
86.0
 30
0.0
 11
-52.5999999999999
 21
87.0
 31
0.0
  0
LINE
  5
3AFA
330
A
100
AcDbEntity
  8
0
  6
Continuous
 62
     7
100
AcDbLine
 10
-52.5999999999999
 20
39.0
 30
0.0
 11
-53.59999999999991
 21
39.0
 31
0.0
  0
LINE
  5
3AFB
330
A
100
AcDbEntity
  8
0
  6
Continuous
 62
     7
100
AcDbLine
 10
-52.5999999999999
 20
39.0
 30
0.0
 11
-52.5999999999999
 21
40.0
 31
0.0
  0
LINE
  5
3AFC
330
A
100
AcDbEntity
  8
0
  6
Continuous
 62
     7
100
AcDbLine
 10
-44.5
 20
87.0
 30
0.0
 11
-43.5
 21
87.0
 31
0.0
  0
LINE
  5
3AFD
330
A
100
AcDbEntity
  8
0
  6
Continuous
 62
     7
100
AcDbLine
 10
-44.5
 20
87.0
 30
0.0
 11
-44.5
 21
86.0
 31
0.0
  0
LINE
  5
3AFE
330
A
100
AcDbEntity
  8
0
  6
Continuous
 62
     7
100
AcDbLine
 10
-44.5
 20
39.0
 30
0.0
 11
-43.5
 21
39.0
 31
0.0
  0
LINE
  5
3AFF
330
A
100
AcDbEntity
  8
0
  6
Continuous
 62
     7
100
AcDbLine
 10
-44.5
 20
40.0
 30
0.0
 11
-44.5
 21
39.0
 31
0.0
  0
LINE
  5
3B00
330
A
100
AcDbEntity
  8
0
  6
Continuous
 62
     9
100
AcDbLine
 10
-44.5
 20
40.0
 30
0.0
 11
-43.5
 21
40.0
 31
0.0
  0
LINE
  5
3B01
330
A
100
AcDbEntity
  8
0
  6
Continuous
 62
     7
100
AcDbLine
 10
-44.5
 20
86.0
 30
0.0
 11
-44.5
 21
40.0
 31
0.0
  0
LINE
  5
3B02
330
A
100
AcDbEntity
  8
0
  6
Continuous
 62
     9
100
AcDbLine
 10
-44.5
 20
86.0
 30
0.0
 11
-43.5
 21
86.0
 31
0.0
  0
LINE
  5
3B03
330
A
100
AcDbEntity
  8
0
  6
Continuous
 62
     7
100
AcDbLine
 10
-58.93301299999984
 20
40.75
 30
0.0
 11
-58.5
 21
40.75
 31
0.0
  0
LINE
  5
3B04
330
A
100
AcDbEntity
  8
0
  6
Continuous
 62
     7
100
AcDbLine
 10
-64.5
 20
43.96410200000002
 30
0.0
 11
-58.93301299999984
 21
40.75
 31
0.0
  0
LINE
  5
3B05
330
A
100
AcDbEntity
  8
0
  6
Continuous
 62
     7
100
AcDbLine
 10
-64.5
 20
39.0
 30
0.0
 11
-64.5
 21
43.5
 31
0.0
  0
LINE
  5
3B06
330
A
100
AcDbEntity
  8
0
  6
Continuous
 62
     7
100
AcDbLine
 10
-64.5
 20
43.5
 30
0.0
 11
-64.5
 21
43.96410200000002
 31
0.0
  0
LINE
  5
3B07
330
A
100
AcDbEntity
  8
0
  6
Continuous
 62
     9
100
AcDbLine
 10
-66.5
 20
39.0
 30
0.0
 11
-64.5
 21
39.0
 31
0.0
  0
LINE
  5
3B08
330
A
100
AcDbEntity
  8
0
  6
Continuous
 62
     7
100
AcDbLine
 10
-66.5
 20
87.0
 30
0.0
 11
-66.5
 21
39.0
 31
0.0
  0
LINE
  5
3B09
330
A
100
AcDbEntity
  8
0
  6
Continuous
 62
     9
100
AcDbLine
 10
-64.5
 20
87.0
 30
0.0
 11
-66.5
 21
87.0
 31
0.0
  0
LINE
  5
3B0A
330
A
100
AcDbEntity
  8
0
  6
Continuous
 62
     7
100
AcDbLine
 10
-64.5
 20
82.03589799999997
 30
0.0
 11
-64.5
 21
82.5
 31
0.0
  0
LINE
  5
3B0B
330
A
100
AcDbEntity
  8
0
  6
Continuous
 62
     7
100
AcDbLine
 10
-64.5
 20
82.5
 30
0.0
 11
-64.5
 21
87.0
 31
0.0
  0
LINE
  5
3B0C
330
A
100
AcDbEntity
  8
0
  6
Continuous
 62
     7
100
AcDbLine
 10
-58.93301299999984
 20
85.25
 30
0.0
 11
-64.5
 21
82.03589799999997
 31
0.0
  0
LINE
  5
3B0D
330
A
100
AcDbEntity
  8
0
  6
Continuous
 62
     7
100
AcDbLine
 10
-58.5
 20
85.25
 30
0.0
 11
-58.93301299999984
 21
85.25
 31
0.0
  0
LINE
  5
3B0E
330
A
100
AcDbEntity
  8
0
  6
Continuous
 62
     7
100
AcDbLine
 10
-58.5
 20
40.75
 30
0.0
 11
-58.5
 21
85.25
 31
0.0
  0
LINE
  5
3B0F
330
A
100
AcDbEntity
  8
0
  6
Continuous
 62
     7
100
AcDbLine
 10
-66.5
 20
87.0
 30
0.0
 11
-66.5
 21
88.0
 31
0.0
  0
LINE
  5
3B10
330
A
100
AcDbEntity
  8
0
  6
Continuous
 62
     7
100
AcDbLine
 10
-66.5
 20
88.0
 30
0.0
 11
-64.5
 21
88.0
 31
0.0
  0
LINE
  5
3B11
330
A
100
AcDbEntity
  8
0
  6
Continuous
 62
     7
100
AcDbLine
 10
-64.5
 20
88.0
 30
0.0
 11
-64.5
 21
87.0
 31
0.0
  0
LINE
  5
3B12
330
A
100
AcDbEntity
  8
0
  6
Continuous
 62
     7
100
AcDbLine
 10
-64.5
 20
38.0
 30
0.0
 11
-66.5
 21
38.0
 31
0.0
  0
LINE
  5
3B13
330
A
100
AcDbEntity
  8
0
  6
Continuous
 62
     7
100
AcDbLine
 10
-64.5
 20
39.0
 30
0.0
 11
-64.5
 21
38.0
 31
0.0
  0
LINE
  5
3B14
330
A
100
AcDbEntity
  8
0
  6
Continuous
 62
     7
100
AcDbLine
 10
-66.5
 20
38.0
 30
0.0
 11
-66.5
 21
39.0
 31
0.0
  0
LINE
  5
3B15
330
A
100
AcDbEntity
  8
0
  6
Continuous
 62
     7
100
AcDbLine
 10
-43.5
 20
88.0
 30
0.0
 11
-41.5
 21
88.0
 31
0.0
  0
LINE
  5
3B16
330
A
100
AcDbEntity
  8
0
  6
Continuous
 62
     7
100
AcDbLine
 10
-41.5
 20
88.0
 30
0.0
 11
-41.5
 21
87.0
 31
0.0
  0
LINE
  5
3B17
330
A
100
AcDbEntity
  8
0
  6
Continuous
 62
     9
100
AcDbLine
 10
-41.5
 20
87.0
 30
0.0
 11
-43.5
 21
87.0
 31
0.0
  0
LINE
  5
3B18
330
A
100
AcDbEntity
  8
0
  6
Continuous
 62
     7
100
AcDbLine
 10
-43.5
 20
87.0
 30
0.0
 11
-43.5
 21
88.0
 31
0.0
  0
LINE
  5
3B19
330
A
100
AcDbEntity
  8
0
  6
Continuous
 62
     7
100
AcDbLine
 10
-41.5
 20
87.0
 30
0.0
 11
-41.5
 21
39.0
 31
0.0
  0
LINE
  5
3B1A
330
A
100
AcDbEntity
  8
0
  6
Continuous
 62
     9
100
AcDbLine
 10
-43.5
 20
39.0
 30
0.0
 11
-41.5
 21
39.0
 31
0.0
  0
LINE
  5
3B1B
330
A
100
AcDbEntity
  8
0
  6
Continuous
 62
     7
100
AcDbLine
 10
-43.5
 20
87.0
 30
0.0
 11
-43.5
 21
39.0
 31
0.0
  0
LINE
  5
3B1C
330
A
100
AcDbEntity
  8
0
  6
Continuous
 62
     7
100
AcDbLine
 10
-64.5
 20
88.0
 30
0.0
 11
-53.59999999999991
 21
88.0
 31
0.0
  0
LINE
  5
3B1D
330
A
100
AcDbEntity
  8
0
  6
Continuous
 62
     9
100
AcDbLine
 10
-53.59999999999991
 20
87.0
 30
0.0
 11
-64.5
 21
87.0
 31
0.0
  0
LINE
  5
3B1E
330
A
100
AcDbEntity
  8
0
  6
Continuous
 62
     7
100
AcDbLine
 10
-53.59999999999991
 20
88.0
 30
0.0
 11
-53.59999999999991
 21
87.0
 31
0.0
  0
LINE
  5
3B1F
330
A
100
AcDbEntity
  8
0
  6
Continuous
 62
     7
100
AcDbLine
 10
-64.5
 20
87.0
 30
0.0
 11
-64.5
 21
88.0
 31
0.0
  0
LINE
  5
3B20
330
A
100
AcDbEntity
  8
0
  6
Continuous
 62
     7
100
AcDbLine
 10
-58.30000000000018
 20
85.85000000000002
 30
0.0
 11
-64.10237000000006
 21
82.5
 31
0.0
  0
LINE
  5
3B21
330
A
100
AcDbEntity
  8
0
  6
Continuous
 62
     7
100
AcDbLine
 10
-64.10237000000006
 20
82.5
 30
0.0
 11
-64.5
 21
82.5
 31
0.0
  0
LINE
  5
3B22
330
A
100
AcDbEntity
  8
0
  6
Continuous
 62
     9
100
AcDbLine
 10
-64.5
 20
39.0
 30
0.0
 11
-53.59999999999991
 21
39.0
 31
0.0
  0
LINE
  5
3B23
330
A
100
AcDbEntity
  8
0
  6
Continuous
 62
     7
100
AcDbLine
 10
-64.5
 20
43.5
 30
0.0
 11
-64.5
 21
39.0
 31
0.0
  0
LINE
  5
3B24
330
A
100
AcDbEntity
  8
0
  6
Continuous
 62
     7
100
AcDbLine
 10
-58.30000000000018
 20
40.14999999999997
 30
0.0
 11
-58.30000000000018
 21
85.85000000000002
 31
0.0
  0
LINE
  5
3B25
330
A
100
AcDbEntity
  8
0
  6
Continuous
 62
     7
100
AcDbLine
 10
-64.5
 20
43.5
 30
0.0
 11
-64.10237000000006
 21
43.5
 31
0.0
  0
LINE
  5
3B26
330
A
100
AcDbEntity
  8
0
  6
Continuous
 62
     7
100
AcDbLine
 10
-64.10237000000006
 20
43.5
 30
0.0
 11
-58.30000000000018
 21
40.14999999999997
 31
0.0
  0
LINE
  5
3B27
330
A
100
AcDbEntity
  8
0
  6
Continuous
 62
     7
100
AcDbLine
 10
-53.59999999999991
 20
87.0
 30
0.0
 11
-53.59999999999991
 21
39.0
 31
0.0
  0
LINE
  5
3B28
330
A
100
AcDbEntity
  8
0
  6
Continuous
 62
     7
100
AcDbLine
 10
-64.5
 20
87.0
 30
0.0
 11
-64.5
 21
82.5
 31
0.0
  0
LINE
  5
3B29
330
A
100
AcDbEntity
  8
0
  6
Continuous
 62
     7
100
AcDbLine
 10
-41.5
 20
38.0
 30
0.0
 11
-43.5
 21
38.0
 31
0.0
  0
LINE
  5
3B2A
330
A
100
AcDbEntity
  8
0
  6
Continuous
 62
     7
100
AcDbLine
 10
-43.5
 20
38.0
 30
0.0
 11
-43.5
 21
39.0
 31
0.0
  0
LINE
  5
3B2B
330
A
100
AcDbEntity
  8
0
  6
Continuous
 62
     7
100
AcDbLine
 10
-41.5
 20
39.0
 30
0.0
 11
-41.5
 21
38.0
 31
0.0
  0
LINE
  5
3B2C
330
A
100
AcDbEntity
  8
0
  6
Continuous
 62
     7
100
AcDbLine
 10
-53.59999999999991
 20
38.0
 30
0.0
 11
-64.5
 21
38.0
 31
0.0
  0
LINE
  5
3B2D
330
A
100
AcDbEntity
  8
0
  6
Continuous
 62
     7
100
AcDbLine
 10
-64.5
 20
38.0
 30
0.0
 11
-64.5
 21
39.0
 31
0.0
  0
LINE
  5
3B2E
330
A
100
AcDbEntity
  8
0
  6
Continuous
 62
     7
100
AcDbLine
 10
-53.59999999999991
 20
39.0
 30
0.0
 11
-53.59999999999991
 21
38.0
 31
0.0
  0
LINE
  5
3B2F
330
A
100
AcDbEntity
  8
0
  6
Continuous
 62
     7
100
AcDbLine
 10
-53.59999999999991
 20
88.0
 30
0.0
 11
-43.5
 21
88.0
 31
0.0
  0
LINE
  5
3B30
330
A
100
AcDbEntity
  8
0
  6
Continuous
 62
     7
100
AcDbLine
 10
-53.59999999999991
 20
38.0
 30
0.0
 11
-43.5
 21
38.0
 31
0.0
  0
ARC
  5
3B31
330
A
100
AcDbEntity
  8
0
  6
Continuous
 62
     7
100
AcDbCircle
 10
18.5
 20
131.0
 30
0.0
 40
1.25
100
AcDbArc
 50
341.0185959999998
 51
251.0185959999985
  0
ARC
  5
3B32
330
A
100
AcDbEntity
  8
0
  6
Continuous
 62
     9
100
AcDbCircle
 10
18.5
 20
131.0
 30
0.0
 40
1.5
100
AcDbArc
 50
180.0
 51
90.0
  0
LINE
  5
3B33
330
A
100
AcDbEntity
  8
0
  6
Continuous
 62
     9
100
AcDbLine
 10
36.0
 20
121.6
 30
0.0
 11
36.0
 21
122.6
 31
0.0
  0
LINE
  5
3B34
330
A
100
AcDbEntity
  8
0
  6
Continuous
 62
     7
100
AcDbLine
 10
1.0
 20
121.6
 30
0.0
 11
36.0
 21
121.6
 31
0.0
  0
LINE
  5
3B35
330
A
100
AcDbEntity
  8
0
  6
Continuous
 62
     9
100
AcDbLine
 10
1.0
 20
121.6
 30
0.0
 11
1.0
 21
122.6
 31
0.0
  0
LINE
  5
3B36
330
A
100
AcDbEntity
  8
0
  6
Continuous
 62
     7
100
AcDbLine
 10
37.0
 20
121.6
 30
0.0
 11
37.0
 21
122.6
 31
0.0
  0
LINE
  5
3B37
330
A
100
AcDbEntity
  8
0
  6
Continuous
 62
     7
100
AcDbLine
 10
36.0
 20
121.6
 30
0.0
 11
37.0
 21
121.6
 31
0.0
  0
LINE
  5
3B38
330
A
100
AcDbEntity
  8
0
  6
Continuous
 62
     7
100
AcDbLine
 10
0.0
 20
121.6
 30
0.0
 11
1.0
 21
121.6
 31
0.0
  0
LINE
  5
3B39
330
A
100
AcDbEntity
  8
0
  6
Continuous
 62
     7
100
AcDbLine
 10
1.0
 20
113.5
 30
0.0
 11
0.0
 21
113.5
 31
0.0
  0
LINE
  5
3B3A
330
A
100
AcDbEntity
  8
0
  6
Continuous
 62
     9
100
AcDbLine
 10
1.0
 20
113.5
 30
0.0
 11
1.0
 21
112.5
 31
0.0
  0
LINE
  5
3B3B
330
A
100
AcDbEntity
  8
0
  6
Continuous
 62
     7
100
AcDbLine
 10
36.0
 20
113.5
 30
0.0
 11
1.0
 21
113.5
 31
0.0
  0
LINE
  5
3B3C
330
A
100
AcDbEntity
  8
0
  6
Continuous
 62
     9
100
AcDbLine
 10
36.0
 20
113.5
 30
0.0
 11
36.0
 21
112.5
 31
0.0
  0
LINE
  5
3B3D
330
A
100
AcDbEntity
  8
0
  6
Continuous
 62
     7
100
AcDbLine
 10
37.0
 20
113.5
 30
0.0
 11
36.0
 21
113.5
 31
0.0
  0
LINE
  5
3B3E
330
A
100
AcDbEntity
  8
0
  6
Continuous
 62
     7
100
AcDbLine
 10
37.0
 20
113.5
 30
0.0
 11
37.0
 21
112.5
 31
0.0
  0
LINE
  5
3B3F
330
A
100
AcDbEntity
  8
0
  6
Continuous
 62
     7
100
AcDbLine
 10
19.153413
 20
131.568376
 30
0.0
 11
19.31893500000024
 21
130.718315
 31
0.0
  0
CIRCLE
  5
3B40
330
A
100
AcDbEntity
  8
0
  6
Continuous
 62
     7
100
AcDbCircle
 10
18.5
 20
131.0
 30
0.0
 40
1.0
  0
LINE
  5
3B41
330
A
100
AcDbEntity
  8
0
  6
Continuous
 62
     7
100
AcDbLine
 10
18.3344790000001
 20
131.85006
 30
0.0
 11
19.153413
 21
131.568376
 31
0.0
  0
LINE
  5
3B42
330
A
100
AcDbEntity
  8
0
  6
Continuous
 62
     7
100
AcDbLine
 10
18.6655209999999
 20
130.14994
 30
0.0
 11
17.846587
 21
130.431624
 31
0.0
  0
LINE
  5
3B43
330
A
100
AcDbEntity
  8
0
  6
Continuous
 62
     7
100
AcDbLine
 10
17.68106499999976
 20
131.281685
 30
0.0
 11
18.3344790000001
 21
131.85006
 31
0.0
  0
LINE
  5
3B44
330
A
100
AcDbEntity
  8
0
  6
Continuous
 62
     7
100
AcDbLine
 10
17.846587
 20
130.431624
 30
0.0
 11
17.68106499999976
 21
131.281685
 31
0.0
  0
LINE
  5
3B45
330
A
100
AcDbEntity
  8
0
  6
Continuous
 62
     7
100
AcDbLine
 10
19.31893500000024
 20
130.718315
 30
0.0
 11
18.6655209999999
 21
130.14994
 31
0.0
  0
LINE
  5
3B46
330
A
100
AcDbEntity
  8
0
  6
Continuous
 62
     7
100
AcDbLine
 10
38.5
 20
135.5
 30
0.0
 11
38.5
 21
133.5
 31
0.0
  0
LINE
  5
3B47
330
A
100
AcDbEntity
  8
0
  6
Continuous
 62
     7
100
AcDbLine
 10
38.5
 20
133.5
 30
0.0
 11
37.5
 21
133.5
 31
0.0
  0
LINE
  5
3B48
330
A
100
AcDbEntity
  8
0
  6
Continuous
 62
     9
100
AcDbLine
 10
37.5
 20
133.5
 30
0.0
 11
37.5
 21
135.5
 31
0.0
  0
LINE
  5
3B49
330
A
100
AcDbEntity
  8
0
  6
Continuous
 62
     7
100
AcDbLine
 10
37.5
 20
135.5
 30
0.0
 11
38.5
 21
135.5
 31
0.0
  0
LINE
  5
3B4A
330
A
100
AcDbEntity
  8
0
  6
Continuous
 62
     7
100
AcDbLine
 10
-1.5
 20
133.5
 30
0.0
 11
37.5
 21
133.5
 31
0.0
  0
LINE
  5
3B4B
330
A
100
AcDbEntity
  8
0
  6
Continuous
 62
     7
100
AcDbLine
 10
-1.5
 20
134.5
 30
0.0
 11
-1.5
 21
133.5
 31
0.0
  0
ARC
  5
3B4C
330
A
100
AcDbEntity
  8
0
  6
Continuous
 62
     7
100
AcDbCircle
 10
-0.5
 20
134.5
 30
0.0
 40
1.0
100
AcDbArc
 50
90.0
 51
180.0
  0
LINE
  5
3B4D
330
A
100
AcDbEntity
  8
0
  6
Continuous
 62
     7
100
AcDbLine
 10
-0.5
 20
135.5
 30
0.0
 11
37.5
 21
135.5
 31
0.0
  0
LINE
  5
3B4E
330
A
100
AcDbEntity
  8
0
  6
Continuous
 62
     7
100
AcDbLine
 10
0.0
 20
122.6
 30
0.0
 11
0.0
 21
112.5
 31
0.0
  0
LINE
  5
3B4F
330
A
100
AcDbEntity
  8
0
  6
Continuous
 62
     7
100
AcDbLine
 10
0.0
 20
112.5
 30
0.0
 11
37.5
 21
112.5
 31
0.0
  0
LINE
  5
3B50
330
A
100
AcDbEntity
  8
0
  6
Continuous
 62
     9
100
AcDbLine
 10
37.5
 20
110.5
 30
0.0
 11
37.5
 21
112.5
 31
0.0
  0
LINE
  5
3B51
330
A
100
AcDbEntity
  8
0
  6
Continuous
 62
     7
100
AcDbLine
 10
37.5
 20
110.5
 30
0.0
 11
-0.5
 21
110.5
 31
0.0
  0
ARC
  5
3B52
330
A
100
AcDbEntity
  8
0
  6
Continuous
 62
     7
100
AcDbCircle
 10
-0.5
 20
111.5
 30
0.0
 40
1.0
100
AcDbArc
 50
180.0
 51
270.0
  0
LINE
  5
3B53
330
A
100
AcDbEntity
  8
0
  6
Continuous
 62
     7
100
AcDbLine
 10
-1.5
 20
133.5
 30
0.0
 11
37.5
 21
133.5
 31
0.0
  0
LINE
  5
3B54
330
A
100
AcDbEntity
  8
0
  6
Continuous
 62
     9
100
AcDbLine
 10
37.5
 20
122.6
 30
0.0
 11
37.5
 21
133.5
 31
0.0
  0
LINE
  5
3B55
330
A
100
AcDbEntity
  8
0
  6
Continuous
 62
     7
100
AcDbLine
 10
37.5
 20
122.6
 30
0.0
 11
0.0
 21
122.6
 31
0.0
  0
ARC
  5
3B56
330
A
100
AcDbEntity
  8
0
  6
Continuous
 62
     7
100
AcDbCircle
 10
18.5
 20
131.0
 30
0.0
 40
1.5
100
AcDbArc
 50
90.0
 51
180.0
  0
ARC
  5
3B57
330
A
100
AcDbEntity
  8
0
  6
Continuous
 62
     7
100
AcDbCircle
 10
18.5
 20
131.0
 30
0.0
 40
1.5
100
AcDbArc
 50
180.0
 51
90.0
  0
LINE
  5
3B58
330
A
100
AcDbEntity
  8
0
  6
Continuous
 62
     7
100
AcDbLine
 10
-1.5
 20
111.5
 30
0.0
 11
-1.5
 21
133.5
 31
0.0
  0
LINE
  5
3B59
330
A
100
AcDbEntity
  8
0
  6
Continuous
 62
     7
100
AcDbLine
 10
38.5
 20
112.5
 30
0.0
 11
38.5
 21
110.5
 31
0.0
  0
LINE
  5
3B5A
330
A
100
AcDbEntity
  8
0
  6
Continuous
 62
     7
100
AcDbLine
 10
38.5
 20
110.5
 30
0.0
 11
37.5
 21
110.5
 31
0.0
  0
LINE
  5
3B5B
330
A
100
AcDbEntity
  8
0
  6
Continuous
 62
     7
100
AcDbLine
 10
37.5
 20
112.5
 30
0.0
 11
38.5
 21
112.5
 31
0.0
  0
LINE
  5
3B5C
330
A
100
AcDbEntity
  8
0
  6
Continuous
 62
     7
100
AcDbLine
 10
38.5
 20
133.5
 30
0.0
 11
38.5
 21
122.6
 31
0.0
  0
LINE
  5
3B5D
330
A
100
AcDbEntity
  8
0
  6
Continuous
 62
     7
100
AcDbLine
 10
38.5
 20
122.6
 30
0.0
 11
37.5
 21
122.6
 31
0.0
  0
LINE
  5
3B5E
330
A
100
AcDbEntity
  8
0
  6
Continuous
 62
     7
100
AcDbLine
 10
37.5
 20
133.5
 30
0.0
 11
38.5
 21
133.5
 31
0.0
  0
ARC
  5
3B5F
330
A
100
AcDbEntity
  8
0
  6
Continuous
 62
     7
100
AcDbCircle
 10
18.5
 20
-17.5
 30
0.0
 40
1.25
100
AcDbArc
 50
310.122207999993
 51
220.1222080000008
  0
ARC
  5
3B60
330
A
100
AcDbEntity
  8
0
  6
Continuous
 62
     9
100
AcDbCircle
 10
18.5
 20
-17.5
 30
0.0
 40
1.5
100
AcDbArc
 50
0.0
 51
270.0
  0
LINE
  5
3B61
330
A
100
AcDbEntity
  8
0
  6
Continuous
 62
     7
100
AcDbLine
 10
1.0
 20
-8.099999999999994
 30
0.0
 11
0.0
 21
-8.099999999999994
 31
0.0
  0
LINE
  5
3B62
330
A
100
AcDbEntity
  8
0
  6
Continuous
 62
     9
100
AcDbLine
 10
1.0
 20
-8.099999999999994
 30
0.0
 11
1.0
 21
-9.099999999999994
 31
0.0
  0
LINE
  5
3B63
330
A
100
AcDbEntity
  8
0
  6
Continuous
 62
     9
100
AcDbLine
 10
36.0
 20
-8.099999999999994
 30
0.0
 11
36.0
 21
-9.099999999999994
 31
0.0
  0
LINE
  5
3B64
330
A
100
AcDbEntity
  8
0
  6
Continuous
 62
     7
100
AcDbLine
 10
36.0
 20
-8.099999999999994
 30
0.0
 11
1.0
 21
-8.099999999999994
 31
0.0
  0
LINE
  5
3B65
330
A
100
AcDbEntity
  8
0
  6
Continuous
 62
     7
100
AcDbLine
 10
37.0
 20
-8.099999999999994
 30
0.0
 11
37.0
 21
-9.099999999999994
 31
0.0
  0
LINE
  5
3B66
330
A
100
AcDbEntity
  8
0
  6
Continuous
 62
     7
100
AcDbLine
 10
37.0
 20
-8.099999999999994
 30
0.0
 11
36.0
 21
-8.099999999999994
 31
0.0
  0
LINE
  5
3B67
330
A
100
AcDbEntity
  8
0
  6
Continuous
 62
     7
100
AcDbLine
 10
37.0
 20
0.0
 30
0.0
 11
37.0
 21
1.0
 31
0.0
  0
LINE
  5
3B68
330
A
100
AcDbEntity
  8
0
  6
Continuous
 62
     7
100
AcDbLine
 10
36.0
 20
0.0
 30
0.0
 11
37.0
 21
0.0
 31
0.0
  0
LINE
  5
3B69
330
A
100
AcDbEntity
  8
0
  6
Continuous
 62
     9
100
AcDbLine
 10
36.0
 20
0.0
 30
0.0
 11
36.0
 21
1.0
 31
0.0
  0
LINE
  5
3B6A
330
A
100
AcDbEntity
  8
0
  6
Continuous
 62
     9
100
AcDbLine
 10
1.0
 20
0.0
 30
0.0
 11
1.0
 21
1.0
 31
0.0
  0
LINE
  5
3B6B
330
A
100
AcDbEntity
  8
0
  6
Continuous
 62
     7
100
AcDbLine
 10
1.0
 20
0.0
 30
0.0
 11
36.0
 21
0.0
 31
0.0
  0
LINE
  5
3B6C
330
A
100
AcDbEntity
  8
0
  6
Continuous
 62
     7
100
AcDbLine
 10
0.0
 20
0.0
 30
0.0
 11
1.0
 21
0.0
 31
0.0
  0
CIRCLE
  5
3B6D
330
A
100
AcDbEntity
  8
0
  6
Continuous
 62
     7
100
AcDbCircle
 10
18.5
 20
-17.5
 30
0.0
 40
1.0
  0
LINE
  5
3B6E
330
A
100
AcDbEntity
  8
0
  6
Continuous
 62
     7
100
AcDbLine
 10
19.05808399999978
 20
-18.16222500000001
 30
0.0
 11
18.2055379999997
 21
-18.31442799999999
 31
0.0
  0
LINE
  5
3B6F
330
A
100
AcDbEntity
  8
0
  6
Continuous
 62
     7
100
AcDbLine
 10
17.64745399999992
 20
-17.65220299999998
 30
0.0
 11
17.94191600000022
 21
-16.83777499999999
 31
0.0
  0
LINE
  5
3B70
330
A
100
AcDbEntity
  8
0
  6
Continuous
 62
     7
100
AcDbLine
 10
17.94191600000022
 20
-16.83777499999999
 30
0.0
 11
18.79446200000029
 21
-16.68557200000001
 31
0.0
  0
LINE
  5
3B71
330
A
100
AcDbEntity
  8
0
  6
Continuous
 62
     7
100
AcDbLine
 10
19.35254600000007
 20
-17.34779700000001
 30
0.0
 11
19.05808399999978
 21
-18.16222500000001
 31
0.0
  0
LINE
  5
3B72
330
A
100
AcDbEntity
  8
0
  6
Continuous
 62
     7
100
AcDbLine
 10
18.2055379999997
 20
-18.31442799999999
 30
0.0
 11
17.64745399999992
 21
-17.65220299999998
 31
0.0
  0
LINE
  5
3B73
330
A
100
AcDbEntity
  8
0
  6
Continuous
 62
     7
100
AcDbLine
 10
18.79446200000029
 20
-16.68557200000001
 30
0.0
 11
19.35254600000007
 21
-17.34779700000001
 31
0.0
  0
LINE
  5
3B74
330
A
100
AcDbEntity
  8
0
  6
Continuous
 62
     9
100
AcDbLine
 10
37.5
 20
-22.0
 30
0.0
 11
37.5
 21
-20.0
 31
0.0
  0
LINE
  5
3B75
330
A
100
AcDbEntity
  8
0
  6
Continuous
 62
     7
100
AcDbLine
 10
-0.5
 20
-22.0
 30
0.0
 11
37.5
 21
-22.0
 31
0.0
  0
ARC
  5
3B76
330
A
100
AcDbEntity
  8
0
  6
Continuous
 62
     7
100
AcDbCircle
 10
-0.5
 20
-21.0
 30
0.0
 40
1.0
100
AcDbArc
 50
180.0
 51
270.0
  0
LINE
  5
3B77
330
A
100
AcDbEntity
  8
0
  6
Continuous
 62
     7
100
AcDbLine
 10
-1.5
 20
-20.0
 30
0.0
 11
37.5
 21
-20.0
 31
0.0
  0
LINE
  5
3B78
330
A
100
AcDbEntity
  8
0
  6
Continuous
 62
     7
100
AcDbLine
 10
-1.5
 20
-20.0
 30
0.0
 11
-1.5
 21
-21.0
 31
0.0
  0
LINE
  5
3B79
330
A
100
AcDbEntity
  8
0
  6
Continuous
 62
     7
100
AcDbLine
 10
38.5
 20
-20.0
 30
0.0
 11
38.5
 21
-22.0
 31
0.0
  0
LINE
  5
3B7A
330
A
100
AcDbEntity
  8
0
  6
Continuous
 62
     7
100
AcDbLine
 10
38.5
 20
-22.0
 30
0.0
 11
37.5
 21
-22.0
 31
0.0
  0
LINE
  5
3B7B
330
A
100
AcDbEntity
  8
0
  6
Continuous
 62
     7
100
AcDbLine
 10
37.5
 20
-20.0
 30
0.0
 11
38.5
 21
-20.0
 31
0.0
  0
LINE
  5
3B7C
330
A
100
AcDbEntity
  8
0
  6
Continuous
 62
     9
100
AcDbLine
 10
37.5
 20
1.0
 30
0.0
 11
37.5
 21
3.0
 31
0.0
  0
LINE
  5
3B7D
330
A
100
AcDbEntity
  8
0
  6
Continuous
 62
     7
100
AcDbLine
 10
37.5
 20
3.0
 30
0.0
 11
38.5
 21
3.0
 31
0.0
  0
LINE
  5
3B7E
330
A
100
AcDbEntity
  8
0
  6
Continuous
 62
     7
100
AcDbLine
 10
38.5
 20
3.0
 30
0.0
 11
38.5
 21
1.0
 31
0.0
  0
LINE
  5
3B7F
330
A
100
AcDbEntity
  8
0
  6
Continuous
 62
     7
100
AcDbLine
 10
38.5
 20
1.0
 30
0.0
 11
37.5
 21
1.0
 31
0.0
  0
ARC
  5
3B80
330
A
100
AcDbEntity
  8
0
  6
Continuous
 62
     7
100
AcDbCircle
 10
18.5
 20
-17.5
 30
0.0
 40
1.5
100
AcDbArc
 50
270.0
 51
0.0
  0
ARC
  5
3B81
330
A
100
AcDbEntity
  8
0
  6
Continuous
 62
     7
100
AcDbCircle
 10
18.5
 20
-17.5
 30
0.0
 40
1.5
100
AcDbArc
 50
0.0
 51
270.0
  0
LINE
  5
3B82
330
A
100
AcDbEntity
  8
0
  6
Continuous
 62
     7
100
AcDbLine
 10
-1.5
 20
2.0
 30
0.0
 11
-1.5
 21
-20.0
 31
0.0
  0
ARC
  5
3B83
330
A
100
AcDbEntity
  8
0
  6
Continuous
 62
     7
100
AcDbCircle
 10
-0.5
 20
2.0
 30
0.0
 40
1.0
100
AcDbArc
 50
90.0
 51
180.0
  0
LINE
  5
3B84
330
A
100
AcDbEntity
  8
0
  6
Continuous
 62
     7
100
AcDbLine
 10
37.5
 20
3.0
 30
0.0
 11
-0.5
 21
3.0
 31
0.0
  0
LINE
  5
3B85
330
A
100
AcDbEntity
  8
0
  6
Continuous
 62
     7
100
AcDbLine
 10
0.0
 20
1.0
 30
0.0
 11
37.5
 21
1.0
 31
0.0
  0
LINE
  5
3B86
330
A
100
AcDbEntity
  8
0
  6
Continuous
 62
     7
100
AcDbLine
 10
37.5
 20
-9.099999999999994
 30
0.0
 11
0.0
 21
-9.099999999999994
 31
0.0
  0
LINE
  5
3B87
330
A
100
AcDbEntity
  8
0
  6
Continuous
 62
     9
100
AcDbLine
 10
37.5
 20
-20.0
 30
0.0
 11
37.5
 21
-9.099999999999994
 31
0.0
  0
LINE
  5
3B88
330
A
100
AcDbEntity
  8
0
  6
Continuous
 62
     7
100
AcDbLine
 10
-1.5
 20
-20.0
 30
0.0
 11
37.5
 21
-20.0
 31
0.0
  0
LINE
  5
3B89
330
A
100
AcDbEntity
  8
0
  6
Continuous
 62
     7
100
AcDbLine
 10
0.0
 20
-9.099999999999994
 30
0.0
 11
0.0
 21
1.0
 31
0.0
  0
LINE
  5
3B8A
330
A
100
AcDbEntity
  8
0
  6
Continuous
 62
     7
100
AcDbLine
 10
38.5
 20
-9.099999999999994
 30
0.0
 11
38.5
 21
-20.0
 31
0.0
  0
LINE
  5
3B8B
330
A
100
AcDbEntity
  8
0
  6
Continuous
 62
     7
100
AcDbLine
 10
37.5
 20
-9.099999999999994
 30
0.0
 11
38.5
 21
-9.099999999999994
 31
0.0
  0
LINE
  5
3B8C
330
A
100
AcDbEntity
  8
0
  6
Continuous
 62
     7
100
AcDbLine
 10
38.5
 20
-20.0
 30
0.0
 11
37.5
 21
-20.0
 31
0.0
  0
LINE
  5
3B8D
330
A
100
AcDbEntity
  8
0
  6
Continuous
 62
     7
100
AcDbLine
 10
38.5
 20
87.0
 30
0.0
 11
38.5
 21
39.0
 31
0.0
  0
ARC
  5
3B8E
330
A
100
AcDbEntity
  8
0
  6
Continuous
 62
     7
100
AcDbCircle
 10
37.5
 20
39.0
 30
0.0
 40
1.0
100
AcDbArc
 50
270.0
 51
0.0
  0
LINE
  5
3B8F
330
A
100
AcDbEntity
  8
0
  6
Continuous
 62
     7
100
AcDbLine
 10
-0.5
 20
38.0
 30
0.0
 11
37.5
 21
38.0
 31
0.0
  0
LINE
  5
3B90
330
A
100
AcDbEntity
  8
0
  6
Continuous
 62
     9
100
AcDbLine
 10
-0.5
 20
88.0
 30
0.0
 11
-0.5
 21
38.0
 31
0.0
  0
LINE
  5
3B91
330
A
100
AcDbEntity
  8
0
  6
Continuous
 62
     7
100
AcDbLine
 10
-0.5
 20
88.0
 30
0.0
 11
37.5
 21
88.0
 31
0.0
  0
ARC
  5
3B92
330
A
100
AcDbEntity
  8
0
  6
Continuous
 62
     7
100
AcDbCircle
 10
37.5
 20
87.0
 30
0.0
 40
1.0
100
AcDbArc
 50
0.0
 51
90.0
  0
LINE
  5
3B93
330
A
100
AcDbEntity
  8
0
  6
Continuous
 62
     7
100
AcDbLine
 10
-0.5
 20
38.0
 30
0.0
 11
-1.5
 21
38.0
 31
0.0
  0
LINE
  5
3B94
330
A
100
AcDbEntity
  8
0
  6
Continuous
 62
     7
100
AcDbLine
 10
-1.5
 20
38.0
 30
0.0
 11
-1.5
 21
88.0
 31
0.0
  0
LINE
  5
3B95
330
A
100
AcDbEntity
  8
0
  6
Continuous
 62
     7
100
AcDbLine
 10
-1.5
 20
88.0
 30
0.0
 11
-0.5
 21
88.0
 31
0.0
  0
TEXT
  5
700D
330
A
100
AcDbEntity
  8
0
  6
Continuous
 62
     7
370
     0
100
AcDbText
 10
56.94019298243029
 20
120.0073206442167
 30
0.0
 40
10.0
  1
6M10
100
AcDbText
  0
ENDSEC
  0
SECTION
  2
OBJECTS
  0
DICTIONARY
  5
19
330
0
100
AcDbDictionary
281
     1
  3
ACAD_COLOR
350
3988
  3
ACAD_GROUP
350
1A
  3
ACAD_LAYOUT
350
1E
  3
ACAD_MATERIAL
350
395E
  3
ACAD_MLEADERSTYLE
350
39AD
  3
ACAD_MLINESTYLE
350
1B
  3
ACAD_PLOTSETTINGS
350
22
  3
ACAD_PLOTSTYLENAME
350
1F
  3
ACAD_SCALELIST
350
398B
  3
ACAD_TABLESTYLE
350
3989
  3
ACAD_VISUALSTYLE
350
3977
  3
ACAD_WIPEOUT_VARS
350
23
  3
ACDB_RECOMPOSE_DATA
350
72EC
  3
AcDbVariableDictionary
350
72CB
  3
ASE_INDEX_DICTIONARY
350
72C6
  3
DWGPROPS
350
736E
  0
DICTIONARY
  5
72C9
330
14
100
AcDbDictionary
280
     1
281
     1
  3
ADSK_XREC_LAYER_RECONCILED
360
72CA
  0
DICTIONARY
  5
39B7
330
A
100
AcDbDictionary
280
     1
281
     1
  3
ACAD_SORTENTS
360
39B8
  0
DICTIONARY
  5
3988
102
{ACAD_REACTORS
330
19
102
}
330
19
100
AcDbDictionary
281
     1
  0
DICTIONARY
  5
1A
102
{ACAD_REACTORS
330
19
102
}
330
19
100
AcDbDictionary
281
     1
  0
DICTIONARY
  5
1E
102
{ACAD_REACTORS
330
19
102
}
330
19
100
AcDbDictionary
281
     1
  3
Layout1
350
21
  3
Model
350
20
  0
DICTIONARY
  5
395E
102
{ACAD_REACTORS
330
19
102
}
330
19
100
AcDbDictionary
281
     1
  3
ByBlock
350
3967
  3
ByLayer
350
395F
  3
Global
350
396F
  0
DICTIONARY
  5
39AD
102
{ACAD_REACTORS
330
19
102
}
330
19
100
AcDbDictionary
281
     1
  3
Standard
350
39AE
  0
DICTIONARY
  5
1B
102
{ACAD_REACTORS
330
19
102
}
330
19
100
AcDbDictionary
281
     1
  3
Standard
350
1C
  0
DICTIONARY
  5
22
102
{ACAD_REACTORS
330
19
102
}
330
19
100
AcDbDictionary
281
     1
  0
ACDBDICTIONARYWDFLT
  5
1F
102
{ACAD_REACTORS
330
19
102
}
330
19
100
AcDbDictionary
281
     1
  3
Normal
350
1D
100
AcDbDictionaryWithDefault
340
1D
  0
DICTIONARY
  5
398B
102
{ACAD_REACTORS
330
19
102
}
330
19
100
AcDbDictionary
281
     1
  3
A0
350
398C
  3
A1
350
398D
  3
A2
350
398E
  3
A3
350
398F
  3
A4
350
3990
  3
A5
350
3991
  3
A6
350
3992
  3
A7
350
3993
  3
A8
350
3994
  3
A9
350
3995
  3
B0
350
3996
  3
B1
350
3997
  3
B2
350
3998
  3
B3
350
3999
  3
B4
350
399A
  3
B5
350
399B
  3
B6
350
399C
  3
B7
350
399D
  3
B8
350
399E
  3
B9
350
399F
  3
C0
350
39A0
  3
C1
350
39A1
  3
C2
350
39A2
  3
C3
350
39A3
  3
C4
350
39A4
  3
C5
350
39A5
  3
C6
350
39A6
  3
C7
350
39A7
  3
C8
350
39A8
  3
C9
350
39A9
  3
D0
350
39AA
  3
D1
350
39AB
  3
D2
350
39AC
  0
DICTIONARY
  5
3989
102
{ACAD_REACTORS
330
19
102
}
330
19
100
AcDbDictionary
281
     1
  3
Standard
350
398A
  0
DICTIONARY
  5
3977
102
{ACAD_REACTORS
330
19
102
}
330
19
100
AcDbDictionary
281
     1
  3
2dWireframe
350
397D
  3
3D Hidden
350
397F
  3
3dWireframe
350
397E
  3
Basic
350
397C
  3
Brighten
350
3983
  3
ColorChange
350
3987
  3
Conceptual
350
3980
  3
Dim
350
3982
  3
Facepattern
350
3986
  3
Flat
350
3978
  3
FlatWithEdges
350
3979
  3
Gouraud
350
397A
  3
GouraudWithEdges
350
397B
  3
Linepattern
350
3985
  3
Realistic
350
3981
  3
Thicken
350
3984
  0
WIPEOUTVARIABLES
  5
23
330
19
100
AcDbWipeoutVariables
 70
     1
  0
XRECORD
  5
72EC
102
{ACAD_REACTORS
330
19
102
}
330
19
100
AcDbXrecord
280
     1
 90
        1
330
398A
  0
DICTIONARY
  5
72CB
102
{ACAD_REACTORS
330
19
102
}
330
19
100
AcDbDictionary
281
     1
  3
CANNOSCALE
350
72CE
  3
CMLEADERSTYLE
350
72CD
  3
CTABLESTYLE
350
72CC
  3
DIMASSOC
350
72D1
  3
INDEXCTL
350
72D0
  3
SORTENTS
350
72CF
  0
DICTIONARY
  5
72C6
102
{ACAD_REACTORS
330
19
102
}
330
19
100
AcDbDictionary
281
     1
  3
ASEBlockHierarchyIndexRecord
350
72C8
1001
DCO15
1040
1687090590.691
  0
XRECORD
  5
736E
102
{ACAD_REACTORS
330
19
102
}
330
19
100
AcDbXrecord
280
     1
  1
DWGPROPS COOKIE
  2

  3

  4

  6

  7

  8
renzo.ceresoli
  9

300
=
301
=
302
=
303
=
304
=
305
=
306
=
307
=
308
=
309
=
 40
0.0289965277777778
 41
2455329.702198484
 42
2455383.413419965
  1

 90
        0
  0
XRECORD
  5
72CA
102
{ACAD_REACTORS
330
72C9
102
}
330
72C9
100
AcDbXrecord
280
     1
290
     1
  0
SORTENTSTABLE
  5
39B8
102
{ACAD_REACTORS
330
39B7
102
}
330
39B7
100
AcDbSortentsTable
330
A
331
3B90
  5
6E2B
331
3A86
  5
6EF9
331
3AB9
  5
6F2C
331
3AE4
  5
6ED4
331
3B37
  5
6E65
331
3B62
  5
6E34
331
3A8B
  5
6EFE
331
3AD6
  5
6F49
331
3B09
  5
6EA1
331
3B54
  5
6E82
331
3B87
  5
6E59
331
3A7D
  5
6EF0
331
3AB0
  5
6F23
331
3AFB
  5
6E93
331
3B2E
  5
6EC6
331
3B59
  5
6E87
331
3AA2
  5
6F15
331
3ACD
  5
6F40
331
3B00
  5
6E98
331
3B4B
  5
6E79
331
3B7E
  5
6E50
331
3A74
  5
6EE7
331
3AF2
  5
6EE2
331
3B25
  5
6EBD
331
395A
  5
700B
331
3B70
  5
6E42
331
3A99
  5
6F0C
331
3AC4
  5
6F37
331
3B17
  5
6EAF
331
3B42
  5
6E70
331
3B95
  5
6E30
331
3ABE
  5
6F31
331
3AE9
  5
6ED9
331
3B67
  5
6E39
331
3A90
  5
6F03
331
3ADB
  5
6ECB
331
3B0E
  5
6EA6
331
3B39
  5
6E67
331
3B8C
  5
6E5E
331
3A82
  5
6EF5
331
3AB5
  5
6F28
331
3AE0
  5
6ED0
331
3B33
  5
6E61
331
3B5E
  5
6E8C
331
3AA7
  5
6F1A
331
3AD2
  5
6F45
331
3B05
  5
6E9D
331
3B50
  5
6E7E
331
3B83
  5
6E55
331
3A79
  5
6EEC
331
3AAC
  5
6F1F
331
3AF7
  5
6E8F
331
3B2A
  5
6EC2
331
3B75
  5
6E47
331
3A9E
  5
6F11
331
3AC9
  5
6F3C
331
3B1C
  5
6EB4
331
3B47
  5
6E75
331
3B7A
  5
6E4C
331
3AEE
  5
6EDE
331
3B21
  5
6EB9
331
3B6C
  5
6E3E
331
3A95
  5
6F08
331
3AC0
  5
6F33
331
3B13
  5
6EAB
331
3B3E
  5
6E6C
331
3B91
  5
6E2C
331
3A87
  5
6EFA
331
3ABA
  5
6F2D
331
3AE5
  5
6ED5
331
3B63
  5
6E35
331
3A8C
  5
6EFF
331
3AD7
  5
6F4A
331
3B0A
  5
6EA2
331
3B55
  5
6E83
331
3B88
  5
6E5A
331
3A7E
  5
6EF1
331
3AB1
  5
6F24
331
3AFC
  5
6E94
331
3B2F
  5
6EC7
331
3B5A
  5
6E88
331
3AA3
  5
6F16
331
3ACE
  5
6F41
331
3B01
  5
6E99
331
3B4C
  5
6E7A
331
3B7F
  5
6E51
331
3A75
  5
6EE8
331
3AA8
  5
6F1B
331
3AF3
  5
6EE3
331
3B26
  5
6EBE
331
395B
  5
700C
331
3B71
  5
6E43
331
3A9A
  5
6F0D
331
3AC5
  5
6F38
331
3B18
  5
6EB0
331
3B43
  5
6E71
331
3ABF
  5
6F32
331
3AEA
  5
6EDA
331
3B68
  5
6E3A
331
3A91
  5
6F04
331
3ADC
  5
6ECC
331
3B0F
  5
6EA7
331
3B3A
  5
6E68
331
3B8D
  5
6E28
331
3A83
  5
6EF6
331
3AB6
  5
6F29
331
3AE1
  5
6ED1
331
3B34
  5
6E62
331
3B5F
  5
6E31
331
3A88
  5
6EFB
331
3AD3
  5
6F46
331
3B06
  5
6E9E
331
3B51
  5
6E7F
331
3B84
  5
6E56
331
3A7A
  5
6EED
331
3AAD
  5
6F20
331
3AF8
  5
6E90
331
3B2B
  5
6EC3
331
3B76
  5
6E48
331
3A9F
  5
6F12
331
3ACA
  5
6F3D
331
3B1D
  5
6EB5
331
3B48
  5
6E76
331
3B7B
  5
6E4D
331
3AEF
  5
6EDF
331
3B22
  5
6EBA
331
3B6D
  5
6E3F
331
3A96
  5
6F09
331
3AC1
  5
6F34
331
3B14
  5
6EAC
331
3B3F
  5
6E6D
331
3B92
  5
6E2D
331
3ABB
  5
6F2E
331
3AE6
  5
6ED6
331
3B64
  5
6E36
331
3A8D
  5
6F00
331
3AD8
  5
6F4B
331
3B0B
  5
6EA3
331
3B56
  5
6E84
331
3B89
  5
6E5B
331
3A7F
  5
6EF2
331
3AB2
  5
6F25
331
3AFD
  5
6E95
331
3B30
  5
6EC8
331
3B5B
  5
6E89
331
3AA4
  5
6F17
331
3ACF
  5
6F42
331
3B02
  5
6E9A
331
3B4D
  5
6E7B
331
3B80
  5
6E52
331
3A76
  5
6EE9
331
3AA9
  5
6F1C
331
3AF4
  5
6EE4
331
3B27
  5
6EBF
331
3B72
  5
6E44
331
3A9B
  5
6F0E
331
3AC6
  5
6F39
331
3B19
  5
6EB1
331
3B44
  5
6E72
331
3AEB
  5
6EDB
331
3B69
  5
6E3B
331
3A92
  5
6F05
331
3ADD
  5
6ECD
331
3B10
  5
6EA8
331
3B3B
  5
6E69
331
3B8E
  5
6E29
331
3A84
  5
6EF7
331
3AB7
  5
6F2A
331
3AE2
  5
6ED2
331
3B35
  5
6E63
331
3B60
  5
6E32
331
3A89
  5
6EFC
331
3AD4
  5
6F47
331
3B07
  5
6E9F
331
3B52
  5
6E80
331
3B85
  5
6E57
331
3A7B
  5
6EEE
331
3AAE
  5
6F21
331
3AF9
  5
6E91
331
3B2C
  5
6EC4
331
3B77
  5
6E49
331
3AA0
  5
6F13
331
3ACB
  5
6F3E
331
3B1E
  5
6EB6
331
3B49
  5
6E77
331
3B7C
  5
6E4E
331
3A72
  5
6EE5
331
3AF0
  5
6EE0
331
3B23
  5
6EBB
331
3958
  5
7009
331
3B6E
  5
6E40
331
3A97
  5
6F0A
331
3AC2
  5
6F35
331
3B15
  5
6EAD
331
3B40
  5
6E6E
331
3B93
  5
6E2E
331
3ABC
  5
6F2F
331
3AE7
  5
6ED7
331
3B65
  5
6E37
331
3A8E
  5
6F01
331
3AD9
  5
6EC9
331
3B0C
  5
6EA4
331
3B57
  5
6E85
331
3B8A
  5
6E5C
331
3A80
  5
6EF3
331
3AB3
  5
6F26
331
3AFE
  5
6E96
331
3B31
  5
6E5F
331
3B5C
  5
6E8A
331
3AA5
  5
6F18
331
3AD0
  5
6F43
331
3B03
  5
6E9B
331
3B4E
  5
6E7C
331
3B81
  5
6E53
331
3A77
  5
6EEA
331
3AAA
  5
6F1D
331
3AF5
  5
6E8D
331
3B28
  5
6EC0
331
3B73
  5
6E45
331
3A9C
  5
6F0F
331
3AC7
  5
6F3A
331
3B1A
  5
6EB2
331
3B45
  5
6E73
331
3B78
  5
6E4A
331
3AEC
  5
6EDC
331
3B6A
  5
6E3C
331
3A93
  5
6F06
331
3ADE
  5
6ECE
331
3B11
  5
6EA9
331
3B3C
  5
6E6A
331
3B8F
  5
6E2A
331
3A85
  5
6EF8
331
3AB8
  5
6F2B
331
3AE3
  5
6ED3
331
3B36
  5
6E64
331
3B61
  5
6E33
331
3A8A
  5
6EFD
331
3AD5
  5
6F48
331
3B08
  5
6EA0
331
3B53
  5
6E81
331
3B86
  5
6E58
331
3A7C
  5
6EEF
331
3AAF
  5
6F22
331
3AFA
  5
6E92
331
3B2D
  5
6EC5
331
3B58
  5
6E86
331
3AA1
  5
6F14
331
3ACC
  5
6F3F
331
3B1F
  5
6EB7
331
3B4A
  5
6E78
331
3B7D
  5
6E4F
331
3A73
  5
6EE6
331
3AF1
  5
6EE1
331
3B24
  5
6EBC
331
3959
  5
700A
331
3B6F
  5
6E41
331
3A98
  5
6F0B
331
3AC3
  5
6F36
331
3B16
  5
6EAE
331
3B41
  5
6E6F
331
3B94
  5
6E2F
331
3ABD
  5
6F30
331
3AE8
  5
6ED8
331
3B66
  5
6E38
331
3A8F
  5
6F02
331
3ADA
  5
6ECA
331
3B0D
  5
6EA5
331
3B38
  5
6E66
331
3B8B
  5
6E5D
331
3A81
  5
6EF4
331
3AB4
  5
6F27
331
3AFF
  5
6E97
331
3B32
  5
6E60
331
3B5D
  5
6E8B
331
3AA6
  5
6F19
331
3AD1
  5
6F44
331
3B04
  5
6E9C
331
3B4F
  5
6E7D
331
3B82
  5
6E54
331
3A78
  5
6EEB
331
3AAB
  5
6F1E
331
3AF6
  5
6E8E
331
3B29
  5
6EC1
331
3B74
  5
6E46
331
3A9D
  5
6F10
331
3AC8
  5
6F3B
331
3B1B
  5
6EB3
331
3B46
  5
6E74
331
3B79
  5
6E4B
331
3AED
  5
6EDD
331
3B20
  5
6EB8
331
3B6B
  5
6E3D
331
3A94
  5
6F07
331
3ADF
  5
6ECF
331
3B12
  5
6EAA
331
3B3D
  5
6E6B
  0
LAYOUT
  5
21
102
{ACAD_XDICTIONARY
360
7371
102
}
102
{ACAD_REACTORS
330
1E
102
}
330
1E
100
AcDbPlotSettings
  1

  2

  4

  6

 40
0.0
 41
0.0
 42
0.0
 43
0.0
 44
0.0
 45
0.0
 46
0.0
 47
0.0
 48
0.0
 49
0.0
140
0.0
141
0.0
142
1.0
143
1.0
 70
     0
 72
     0
 73
     0
 74
     0
  7

 75
     0
147
1.0
148
0.0
149
0.0
100
AcDbLayout
  1
Layout1
 70
     0
 71
     1
 10
0.0
 20
0.0
 11
12.0
 21
9.0
 12
0.0
 22
0.0
 32
0.0
 14
1.000000000000000E+20
 24
1.000000000000000E+20
 34
1.000000000000000E+20
 15
-1.000000000000000E+20
 25
-1.000000000000000E+20
 35
-1.000000000000000E+20
146
0.0
 13
0.0
 23
0.0
 33
0.0
 16
1.0
 26
0.0
 36
0.0
 17
0.0
 27
1.0
 37
0.0
 76
     0
330
B
  0
LAYOUT
  5
20
102
{ACAD_XDICTIONARY
360
736F
102
}
102
{ACAD_REACTORS
330
1E
102
}
330
1E
100
AcDbPlotSettings
  1

  2

  4

  6

 40
0.0
 41
0.0
 42
0.0
 43
0.0
 44
0.0
 45
0.0
 46
0.0
 47
0.0
 48
0.0
 49
0.0
140
0.0
141
0.0
142
1.0
143
1.0
 70
  1024
 72
     0
 73
     0
 74
     0
  7

 75
     0
147
1.0
148
0.0
149
0.0
100
AcDbLayout
  1
Model
 70
     0
 71
     0
 10
0.0
 20
0.0
 11
0.0
 21
0.0
 12
0.0
 22
0.0
 32
0.0
 14
0.0
 24
0.0
 34
0.0
 15
0.0
 25
0.0
 35
0.0
146
0.0
 13
0.0
 23
0.0
 33
0.0
 16
0.0
 26
0.0
 36
0.0
 17
0.0
 27
0.0
 37
0.0
 76
     0
330
A
331
15
  0
MATERIAL
  5
3967
102
{ACAD_XDICTIONARY
360
3968
102
}
102
{ACAD_REACTORS
330
395E
102
}
330
395E
100
AcDbMaterial
  1
ByBlock
 72
     0
 43
0.0208333333333333
 43
0.0
 43
0.0
 43
0.0
 43
0.0
 43
0.0208333333333333
 43
0.0
 43
0.0
 43
0.0
 43
0.0
 43
1.0
 43
0.0
 43
0.0
 43
0.0
 43
0.0
 43
1.0
 77
     0
 47
0.0208333333333333
 47
0.0
 47
0.0
 47
0.0
 47
0.0
 47
0.0208333333333333
 47
0.0
 47
0.0
 47
0.0
 47
0.0
 47
1.0
 47
0.0
 47
0.0
 47
0.0
 47
0.0
 47
1.0
171
     0
 49
0.0208333333333333
 49
0.0
 49
0.0
 49
0.0
 49
0.0
 49
0.0208333333333333
 49
0.0
 49
0.0
 49
0.0
 49
0.0
 49
1.0
 49
0.0
 49
0.0
 49
0.0
 49
0.0
 49
1.0
175
     0
142
0.0208333333333333
142
0.0
142
0.0
142
0.0
142
0.0
142
0.0208333333333333
142
0.0
142
0.0
142
0.0
142
0.0
142
1.0
142
0.0
142
0.0
142
0.0
142
0.0
142
1.0
179
     0
144
0.0208333333333333
144
0.0
144
0.0
144
0.0
144
0.0
144
0.0208333333333333
144
0.0
144
0.0
144
0.0
144
0.0
144
1.0
144
0.0
144
0.0
144
0.0
144
0.0
144
1.0
147
0.0208333333333333
147
0.0
147
0.0
147
0.0
147
0.0
147
0.0208333333333333
147
0.0
147
0.0
147
0.0
147
0.0
147
1.0
147
0.0
147
0.0
147
0.0
147
0.0
147
1.0
  0
MATERIAL
  5
395F
102
{ACAD_XDICTIONARY
360
3960
102
}
102
{ACAD_REACTORS
330
395E
102
}
330
395E
100
AcDbMaterial
  1
ByLayer
 72
     0
 43
0.0208333333333333
 43
0.0
 43
0.0
 43
0.0
 43
0.0
 43
0.0208333333333333
 43
0.0
 43
0.0
 43
0.0
 43
0.0
 43
1.0
 43
0.0
 43
0.0
 43
0.0
 43
0.0
 43
1.0
 77
     0
 47
0.0208333333333333
 47
0.0
 47
0.0
 47
0.0
 47
0.0
 47
0.0208333333333333
 47
0.0
 47
0.0
 47
0.0
 47
0.0
 47
1.0
 47
0.0
 47
0.0
 47
0.0
 47
0.0
 47
1.0
171
     0
 49
0.0208333333333333
 49
0.0
 49
0.0
 49
0.0
 49
0.0
 49
0.0208333333333333
 49
0.0
 49
0.0
 49
0.0
 49
0.0
 49
1.0
 49
0.0
 49
0.0
 49
0.0
 49
0.0
 49
1.0
175
     0
142
0.0208333333333333
142
0.0
142
0.0
142
0.0
142
0.0
142
0.0208333333333333
142
0.0
142
0.0
142
0.0
142
0.0
142
1.0
142
0.0
142
0.0
142
0.0
142
0.0
142
1.0
179
     0
144
0.0208333333333333
144
0.0
144
0.0
144
0.0
144
0.0
144
0.0208333333333333
144
0.0
144
0.0
144
0.0
144
0.0
144
1.0
144
0.0
144
0.0
144
0.0
144
0.0
144
1.0
147
0.0208333333333333
147
0.0
147
0.0
147
0.0
147
0.0
147
0.0208333333333333
147
0.0
147
0.0
147
0.0
147
0.0
147
1.0
147
0.0
147
0.0
147
0.0
147
0.0
147
1.0
  0
MATERIAL
  5
396F
102
{ACAD_XDICTIONARY
360
3970
102
}
102
{ACAD_REACTORS
330
395E
102
}
330
395E
100
AcDbMaterial
  1
Global
 72
     0
 43
0.0208333333333333
 43
0.0
 43
0.0
 43
0.0
 43
0.0
 43
0.0208333333333333
 43
0.0
 43
0.0
 43
0.0
 43
0.0
 43
1.0
 43
0.0
 43
0.0
 43
0.0
 43
0.0
 43
1.0
 77
     0
 47
0.0208333333333333
 47
0.0
 47
0.0
 47
0.0
 47
0.0
 47
0.0208333333333333
 47
0.0
 47
0.0
 47
0.0
 47
0.0
 47
1.0
 47
0.0
 47
0.0
 47
0.0
 47
0.0
 47
1.0
171
     0
 49
0.0208333333333333
 49
0.0
 49
0.0
 49
0.0
 49
0.0
 49
0.0208333333333333
 49
0.0
 49
0.0
 49
0.0
 49
0.0
 49
1.0
 49
0.0
 49
0.0
 49
0.0
 49
0.0
 49
1.0
175
     0
142
0.0208333333333333
142
0.0
142
0.0
142
0.0
142
0.0
142
0.0208333333333333
142
0.0
142
0.0
142
0.0
142
0.0
142
1.0
142
0.0
142
0.0
142
0.0
142
0.0
142
1.0
179
     0
144
0.0208333333333333
144
0.0
144
0.0
144
0.0
144
0.0
144
0.0208333333333333
144
0.0
144
0.0
144
0.0
144
0.0
144
1.0
144
0.0
144
0.0
144
0.0
144
0.0
144
1.0
147
0.0208333333333333
147
0.0
147
0.0
147
0.0
147
0.0
147
0.0208333333333333
147
0.0
147
0.0
147
0.0
147
0.0
147
1.0
147
0.0
147
0.0
147
0.0
147
0.0
147
1.0
  0
MLEADERSTYLE
  5
39AE
102
{ACAD_REACTORS
330
39AD
102
}
330
39AD
100
AcDbMLeaderStyle
170
     2
171
     1
172
     0
 90
        2
 40
0.0
 41
0.0
173
     1
 91
-1056964608
340
11
 92
       -2
290
     1
 42
2.0
291
     1
 43
0.36
  3
Standard
 44
4.0
300

342
17
174
     1
178
     6
175
     1
176
     0
 93
-1056964608
 45
4.0
292
     0
297
     0
 46
4.0
 94
-1056964608
 47
1.0
 49
1.0
140
1.0
293
     1
141
0.0
294
     1
177
     0
142
1.0
295
     0
296
     0
143
0.125
1001
ACAD_MLEADERVER
1070
     2
  0
MLINESTYLE
  5
1C
102
{ACAD_REACTORS
330
1B
102
}
330
1B
100
AcDbMlineStyle
  2
STANDARD
 70
     0
  3

 62
     0
 51
90.0
 52
90.0
 71
     2
 49
0.5
 62
   256
  6
BYLAYER
 49
-0.5
 62
   256
  6
BYLAYER
  0
ACDBPLACEHOLDER
  5
1D
102
{ACAD_REACTORS
330
1F
102
}
330
1F
  0
SCALE
  5
398C
102
{ACAD_REACTORS
330
398B
102
}
330
398B
100
AcDbScale
 70
     0
300
1:1
140
1.0
141
1.0
290
     1
  0
SCALE
  5
398D
102
{ACAD_REACTORS
330
398B
102
}
330
398B
100
AcDbScale
 70
     0
300
1:2
140
1.0
141
2.0
290
     0
  0
SCALE
  5
398E
102
{ACAD_REACTORS
330
398B
102
}
330
398B
100
AcDbScale
 70
     0
300
1:4
140
1.0
141
4.0
290
     0
  0
SCALE
  5
398F
102
{ACAD_REACTORS
330
398B
102
}
330
398B
100
AcDbScale
 70
     0
300
1:5
140
1.0
141
5.0
290
     0
  0
SCALE
  5
3990
102
{ACAD_REACTORS
330
398B
102
}
330
398B
100
AcDbScale
 70
     0
300
1:8
140
1.0
141
8.0
290
     0
  0
SCALE
  5
3991
102
{ACAD_REACTORS
330
398B
102
}
330
398B
100
AcDbScale
 70
     0
300
1:10
140
1.0
141
10.0
290
     0
  0
SCALE
  5
3992
102
{ACAD_REACTORS
330
398B
102
}
330
398B
100
AcDbScale
 70
     0
300
1:16
140
1.0
141
16.0
290
     0
  0
SCALE
  5
3993
102
{ACAD_REACTORS
330
398B
102
}
330
398B
100
AcDbScale
 70
     0
300
1:20
140
1.0
141
20.0
290
     0
  0
SCALE
  5
3994
102
{ACAD_REACTORS
330
398B
102
}
330
398B
100
AcDbScale
 70
     0
300
1:30
140
1.0
141
30.0
290
     0
  0
SCALE
  5
3995
102
{ACAD_REACTORS
330
398B
102
}
330
398B
100
AcDbScale
 70
     0
300
1:40
140
1.0
141
40.0
290
     0
  0
SCALE
  5
3996
102
{ACAD_REACTORS
330
398B
102
}
330
398B
100
AcDbScale
 70
     0
300
1:50
140
1.0
141
50.0
290
     0
  0
SCALE
  5
3997
102
{ACAD_REACTORS
330
398B
102
}
330
398B
100
AcDbScale
 70
     0
300
1:100
140
1.0
141
100.0
290
     0
  0
SCALE
  5
3998
102
{ACAD_REACTORS
330
398B
102
}
330
398B
100
AcDbScale
 70
     0
300
2:1
140
2.0
141
1.0
290
     0
  0
SCALE
  5
3999
102
{ACAD_REACTORS
330
398B
102
}
330
398B
100
AcDbScale
 70
     0
300
4:1
140
4.0
141
1.0
290
     0
  0
SCALE
  5
399A
102
{ACAD_REACTORS
330
398B
102
}
330
398B
100
AcDbScale
 70
     0
300
8:1
140
8.0
141
1.0
290
     0
  0
SCALE
  5
399B
102
{ACAD_REACTORS
330
398B
102
}
330
398B
100
AcDbScale
 70
     0
300
10:1
140
10.0
141
1.0
290
     0
  0
SCALE
  5
399C
102
{ACAD_REACTORS
330
398B
102
}
330
398B
100
AcDbScale
 70
     0
300
100:1
140
100.0
141
1.0
290
     0
  0
SCALE
  5
399D
102
{ACAD_REACTORS
330
398B
102
}
330
398B
100
AcDbScale
 70
     0
300
1/128" = 1'-0"
140
0.0078125
141
12.0
290
     0
  0
SCALE
  5
399E
102
{ACAD_REACTORS
330
398B
102
}
330
398B
100
AcDbScale
 70
     0
300
1/64" = 1'-0"
140
0.015625
141
12.0
290
     0
  0
SCALE
  5
399F
102
{ACAD_REACTORS
330
398B
102
}
330
398B
100
AcDbScale
 70
     0
300
1/32" = 1'-0"
140
0.03125
141
12.0
290
     0
  0
SCALE
  5
39A0
102
{ACAD_REACTORS
330
398B
102
}
330
398B
100
AcDbScale
 70
     0
300
1/16" = 1'-0"
140
0.0625
141
12.0
290
     0
  0
SCALE
  5
39A1
102
{ACAD_REACTORS
330
398B
102
}
330
398B
100
AcDbScale
 70
     0
300
3/32" = 1'-0"
140
0.09375
141
12.0
290
     0
  0
SCALE
  5
39A2
102
{ACAD_REACTORS
330
398B
102
}
330
398B
100
AcDbScale
 70
     0
300
1/8" = 1'-0"
140
0.125
141
12.0
290
     0
  0
SCALE
  5
39A3
102
{ACAD_REACTORS
330
398B
102
}
330
398B
100
AcDbScale
 70
     0
300
3/16" = 1'-0"
140
0.1875
141
12.0
290
     0
  0
SCALE
  5
39A4
102
{ACAD_REACTORS
330
398B
102
}
330
398B
100
AcDbScale
 70
     0
300
1/4" = 1'-0"
140
0.25
141
12.0
290
     0
  0
SCALE
  5
39A5
102
{ACAD_REACTORS
330
398B
102
}
330
398B
100
AcDbScale
 70
     0
300
3/8" = 1'-0"
140
0.375
141
12.0
290
     0
  0
SCALE
  5
39A6
102
{ACAD_REACTORS
330
398B
102
}
330
398B
100
AcDbScale
 70
     0
300
1/2" = 1'-0"
140
0.5
141
12.0
290
     0
  0
SCALE
  5
39A7
102
{ACAD_REACTORS
330
398B
102
}
330
398B
100
AcDbScale
 70
     0
300
3/4" = 1'-0"
140
0.75
141
12.0
290
     0
  0
SCALE
  5
39A8
102
{ACAD_REACTORS
330
398B
102
}
330
398B
100
AcDbScale
 70
     0
300
1" = 1'-0"
140
1.0
141
12.0
290
     0
  0
SCALE
  5
39A9
102
{ACAD_REACTORS
330
398B
102
}
330
398B
100
AcDbScale
 70
     0
300
1-1/2" = 1'-0"
140
1.5
141
12.0
290
     0
  0
SCALE
  5
39AA
102
{ACAD_REACTORS
330
398B
102
}
330
398B
100
AcDbScale
 70
     0
300
3" = 1'-0"
140
3.0
141
12.0
290
     0
  0
SCALE
  5
39AB
102
{ACAD_REACTORS
330
398B
102
}
330
398B
100
AcDbScale
 70
     0
300
6" = 1'-0"
140
6.0
141
12.0
290
     0
  0
SCALE
  5
39AC
102
{ACAD_REACTORS
330
398B
102
}
330
398B
100
AcDbScale
 70
     0
300
1'-0" = 1'-0"
140
12.0
141
12.0
290
     0
  0
TABLESTYLE
  5
398A
102
{ACAD_XDICTIONARY
360
72EA
102
}
102
{ACAD_REACTORS
330
3989
102
}
330
3989
100
AcDbTableStyle
  3
Standard
 70
     0
 71
     0
 40
1.5
 41
1.5
280
     0
281
     0
  7
Standard
140
4.5
170
     2
 62
     0
 63
     7
283
     0
274
    -2
284
     1
 64
     0
275
    -2
285
     1
 65
     0
276
    -2
286
     1
 66
     0
277
    -2
287
     1
 67
     0
278
    -2
288
     1
 68
     0
279
    -2
289
     1
 69
     0
  7
Standard
140
6.0
170
     5
 62
     0
 63
     7
283
     0
274
    -2
284
     1
 64
     0
275
    -2
285
     1
 65
     0
276
    -2
286
     1
 66
     0
277
    -2
287
     1
 67
     0
278
    -2
288
     1
 68
     0
279
    -2
289
     1
 69
     0
  7
Standard
140
4.5
170
     5
 62
     0
 63
     7
283
     0
274
    -2
284
     1
 64
     0
275
    -2
285
     1
 65
     0
276
    -2
286
     1
 66
     0
277
    -2
287
     1
 67
     0
278
    -2
288
     1
 68
     0
279
    -2
289
     1
 69
     0
  0
VISUALSTYLE
  5
397D
102
{ACAD_REACTORS
330
3977
102
}
330
3977
100
AcDbVisualStyle
  2
2dWireframe
 70
     4
 71
     0
 72
     2
 73
     0
 90
        0
 40
-0.6
 41
-30.0
 62
     5
 63
     7
 74
     1
 91
        4
 64
     7
 65
   257
 75
     1
175
     1
 42
1.0
 92
        0
 66
   257
 43
1.0
 76
     1
 77
     6
 78
     2
 67
     7
 79
     5
170
     0
171
     0
290
     0
174
     0
 93
        1
 44
0.0
173
     0
291
     0
 45
0.0
1001
ACAD
1000
AcDbSavedByObjectVersion
1070
     0
1000
AcDbSavedByObjectVersion
1070
     0
1000
AcDbSavedByObjectVersion
1070
     0
1000
AcDbSavedByObjectVersion
1070
     0
1000
AcDbSavedByObjectVersion
1070
     0
1000
AcDbSavedByObjectVersion
1070
     0
1000
AcDbSavedByObjectVersion
1070
     0
  0
VISUALSTYLE
  5
397F
102
{ACAD_REACTORS
330
3977
102
}
330
3977
100
AcDbVisualStyle
  2
3D Hidden
 70
     6
 71
     1
 72
     2
 73
     2
 90
        0
 40
-0.6
 41
-30.0
 62
     5
 63
     7
 74
     2
 91
        2
 64
     7
 65
   257
 75
     2
175
     1
 42
40.0
 92
        0
 66
   257
 43
1.0
 76
     1
 77
     6
 78
     2
 67
     7
 79
     3
170
     0
171
     0
290
     0
174
     0
 93
        1
 44
0.0
173
     0
291
     0
 45
0.0
1001
ACAD
1000
AcDbSavedByObjectVersion
1070
     0
1000
AcDbSavedByObjectVersion
1070
     0
1000
AcDbSavedByObjectVersion
1070
     0
1000
AcDbSavedByObjectVersion
1070
     0
1000
AcDbSavedByObjectVersion
1070
     0
1000
AcDbSavedByObjectVersion
1070
     0
1000
AcDbSavedByObjectVersion
1070
     0
  0
VISUALSTYLE
  5
397E
102
{ACAD_REACTORS
330
3977
102
}
330
3977
100
AcDbVisualStyle
  2
3dWireframe
 70
     5
 71
     0
 72
     2
 73
     0
 90
        0
 40
-0.6
 41
-30.0
 62
     5
 63
     7
 74
     1
 91
        4
 64
     7
 65
   257
 75
     1
175
     1
 42
1.0
 92
        0
 66
   257
 43
1.0
 76
     1
 77
     6
 78
     2
 67
     7
 79
     5
170
     0
171
     0
290
     0
174
     0
 93
        1
 44
0.0
173
     0
291
     0
 45
0.0
1001
ACAD
1000
AcDbSavedByObjectVersion
1070
     0
1000
AcDbSavedByObjectVersion
1070
     0
1000
AcDbSavedByObjectVersion
1070
     0
1000
AcDbSavedByObjectVersion
1070
     0
1000
AcDbSavedByObjectVersion
1070
     0
1000
AcDbSavedByObjectVersion
1070
     0
1000
AcDbSavedByObjectVersion
1070
     0
  0
VISUALSTYLE
  5
397C
102
{ACAD_REACTORS
330
3977
102
}
330
3977
100
AcDbVisualStyle
  2
Basic
 70
     7
 71
     1
 72
     0
 73
     1
 90
        0
 40
-0.6
 41
-30.0
 62
     5
 63
     7
 74
     0
 91
        4
 64
     7
 65
   257
 75
     1
175
     1
 42
1.0
 92
        8
 66
     7
 43
1.0
 76
     1
 77
     6
 78
     2
 67
     7
 79
     5
170
     0
171
     0
290
     0
174
     0
 93
        1
 44
0.0
173
     0
291
     1
 45
0.0
1001
ACAD
1000
AcDbSavedByObjectVersion
1070
     0
1000
AcDbSavedByObjectVersion
1070
     0
1000
AcDbSavedByObjectVersion
1070
     0
1000
AcDbSavedByObjectVersion
1070
     0
1000
AcDbSavedByObjectVersion
1070
     0
1000
AcDbSavedByObjectVersion
1070
     0
1000
AcDbSavedByObjectVersion
1070
     0
  0
VISUALSTYLE
  5
3983
102
{ACAD_REACTORS
330
3977
102
}
330
3977
100
AcDbVisualStyle
  2
Brighten
 70
    12
 71
     2
 72
     2
 73
     0
 90
        0
 40
-0.6
 41
-30.0
 62
     5
 63
     7
 74
     1
 91
        4
 64
     7
 65
   257
 75
     1
175
     1
 42
1.0
 92
        8
 66
     7
 43
1.0
 76
     1
 77
     6
 78
     2
 67
     7
 79
     5
170
     0
171
     0
290
     0
174
     0
 93
        1
 44
50.0
173
     0
291
     1
 45
0.0
1001
ACAD
1000
AcDbSavedByObjectVersion
1070
     0
1000
AcDbSavedByObjectVersion
1070
     0
1000
AcDbSavedByObjectVersion
1070
     0
1000
AcDbSavedByObjectVersion
1070
     0
1000
AcDbSavedByObjectVersion
1070
     0
1000
AcDbSavedByObjectVersion
1070
     0
1000
AcDbSavedByObjectVersion
1070
     0
  0
VISUALSTYLE
  5
3987
102
{ACAD_REACTORS
330
3977
102
}
330
3977
100
AcDbVisualStyle
  2
ColorChange
 70
    16
 71
     2
 72
     2
 73
     3
 90
        0
 40
-0.6
 41
-30.0
 62
     5
 63
     8
 74
     1
 91
        4
 64
     7
 65
   257
 75
     1
175
     1
 42
1.0
 92
        8
 66
     8
 43
1.0
 76
     1
 77
     6
 78
     2
 67
     7
 79
     5
170
     0
171
     0
290
     0
174
     0
 93
        1
 44
0.0
173
     0
291
     1
 45
0.0
1001
ACAD
1000
AcDbSavedByObjectVersion
1070
     0
1000
AcDbSavedByObjectVersion
1070
     0
1000
AcDbSavedByObjectVersion
1070
     0
1000
AcDbSavedByObjectVersion
1070
     0
1000
AcDbSavedByObjectVersion
1070
     0
1000
AcDbSavedByObjectVersion
1070
     0
1000
AcDbSavedByObjectVersion
1070
     0
  0
VISUALSTYLE
  5
3980
102
{ACAD_REACTORS
330
3977
102
}
330
3977
100
AcDbVisualStyle
  2
Conceptual
 70
     9
 71
     3
 72
     2
 73
     0
 90
        0
 40
-0.6
 41
-30.0
 62
     5
 63
     7
 74
     2
 91
        2
 64
     7
 65
   257
 75
     1
175
     1
 42
40.0
 92
        8
 66
     7
 43
1.0
 76
     1
 77
     6
 78
     2
 67
     7
 79
     3
170
     0
171
     0
290
     0
174
     0
 93
        1
 44
0.0
173
     0
291
     0
 45
0.0
1001
ACAD
1000
AcDbSavedByObjectVersion
1070
     0
1000
AcDbSavedByObjectVersion
1070
     0
1000
AcDbSavedByObjectVersion
1070
     0
1000
AcDbSavedByObjectVersion
1070
     0
1000
AcDbSavedByObjectVersion
1070
     0
1000
AcDbSavedByObjectVersion
1070
     0
1000
AcDbSavedByObjectVersion
1070
     0
  0
VISUALSTYLE
  5
3982
102
{ACAD_REACTORS
330
3977
102
}
330
3977
100
AcDbVisualStyle
  2
Dim
 70
    11
 71
     2
 72
     2
 73
     0
 90
        0
 40
-0.6
 41
-30.0
 62
     5
 63
     7
 74
     1
 91
        4
 64
     7
 65
   257
 75
     1
175
     1
 42
1.0
 92
        8
 66
     7
 43
1.0
 76
     1
 77
     6
 78
     2
 67
     7
 79
     5
170
     0
171
     0
290
     0
174
     0
 93
        1
 44
-50.0
173
     0
291
     1
 45
0.0
1001
ACAD
1000
AcDbSavedByObjectVersion
1070
     0
1000
AcDbSavedByObjectVersion
1070
     0
1000
AcDbSavedByObjectVersion
1070
     0
1000
AcDbSavedByObjectVersion
1070
     0
1000
AcDbSavedByObjectVersion
1070
     0
1000
AcDbSavedByObjectVersion
1070
     0
1000
AcDbSavedByObjectVersion
1070
     0
  0
VISUALSTYLE
  5
3986
102
{ACAD_REACTORS
330
3977
102
}
330
3977
100
AcDbVisualStyle
  2
Facepattern
 70
    15
 71
     2
 72
     2
 73
     0
 90
        0
 40
-0.6
 41
-30.0
 62
     5
 63
     7
 74
     1
 91
        4
 64
     7
 65
   257
 75
     1
175
     1
 42
1.0
 92
        8
 66
     7
 43
1.0
 76
     1
 77
     6
 78
     2
 67
     7
 79
     5
170
     0
171
     0
290
     0
174
     0
 93
        1
 44
0.0
173
     0
291
     1
 45
0.0
1001
ACAD
1000
AcDbSavedByObjectVersion
1070
     0
1000
AcDbSavedByObjectVersion
1070
     0
1000
AcDbSavedByObjectVersion
1070
     0
1000
AcDbSavedByObjectVersion
1070
     0
1000
AcDbSavedByObjectVersion
1070
     0
1000
AcDbSavedByObjectVersion
1070
     0
1000
AcDbSavedByObjectVersion
1070
     0
  0
VISUALSTYLE
  5
3978
102
{ACAD_REACTORS
330
3977
102
}
330
3977
100
AcDbVisualStyle
  2
Flat
 70
     0
 71
     2
 72
     1
 73
     1
 90
        2
 40
-0.6
 41
30.0
 62
     5
 63
     7
 74
     0
 91
        4
 64
     7
 65
   257
 75
     1
175
     1
 42
1.0
 92
        8
 66
     7
 43
1.0
 76
     1
 77
     6
 78
     2
 67
     7
 79
     5
170
     0
171
     0
290
     0
174
     0
 93
       13
 44
0.0
173
     0
291
     1
 45
0.0
1001
ACAD
1000
AcDbSavedByObjectVersion
1070
     0
1000
AcDbSavedByObjectVersion
1070
     0
1000
AcDbSavedByObjectVersion
1070
     0
1000
AcDbSavedByObjectVersion
1070
     0
1000
AcDbSavedByObjectVersion
1070
     0
1000
AcDbSavedByObjectVersion
1070
     0
1000
AcDbSavedByObjectVersion
1070
     0
  0
VISUALSTYLE
  5
3979
102
{ACAD_REACTORS
330
3977
102
}
330
3977
100
AcDbVisualStyle
  2
FlatWithEdges
 70
     1
 71
     2
 72
     1
 73
     1
 90
        2
 40
-0.6
 41
30.0
 62
     5
 63
     7
 74
     1
 91
        4
 64
     7
 65
   257
 75
     1
175
     1
 42
1.0
 92
        0
 66
   257
 43
1.0
 76
     1
 77
     6
 78
     2
 67
     7
 79
     5
170
     0
171
     0
290
     0
174
     0
 93
       13
 44
0.0
173
     0
291
     1
 45
0.0
1001
ACAD
1000
AcDbSavedByObjectVersion
1070
     0
1000
AcDbSavedByObjectVersion
1070
     0
1000
AcDbSavedByObjectVersion
1070
     0
1000
AcDbSavedByObjectVersion
1070
     0
1000
AcDbSavedByObjectVersion
1070
     0
1000
AcDbSavedByObjectVersion
1070
     0
1000
AcDbSavedByObjectVersion
1070
     0
  0
VISUALSTYLE
  5
397A
102
{ACAD_REACTORS
330
3977
102
}
330
3977
100
AcDbVisualStyle
  2
Gouraud
 70
     2
 71
     2
 72
     2
 73
     1
 90
        2
 40
-0.6
 41
30.0
 62
     5
 63
     7
 74
     0
 91
        4
 64
     7
 65
   257
 75
     1
175
     1
 42
1.0
 92
        0
 66
     7
 43
1.0
 76
     1
 77
     6
 78
     2
 67
     7
 79
     5
170
     0
171
     0
290
     0
174
     0
 93
       13
 44
0.0
173
     0
291
     1
 45
0.0
1001
ACAD
1000
AcDbSavedByObjectVersion
1070
     0
1000
AcDbSavedByObjectVersion
1070
     0
1000
AcDbSavedByObjectVersion
1070
     0
1000
AcDbSavedByObjectVersion
1070
     0
1000
AcDbSavedByObjectVersion
1070
     0
1000
AcDbSavedByObjectVersion
1070
     0
1000
AcDbSavedByObjectVersion
1070
     0
  0
VISUALSTYLE
  5
397B
102
{ACAD_REACTORS
330
3977
102
}
330
3977
100
AcDbVisualStyle
  2
GouraudWithEdges
 70
     3
 71
     2
 72
     2
 73
     1
 90
        2
 40
-0.6
 41
30.0
 62
     5
 63
     7
 74
     1
 91
        4
 64
     7
 65
   257
 75
     1
175
     1
 42
1.0
 92
        0
 66
   257
 43
1.0
 76
     1
 77
     6
 78
     2
 67
     7
 79
     5
170
     0
171
     0
290
     0
174
     0
 93
       13
 44
0.0
173
     0
291
     1
 45
0.0
1001
ACAD
1000
AcDbSavedByObjectVersion
1070
     0
1000
AcDbSavedByObjectVersion
1070
     0
1000
AcDbSavedByObjectVersion
1070
     0
1000
AcDbSavedByObjectVersion
1070
     0
1000
AcDbSavedByObjectVersion
1070
     0
1000
AcDbSavedByObjectVersion
1070
     0
1000
AcDbSavedByObjectVersion
1070
     0
  0
VISUALSTYLE
  5
3985
102
{ACAD_REACTORS
330
3977
102
}
330
3977
100
AcDbVisualStyle
  2
Linepattern
 70
    14
 71
     2
 72
     2
 73
     0
 90
        0
 40
-0.6
 41
-30.0
 62
     5
 63
     7
 74
     1
 91
        4
 64
     7
 65
   257
 75
     7
175
     7
 42
1.0
 92
        8
 66
     7
 43
1.0
 76
     1
 77
     6
 78
     2
 67
     7
 79
     5
170
     0
171
     0
290
     0
174
     0
 93
        1
 44
0.0
173
     0
291
     1
 45
0.0
1001
ACAD
1000
AcDbSavedByObjectVersion
1070
     0
1000
AcDbSavedByObjectVersion
1070
     0
1000
AcDbSavedByObjectVersion
1070
     0
1000
AcDbSavedByObjectVersion
1070
     0
1000
AcDbSavedByObjectVersion
1070
     0
1000
AcDbSavedByObjectVersion
1070
     0
1000
AcDbSavedByObjectVersion
1070
     0
  0
VISUALSTYLE
  5
3981
102
{ACAD_REACTORS
330
3977
102
}
330
3977
100
AcDbVisualStyle
  2
Realistic
 70
     8
 71
     2
 72
     2
 73
     0
 90
        0
 40
-0.6
 41
-30.0
 62
     5
 63
     7
 74
     1
 91
        0
 64
     7
 65
   257
 75
     1
175
     1
 42
1.0
 92
        8
 66
     8
 43
1.0
 76
     1
 77
     6
 78
     2
 67
     7
 79
     5
170
     0
171
     0
290
     0
174
     0
 93
       13
 44
0.0
173
     0
291
     0
 45
0.0
1001
ACAD
1000
AcDbSavedByObjectVersion
1070
     0
1000
AcDbSavedByObjectVersion
1070
     0
1000
AcDbSavedByObjectVersion
1070
     0
1000
AcDbSavedByObjectVersion
1070
     0
1000
AcDbSavedByObjectVersion
1070
     0
1000
AcDbSavedByObjectVersion
1070
     0
1000
AcDbSavedByObjectVersion
1070
     0
  0
VISUALSTYLE
  5
3984
102
{ACAD_REACTORS
330
3977
102
}
330
3977
100
AcDbVisualStyle
  2
Thicken
 70
    13
 71
     2
 72
     2
 73
     0
 90
        0
 40
-0.6
 41
-30.0
 62
     5
 63
     7
 74
     1
 91
        4
 64
     7
 65
   257
 75
     1
175
     1
 42
1.0
 92
       12
 66
     7
 43
1.0
 76
     1
 77
     6
 78
     2
 67
     7
 79
     5
170
     0
171
     0
290
     0
174
     0
 93
        1
 44
0.0
173
     0
291
     1
 45
0.0
1001
ACAD
1000
AcDbSavedByObjectVersion
1070
     0
1000
AcDbSavedByObjectVersion
1070
     0
1000
AcDbSavedByObjectVersion
1070
     0
1000
AcDbSavedByObjectVersion
1070
     0
1000
AcDbSavedByObjectVersion
1070
     0
1000
AcDbSavedByObjectVersion
1070
     0
1000
AcDbSavedByObjectVersion
1070
     0
  0
DICTIONARYVAR
  5
72CE
102
{ACAD_REACTORS
330
72CB
102
}
330
72CB
100
DictionaryVariables
280
     0
  1
1:1
  0
DICTIONARYVAR
  5
72CD
102
{ACAD_REACTORS
330
72CB
102
}
330
72CB
100
DictionaryVariables
280
     0
  1
STANDARD
  0
DICTIONARYVAR
  5
72CC
102
{ACAD_REACTORS
330
72CB
102
}
330
72CB
100
DictionaryVariables
280
     0
  1
STANDARD
  0
DICTIONARYVAR
  5
72D1
102
{ACAD_REACTORS
330
72CB
102
}
330
72CB
100
DictionaryVariables
280
     0
  1
1
  0
DICTIONARYVAR
  5
72D0
102
{ACAD_REACTORS
330
72CB
102
}
330
72CB
100
DictionaryVariables
280
     0
  1
0
  0
DICTIONARYVAR
  5
72CF
102
{ACAD_REACTORS
330
72CB
102
}
330
72CB
100
DictionaryVariables
280
     0
  1
127
  0
XRECORD
  5
72C8
102
{ACAD_REACTORS
330
72C6
102
}
330
72C6
100
AcDbXrecord
280
     1
  0
DICTIONARY
  5
7371
330
21
100
AcDbDictionary
280
     1
281
     1
  3
ACAD_XREC_ROUNDTRIP
360
7372
  0
DICTIONARY
  5
736F
330
20
100
AcDbDictionary
280
     1
281
     1
  3
ACAD_XREC_ROUNDTRIP
360
7370
  0
DICTIONARY
  5
3968
330
3967
100
AcDbDictionary
280
     1
281
     1
  3
ACAD_XREC_ROUNDTRIP
360
72F3
  3
BUMPTILE
360
396A
  3
DIFFUSETILE
360
3969
  3
OPACITYTILE
360
396D
  3
REFLECTIONTILE
360
396C
  3
REFRACTIONTILE
360
396E
  3
SPECULARTILE
360
396B
  0
DICTIONARY
  5
3960
330
395F
100
AcDbDictionary
280
     1
281
     1
  3
ACAD_XREC_ROUNDTRIP
360
72F2
  3
BUMPTILE
360
3962
  3
DIFFUSETILE
360
3961
  3
OPACITYTILE
360
3965
  3
REFLECTIONTILE
360
3964
  3
REFRACTIONTILE
360
3966
  3
SPECULARTILE
360
3963
  0
DICTIONARY
  5
3970
330
396F
100
AcDbDictionary
280
     1
281
     1
  3
ACAD_XREC_ROUNDTRIP
360
72F4
  3
BUMPTILE
360
3972
  3
DIFFUSETILE
360
3971
  3
OPACITYTILE
360
3975
  3
REFLECTIONTILE
360
3974
  3
REFRACTIONTILE
360
3976
  3
SPECULARTILE
360
3973
  0
DICTIONARY
  5
72EA
330
398A
100
AcDbDictionary
280
     1
281
     1
  3
ACAD_ROUNDTRIP_2008_TABLESTYLE_CELLSTYLEMAP
360
736D
  3
ACAD_XREC_ROUNDTRIP
360
7373
  0
XRECORD
  5
7372
102
{ACAD_REACTORS
330
7371
102
}
330
7371
100
AcDbXrecord
280
     1
102
SHADEPLOT
 70
     0
102
SHADEPLOTRESLEVEL
 70
     2
102
SHADEPLOTCUSTOMDPI
 70
   300
  0
XRECORD
  5
7370
102
{ACAD_REACTORS
330
736F
102
}
330
736F
100
AcDbXrecord
280
     1
102
SHADEPLOT
 70
     0
102
SHADEPLOTRESLEVEL
 70
     2
102
SHADEPLOTCUSTOMDPI
 70
   300
  0
XRECORD
  5
72F3
102
{ACAD_REACTORS
330
3968
102
}
330
3968
100
AcDbXrecord
280
     1
102
MATERIAL
148
0.0
149
0.0
149
0.0
 93
        0
 94
      127
282
     0
 72
     0
 77
     0
171
     0
175
     0
179
     0
273
     0
  0
XRECORD
  5
396A
102
{ACAD_REACTORS
330
3968
102
}
330
3968
100
AcDbXrecord
280
     1
270
     1
271
     1
  0
XRECORD
  5
3969
102
{ACAD_REACTORS
330
3968
102
}
330
3968
100
AcDbXrecord
280
     1
270
     1
271
     1
  0
XRECORD
  5
396D
102
{ACAD_REACTORS
330
3968
102
}
330
3968
100
AcDbXrecord
280
     1
270
     1
271
     1
  0
XRECORD
  5
396C
102
{ACAD_REACTORS
330
3968
102
}
330
3968
100
AcDbXrecord
280
     1
270
     1
271
     1
  0
XRECORD
  5
396E
102
{ACAD_REACTORS
330
3968
102
}
330
3968
100
AcDbXrecord
280
     1
270
     1
271
     1
  0
XRECORD
  5
396B
102
{ACAD_REACTORS
330
3968
102
}
330
3968
100
AcDbXrecord
280
     1
270
     1
271
     1
  0
XRECORD
  5
72F2
102
{ACAD_REACTORS
330
3960
102
}
330
3960
100
AcDbXrecord
280
     1
102
MATERIAL
148
0.0
149
0.0
149
0.0
 93
        0
 94
      127
282
     0
 72
     0
 77
     0
171
     0
175
     0
179
     0
273
     0
  0
XRECORD
  5
3962
102
{ACAD_REACTORS
330
3960
102
}
330
3960
100
AcDbXrecord
280
     1
270
     1
271
     1
  0
XRECORD
  5
3961
102
{ACAD_REACTORS
330
3960
102
}
330
3960
100
AcDbXrecord
280
     1
270
     1
271
     1
  0
XRECORD
  5
3965
102
{ACAD_REACTORS
330
3960
102
}
330
3960
100
AcDbXrecord
280
     1
270
     1
271
     1
  0
XRECORD
  5
3964
102
{ACAD_REACTORS
330
3960
102
}
330
3960
100
AcDbXrecord
280
     1
270
     1
271
     1
  0
XRECORD
  5
3966
102
{ACAD_REACTORS
330
3960
102
}
330
3960
100
AcDbXrecord
280
     1
270
     1
271
     1
  0
XRECORD
  5
3963
102
{ACAD_REACTORS
330
3960
102
}
330
3960
100
AcDbXrecord
280
     1
270
     1
271
     1
  0
XRECORD
  5
72F4
102
{ACAD_REACTORS
330
3970
102
}
330
3970
100
AcDbXrecord
280
     1
102
MATERIAL
148
0.0
149
0.0
149
0.0
 93
        0
 94
      127
282
     0
 72
     0
 77
     0
171
     0
175
     0
179
     0
273
     0
  0
XRECORD
  5
3972
102
{ACAD_REACTORS
330
3970
102
}
330
3970
100
AcDbXrecord
280
     1
270
     1
271
     1
  0
XRECORD
  5
3971
102
{ACAD_REACTORS
330
3970
102
}
330
3970
100
AcDbXrecord
280
     1
270
     1
271
     1
  0
XRECORD
  5
3975
102
{ACAD_REACTORS
330
3970
102
}
330
3970
100
AcDbXrecord
280
     1
270
     1
271
     1
  0
XRECORD
  5
3974
102
{ACAD_REACTORS
330
3970
102
}
330
3970
100
AcDbXrecord
280
     1
270
     1
271
     1
  0
XRECORD
  5
3976
102
{ACAD_REACTORS
330
3970
102
}
330
3970
100
AcDbXrecord
280
     1
270
     1
271
     1
  0
XRECORD
  5
3973
102
{ACAD_REACTORS
330
3970
102
}
330
3970
100
AcDbXrecord
280
     1
270
     1
271
     1
  0
CELLSTYLEMAP
  5
736D
102
{ACAD_REACTORS
330
72EA
102
}
330
72EA
100
AcDbCellStyleMap
 90
        3
300
CELLSTYLE
  1
TABLEFORMAT_BEGIN
 90
        5
170
     1
 91
        0
 92
    32768
 62
   257
 93
        1
300
CONTENTFORMAT
  1
CONTENTFORMAT_BEGIN
 90
        0
 91
        0
 92
      512
 93
        0
300

 40
0.0
140
1.0
 94
        5
 62
     0
340
17
144
6.0
309
CONTENTFORMAT_END
171
     1
301
MARGIN
  1
CELLMARGIN_BEGIN
 40
1.5
 40
1.5
 40
1.5
 40
1.5
 40
0.18
 40
0.18
309
CELLMARGIN_END
 94
        6
 95
        1
302
GRIDFORMAT
  1
GRIDFORMAT_BEGIN
 90
        0
 91
        1
 62
     0
 92
       -2
340
0
 93
        0
 40
1.125
309
GRIDFORMAT_END
 95
        2
302
GRIDFORMAT
  1
GRIDFORMAT_BEGIN
 90
        0
 91
        1
 62
     0
 92
       -2
340
0
 93
        0
 40
1.125
309
GRIDFORMAT_END
 95
        4
302
GRIDFORMAT
  1
GRIDFORMAT_BEGIN
 90
        0
 91
        1
 62
     0
 92
       -2
340
0
 93
        0
 40
1.125
309
GRIDFORMAT_END
 95
        8
302
GRIDFORMAT
  1
GRIDFORMAT_BEGIN
 90
        0
 91
        1
 62
     0
 92
       -2
340
0
 93
        0
 40
1.125
309
GRIDFORMAT_END
 95
       16
302
GRIDFORMAT
  1
GRIDFORMAT_BEGIN
 90
        0
 91
        1
 62
     0
 92
       -2
340
0
 93
        0
 40
1.125
309
GRIDFORMAT_END
 95
       32
302
GRIDFORMAT
  1
GRIDFORMAT_BEGIN
 90
        0
 91
        1
 62
     0
 92
       -2
340
0
 93
        0
 40
1.125
309
GRIDFORMAT_END
309
TABLEFORMAT_END
  1
CELLSTYLE_BEGIN
 90
        1
 91
        1
300
_TITLE
309
CELLSTYLE_END
300
CELLSTYLE
  1
TABLEFORMAT_BEGIN
 90
        5
170
     1
 91
        0
 92
        0
 62
   257
 93
        1
300
CONTENTFORMAT
  1
CONTENTFORMAT_BEGIN
 90
        0
 91
        0
 92
      512
 93
        0
300

 40
0.0
140
1.0
 94
        5
 62
     0
340
17
144
4.5
309
CONTENTFORMAT_END
171
     1
301
MARGIN
  1
CELLMARGIN_BEGIN
 40
1.5
 40
1.5
 40
1.5
 40
1.5
 40
0.18
 40
0.18
309
CELLMARGIN_END
 94
        6
 95
        1
302
GRIDFORMAT
  1
GRIDFORMAT_BEGIN
 90
        0
 91
        1
 62
     0
 92
       -2
340
0
 93
        0
 40
1.125
309
GRIDFORMAT_END
 95
        2
302
GRIDFORMAT
  1
GRIDFORMAT_BEGIN
 90
        0
 91
        1
 62
     0
 92
       -2
340
0
 93
        0
 40
1.125
309
GRIDFORMAT_END
 95
        4
302
GRIDFORMAT
  1
GRIDFORMAT_BEGIN
 90
        0
 91
        1
 62
     0
 92
       -2
340
0
 93
        0
 40
1.125
309
GRIDFORMAT_END
 95
        8
302
GRIDFORMAT
  1
GRIDFORMAT_BEGIN
 90
        0
 91
        1
 62
     0
 92
       -2
340
0
 93
        0
 40
1.125
309
GRIDFORMAT_END
 95
       16
302
GRIDFORMAT
  1
GRIDFORMAT_BEGIN
 90
        0
 91
        1
 62
     0
 92
       -2
340
0
 93
        0
 40
1.125
309
GRIDFORMAT_END
 95
       32
302
GRIDFORMAT
  1
GRIDFORMAT_BEGIN
 90
        0
 91
        1
 62
     0
 92
       -2
340
0
 93
        0
 40
1.125
309
GRIDFORMAT_END
309
TABLEFORMAT_END
  1
CELLSTYLE_BEGIN
 90
        2
 91
        1
300
_HEADER
309
CELLSTYLE_END
300
CELLSTYLE
  1
TABLEFORMAT_BEGIN
 90
        5
170
     1
 91
        0
 92
        0
 62
   257
 93
        1
300
CONTENTFORMAT
  1
CONTENTFORMAT_BEGIN
 90
        0
 91
        0
 92
      512
 93
        0
300

 40
0.0
140
1.0
 94
        2
 62
     0
340
17
144
4.5
309
CONTENTFORMAT_END
171
     1
301
MARGIN
  1
CELLMARGIN_BEGIN
 40
1.5
 40
1.5
 40
1.5
 40
1.5
 40
0.18
 40
0.18
309
CELLMARGIN_END
 94
        6
 95
        1
302
GRIDFORMAT
  1
GRIDFORMAT_BEGIN
 90
        0
 91
        1
 62
     0
 92
       -2
340
0
 93
        0
 40
1.125
309
GRIDFORMAT_END
 95
        2
302
GRIDFORMAT
  1
GRIDFORMAT_BEGIN
 90
        0
 91
        1
 62
     0
 92
       -2
340
0
 93
        0
 40
1.125
309
GRIDFORMAT_END
 95
        4
302
GRIDFORMAT
  1
GRIDFORMAT_BEGIN
 90
        0
 91
        1
 62
     0
 92
       -2
340
0
 93
        0
 40
1.125
309
GRIDFORMAT_END
 95
        8
302
GRIDFORMAT
  1
GRIDFORMAT_BEGIN
 90
        0
 91
        1
 62
     0
 92
       -2
340
0
 93
        0
 40
1.125
309
GRIDFORMAT_END
 95
       16
302
GRIDFORMAT
  1
GRIDFORMAT_BEGIN
 90
        0
 91
        1
 62
     0
 92
       -2
340
0
 93
        0
 40
1.125
309
GRIDFORMAT_END
 95
       32
302
GRIDFORMAT
  1
GRIDFORMAT_BEGIN
 90
        0
 91
        1
 62
     0
 92
       -2
340
0
 93
        0
 40
1.125
309
GRIDFORMAT_END
309
TABLEFORMAT_END
  1
CELLSTYLE_BEGIN
 90
        3
 91
        2
300
_DATA
309
CELLSTYLE_END
  0
XRECORD
  5
7373
102
{ACAD_REACTORS
330
72EA
102
}
330
72EA
100
AcDbXrecord
280
     1
102
ACAD_ROUNDTRIP_PRE2007_TABLESTYLE
 90
      512
 91
        0
  1

 92
      512
 93
        0
  2

 94
      512
 95
        0
  3

  0
ENDSEC
  0
EOF
