  0
SECTION
  2
HEADER
  9
$ACADVER
  1
AC1015
  9
$ACADMAINTVER
 70
     6
  9
$DWGCODEPAGE
  3
ANSI_1252
  9
$INSBASE
 10
0.0
 20
0.0
 30
0.0
  9
$EXTMIN
 10
216.2697182171847
 20
-134.0499451177971
 30
0.0
  9
$EXTMAX
 10
596.2682303702964
 20
179.9499685658226
 30
0.0
  9
$LIMMIN
 10
-656.35
 20
-384.35
  9
$LIMMAX
 10
2061.85
 20
268.85
  9
$ORTHOMODE
 70
     0
  9
$REGENMODE
 70
     1
  9
$FILLMODE
 70
     1
  9
$QTEXTMODE
 70
     0
  9
$MIRRTEXT
 70
     1
  9
$LTSCALE
 40
10.0
  9
$ATTMODE
 70
     1
  9
$TEXTSIZE
 40
0.0
  9
$TRACEWID
 40
0.05
  9
$TEXTSTYLE
  7
Standard
  9
$CLAYER
  8
0
  9
$CELTYPE
  6
Continuous
  9
$CECOLOR
 62
   256
  9
$CELTSCALE
 40
1.0
  9
$DISPSILH
 70
     0
  9
$DIMSCALE
 40
1.0
  9
$DIMASZ
 40
1.25
  9
$DIMEXO
 40
0.0
  9
$DIMDLI
 40
0.38
  9
$DIMRND
 40
0.0
  9
$DIMDLE
 40
0.0
  9
$DIMEXE
 40
0.75
  9
$DIMTP
 40
0.0
  9
$DIMTM
 40
0.0
  9
$DIMTXT
 40
2.5
  9
$DIMCEN
 40
0.09
  9
$DIMTSZ
 40
0.0
  9
$DIMTOL
 70
     0
  9
$DIMLIM
 70
     0
  9
$DIMTIH
 70
     0
  9
$DIMTOH
 70
     0
  9
$DIMSE1
 70
     0
  9
$DIMSE2
 70
     0
  9
$DIMTAD
 70
     1
  9
$DIMZIN
 70
     0
  9
$DIMBLK
  1

  9
$DIMASO
 70
     1
  9
$DIMSHO
 70
     1
  9
$DIMPOST
  1

  9
$DIMAPOST
  1

  9
$DIMALT
 70
     0
  9
$DIMALTD
 70
     2
  9
$DIMALTF
 40
25.4
  9
$DIMLFAC
 40
1.0
  9
$DIMTOFL
 70
     0
  9
$DIMTVP
 40
0.0
  9
$DIMTIX
 70
     0
  9
$DIMSOXD
 70
     0
  9
$DIMSAH
 70
     0
  9
$DIMBLK1
  1

  9
$DIMBLK2
  1

  9
$DIMSTYLE
  2
Standard
  9
$DIMCLRD
 70
     7
  9
$DIMCLRE
 70
     7
  9
$DIMCLRT
 70
     7
  9
$DIMTFAC
 40
0.8
  9
$DIMGAP
 40
1.25
  9
$DIMJUST
 70
     0
  9
$DIMSD1
 70
     0
  9
$DIMSD2
 70
     0
  9
$DIMTOLJ
 70
     1
  9
$DIMTZIN
 70
     0
  9
$DIMALTZ
 70
     0
  9
$DIMALTTZ
 70
     0
  9
$DIMUPT
 70
     0
  9
$DIMDEC
 70
     2
  9
$DIMTDEC
 70
     4
  9
$DIMALTU
 70
     2
  9
$DIMALTTD
 70
     2
  9
$DIMTXSTY
  7
Standard
  9
$DIMAUNIT
 70
     0
  9
$DIMADEC
 70
     0
  9
$DIMALTRND
 40
0.0
  9
$DIMAZIN
 70
     0
  9
$DIMDSEP
 70
    46
  9
$DIMATFIT
 70
     3
  9
$DIMFRAC
 70
     0
  9
$DIMLDRBLK
  1

  9
$DIMLUNIT
 70
     2
  9
$DIMLWD
 70
     0
  9
$DIMLWE
 70
     0
  9
$DIMTMOVE
 70
     0
  9
$LUNITS
 70
     2
  9
$LUPREC
 70
     4
  9
$SKETCHINC
 40
0.1
  9
$FILLETRAD
 40
5.0
  9
$AUNITS
 70
     0
  9
$AUPREC
 70
     0
  9
$MENU
  1
acad
  9
$ELEVATION
 40
0.0
  9
$PELEVATION
 40
0.0
  9
$THICKNESS
 40
0.0
  9
$LIMCHECK
 70
     0
  9
$CHAMFERA
 40
0.0
  9
$CHAMFERB
 40
0.0
  9
$CHAMFERC
 40
0.0
  9
$CHAMFERD
 40
0.0
  9
$SKPOLY
 70
     0
  9
$TDCREATE
 40
2455323.528193981
  9
$TDUCREATE
 40
2455323.486527315
  9
$TDUPDATE
 40
2457329.669806412
  9
$TDUUPDATE
 40
2457329.628139745
  9
$TDINDWG
 40
0.1215097685
  9
$TDUSRTIMER
 40
2457329.627339039
  9
$USRTIMER
 70
     1
  9
$ANGBASE
 50
0.0
  9
$ANGDIR
 70
     0
  9
$PDMODE
 70
     0
  9
$PDSIZE
 40
0.0
  9
$PLINEWID
 40
0.0
  9
$SPLFRAME
 70
     0
  9
$SPLINETYPE
 70
     6
  9
$SPLINESEGS
 70
     8
  9
$HANDSEED
  5
5D27
  9
$SURFTAB1
 70
     6
  9
$SURFTAB2
 70
     6
  9
$SURFTYPE
 70
     6
  9
$SURFU
 70
     6
  9
$SURFV
 70
     6
  9
$UCSBASE
  2

  9
$UCSNAME
  2

  9
$UCSORG
 10
0.0
 20
0.0
 30
0.0
  9
$UCSXDIR
 10
1.0
 20
0.0
 30
0.0
  9
$UCSYDIR
 10
0.0
 20
1.0
 30
0.0
  9
$UCSORTHOREF
  2

  9
$UCSORTHOVIEW
 70
     0
  9
$UCSORGTOP
 10
0.0
 20
0.0
 30
0.0
  9
$UCSORGBOTTOM
 10
0.0
 20
0.0
 30
0.0
  9
$UCSORGLEFT
 10
0.0
 20
0.0
 30
0.0
  9
$UCSORGRIGHT
 10
0.0
 20
0.0
 30
0.0
  9
$UCSORGFRONT
 10
0.0
 20
0.0
 30
0.0
  9
$UCSORGBACK
 10
0.0
 20
0.0
 30
0.0
  9
$PUCSBASE
  2

  9
$PUCSNAME
  2

  9
$PUCSORG
 10
0.0
 20
0.0
 30
0.0
  9
$PUCSXDIR
 10
1.0
 20
0.0
 30
0.0
  9
$PUCSYDIR
 10
0.0
 20
1.0
 30
0.0
  9
$PUCSORTHOREF
  2

  9
$PUCSORTHOVIEW
 70
     0
  9
$PUCSORGTOP
 10
0.0
 20
0.0
 30
0.0
  9
$PUCSORGBOTTOM
 10
0.0
 20
0.0
 30
0.0
  9
$PUCSORGLEFT
 10
0.0
 20
0.0
 30
0.0
  9
$PUCSORGRIGHT
 10
0.0
 20
0.0
 30
0.0
  9
$PUCSORGFRONT
 10
0.0
 20
0.0
 30
0.0
  9
$PUCSORGBACK
 10
0.0
 20
0.0
 30
0.0
  9
$USERI1
 70
     0
  9
$USERI2
 70
     0
  9
$USERI3
 70
     0
  9
$USERI4
 70
     0
  9
$USERI5
 70
     0
  9
$USERR1
 40
0.0
  9
$USERR2
 40
0.0
  9
$USERR3
 40
0.0
  9
$USERR4
 40
0.0
  9
$USERR5
 40
0.0
  9
$WORLDVIEW
 70
     1
  9
$SHADEDGE
 70
     3
  9
$SHADEDIF
 70
    70
  9
$TILEMODE
 70
     1
  9
$MAXACTVP
 70
    16
  9
$PINSBASE
 10
0.0
 20
0.0
 30
0.0
  9
$PLIMCHECK
 70
     0
  9
$PEXTMIN
 10
1.000000000000000E+20
 20
1.000000000000000E+20
 30
1.000000000000000E+20
  9
$PEXTMAX
 10
-1.000000000000000E+20
 20
-1.000000000000000E+20
 30
-1.000000000000000E+20
  9
$PLIMMIN
 10
0.0
 20
0.0
  9
$PLIMMAX
 10
0.0
 20
0.0
  9
$UNITMODE
 70
     0
  9
$VISRETAIN
 70
     0
  9
$PLINEGEN
 70
     1
  9
$PSLTSCALE
 70
     0
  9
$TREEDEPTH
 70
  3020
  9
$CMLSTYLE
  2
Standard
  9
$CMLJUST
 70
     0
  9
$CMLSCALE
 40
1.0
  9
$PROXYGRAPHICS
 70
     0
  9
$MEASUREMENT
 70
     1
  9
$CELWEIGHT
370
     0
  9
$ENDCAPS
280
     0
  9
$JOINSTYLE
280
     0
  9
$LWDISPLAY
290
     0
  9
$INSUNITS
 70
     0
  9
$HYPERLINKBASE
  1

  9
$STYLESHEET
  1

  9
$XEDIT
290
     1
  9
$CEPSNTYPE
380
     0
  9
$PSTYLEMODE
290
     1
  9
$FINGERPRINTGUID
  2

  9
$VERSIONGUID
  2
{45CDA16F-DB25-49FA-BAC8-0ED2019E3678}
  9
$EXTNAMES
290
     1
  9
$PSVPSCALE
 40
0.0
  9
$OLESTARTUP
290
     0
  0
ENDSEC
  0
SECTION
  2
CLASSES
  0
CLASS
  1
IMAGE
  2
AcDbRasterImage
  3
ISM
 90
      127
280
     0
281
     1
  0
CLASS
  1
DICTIONARYVAR
  2
AcDbDictionaryVar
  3
ObjectDBX Classes
 90
        0
280
     0
281
     0
  0
CLASS
  1
RASTERVARIABLES
  2
AcDbRasterVariables
  3
ISM
 90
        0
280
     0
281
     0
  0
CLASS
  1
IMAGEDEF
  2
AcDbRasterImageDef
  3
ISM
 90
        0
280
     0
281
     0
  0
CLASS
  1
IMAGEDEF_REACTOR
  2
AcDbRasterImageDefReactor
  3
ISM
 90
        1
280
     0
281
     0
  0
CLASS
  1
IDBUFFER
  2
AcDbIdBuffer
  3
ObjectDBX Classes
 90
        0
280
     0
281
     0
  0
CLASS
  1
SPATIAL_FILTER
  2
AcDbSpatialFilter
  3
ObjectDBX Classes
 90
        0
280
     0
281
     0
  0
CLASS
  1
SORTENTSTABLE
  2
AcDbSortentsTable
  3
ObjectDBX Classes
 90
        0
280
     0
281
     0
  0
CLASS
  1
LAYER_INDEX
  2
AcDbLayerIndex
  3
ObjectDBX Classes
 90
        0
280
     0
281
     0
  0
CLASS
  1
SPATIAL_INDEX
  2
AcDbSpatialIndex
  3
AutoCAD 2000
 90
        0
280
     0
281
     0
  0
CLASS
  1
OBJECT_PTR
  2
CAseDLPNTableRecord
  3
ASE-LPNTableRecord
 90
        1
280
     0
281
     0
  0
CLASS
  1
LAYOUT
  2
AcDbLayout
  3
ObjectDBX Classes
 90
        0
280
     0
281
     0
  0
CLASS
  1
PLOTSETTINGS
  2
AcDbPlotSettings
  3
ObjectDBX Classes
 90
        0
280
     0
281
     0
  0
CLASS
  1
ACDBDICTIONARYWDFLT
  2
AcDbDictionaryWithDefault
  3
ObjectDBX Classes
 90
        0
280
     0
281
     0
  0
CLASS
  1
ACDBPLACEHOLDER
  2
AcDbPlaceHolder
  3
ObjectDBX Classes
 90
        0
280
     0
281
     0
  0
CLASS
  1
VBA_PROJECT
  2
AcDbVbaProject
  3
ObjectDBX Classes
 90
        0
280
     0
281
     0
  0
CLASS
  1
WIPEOUT
  2
AcDbWipeout
  3
WipeOut|AutoCAD Express Tool|expresstools@autodesk.com
 90
      127
280
     0
281
     1
  0
CLASS
  1
WIPEOUTVARIABLES
  2
AcDbWipeoutVariables
  3
WipeOut|AutoCAD Express Tool|expresstools@autodesk.com
 90
        0
280
     0
281
     0
  0
CLASS
  1
RTEXT
  2
RText
  3
RText|AutoCAD Express Tool|expresstools@autodesk.com
 90
        0
280
     0
281
     1
  0
CLASS
  1
ARCALIGNEDTEXT
  2
AcDbArcAlignedText
  3
ATEXT|AutoCAD Express Tool|expresstools@autodesk.com
 90
        0
280
     0
281
     1
  0
CLASS
  1
MATERIAL
  2
AcDbMaterial
  3
ObjectDBX Classes
 90
     1153
280
     0
281
     0
  0
CLASS
  1
VISUALSTYLE
  2
AcDbVisualStyle
  3
ObjectDBX Classes
 90
     4095
280
     0
281
     0
  0
CLASS
  1
TABLESTYLE
  2
AcDbTableStyle
  3
ObjectDBX Classes
 90
     4095
280
     0
281
     0
  0
CLASS
  1
SCALE
  2
AcDbScale
  3
ObjectDBX Classes
 90
     1153
280
     0
281
     0
  0
CLASS
  1
MLEADERSTYLE
  2
AcDbMLeaderStyle
  3
ACDB_MLEADERSTYLE_CLASS
 90
     4095
280
     0
281
     0
  0
CLASS
  1
CELLSTYLEMAP
  2
AcDbCellStyleMap
  3
ObjectDBX Classes
 90
     1152
280
     0
281
     0
  0
CLASS
  1
SUN
  2
AcDbSun
  3
SCENEOE
 90
     1153
280
     0
281
     0
  0
ENDSEC
  0
SECTION
  2
TABLES
  0
TABLE
  2
VPORT
  5
7
330
0
100
AcDbSymbolTable
 70
     1
  0
VPORT
  5
15
330
7
100
AcDbSymbolTableRecord
100
AcDbViewportTableRecord
  2
*ACTIVE
 70
     0
 10
0.0
 20
0.0
 11
1.0
 21
1.0
 12
406.2689742937405
 22
22.95001172401274
 13
0.0
 23
0.0
 14
1.0
 24
1.0
 15
0.0
 25
0.0
 16
0.0
 26
0.0
 36
1.0
 17
0.0
 27
0.0
 37
0.0
 40
320.2799119572921
 41
1.94885598923284
 42
50.0
 43
0.0
 44
0.0
 50
0.0
 51
0.0
 71
    16
 72
   100
 73
     1
 74
     1
 75
     0
 76
     1
 77
     0
 78
     0
281
     0
 65
     0
110
0.0
120
0.0
130
0.0
111
1.0
121
0.0
131
0.0
112
0.0
122
1.0
132
0.0
 79
     0
146
0.0
  0
ENDTAB
  0
TABLE
  2
LTYPE
  5
4
330
0
100
AcDbSymbolTable
 70
     2
  0
LTYPE
  5
11
330
4
100
AcDbSymbolTableRecord
100
AcDbLinetypeTableRecord
  2
ByBlock
 70
     0
  3

 72
    65
 73
     0
 40
0.0
  0
LTYPE
  5
12
330
4
100
AcDbSymbolTableRecord
100
AcDbLinetypeTableRecord
  2
ByLayer
 70
     0
  3

 72
    65
 73
     0
 40
0.0
  0
LTYPE
  5
13
330
4
100
AcDbSymbolTableRecord
100
AcDbLinetypeTableRecord
  2
Continuous
 70
     0
  3
Solid line
 72
    65
 73
     0
 40
0.0
  0
LTYPE
  5
690
330
4
100
AcDbSymbolTableRecord
100
AcDbLinetypeTableRecord
  2
CENTER
 70
     0
  3
____ _ ____ _ ____ _ ____ _ ____ _ ____ _ ____
 72
    65
 73
     4
 40
2.0
 49
1.25
 74
     0
 49
-0.25
 74
     0
 49
0.25
 74
     0
 49
-0.25
 74
     0
  0
ENDTAB
  0
TABLE
  2
LAYER
  5
2
330
0
100
AcDbSymbolTable
 70
     2
  0
LAYER
  5
14
102
{ACAD_XDICTIONARY
360
4441
102
}
330
2
100
AcDbSymbolTableRecord
100
AcDbLayerTableRecord
  2
0
 70
     0
 62
     7
  6
Continuous
370
    -3
390
1D
  0
LAYER
  5
5064
330
2
100
AcDbSymbolTableRecord
100
AcDbLayerTableRecord
  2
Defpoints
 70
     0
 62
     7
  6
Continuous
290
     0
370
    -3
390
1D
  0
ENDTAB
  0
TABLE
  2
STYLE
  5
3
330
0
100
AcDbSymbolTable
 70
     2
  0
STYLE
  5
17
330
3
100
AcDbSymbolTableRecord
100
AcDbTextStyleTableRecord
  2
Standard
 70
     0
 40
0.0
 41
1.0
 50
0.0
 71
     0
 42
0.0
  3
I011000D.TTF
  4

1001
ACAD
1000
IsonormD
1071
        0
  0
STYLE
  5
5821
330
3
100
AcDbSymbolTableRecord
100
AcDbTextStyleTableRecord
  2
SLDTEXTSTYLE2
 70
     0
 40
0.0
 41
0.7
 50
0.0
 71
     0
 42
0.0
  3
TXT
  4

  0
ENDTAB
  0
TABLE
  2
VIEW
  5
5
330
0
100
AcDbSymbolTable
 70
     0
  0
ENDTAB
  0
TABLE
  2
UCS
  5
6
330
0
100
AcDbSymbolTable
 70
     0
  0
ENDTAB
  0
TABLE
  2
APPID
  5
8
330
0
100
AcDbSymbolTable
 70
     6
  0
APPID
  5
16
330
8
100
AcDbSymbolTableRecord
100
AcDbRegAppTableRecord
  2
ACAD
 70
     0
  0
APPID
  5
26
330
8
100
AcDbSymbolTableRecord
100
AcDbRegAppTableRecord
  2
TopSolid_Draft
 70
     0
  0
APPID
  5
2336
330
8
100
AcDbSymbolTableRecord
100
AcDbRegAppTableRecord
  2
ACAD_MLEADERVER
 70
     0
  0
APPID
  5
443F
330
8
100
AcDbSymbolTableRecord
100
AcDbRegAppTableRecord
  2
DCO15
 70
     0
  0
APPID
  5
44BD
330
8
100
AcDbSymbolTableRecord
100
AcDbRegAppTableRecord
  2
ACAD_EXEMPT_FROM_CAD_STANDARDS
 70
     0
  0
APPID
  5
57FA
330
8
100
AcDbSymbolTableRecord
100
AcDbRegAppTableRecord
  2
ACAD_DSTYLE_DIMRADIAL_EXTENSION
 70
     0
  0
ENDTAB
  0
TABLE
  2
DIMSTYLE
  5
9
330
0
100
AcDbSymbolTable
 70
     2
100
AcDbDimStyleTable
  0
DIMSTYLE
105
18
330
9
100
AcDbSymbolTableRecord
100
AcDbDimStyleTableRecord
  2
Standard
 70
     0
 41
1.25
 42
0.0
 44
0.75
 73
     0
 74
     0
 77
     1
140
2.5
146
0.8
147
1.25
176
     7
177
     7
271
     2
178
     7
271
     2
340
17
  0
DIMSTYLE
105
44D2
330
9
100
AcDbSymbolTableRecord
100
AcDbDimStyleTableRecord
  2
ISO-25
 70
     0
 41
2.5
 42
0.625
 43
3.75
 44
1.25
 73
     0
 74
     0
 77
     1
 78
     8
140
2.5
141
2.5
143
0.03937007874016
147
0.625
171
     3
172
     1
178
     0
271
     2
272
     2
274
     3
278
    44
283
     0
284
     8
340
17
  0
ENDTAB
  0
TABLE
  2
BLOCK_RECORD
  5
1
330
0
100
AcDbSymbolTable
 70
     1
  0
BLOCK_RECORD
  5
A
102
{ACAD_XDICTIONARY
360
233E
102
}
330
1
100
AcDbSymbolTableRecord
100
AcDbBlockTableRecord
  2
*MODEL_SPACE
340
20
  0
BLOCK_RECORD
  5
B
330
1
100
AcDbSymbolTableRecord
100
AcDbBlockTableRecord
  2
*PAPER_SPACE
340
21
  0
ENDTAB
  0
ENDSEC
  0
SECTION
  2
BLOCKS
  0
BLOCK
  5
D
330
A
100
AcDbEntity
  8
0
100
AcDbBlockBegin
  2
*MODEL_SPACE
 70
     0
 10
0.0
 20
0.0
 30
0.0
  3
*MODEL_SPACE
  1
*MODEL_SPACE
  0
ENDBLK
  5
E
330
A
100
AcDbEntity
  8
0
100
AcDbBlockEnd
  0
BLOCK
  5
F
330
B
100
AcDbEntity
 67
     1
  8
0
100
AcDbBlockBegin
  2
*PAPER_SPACE
 70
     0
 10
0.0
 20
0.0
 30
0.0
  3
*PAPER_SPACE
  1
*PAPER_SPACE
  0
ENDBLK
  5
10
330
B
100
AcDbEntity
 67
     1
  8
0
100
AcDbBlockEnd
  0
ENDSEC
  0
SECTION
  2
ENTITIES
  0
CIRCLE
  5
5079
330
A
100
AcDbEntity
  8
0
  6
Continuous
370
     0
100
AcDbCircle
 10
216.2697182171847
 20
22.80143236963107
 30
0.0
 40
0.0
  0
CIRCLE
  5
507A
330
A
100
AcDbEntity
  8
0
  6
Continuous
370
     0
100
AcDbCircle
 10
216.2697182171847
 20
22.80143236963107
 30
0.0
 40
0.0
  0
CIRCLE
  5
507B
330
A
100
AcDbEntity
  8
0
  6
Continuous
370
     0
100
AcDbCircle
 10
216.2697182171847
 20
22.80143236963107
 30
0.0
 40
0.0
  0
TEXT
  5
5505
330
A
100
AcDbEntity
  8
0
  6
Continuous
 62
     7
370
     0
100
AcDbText
 10
279.6616546077455
 20
158.9499685658226
 30
0.0
 40
21.0
  1
6830
100
AcDbText
  0
LINE
  5
550E
330
A
100
AcDbEntity
  8
0
  6
CENTER
 62
     1
100
AcDbLine
 10
318.2959506071601
 20
37.43017411872536
 30
0.0
 11
318.2959506071601
 21
-22.56982588127468
 31
0.0
  0
LINE
  5
5632
330
A
100
AcDbEntity
  8
0
  6
Continuous
 62
     7
370
    15
100
AcDbLine
 10
435.6510428048168
 20
-29.9698294039211
 30
0.0
 11
436.0510421253238
 21
-29.9698294039211
 31
0.0
  0
LINE
  5
5633
330
A
100
AcDbEntity
  8
0
  6
Continuous
 62
     7
370
    15
100
AcDbLine
 10
436.0510421253238
 20
-23.66982706741904
 30
0.0
 11
435.6510428048168
 21
-23.66982706741904
 31
0.0
  0
LINE
  5
5634
330
A
100
AcDbEntity
  8
0
  6
Continuous
 62
     7
370
    15
100
AcDbLine
 10
436.8510407663379
 20
-23.66982706741904
 30
0.0
 11
436.0510421253238
 21
-23.66982706741904
 31
0.0
  0
LINE
  5
5635
330
A
100
AcDbEntity
  8
0
  6
Continuous
 62
     7
370
    15
100
AcDbLine
 10
436.0510421253238
 20
-29.9698294039211
 30
0.0
 11
436.8510407663379
 21
-29.9698294039211
 31
0.0
  0
LINE
  5
5636
330
A
100
AcDbEntity
  8
0
  6
Continuous
 62
     7
370
    15
100
AcDbLine
 10
436.0510421253238
 20
-23.66982706741904
 30
0.0
 11
435.6510428048168
 21
-24.06982638792608
 31
0.0
  0
LINE
  5
5637
330
A
100
AcDbEntity
  8
0
  6
Continuous
 62
     7
370
    15
100
AcDbLine
 10
435.6510428048168
 20
-29.56983008341405
 30
0.0
 11
436.0510421253238
 21
-29.9698294039211
 31
0.0
  0
LINE
  5
5638
330
A
100
AcDbEntity
  8
0
  6
Continuous
 62
     7
370
    15
100
AcDbLine
 10
436.8510407663379
 20
43.83017561478994
 30
0.0
 11
436.4510414458309
 21
43.83017561478994
 31
0.0
  0
LINE
  5
5639
330
A
100
AcDbEntity
  8
0
  6
Continuous
 62
     7
370
    15
100
AcDbLine
 10
436.4510414458309
 20
37.53017327828795
 30
0.0
 11
436.8510407663379
 21
37.53017327828795
 31
0.0
  0
LINE
  5
563A
330
A
100
AcDbEntity
  8
0
  6
Continuous
 62
     7
370
    15
100
AcDbLine
 10
435.6510428048168
 20
37.53017327828795
 30
0.0
 11
436.4510414458309
 21
37.53017327828795
 31
0.0
  0
LINE
  5
563B
330
A
100
AcDbEntity
  8
0
  6
Continuous
 62
     7
370
    15
100
AcDbLine
 10
436.4510414458309
 20
43.83017561478994
 30
0.0
 11
435.6510428048168
 21
43.83017561478994
 31
0.0
  0
LINE
  5
563C
330
A
100
AcDbEntity
  8
0
  6
Continuous
 62
     7
370
    15
100
AcDbLine
 10
436.4510414458309
 20
37.53017327828795
 30
0.0
 11
436.8510407663379
 21
37.93016514821434
 31
0.0
  0
LINE
  5
563D
330
A
100
AcDbEntity
  8
0
  6
Continuous
 62
     7
370
    15
100
AcDbLine
 10
436.8510407663379
 20
43.43016884370235
 30
0.0
 11
436.4510414458309
 21
43.83017561478994
 31
0.0
  0
LINE
  5
563E
330
A
100
AcDbEntity
  8
0
  6
Continuous
 62
     7
370
    15
100
AcDbLine
 10
436.8510407663379
 20
-30.56983210997198
 30
0.0
 11
435.6510428048168
 21
-30.56983210997198
 31
0.0
  0
LINE
  5
563F
330
A
100
AcDbEntity
  8
0
  6
Continuous
 62
     7
370
    15
100
AcDbLine
 10
435.6510428048168
 20
44.43017087026024
 30
0.0
 11
436.8510407663379
 21
44.43017087026024
 31
0.0
  0
LINE
  5
5640
330
A
100
AcDbEntity
  8
0
  6
Continuous
 62
     7
370
    15
100
AcDbLine
 10
436.8510407663379
 20
21.93017742677114
 30
0.0
 11
435.6510428048168
 21
21.93017742677114
 31
0.0
  0
LINE
  5
5641
330
A
100
AcDbEntity
  8
0
  6
Continuous
 62
     7
370
    15
100
AcDbLine
 10
435.6510428048168
 20
-8.069831215902312
 30
0.0
 11
436.8510407663379
 21
-8.069831215902312
 31
0.0
  0
LINE
  5
5642
330
A
100
AcDbEntity
  8
0
  6
Continuous
 62
     7
370
    15
100
AcDbLine
 10
431.0510431684051
 20
54.43017623467826
 30
0.0
 11
431.5510441816841
 21
54.43017623467826
 31
0.0
  0
LINE
  5
5643
330
A
100
AcDbEntity
  8
0
  6
Continuous
 62
     7
370
    15
100
AcDbLine
 10
431.5510441816841
 20
54.43017623467826
 30
0.0
 11
431.5510441816841
 21
49.93017456574823
 31
0.0
  0
LINE
  5
5644
330
A
100
AcDbEntity
  8
0
  6
Continuous
 62
     7
370
    15
100
AcDbLine
 10
431.5510441816841
 20
49.93017456574823
 30
0.0
 11
431.5510441816841
 21
-35.06982632832143
 31
0.0
  0
LINE
  5
5645
330
A
100
AcDbEntity
  8
0
  6
Continuous
 62
     7
370
    15
100
AcDbLine
 10
431.0510431684051
 20
-39.56982799725149
 30
0.0
 11
431.5510441816841
 21
-39.56982799725149
 31
0.0
  0
LINE
  5
5646
330
A
100
AcDbEntity
  8
0
  6
Continuous
 62
     7
370
    15
100
AcDbLine
 10
431.5510441816841
 20
-35.06982632832143
 30
0.0
 11
431.5510441816841
 21
-39.56982799725149
 31
0.0
  0
LINE
  5
5647
330
A
100
AcDbEntity
  8
0
  6
Continuous
 62
     7
370
    15
100
AcDbLine
 10
439.5510417676959
 20
54.43017623467826
 30
0.0
 11
439.5510417676959
 21
49.93017456574823
 31
0.0
  0
LINE
  5
5648
330
A
100
AcDbEntity
  8
0
  6
Continuous
 62
     7
370
    15
100
AcDbLine
 10
439.5510417676959
 20
54.43017623467826
 30
0.0
 11
441.4510404027496
 21
54.43017623467826
 31
0.0
  0
LINE
  5
5649
330
A
100
AcDbEntity
  8
0
  6
Continuous
 62
     7
370
    15
100
AcDbLine
 10
440.9510431147609
 20
54.43017623467826
 30
0.0
 11
440.9510431147609
 21
49.93017456574823
 31
0.0
  0
LINE
  5
564A
330
A
100
AcDbEntity
  8
0
  6
Continuous
 62
     7
370
    15
100
AcDbLine
 10
440.9510431147609
 20
49.93017456574823
 30
0.0
 11
440.9510431147609
 21
-35.06982632832143
 31
0.0
  0
LINE
  5
564B
330
A
100
AcDbEntity
  8
0
  6
Continuous
 62
     7
370
    15
100
AcDbLine
 10
439.5510417676959
 20
49.93017456574823
 30
0.0
 11
439.5510417676959
 21
-35.06982632832143
 31
0.0
  0
LINE
  5
564C
330
A
100
AcDbEntity
  8
0
  6
Continuous
 62
     7
370
    15
100
AcDbLine
 10
439.5510417676959
 20
-39.56982799725149
 30
0.0
 11
441.4510404027496
 21
-39.56982799725149
 31
0.0
  0
LINE
  5
564D
330
A
100
AcDbEntity
  8
0
  6
Continuous
 62
     7
370
    15
100
AcDbLine
 10
440.9510431147609
 20
-35.06982632832143
 30
0.0
 11
440.9510431147609
 21
-39.56982799725149
 31
0.0
  0
LINE
  5
564E
330
A
100
AcDbEntity
  8
0
  6
Continuous
 62
     7
370
    15
100
AcDbLine
 10
439.5510417676959
 20
-35.06982632832143
 30
0.0
 11
439.5510417676959
 21
-39.56982799725149
 31
0.0
  0
LINE
  5
564F
330
A
100
AcDbEntity
  8
0
  6
Continuous
 62
     7
370
    15
100
AcDbLine
 10
436.0510421253238
 20
-25.24482765154455
 30
0.0
 11
436.0510421253238
 21
-29.9698294039211
 31
0.0
  0
LINE
  5
5650
330
A
100
AcDbEntity
  8
0
  6
Continuous
 62
     7
370
    15
100
AcDbLine
 10
436.0510421253238
 20
-23.66982706741904
 30
0.0
 11
436.0510421253238
 21
-25.24482765154455
 31
0.0
  0
LINE
  5
5651
330
A
100
AcDbEntity
  8
0
  6
Continuous
 62
     7
370
    15
100
AcDbLine
 10
436.4510414458309
 20
37.53017327828795
 30
0.0
 11
436.4510414458309
 21
43.83017561478994
 31
0.0
  0
LINE
  5
5652
330
A
100
AcDbEntity
  8
0
  6
Continuous
 62
     7
370
    15
100
AcDbLine
 10
423.0510418571029
 20
51.68016693635376
 30
0.0
 11
423.0510418571029
 21
55.18016657872583
 31
0.0
  0
ARC
  5
5653
330
A
100
AcDbEntity
  8
0
  6
Continuous
 62
     7
370
    15
100
AcDbCircle
 10
424.0510415196948
 20
55.18017160135143
 30
0.0
 40
1.0
100
AcDbArc
 50
90.0
 51
180.0
  0
LINE
  5
5654
330
A
100
AcDbEntity
  8
0
  6
Continuous
 62
     7
370
    15
100
AcDbLine
 10
431.0510431684051
 20
56.18016860528375
 30
0.0
 11
431.0510431684051
 21
51.68016693635376
 31
0.0
  0
LINE
  5
5655
330
A
100
AcDbEntity
  8
0
  6
Continuous
 62
     7
370
    15
100
AcDbLine
 10
424.0510438836608
 20
56.18016860528375
 30
0.0
 11
431.0510431684051
 21
56.18016860528375
 31
0.0
  0
LINE
  5
5656
330
A
100
AcDbEntity
  8
0
  6
Continuous
 62
     7
370
    15
100
AcDbLine
 10
423.0510418571029
 20
-36.81982614950751
 30
0.0
 11
423.0510418571029
 21
51.68016693635376
 31
0.0
  0
LINE
  5
5657
330
A
100
AcDbEntity
  8
0
  6
Continuous
 62
     7
370
    15
100
AcDbLine
 10
431.0510431684051
 20
51.68016693635376
 30
0.0
 11
431.0510431684051
 21
-36.81982614950751
 31
0.0
  0
LINE
  5
5658
330
A
100
AcDbEntity
  8
0
  6
Continuous
 62
     7
370
    15
100
AcDbLine
 10
423.0510418571029
 20
-40.31982579187964
 30
0.0
 11
423.0510418571029
 21
-36.81982614950751
 31
0.0
  0
ARC
  5
5659
330
A
100
AcDbEntity
  8
0
  6
Continuous
 62
     7
370
    15
100
AcDbCircle
 10
424.0510415196948
 20
-40.31982839864854
 30
0.0
 40
1.0
100
AcDbArc
 50
180.0
 51
270.0
  0
LINE
  5
565A
330
A
100
AcDbEntity
  8
0
  6
Continuous
 62
     7
370
    15
100
AcDbLine
 10
424.0510438836608
 20
-41.31982781843756
 30
0.0
 11
431.0510431684051
 21
-41.31982781843756
 31
0.0
  0
LINE
  5
565B
330
A
100
AcDbEntity
  8
0
  6
Continuous
 62
     7
370
    15
100
AcDbLine
 10
431.0510431684051
 20
-36.81982614950751
 30
0.0
 11
431.0510431684051
 21
-41.31982781843756
 31
0.0
  0
LINE
  5
565C
330
A
100
AcDbEntity
  8
0
  6
Continuous
 62
     7
370
    15
100
AcDbLine
 10
448.4510396874938
 20
56.18016860528375
 30
0.0
 11
441.4510404027496
 21
56.18016860528375
 31
0.0
  0
LINE
  5
565D
330
A
100
AcDbEntity
  8
0
  6
Continuous
 62
     7
370
    15
100
AcDbLine
 10
441.4510404027496
 20
51.68016693635376
 30
0.0
 11
441.4510404027496
 21
56.18016860528375
 31
0.0
  0
LINE
  5
565E
330
A
100
AcDbEntity
  8
0
  6
Continuous
 62
     7
370
    15
100
AcDbLine
 10
449.4510417140518
 20
55.18016657872583
 30
0.0
 11
449.4510417140518
 21
51.68016693635376
 31
0.0
  0
ARC
  5
565F
330
A
100
AcDbEntity
  8
0
  6
Continuous
 62
     7
370
    15
100
AcDbCircle
 10
448.4510415196948
 20
55.18017160135143
 30
0.0
 40
1.0
100
AcDbArc
 50
0.0
 51
90.0
  0
LINE
  5
5660
330
A
100
AcDbEntity
  8
0
  6
Continuous
 62
     7
370
    15
100
AcDbLine
 10
441.4510404027496
 20
-36.81982614950751
 30
0.0
 11
441.4510404027496
 21
51.68016693635376
 31
0.0
  0
LINE
  5
5661
330
A
100
AcDbEntity
  8
0
  6
Continuous
 62
     7
370
    15
100
AcDbLine
 10
449.4510417140518
 20
51.68016693635376
 30
0.0
 11
449.4510417140518
 21
-36.81982614950751
 31
0.0
  0
LINE
  5
5662
330
A
100
AcDbEntity
  8
0
  6
Continuous
 62
     7
370
    15
100
AcDbLine
 10
448.4510396874938
 20
-41.31982781843756
 30
0.0
 11
441.4510404027496
 21
-41.31982781843756
 31
0.0
  0
LINE
  5
5663
330
A
100
AcDbEntity
  8
0
  6
Continuous
 62
     7
370
    15
100
AcDbLine
 10
441.4510404027496
 20
-41.31982781843756
 30
0.0
 11
441.4510404027496
 21
-36.81982614950751
 31
0.0
  0
LINE
  5
5664
330
A
100
AcDbEntity
  8
0
  6
Continuous
 62
     7
370
    15
100
AcDbLine
 10
449.4510417140518
 20
-36.81982614950751
 30
0.0
 11
449.4510417140518
 21
-40.31982579187964
 31
0.0
  0
ARC
  5
5665
330
A
100
AcDbEntity
  8
0
  6
Continuous
 62
     7
370
    15
100
AcDbCircle
 10
448.4510415196948
 20
-40.31982839864849
 30
0.0
 40
1.0
100
AcDbArc
 50
270.0
 51
0.0
  0
LINE
  5
5666
330
A
100
AcDbEntity
  8
0
  6
Continuous
 62
     7
370
    15
100
AcDbLine
 10
436.8510407663379
 20
44.93016443295865
 30
0.0
 11
439.5510417676959
 21
44.93016443295865
 31
0.0
  0
LINE
  5
5667
330
A
100
AcDbEntity
  8
0
  6
Continuous
 62
     7
370
    15
100
AcDbLine
 10
436.8510407663379
 20
39.93016920133024
 30
0.0
 11
436.8510407663379
 21
44.93016443295865
 31
0.0
  0
LINE
  5
5668
330
A
100
AcDbEntity
  8
0
  6
Continuous
 62
     7
370
    15
100
AcDbLine
 10
436.8510407663379
 20
-26.06983044104193
 30
0.0
 11
436.8510407663379
 21
39.93016920133024
 31
0.0
  0
LINE
  5
5669
330
A
100
AcDbEntity
  8
0
  6
Continuous
 62
     7
370
    15
100
AcDbLine
 10
436.8510407663379
 20
-31.06982567267035
 30
0.0
 11
439.5510417676959
 21
-31.06982567267035
 31
0.0
  0
LINE
  5
566A
330
A
100
AcDbEntity
  8
0
  6
Continuous
 62
     7
370
    15
100
AcDbLine
 10
436.8510407663379
 20
-31.06982567267035
 30
0.0
 11
436.8510407663379
 21
-26.06983044104193
 31
0.0
  0
LINE
  5
566B
330
A
100
AcDbEntity
  8
0
  6
Continuous
 62
     7
370
    15
100
AcDbLine
 10
435.6510428048168
 20
44.10517654462244
 30
0.0
 11
436.8510407663379
 21
44.10517654462244
 31
0.0
  0
LINE
  5
566C
330
A
100
AcDbEntity
  8
0
  6
Continuous
 62
     7
370
    15
100
AcDbLine
 10
435.6510428048168
 20
36.60516879601865
 30
0.0
 11
436.8510407663379
 21
36.60516879601865
 31
0.0
  0
LINE
  5
566D
330
A
100
AcDbEntity
  8
0
  6
Continuous
 62
     7
370
    15
100
AcDbLine
 10
435.6510428048168
 20
-30.24483033375357
 30
0.0
 11
436.8510407663379
 21
-30.24483033375357
 31
0.0
  0
LINE
  5
566E
330
A
100
AcDbEntity
  8
0
  6
Continuous
 62
     7
370
    15
100
AcDbLine
 10
435.6510428048168
 20
-22.74483003573035
 30
0.0
 11
436.8510407663379
 21
-22.74483003573035
 31
0.0
  0
LINE
  5
566F
330
A
100
AcDbEntity
  8
0
  6
Continuous
 62
     7
370
    15
100
AcDbLine
 10
435.6510428048168
 20
44.93016443295865
 30
0.0
 11
431.5510441816841
 21
44.93016443295865
 31
0.0
  0
LINE
  5
5670
330
A
100
AcDbEntity
  8
0
  6
Continuous
 62
     7
370
    15
100
AcDbLine
 10
435.6510428048168
 20
44.93016443295865
 30
0.0
 11
435.6510428048168
 21
39.93016920133024
 31
0.0
  0
LINE
  5
5671
330
A
100
AcDbEntity
  8
0
  6
Continuous
 62
     7
370
    15
100
AcDbLine
 10
435.6510428048168
 20
39.93016920133024
 30
0.0
 11
435.6510428048168
 21
-26.06983044104193
 31
0.0
  0
LINE
  5
5672
330
A
100
AcDbEntity
  8
0
  6
Continuous
 62
     7
370
    15
100
AcDbLine
 10
435.6510428048168
 20
-31.06982567267035
 30
0.0
 11
431.5510441816841
 21
-31.06982567267035
 31
0.0
  0
LINE
  5
5673
330
A
100
AcDbEntity
  8
0
  6
Continuous
 62
     7
370
    15
100
AcDbLine
 10
435.6510428048168
 20
-26.06983044104193
 30
0.0
 11
435.6510428048168
 21
-31.06982567267035
 31
0.0
  0
LINE
  5
5674
330
A
100
AcDbEntity
  8
0
  6
Continuous
 62
     7
370
     0
100
AcDbLine
 10
431.0510431684051
 20
49.93017456574823
 30
0.0
 11
431.5510441816841
 21
49.93017456574823
 31
0.0
  0
LINE
  5
5675
330
A
100
AcDbEntity
  8
0
  6
Continuous
 62
     7
370
     0
100
AcDbLine
 10
431.0510431684051
 20
-35.06982632832143
 30
0.0
 11
431.5510441816841
 21
-35.06982632832143
 31
0.0
  0
LINE
  5
5676
330
A
100
AcDbEntity
  8
0
  6
Continuous
 62
     7
370
     0
100
AcDbLine
 10
439.5510417676959
 20
49.93017456574823
 30
0.0
 11
441.4510404027496
 21
49.93017456574823
 31
0.0
  0
LINE
  5
5677
330
A
100
AcDbEntity
  8
0
  6
Continuous
 62
     7
370
     0
100
AcDbLine
 10
439.5510417676959
 20
-35.06982632832143
 30
0.0
 11
441.4510404027496
 21
-35.06982632832143
 31
0.0
  0
LINE
  5
5678
330
A
100
AcDbEntity
  8
0
  6
Continuous
 62
     7
370
     0
100
AcDbLine
 10
424.0510438836608
 20
56.18016860528375
 30
0.0
 11
424.0510438836608
 21
51.68016693635376
 31
0.0
  0
LINE
  5
5679
330
A
100
AcDbEntity
  8
0
  6
Continuous
 62
     7
370
     0
100
AcDbLine
 10
424.0510438836608
 20
51.68016693635376
 30
0.0
 11
423.0510418571029
 21
51.68016693635376
 31
0.0
  0
LINE
  5
567A
330
A
100
AcDbEntity
  8
0
  6
Continuous
 62
     7
370
     0
100
AcDbLine
 10
424.0510438836608
 20
51.68016693635376
 30
0.0
 11
431.0510431684051
 21
51.68016693635376
 31
0.0
  0
LINE
  5
567B
330
A
100
AcDbEntity
  8
0
  6
Continuous
 62
     7
370
     0
100
AcDbLine
 10
424.0510438836608
 20
51.68016693635376
 30
0.0
 11
424.0510438836608
 21
-36.81982614950751
 31
0.0
  0
LINE
  5
567C
330
A
100
AcDbEntity
  8
0
  6
Continuous
 62
     7
370
     0
100
AcDbLine
 10
423.0510418571029
 20
-36.81982614950751
 30
0.0
 11
424.0510438836608
 21
-36.81982614950751
 31
0.0
  0
LINE
  5
567D
330
A
100
AcDbEntity
  8
0
  6
Continuous
 62
     7
370
     0
100
AcDbLine
 10
424.0510438836608
 20
-36.81982614950751
 30
0.0
 11
431.0510431684051
 21
-36.81982614950751
 31
0.0
  0
LINE
  5
567E
330
A
100
AcDbEntity
  8
0
  6
Continuous
 62
     7
370
     0
100
AcDbLine
 10
424.0510438836608
 20
-36.81982614950751
 30
0.0
 11
424.0510438836608
 21
-41.31982781843756
 31
0.0
  0
LINE
  5
567F
330
A
100
AcDbEntity
  8
0
  6
Continuous
 62
     7
370
     0
100
AcDbLine
 10
448.4510396874938
 20
51.68016693635376
 30
0.0
 11
448.4510396874938
 21
56.18016860528375
 31
0.0
  0
LINE
  5
5680
330
A
100
AcDbEntity
  8
0
  6
Continuous
 62
     7
370
     0
100
AcDbLine
 10
448.4510396874938
 20
51.68016693635376
 30
0.0
 11
441.4510404027496
 21
51.68016693635376
 31
0.0
  0
LINE
  5
5681
330
A
100
AcDbEntity
  8
0
  6
Continuous
 62
     7
370
     0
100
AcDbLine
 10
449.4510417140518
 20
51.68016693635376
 30
0.0
 11
448.4510396874938
 21
51.68016693635376
 31
0.0
  0
LINE
  5
5682
330
A
100
AcDbEntity
  8
0
  6
Continuous
 62
     7
370
     0
100
AcDbLine
 10
448.4510396874938
 20
-36.81982614950751
 30
0.0
 11
448.4510396874938
 21
51.68016693635376
 31
0.0
  0
LINE
  5
5683
330
A
100
AcDbEntity
  8
0
  6
Continuous
 62
     7
370
     0
100
AcDbLine
 10
448.4510396874938
 20
-36.81982614950751
 30
0.0
 11
441.4510404027496
 21
-36.81982614950751
 31
0.0
  0
LINE
  5
5684
330
A
100
AcDbEntity
  8
0
  6
Continuous
 62
     7
370
     0
100
AcDbLine
 10
448.4510396874938
 20
-36.81982614950751
 30
0.0
 11
449.4510417140518
 21
-36.81982614950751
 31
0.0
  0
LINE
  5
5685
330
A
100
AcDbEntity
  8
0
  6
Continuous
 62
     7
370
     0
100
AcDbLine
 10
448.4510396874938
 20
-41.31982781843756
 30
0.0
 11
448.4510396874938
 21
-36.81982614950751
 31
0.0
  0
LINE
  5
5686
330
A
100
AcDbEntity
  8
0
  6
Continuous
 62
     7
370
     0
100
AcDbLine
 10
436.8510407663379
 20
39.93016920133024
 30
0.0
 11
439.5510417676959
 21
39.93016920133024
 31
0.0
  0
LINE
  5
5687
330
A
100
AcDbEntity
  8
0
  6
Continuous
 62
     7
370
     0
100
AcDbLine
 10
436.8510407663379
 20
-26.06983044104193
 30
0.0
 11
439.5510417676959
 21
-26.06983044104193
 31
0.0
  0
LINE
  5
5688
330
A
100
AcDbEntity
  8
0
  6
Continuous
 62
     7
370
     0
100
AcDbLine
 10
435.6510428048168
 20
39.93016920133024
 30
0.0
 11
431.5510441816841
 21
39.93016920133024
 31
0.0
  0
LINE
  5
5689
330
A
100
AcDbEntity
  8
0
  6
Continuous
 62
     7
370
     0
100
AcDbLine
 10
435.6510428048168
 20
-26.06983044104193
 30
0.0
 11
431.5510441816841
 21
-26.06983044104193
 31
0.0
  0
LINE
  5
57F0
330
A
100
AcDbEntity
  8
0
  6
CENTER
 62
     1
100
AcDbLine
 10
327.2959506071601
 20
46.43017411872538
 30
0.0
 11
390.2959506071601
 21
46.43017411872538
 31
0.0
  0
LINE
  5
57F1
330
A
100
AcDbEntity
  8
0
  6
CENTER
 62
     1
100
AcDbLine
 10
327.2959506071601
 20
-31.56982588127468
 30
0.0
 11
390.2959506071601
 21
-31.56982588127468
 31
0.0
  0
ARC
  5
57F3
330
A
100
AcDbEntity
  8
0
  6
CENTER
 62
     1
100
AcDbCircle
 10
327.2959506071601
 20
37.43017411872536
 30
0.0
 40
9.000000000000002
100
AcDbArc
 50
90.0
 51
180.0
  0
ARC
  5
57F4
330
A
100
AcDbEntity
  8
0
  6
CENTER
 62
     1
100
AcDbCircle
 10
327.2959506071601
 20
-22.56982588127468
 30
0.0
 40
9.000000000000002
100
AcDbArc
 50
180.0
 51
270.0
  0
LINE
  5
5AB8
330
A
100
AcDbEntity
  8
0
100
AcDbLine
 10
388.2959498137383
 20
-41.31982781843756
 30
0.0
 11
313.2959505587383
 21
-41.31982781843756
 31
0.0
  0
LINE
  5
5AB9
330
A
100
AcDbEntity
  8
0
100
AcDbLine
 10
390.2959501415383
 20
54.18017572796246
 30
0.0
 11
390.2959501415383
 21
-39.31982749063754
 31
0.0
  0
ARC
  5
5ABA
330
A
100
AcDbEntity
  8
0
100
AcDbCircle
 10
388.2959501938383
 20
-39.31982748043755
 30
0.0
 40
2.0
100
AcDbArc
 50
270.0
 51
0.0
  0
ARC
  5
5ABB
330
A
100
AcDbEntity
  8
0
100
AcDbCircle
 10
388.2959501938383
 20
54.18017251956245
 30
0.0
 40
2.0
100
AcDbArc
 50
0.0
 51
90.0
  0
LINE
  5
5ABC
330
A
100
AcDbEntity
  8
0
100
AcDbLine
 10
308.7959488898383
 20
-36.81982708083756
 30
0.0
 11
308.7959488898383
 21
51.68017066156246
 31
0.0
  0
LINE
  5
5ABD
330
A
100
AcDbEntity
  8
0
100
AcDbLine
 10
313.2959505587383
 20
56.18017233056246
 30
0.0
 11
388.2959498137383
 21
56.18017233056246
 31
0.0
  0
ARC
  5
5ABE
330
A
100
AcDbEntity
  8
0
100
AcDbCircle
 10
313.2959501939383
 20
-36.81982748043755
 30
0.0
 40
4.500000000000014
100
AcDbArc
 50
180.0
 51
270.0
  0
ARC
  5
5ABF
330
A
100
AcDbEntity
  8
0
100
AcDbCircle
 10
313.2959501939383
 20
51.68017251956245
 30
0.0
 40
4.5
100
AcDbArc
 50
90.0
 51
180.0
  0
LINE
  5
5AC0
330
A
100
AcDbEntity
  8
0
100
AcDbLine
 10
390.2959501415383
 20
-30.56982745343755
 30
0.0
 11
390.5459506481383
 21
-30.56982745343755
 31
0.0
  0
LINE
  5
5AC1
330
A
100
AcDbEntity
  8
0
100
AcDbLine
 10
390.2959501415383
 20
44.43017459556246
 30
0.0
 11
390.5459506481383
 21
44.43017459556246
 31
0.0
  0
LINE
  5
5AC2
330
A
100
AcDbEntity
  8
0
100
AcDbLine
 10
390.5459506481383
 20
44.43017459556246
 30
0.0
 11
390.5459506481383
 21
-30.56982745343755
 31
0.0
  0
LINE
  5
5AC3
330
A
100
AcDbEntity
  8
0
  6
Continuous
 62
     8
370
     0
100
AcDbLine
 10
388.2959498137383
 20
55.18017030396244
 30
0.0
 11
313.2959505587383
 21
55.18017030396244
 31
0.0
  0
ARC
  5
5AC4
330
A
100
AcDbEntity
  8
0
  6
Continuous
 62
     8
370
     0
100
AcDbCircle
 10
388.2959501938383
 20
54.18017251956245
 30
0.0
 40
1.0
100
AcDbArc
 50
0.0
 51
90.0
  0
LINE
  5
5AC5
330
A
100
AcDbEntity
  8
0
  6
Continuous
 62
     8
370
     0
100
AcDbLine
 10
389.2959518402383
 20
-39.31982749063754
 30
0.0
 11
389.2959518402383
 21
54.18017572796246
 31
0.0
  0
ARC
  5
5AC6
330
A
100
AcDbEntity
  8
0
  6
Continuous
 62
     8
370
     0
100
AcDbCircle
 10
388.2959501938383
 20
-39.31982748043755
 30
0.0
 40
1.0
100
AcDbArc
 50
270.0
 51
0.0
  0
LINE
  5
5AC7
330
A
100
AcDbEntity
  8
0
  6
Continuous
 62
     8
370
     0
100
AcDbLine
 10
313.2959505587383
 20
-40.31982765453755
 30
0.0
 11
388.2959498137383
 21
-40.31982765453755
 31
0.0
  0
ARC
  5
5AC8
330
A
100
AcDbEntity
  8
0
  6
Continuous
 62
     8
370
     0
100
AcDbCircle
 10
313.2959501939383
 20
-36.81982748043755
 30
0.0
 40
3.5
100
AcDbArc
 50
180.0
 51
270.0
  0
LINE
  5
5AC9
330
A
100
AcDbEntity
  8
0
  6
Continuous
 62
     8
370
     0
100
AcDbLine
 10
309.7959509163383
 20
51.68017066156246
 30
0.0
 11
309.7959509163383
 21
-36.81982708083756
 31
0.0
  0
ARC
  5
5ACA
330
A
100
AcDbEntity
  8
0
  6
Continuous
 62
     8
370
     0
100
AcDbCircle
 10
313.2959501939383
 20
51.68017251956245
 30
0.0
 40
3.5
100
AcDbArc
 50
90.0
 51
180.0
  0
LINE
  5
5ACB
330
A
100
AcDbEntity
  8
0
  6
Continuous
 62
     8
370
     0
100
AcDbLine
 10
313.2959505587383
 20
-41.31982781843756
 30
0.0
 11
313.2959505587383
 21
-40.31982765453755
 31
0.0
  0
LINE
  5
5ACC
330
A
100
AcDbEntity
  8
0
  6
Continuous
 62
     8
370
     0
100
AcDbLine
 10
388.2959498137383
 20
-41.31982781843756
 30
0.0
 11
388.2959498137383
 21
-40.31982765453755
 31
0.0
  0
LINE
  5
5ACD
330
A
100
AcDbEntity
  8
0
  6
Continuous
 62
     8
370
     0
100
AcDbLine
 10
390.2959501415383
 20
-39.31982749063754
 30
0.0
 11
389.2959518402383
 21
-39.31982749063754
 31
0.0
  0
LINE
  5
5ACE
330
A
100
AcDbEntity
  8
0
  6
Continuous
 62
     8
370
     0
100
AcDbLine
 10
389.2959518402383
 20
54.18017572796246
 30
0.0
 11
390.2959501415383
 21
54.18017572796246
 31
0.0
  0
LINE
  5
5ACF
330
A
100
AcDbEntity
  8
0
  6
Continuous
 62
     8
370
     0
100
AcDbLine
 10
388.2959498137383
 20
55.18017030396244
 30
0.0
 11
388.2959498137383
 21
56.18017233056246
 31
0.0
  0
LINE
  5
5AD0
330
A
100
AcDbEntity
  8
0
  6
Continuous
 62
     8
370
     0
100
AcDbLine
 10
309.7959509163383
 20
51.68017066156246
 30
0.0
 11
308.7959488898383
 21
51.68017066156246
 31
0.0
  0
LINE
  5
5AD1
330
A
100
AcDbEntity
  8
0
  6
Continuous
 62
     8
370
     0
100
AcDbLine
 10
308.7959488898383
 20
-36.81982708083756
 30
0.0
 11
309.7959509163383
 21
-36.81982708083756
 31
0.0
  0
LINE
  5
5AD2
330
A
100
AcDbEntity
  8
0
  6
Continuous
 62
     8
370
     0
100
AcDbLine
 10
313.2959505587383
 20
55.18017030396244
 30
0.0
 11
313.2959505587383
 21
56.18017233056246
 31
0.0
  0
LINE
  5
5AD3
330
A
100
AcDbEntity
  8
0
100
AcDbLine
 10
290.3418237417383
 20
54.18017572796246
 30
0.0
 11
290.3418237417383
 21
-39.31982749063754
 31
0.0
  0
LINE
  5
5AD4
330
A
100
AcDbEntity
  8
0
100
AcDbLine
 10
282.3418224304383
 20
44.93017560876244
 30
0.0
 11
282.3418224304383
 21
54.18017572796246
 31
0.0
  0
LINE
  5
5AD5
330
A
100
AcDbEntity
  8
0
100
AcDbLine
 10
282.3418224304383
 20
-39.31982749063754
 30
0.0
 11
282.3418224304383
 21
-30.56982745343755
 31
0.0
  0
LINE
  5
5AD6
330
A
100
AcDbEntity
  8
0
100
AcDbLine
 10
283.5418241172383
 20
-30.06982737143754
 30
0.0
 11
286.8418240993383
 21
-30.06982737143754
 31
0.0
  0
LINE
  5
5AD7
330
A
100
AcDbEntity
  8
0
100
AcDbLine
 10
286.8418240993383
 20
44.93017560876244
 30
0.0
 11
286.8418240993383
 21
-30.06982737143754
 31
0.0
  0
LINE
  5
5AD8
330
A
100
AcDbEntity
  8
0
100
AcDbLine
 10
282.3418224304383
 20
44.93017560876244
 30
0.0
 11
286.8418240993383
 21
44.93017560876244
 31
0.0
  0
ARC
  5
5AD9
330
A
100
AcDbEntity
  8
0
100
AcDbCircle
 10
289.3418239802383
 20
55.18017251956245
 30
0.0
 40
1.0
100
AcDbArc
 50
0.0
 51
90.0
  0
LINE
  5
5ADA
330
A
100
AcDbEntity
  8
0
100
AcDbLine
 10
290.3418237417383
 20
55.18017030396244
 30
0.0
 11
290.3418237417383
 21
54.18017572796246
 31
0.0
  0
LINE
  5
5ADB
330
A
100
AcDbEntity
  8
0
100
AcDbLine
 10
282.3418224304383
 20
54.18017572796246
 30
0.0
 11
282.3418224304383
 21
56.18017233056246
 31
0.0
  0
LINE
  5
5ADC
330
A
100
AcDbEntity
  8
0
100
AcDbLine
 10
289.3418254404383
 20
56.18017233056246
 30
0.0
 11
282.3418224304383
 21
56.18017233056246
 31
0.0
  0
LINE
  5
5ADD
330
A
100
AcDbEntity
  8
0
100
AcDbLine
 10
290.3418237417383
 20
-39.31982749063754
 30
0.0
 11
290.3418237417383
 21
-40.31982765453755
 31
0.0
  0
ARC
  5
5ADE
330
A
100
AcDbEntity
  8
0
100
AcDbCircle
 10
289.3418239802383
 20
-40.31982748043755
 30
0.0
 40
1.0
100
AcDbArc
 50
270.0
 51
0.0
  0
LINE
  5
5ADF
330
A
100
AcDbEntity
  8
0
100
AcDbLine
 10
282.3418224304383
 20
-41.31982781843756
 30
0.0
 11
282.3418224304383
 21
-39.31982749063754
 31
0.0
  0
LINE
  5
5AE0
330
A
100
AcDbEntity
  8
0
100
AcDbLine
 10
289.3418254404383
 20
-41.31982781843756
 30
0.0
 11
282.3418224304383
 21
-41.31982781843756
 31
0.0
  0
LINE
  5
5AE1
330
A
100
AcDbEntity
  8
0
100
AcDbLine
 10
269.9418248682383
 20
44.93017560876244
 30
0.0
 11
265.4418231993383
 21
44.93017560876244
 31
0.0
  0
LINE
  5
5AE2
330
A
100
AcDbEntity
  8
0
100
AcDbLine
 10
265.4418231993383
 20
-30.06982737143754
 30
0.0
 11
265.4418231993383
 21
44.93017560876244
 31
0.0
  0
LINE
  5
5AE3
330
A
100
AcDbEntity
  8
0
100
AcDbLine
 10
265.5418248920383
 20
-30.06982737143754
 30
0.0
 11
265.4418231993383
 21
-30.06982737143754
 31
0.0
  0
LINE
  5
5AE4
330
A
100
AcDbEntity
  8
0
100
AcDbLine
 10
269.9418248682383
 20
54.18017572796246
 30
0.0
 11
269.9418248682383
 21
44.93017560876244
 31
0.0
  0
LINE
  5
5AE5
330
A
100
AcDbEntity
  8
0
100
AcDbLine
 10
269.9418248682383
 20
-30.56982745343755
 30
0.0
 11
269.9418248682383
 21
-39.31982749063754
 31
0.0
  0
LINE
  5
5AE6
330
A
100
AcDbEntity
  8
0
100
AcDbLine
 10
262.9418237208383
 20
-41.31982781843756
 30
0.0
 11
269.9418248682383
 21
-41.31982781843756
 31
0.0
  0
LINE
  5
5AE7
330
A
100
AcDbEntity
  8
0
100
AcDbLine
 10
269.9418248682383
 20
-39.31982749063754
 30
0.0
 11
269.9418248682383
 21
-41.31982781843756
 31
0.0
  0
LINE
  5
5AE8
330
A
100
AcDbEntity
  8
0
100
AcDbLine
 10
261.9418235569383
 20
-39.31982749063754
 30
0.0
 11
261.9418235569383
 21
54.18017572796246
 31
0.0
  0
LINE
  5
5AE9
330
A
100
AcDbEntity
  8
0
100
AcDbLine
 10
262.9418237208383
 20
56.18017233056246
 30
0.0
 11
269.9418248682383
 21
56.18017233056246
 31
0.0
  0
LINE
  5
5AEA
330
A
100
AcDbEntity
  8
0
100
AcDbLine
 10
269.9418248682383
 20
56.18017233056246
 30
0.0
 11
269.9418248682383
 21
54.18017572796246
 31
0.0
  0
ARC
  5
5AEB
330
A
100
AcDbEntity
  8
0
100
AcDbCircle
 10
262.9418239802383
 20
-40.31982748043755
 30
0.0
 40
1.0
100
AcDbArc
 50
180.0
 51
270.0
  0
LINE
  5
5AEC
330
A
100
AcDbEntity
  8
0
100
AcDbLine
 10
261.9418235569383
 20
-40.31982765453755
 30
0.0
 11
261.9418235569383
 21
-39.31982749063754
 31
0.0
  0
LINE
  5
5AED
330
A
100
AcDbEntity
  8
0
100
AcDbLine
 10
261.9418235569383
 20
54.18017572796246
 30
0.0
 11
261.9418235569383
 21
55.18017030396244
 31
0.0
  0
ARC
  5
5AEE
330
A
100
AcDbEntity
  8
0
100
AcDbCircle
 10
262.9418239802383
 20
55.18017251956245
 30
0.0
 40
1.0
100
AcDbArc
 50
90.0
 51
180.0
  0
LINE
  5
5AEF
330
A
100
AcDbEntity
  8
0
100
AcDbLine
 10
265.5418248920383
 20
44.43017459556246
 30
0.0
 11
265.5418248920383
 21
-30.56982745343755
 31
0.0
  0
LINE
  5
5AF0
330
A
100
AcDbEntity
  8
0
100
AcDbLine
 10
279.5418234615383
 20
4.930172777562447
 30
0.0
 11
279.5418234615383
 21
8.930173433262453
 31
0.0
  0
ARC
  5
5AF1
330
A
100
AcDbEntity
  8
0
100
AcDbCircle
 10
274.5418239856383
 20
8.93017252076244
 30
0.0
 40
4.999999999997517
100
AcDbArc
 50
0.0
 51
180.0
  0
LINE
  5
5AF2
330
A
100
AcDbEntity
  8
0
100
AcDbLine
 10
269.5418255477383
 20
8.930173433262453
 30
0.0
 11
269.5418255477383
 21
4.930172777562447
 31
0.0
  0
ARC
  5
5AF3
330
A
100
AcDbEntity
  8
0
100
AcDbCircle
 10
274.5418239856383
 20
4.93017252076244
 30
0.0
 40
4.999999999997524
100
AcDbArc
 50
180.0
 51
0.0
  0
CIRCLE
  5
5AF4
330
A
100
AcDbEntity
  8
0
100
AcDbCircle
 10
274.5418239802383
 20
39.93017251946246
 30
0.0
 40
4.200000000000003
  0
CIRCLE
  5
5AF5
330
A
100
AcDbEntity
  8
0
100
AcDbCircle
 10
274.5418239802383
 20
-26.06982748043755
 30
0.0
 40
4.200000000000003
  0
LINE
  5
5AF6
330
A
100
AcDbEntity
  8
0
100
AcDbLine
 10
283.5418241172383
 20
44.43017459556246
 30
0.0
 11
265.5418248920383
 21
44.43017459556246
 31
0.0
  0
LINE
  5
5AF7
330
A
100
AcDbEntity
  8
0
100
AcDbLine
 10
265.5418248920383
 20
-30.56982745343755
 30
0.0
 11
283.5418241172383
 21
-30.56982745343755
 31
0.0
  0
LINE
  5
5AF8
330
A
100
AcDbEntity
  8
0
100
AcDbLine
 10
283.5418241172383
 20
-30.56982745343755
 30
0.0
 11
283.5418241172383
 21
44.43017459556246
 31
0.0
  0
LINE
  5
5AF9
330
A
100
AcDbEntity
  8
0
100
AcDbLine
 10
286.7418224065383
 20
-30.06982737143754
 30
0.0
 11
286.7418224065383
 21
44.93017560876244
 31
0.0
  0
LINE
  5
5AFA
330
A
100
AcDbEntity
  8
0
100
AcDbLine
 10
285.2418230920383
 20
-22.74482747463755
 30
0.0
 11
283.5418241172383
 21
-22.74482747463755
 31
0.0
  0
LINE
  5
5AFB
330
A
100
AcDbEntity
  8
0
100
AcDbLine
 10
285.2418230920383
 20
-22.74482747463755
 30
0.0
 11
285.2418230920383
 21
36.60517252126245
 31
0.0
  0
LINE
  5
5AFC
330
A
100
AcDbEntity
  8
0
100
AcDbLine
 10
285.2418230920383
 20
36.60517252126245
 30
0.0
 11
283.5418241172383
 21
36.60517252126245
 31
0.0
  0
LINE
  5
5AFD
330
A
100
AcDbEntity
  8
0
100
AcDbLine
 10
283.2418227641383
 20
44.93017560876244
 30
0.0
 11
283.2418227641383
 21
44.43017459556246
 31
0.0
  0
LINE
  5
5AFE
330
A
100
AcDbEntity
  8
0
100
AcDbLine
 10
277.7418227939383
 20
44.43017459556246
 30
0.0
 11
277.7418227939383
 21
44.93017560876244
 31
0.0
  0
LINE
  5
5AFF
330
A
100
AcDbEntity
  8
0
100
AcDbLine
 10
277.7418227939383
 20
44.93017560876244
 30
0.0
 11
282.3418224304383
 21
44.93017560876244
 31
0.0
  0
LINE
  5
5B00
330
A
100
AcDbEntity
  8
0
100
AcDbLine
 10
277.7418227939383
 20
-31.06982753533755
 30
0.0
 11
282.3418224304383
 21
-31.06982753533755
 31
0.0
  0
LINE
  5
5B01
330
A
100
AcDbEntity
  8
0
100
AcDbLine
 10
277.7418227939383
 20
-31.06982753533755
 30
0.0
 11
277.7418227939383
 21
-30.56982745343755
 31
0.0
  0
LINE
  5
5B02
330
A
100
AcDbEntity
  8
0
100
AcDbLine
 10
277.7418227939383
 20
1.08829765656246
 30
0.0
 11
277.7418227939383
 21
12.77204669156244
 31
0.0
  0
LINE
  5
5B03
330
A
100
AcDbEntity
  8
0
100
AcDbLine
 10
265.5418248920383
 20
44.93017560876244
 30
0.0
 11
265.5418248920383
 21
44.43017459556246
 31
0.0
  0
LINE
  5
5B04
330
A
100
AcDbEntity
  8
0
100
AcDbLine
 10
269.0418245344383
 20
44.43017459556246
 30
0.0
 11
269.0418245344383
 21
44.93017560876244
 31
0.0
  0
LINE
  5
5B05
330
A
100
AcDbEntity
  8
0
100
AcDbLine
 10
274.5418245046383
 20
44.93017560876244
 30
0.0
 11
269.9418248682383
 21
44.93017560876244
 31
0.0
  0
LINE
  5
5B06
330
A
100
AcDbEntity
  8
0
100
AcDbLine
 10
274.5418245046383
 20
44.93017560876244
 30
0.0
 11
274.5418245046383
 21
44.43017459556246
 31
0.0
  0
LINE
  5
5B07
330
A
100
AcDbEntity
  8
0
100
AcDbLine
 10
274.5418245046383
 20
-31.06982753533755
 30
0.0
 11
269.9418248682383
 21
-31.06982753533755
 31
0.0
  0
LINE
  5
5B08
330
A
100
AcDbEntity
  8
0
100
AcDbLine
 10
274.5418245046383
 20
-30.56982745343755
 30
0.0
 11
274.5418245046383
 21
-31.06982753533755
 31
0.0
  0
LINE
  5
5B09
330
A
100
AcDbEntity
  8
0
100
AcDbLine
 10
274.5418245046383
 20
13.93017239016244
 30
0.0
 11
274.5418245046383
 21
-0.0698280420375426
 31
0.0
  0
LINE
  5
5B0A
330
A
100
AcDbEntity
  8
0
100
AcDbLine
 10
270.4418221562383
 20
46.43017119806244
 30
0.0
 11
271.8418235032383
 21
46.43017119806244
 31
0.0
  0
LINE
  5
5B0B
330
A
100
AcDbEntity
  8
0
100
AcDbLine
 10
270.4418221562383
 20
47.43017322456244
 30
0.0
 11
270.4418221562383
 21
46.43017119806244
 31
0.0
  0
LINE
  5
5B0C
330
A
100
AcDbEntity
  8
0
100
AcDbLine
 10
271.8418235032383
 20
47.43017322456244
 30
0.0
 11
271.8418235032383
 21
46.43017119806244
 31
0.0
  0
LINE
  5
5B0D
330
A
100
AcDbEntity
  8
0
100
AcDbLine
 10
270.4418221562383
 20
-39.56982799733755
 30
0.0
 11
271.8418235032383
 21
-39.56982799733755
 31
0.0
  0
LINE
  5
5B0E
330
A
100
AcDbEntity
  8
0
100
AcDbLine
 10
270.4418221562383
 20
-38.56982783333756
 30
0.0
 11
270.4418221562383
 21
-39.56982799733755
 31
0.0
  0
LINE
  5
5B0F
330
A
100
AcDbEntity
  8
0
100
AcDbLine
 10
271.8418235032383
 20
-38.56982783333756
 30
0.0
 11
271.8418235032383
 21
-39.56982799733755
 31
0.0
  0
LINE
  5
5B10
330
A
100
AcDbEntity
  8
0
100
AcDbLine
 10
270.4418221562383
 20
53.43017048276245
 30
0.0
 11
270.4418221562383
 21
47.43017322456244
 31
0.0
  0
LINE
  5
5B11
330
A
100
AcDbEntity
  8
0
100
AcDbLine
 10
271.8418235032383
 20
53.43017048276245
 30
0.0
 11
271.8418235032383
 21
47.43017322456244
 31
0.0
  0
LINE
  5
5B12
330
A
100
AcDbEntity
  8
0
100
AcDbLine
 10
270.4418221562383
 20
54.43017250936246
 30
0.0
 11
270.4418221562383
 21
53.43017048276245
 31
0.0
  0
LINE
  5
5B13
330
A
100
AcDbEntity
  8
0
100
AcDbLine
 10
270.4418221562383
 20
54.43017250936246
 30
0.0
 11
271.8418235032383
 21
54.43017250936246
 31
0.0
  0
LINE
  5
5B14
330
A
100
AcDbEntity
  8
0
100
AcDbLine
 10
271.8418235032383
 20
54.43017250936246
 30
0.0
 11
271.8418235032383
 21
53.43017048276245
 31
0.0
  0
LINE
  5
5B15
330
A
100
AcDbEntity
  8
0
100
AcDbLine
 10
270.4418221562383
 20
-31.56982761733754
 30
0.0
 11
270.4418221562383
 21
-32.56982778123755
 31
0.0
  0
LINE
  5
5B16
330
A
100
AcDbEntity
  8
0
100
AcDbLine
 10
270.4418221562383
 20
-31.56982761733754
 30
0.0
 11
271.8418235032383
 21
-31.56982761733754
 31
0.0
  0
LINE
  5
5B17
330
A
100
AcDbEntity
  8
0
100
AcDbLine
 10
271.8418235032383
 20
-31.56982761733754
 30
0.0
 11
271.8418235032383
 21
-32.56982778123755
 31
0.0
  0
LINE
  5
5B18
330
A
100
AcDbEntity
  8
0
100
AcDbLine
 10
270.4418221562383
 20
-32.56982778123755
 30
0.0
 11
270.4418221562383
 21
-38.56982783333756
 31
0.0
  0
LINE
  5
5B19
330
A
100
AcDbEntity
  8
0
100
AcDbLine
 10
271.8418235032383
 20
-32.56982778123755
 30
0.0
 11
271.8418235032383
 21
-38.56982783333756
 31
0.0
  0
LINE
  5
5B1A
330
A
100
AcDbEntity
  8
0
100
AcDbLine
 10
270.4418221562383
 20
-31.06982753533755
 30
0.0
 11
270.4418221562383
 21
-31.56982761733754
 31
0.0
  0
LINE
  5
5B1B
330
A
100
AcDbEntity
  8
0
100
AcDbLine
 10
271.8418235032383
 20
-31.06982753533755
 30
0.0
 11
271.8418235032383
 21
-31.56982761733754
 31
0.0
  0
LINE
  5
5B1C
330
A
100
AcDbEntity
  8
0
100
AcDbLine
 10
270.4418221562383
 20
46.43017119806244
 30
0.0
 11
270.4418221562383
 21
45.43016917146245
 31
0.0
  0
LINE
  5
5B1D
330
A
100
AcDbEntity
  8
0
100
AcDbLine
 10
271.8418235032383
 20
46.43017119806244
 30
0.0
 11
271.8418235032383
 21
45.43016917146245
 31
0.0
  0
LINE
  5
5B1E
330
A
100
AcDbEntity
  8
0
100
AcDbLine
 10
270.4418221562383
 20
45.43016917146245
 30
0.0
 11
270.4418221562383
 21
44.93017560876244
 31
0.0
  0
LINE
  5
5B1F
330
A
100
AcDbEntity
  8
0
100
AcDbLine
 10
271.8418235032383
 20
45.43016917146245
 30
0.0
 11
271.8418235032383
 21
44.93017560876244
 31
0.0
  0
LINE
  5
5B20
330
A
100
AcDbEntity
  8
0
100
AcDbLine
 10
281.8418251424383
 20
54.43017250936246
 30
0.0
 11
281.8418251424383
 21
53.43017048276245
 31
0.0
  0
LINE
  5
5B21
330
A
100
AcDbEntity
  8
0
100
AcDbLine
 10
281.8418251424383
 20
54.43017250936246
 30
0.0
 11
282.3418224304383
 21
54.43017250936246
 31
0.0
  0
LINE
  5
5B22
330
A
100
AcDbEntity
  8
0
100
AcDbLine
 10
281.8418251424383
 20
46.43017119806244
 30
0.0
 11
282.3418224304383
 21
46.43017119806244
 31
0.0
  0
LINE
  5
5B23
330
A
100
AcDbEntity
  8
0
100
AcDbLine
 10
281.8418251424383
 20
47.43017322456244
 30
0.0
 11
281.8418251424383
 21
46.43017119806244
 31
0.0
  0
LINE
  5
5B24
330
A
100
AcDbEntity
  8
0
100
AcDbLine
 10
281.8418251424383
 20
-31.56982761733754
 30
0.0
 11
281.8418251424383
 21
-32.56982778123755
 31
0.0
  0
LINE
  5
5B25
330
A
100
AcDbEntity
  8
0
100
AcDbLine
 10
281.8418251424383
 20
-31.56982761733754
 30
0.0
 11
282.3418224304383
 21
-31.56982761733754
 31
0.0
  0
LINE
  5
5B26
330
A
100
AcDbEntity
  8
0
100
AcDbLine
 10
281.8418251424383
 20
-32.56982778123755
 30
0.0
 11
281.8418251424383
 21
-38.56982783333756
 31
0.0
  0
LINE
  5
5B27
330
A
100
AcDbEntity
  8
0
100
AcDbLine
 10
281.8418251424383
 20
-39.56982799733755
 30
0.0
 11
282.3418224304383
 21
-39.56982799733755
 31
0.0
  0
LINE
  5
5B28
330
A
100
AcDbEntity
  8
0
100
AcDbLine
 10
281.8418251424383
 20
-38.56982783333756
 30
0.0
 11
281.8418251424383
 21
-39.56982799733755
 31
0.0
  0
LINE
  5
5B29
330
A
100
AcDbEntity
  8
0
100
AcDbLine
 10
281.8418251424383
 20
53.43017048276245
 30
0.0
 11
281.8418251424383
 21
47.43017322456244
 31
0.0
  0
LINE
  5
5B2A
330
A
100
AcDbEntity
  8
0
100
AcDbLine
 10
281.8418251424383
 20
-31.06982753533755
 30
0.0
 11
281.8418251424383
 21
-31.56982761733754
 31
0.0
  0
LINE
  5
5B2B
330
A
100
AcDbEntity
  8
0
100
AcDbLine
 10
281.8418251424383
 20
46.43017119806244
 30
0.0
 11
281.8418251424383
 21
45.43016917146245
 31
0.0
  0
LINE
  5
5B2C
330
A
100
AcDbEntity
  8
0
100
AcDbLine
 10
281.8418251424383
 20
45.43016917146245
 30
0.0
 11
281.8418251424383
 21
44.93017560876244
 31
0.0
  0
LINE
  5
5B2D
330
A
100
AcDbEntity
  8
0
100
AcDbLine
 10
269.9418248682383
 20
-39.56982799733755
 30
0.0
 11
270.4418221562383
 21
-39.56982799733755
 31
0.0
  0
LINE
  5
5B2E
330
A
100
AcDbEntity
  8
0
100
AcDbLine
 10
269.9418248682383
 20
54.43017250936246
 30
0.0
 11
270.4418221562383
 21
54.43017250936246
 31
0.0
  0
LINE
  5
5B2F
330
A
100
AcDbEntity
  8
0
100
AcDbLine
 10
269.9418248682383
 20
46.43017119806244
 30
0.0
 11
270.4418221562383
 21
46.43017119806244
 31
0.0
  0
LINE
  5
5B30
330
A
100
AcDbEntity
  8
0
100
AcDbLine
 10
269.9418248682383
 20
-31.56982761733754
 30
0.0
 11
270.4418221562383
 21
-31.56982761733754
 31
0.0
  0
LINE
  5
5B31
330
A
100
AcDbEntity
  8
0
100
AcDbLine
 10
274.4614476411383
 20
-25.50988159063756
 30
0.0
 11
273.0093890874383
 21
-24.42236201763755
 31
0.0
  0
ARC
  5
5B32
330
A
100
AcDbEntity
  8
0
100
AcDbCircle
 10
274.5418239802383
 20
-26.06982748043755
 30
0.0
 40
2.249999999999992
100
AcDbArc
 50
132.9282749056993
 51
153.4089715480996
  0
LINE
  5
5B33
330
A
100
AcDbEntity
  8
0
100
AcDbLine
 10
272.5298175661383
 20
-25.06268447183756
 30
0.0
 11
273.9818761198383
 21
-26.15020404493755
 31
0.0
  0
LINE
  5
5B34
330
A
100
AcDbEntity
  8
0
100
AcDbLine
 10
273.9818761198383
 20
-26.15020404493755
 30
0.0
 11
272.8943595736383
 21
-27.60226259863755
 31
0.0
  0
ARC
  5
5B35
330
A
100
AcDbEntity
  8
0
100
AcDbCircle
 10
274.5418239802383
 20
-26.06982748043755
 30
0.0
 40
2.250000000000005
100
AcDbArc
 50
222.9282749057008
 51
243.4089715480999
  0
LINE
  5
5B36
330
A
100
AcDbEntity
  8
0
100
AcDbLine
 10
273.5346810965383
 20
-28.08183225723754
 30
0.0
 11
274.6222013681383
 21
-26.62977370353754
 31
0.0
  0
LINE
  5
5B37
330
A
100
AcDbEntity
  8
0
100
AcDbLine
 10
274.6222013681383
 20
-26.62977370353754
 30
0.0
 11
276.0742599218383
 21
-27.71729304373754
 31
0.0
  0
ARC
  5
5B38
330
A
100
AcDbEntity
  8
0
100
AcDbCircle
 10
274.5418239802383
 20
-26.06982748043755
 30
0.0
 40
2.250000000000017
100
AcDbArc
 50
312.9282749057
 51
333.4089715481001
  0
LINE
  5
5B39
330
A
100
AcDbEntity
  8
0
100
AcDbLine
 10
276.5538277178383
 20
-27.07697058953754
 30
0.0
 11
275.1017691641383
 21
-25.98945078363754
 31
0.0
  0
LINE
  5
5B3A
330
A
100
AcDbEntity
  8
0
100
AcDbLine
 10
275.1017691641383
 20
-25.98945078363754
 30
0.0
 11
276.1892894356383
 21
-24.53739222993754
 31
0.0
  0
ARC
  5
5B3B
330
A
100
AcDbEntity
  8
0
100
AcDbCircle
 10
274.5418239802383
 20
-26.06982748043755
 30
0.0
 40
2.249999999999997
100
AcDbArc
 50
42.92827490569981
 51
63.40897154809989
  0
LINE
  5
5B3C
330
A
100
AcDbEntity
  8
0
100
AcDbLine
 10
275.5489679127383
 20
-24.05782280413756
 30
0.0
 11
274.4614476411383
 21
-25.50988159063756
 31
0.0
  0
CIRCLE
  5
5B3D
330
A
100
AcDbEntity
  8
0
100
AcDbCircle
 10
274.5418239802383
 20
-26.06982748043755
 30
0.0
 40
3.99999999999997
  0
ARC
  5
5B3E
330
A
100
AcDbEntity
  8
0
100
AcDbCircle
 10
274.5418239802383
 20
-26.06982748043755
 30
0.0
 40
1.704044648600703
100
AcDbArc
 50
39.59258343899957
 51
66.74466301479886
  0
ARC
  5
5B3F
330
A
100
AcDbEntity
  8
0
100
AcDbCircle
 10
274.5418239802383
 20
-26.06982748043755
 30
0.0
 40
1.70404464860069
100
AcDbArc
 50
309.5925834390007
 51
336.7446630147994
  0
ARC
  5
5B40
330
A
100
AcDbEntity
  8
0
100
AcDbCircle
 10
274.5418239802383
 20
-26.06982748043755
 30
0.0
 40
1.704044648600716
100
AcDbArc
 50
219.592583439
 51
246.7446630148008
  0
ARC
  5
5B41
330
A
100
AcDbEntity
  8
0
100
AcDbCircle
 10
274.5418239802383
 20
-26.06982748043755
 30
0.0
 40
1.704044648600684
100
AcDbArc
 50
129.5925834389993
 51
156.7446630148003
  0
LINE
  5
5B42
330
A
100
AcDbEntity
  8
0
100
AcDbLine
 10
274.7840019016383
 20
40.44139451426246
 30
0.0
 11
274.1738887577383
 21
42.14988715096244
 31
0.0
  0
ARC
  5
5B43
330
A
100
AcDbEntity
  8
0
100
AcDbCircle
 10
274.5418239802383
 20
39.93017251956245
 30
0.0
 40
2.249999999999999
100
AcDbArc
 50
99.41165571549982
 51
119.8923523578991
  0
LINE
  5
5B44
330
A
100
AcDbEntity
  8
0
100
AcDbLine
 10
273.4204860477383
 20
41.88083923496244
 30
0.0
 11
274.0305991917383
 21
40.17235032356244
 31
0.0
  0
LINE
  5
5B45
330
A
100
AcDbEntity
  8
0
100
AcDbLine
 10
274.0305991917383
 20
40.17235032356244
 30
0.0
 11
272.3221102803383
 21
39.56223717966246
 31
0.0
  0
ARC
  5
5B46
330
A
100
AcDbEntity
  8
0
100
AcDbCircle
 10
274.5418239802383
 20
39.93017251956245
 30
0.0
 40
2.250000000000004
100
AcDbArc
 50
189.4116557154998
 51
209.8923523578999
  0
LINE
  5
5B47
330
A
100
AcDbEntity
  8
0
100
AcDbLine
 10
272.5911581962383
 20
38.80883446976246
 30
0.0
 11
274.2996471076383
 21
39.41894761366244
 31
0.0
  0
LINE
  5
5B48
330
A
100
AcDbEntity
  8
0
100
AcDbLine
 10
274.2996471076383
 20
39.41894761366244
 30
0.0
 11
274.9097602515383
 21
37.71045870226244
 31
0.0
  0
ARC
  5
5B49
330
A
100
AcDbEntity
  8
0
100
AcDbCircle
 10
274.5418239802383
 20
39.93017251956245
 30
0.0
 40
2.250000000000028
100
AcDbArc
 50
279.4116557154997
 51
299.8923523579
  0
LINE
  5
5B4A
330
A
100
AcDbEntity
  8
0
100
AcDbLine
 10
275.6631592362383
 20
37.97950661816246
 30
0.0
 11
275.0530460923383
 21
39.68799552956246
 31
0.0
  0
LINE
  5
5B4B
330
A
100
AcDbEntity
  8
0
100
AcDbLine
 10
275.0530460923383
 20
39.68799552956246
 30
0.0
 11
276.7615350036383
 21
40.29810867346244
 31
0.0
  0
ARC
  5
5B4C
330
A
100
AcDbEntity
  8
0
100
AcDbCircle
 10
274.5418239802383
 20
39.93017251956245
 30
0.0
 40
2.250000000000004
100
AcDbArc
 50
9.411655715499823
 51
29.89235235789921
  0
LINE
  5
5B4D
330
A
100
AcDbEntity
  8
0
100
AcDbLine
 10
276.4924908130383
 20
41.05151138346245
 30
0.0
 11
274.7840019016383
 21
40.44139451426246
 31
0.0
  0
CIRCLE
  5
5B4E
330
A
100
AcDbEntity
  8
0
100
AcDbCircle
 10
274.5418239802383
 20
39.93017251956245
 30
0.0
 40
3.999999999999972
  0
ARC
  5
5B4F
330
A
100
AcDbEntity
  8
0
100
AcDbCircle
 10
274.5418239802383
 20
39.93017251956245
 30
0.0
 40
1.704044648600695
100
AcDbArc
 50
6.075964248799562
 51
33.22804382459947
  0
ARC
  5
5B50
330
A
100
AcDbEntity
  8
0
100
AcDbCircle
 10
274.5418239802383
 20
39.93017251956245
 30
0.0
 40
1.704044648600705
100
AcDbArc
 50
276.0759642488005
 51
303.2280438246005
  0
ARC
  5
5B51
330
A
100
AcDbEntity
  8
0
100
AcDbCircle
 10
274.5418239802383
 20
39.93017251956245
 30
0.0
 40
1.704044648600695
100
AcDbArc
 50
186.0759642487996
 51
213.2280438246005
  0
ARC
  5
5B52
330
A
100
AcDbEntity
  8
0
100
AcDbCircle
 10
274.5418239802383
 20
39.93017251956245
 30
0.0
 40
1.704044648600677
100
AcDbArc
 50
96.07596424879871
 51
123.2280438245992
  0
LINE
  5
5B53
330
A
100
AcDbEntity
  8
0
  6
Continuous
 62
     8
370
     0
100
AcDbLine
 10
289.3418254404383
 20
-39.31982749063754
 30
0.0
 11
289.3418254404383
 21
54.18017572796246
 31
0.0
  0
LINE
  5
5B54
330
A
100
AcDbEntity
  8
0
  6
Continuous
 62
     8
370
     0
100
AcDbLine
 10
289.3418254404383
 20
54.18017572796246
 30
0.0
 11
290.3418237417383
 21
54.18017572796246
 31
0.0
  0
LINE
  5
5B55
330
A
100
AcDbEntity
  8
0
  6
Continuous
 62
     8
370
     0
100
AcDbLine
 10
290.3418237417383
 20
-39.31982749063754
 30
0.0
 11
289.3418254404383
 21
-39.31982749063754
 31
0.0
  0
LINE
  5
5B56
330
A
100
AcDbEntity
  8
0
  6
Continuous
 62
     8
370
     0
100
AcDbLine
 10
289.3418254404383
 20
54.18017572796246
 30
0.0
 11
282.3418224304383
 21
54.18017572796246
 31
0.0
  0
LINE
  5
5B57
330
A
100
AcDbEntity
  8
0
  6
Continuous
 62
     8
370
     0
100
AcDbLine
 10
289.3418254404383
 20
-39.31982749063754
 30
0.0
 11
282.3418224304383
 21
-39.31982749063754
 31
0.0
  0
LINE
  5
5B58
330
A
100
AcDbEntity
  8
0
  6
Continuous
 62
     8
370
     0
100
AcDbLine
 10
289.3418254404383
 20
54.18017572796246
 30
0.0
 11
289.3418254404383
 21
56.18017233056246
 31
0.0
  0
LINE
  5
5B59
330
A
100
AcDbEntity
  8
0
  6
Continuous
 62
     8
370
     0
100
AcDbLine
 10
289.3418254404383
 20
-41.31982781843756
 30
0.0
 11
289.3418254404383
 21
-39.31982749063754
 31
0.0
  0
LINE
  5
5B5A
330
A
100
AcDbEntity
  8
0
  6
Continuous
 62
     8
370
     0
100
AcDbLine
 10
262.9418237208383
 20
-39.31982749063754
 30
0.0
 11
269.9418248682383
 21
-39.31982749063754
 31
0.0
  0
LINE
  5
5B5B
330
A
100
AcDbEntity
  8
0
  6
Continuous
 62
     8
370
     0
100
AcDbLine
 10
262.9418237208383
 20
54.18017572796246
 30
0.0
 11
262.9418237208383
 21
-39.31982749063754
 31
0.0
  0
LINE
  5
5B5C
330
A
100
AcDbEntity
  8
0
  6
Continuous
 62
     8
370
     0
100
AcDbLine
 10
262.9418237208383
 20
54.18017572796246
 30
0.0
 11
269.9418248682383
 21
54.18017572796246
 31
0.0
  0
LINE
  5
5B5D
330
A
100
AcDbEntity
  8
0
  6
Continuous
 62
     8
370
     0
100
AcDbLine
 10
262.9418237208383
 20
-39.31982749063754
 30
0.0
 11
262.9418237208383
 21
-41.31982781843756
 31
0.0
  0
LINE
  5
5B5E
330
A
100
AcDbEntity
  8
0
  6
Continuous
 62
     8
370
     0
100
AcDbLine
 10
262.9418237208383
 20
-39.31982749063754
 30
0.0
 11
261.9418235569383
 21
-39.31982749063754
 31
0.0
  0
LINE
  5
5B5F
330
A
100
AcDbEntity
  8
0
  6
Continuous
 62
     8
370
     0
100
AcDbLine
 10
261.9418235569383
 20
54.18017572796246
 30
0.0
 11
262.9418237208383
 21
54.18017572796246
 31
0.0
  0
LINE
  5
5B60
330
A
100
AcDbEntity
  8
0
  6
Continuous
 62
     8
370
     0
100
AcDbLine
 10
262.9418237208383
 20
56.18017233056246
 30
0.0
 11
262.9418237208383
 21
54.18017572796246
 31
0.0
  0
LINE
  5
5B61
330
A
100
AcDbEntity
  8
0
  6
Continuous
 62
     8
370
     0
100
AcDbLine
 10
270.4418221562383
 20
47.43017322456244
 30
0.0
 11
271.8418235032383
 21
47.43017322456244
 31
0.0
  0
LINE
  5
5B62
330
A
100
AcDbEntity
  8
0
  6
Continuous
 62
     8
370
     0
100
AcDbLine
 10
270.4418221562383
 20
-38.56982783333756
 30
0.0
 11
271.8418235032383
 21
-38.56982783333756
 31
0.0
  0
LINE
  5
5B63
330
A
100
AcDbEntity
  8
0
  6
Continuous
 62
     8
370
     0
100
AcDbLine
 10
270.4418221562383
 20
53.43017048276245
 30
0.0
 11
271.8418235032383
 21
53.43017048276245
 31
0.0
  0
LINE
  5
5B64
330
A
100
AcDbEntity
  8
0
  6
Continuous
 62
     8
370
     0
100
AcDbLine
 10
270.4418221562383
 20
-32.56982778123755
 30
0.0
 11
271.8418235032383
 21
-32.56982778123755
 31
0.0
  0
LINE
  5
5B65
330
A
100
AcDbEntity
  8
0
  6
Continuous
 62
     8
370
     0
100
AcDbLine
 10
270.4418221562383
 20
45.43016917146245
 30
0.0
 11
271.8418235032383
 21
45.43016917146245
 31
0.0
  0
LINE
  5
5B66
330
A
100
AcDbEntity
  8
0
  6
Continuous
 62
     8
370
     0
100
AcDbLine
 10
281.8418251424383
 20
53.43017048276245
 30
0.0
 11
282.3418224304383
 21
53.43017048276245
 31
0.0
  0
LINE
  5
5B67
330
A
100
AcDbEntity
  8
0
  6
Continuous
 62
     8
370
     0
100
AcDbLine
 10
281.8418251424383
 20
47.43017322456244
 30
0.0
 11
282.3418224304383
 21
47.43017322456244
 31
0.0
  0
LINE
  5
5B68
330
A
100
AcDbEntity
  8
0
  6
Continuous
 62
     8
370
     0
100
AcDbLine
 10
281.8418251424383
 20
-32.56982778123755
 30
0.0
 11
282.3418224304383
 21
-32.56982778123755
 31
0.0
  0
LINE
  5
5B69
330
A
100
AcDbEntity
  8
0
  6
Continuous
 62
     8
370
     0
100
AcDbLine
 10
281.8418251424383
 20
-38.56982783333756
 30
0.0
 11
282.3418224304383
 21
-38.56982783333756
 31
0.0
  0
LINE
  5
5B6A
330
A
100
AcDbEntity
  8
0
  6
Continuous
 62
     8
370
     0
100
AcDbLine
 10
281.8418251424383
 20
45.43016917146245
 30
0.0
 11
282.3418224304383
 21
45.43016917146245
 31
0.0
  0
LINE
  5
5B6B
330
A
100
AcDbEntity
  8
0
  6
Continuous
 62
     8
370
     0
100
AcDbLine
 10
269.9418248682383
 20
-38.56982783333756
 30
0.0
 11
270.4418221562383
 21
-38.56982783333756
 31
0.0
  0
LINE
  5
5B6C
330
A
100
AcDbEntity
  8
0
  6
Continuous
 62
     8
370
     0
100
AcDbLine
 10
269.9418248682383
 20
53.43017048276245
 30
0.0
 11
270.4418221562383
 21
53.43017048276245
 31
0.0
  0
LINE
  5
5B6D
330
A
100
AcDbEntity
  8
0
  6
Continuous
 62
     8
370
     0
100
AcDbLine
 10
269.9418248682383
 20
-32.56982778123755
 30
0.0
 11
270.4418221562383
 21
-32.56982778123755
 31
0.0
  0
LINE
  5
5B6E
330
A
100
AcDbEntity
  8
0
  6
Continuous
 62
     8
370
     0
100
AcDbLine
 10
269.9418248682383
 20
47.43017322456244
 30
0.0
 11
270.4418221562383
 21
47.43017322456244
 31
0.0
  0
LINE
  5
5B6F
330
A
100
AcDbEntity
  8
0
  6
Continuous
 62
     8
370
     0
100
AcDbLine
 10
269.9418248682383
 20
45.43016917146245
 30
0.0
 11
270.4418221562383
 21
45.43016917146245
 31
0.0
  0
SPLINE
  5
5B70
330
A
100
AcDbEntity
  8
0
100
AcDbSpline
210
0.0
220
0.0
230
1.0
 70
     8
 71
     3
 72
    13
 73
     9
 74
     0
 42
0.000000001
 43
0.00000001
 40
0.0
 40
0.0
 40
0.0
 40
0.0
 40
0.1190532570062385
 40
0.3025425835959513
 40
0.4893053503796027
 40
0.6791258716383252
 40
0.8753439193255026
 40
1.0
 40
1.0
 40
1.0
 40
1.0
 10
596.2682303702877
 20
-45.60289600976091
 30
0.0
 10
596.2639579727532
 20
-45.50600769199821
 30
0.0
 10
596.2531007965554
 20
-45.25979147991552
 30
0.0
 10
596.1501627863079
 20
-44.85995096061203
 30
0.0
 10
595.9525133520403
 20
-44.420489937198
 30
0.0
 10
595.6715178000343
 20
-44.0147070441854
 30
0.0
 10
595.3667774083194
 20
-43.70792866660753
 30
0.0
 10
595.1466148015996
 20
-43.5668956769415
 30
0.0
 10
595.061084042841
 20
-43.51210590679921
 30
0.0
  0
LINE
  5
5B71
330
A
100
AcDbEntity
  8
0
100
AcDbLine
 10
596.2682303702964
 20
-121.9494645491971
 30
0.0
 11
596.2682303702964
 21
-45.60289600979712
 31
0.0
  0
LINE
  5
5B72
330
A
100
AcDbEntity
  8
0
100
AcDbLine
 10
595.0610840427964
 20
-43.5121059067971
 30
0.0
 11
542.0280759806965
 21
-12.89680201759711
 31
0.0
  0
LINE
  5
5B73
330
A
100
AcDbEntity
  8
0
100
AcDbLine
 10
539.2782996799964
 20
-12.72352287779711
 30
0.0
 11
534.3285500832965
 21
-15.5809524978971
 31
0.0
  0
SPLINE
  5
5B74
330
A
100
AcDbEntity
  8
0
100
AcDbSpline
210
0.0
220
0.0
230
1.0
 70
     8
 71
     3
 72
    13
 73
     9
 74
     0
 42
0.000000001
 43
0.00000001
 40
0.0
 40
0.0
 40
0.0
 40
0.0
 40
0.1171906728193046
 40
0.3334489635403826
 40
0.5221634819404308
 40
0.702535680256704
 40
0.8771159050481427
 40
1.0
 40
1.0
 40
1.0
 40
1.0
 10
542.0280759806856
 20
-12.8968020175833
 30
0.0
 10
541.9239191292382
 20
-12.8401249859233
 30
0.0
 10
541.6275560030167
 20
-12.67885876047268
 30
0.0
 10
541.1474253246964
 20
-12.50708797412068
 30
0.0
 10
540.5997682271052
 20
-12.41395203824243
 30
0.0
 10
540.0935912862694
 20
-12.4327446936361
 30
0.0
 10
539.6564371520265
 20
-12.52787933173863
 30
0.0
 10
539.4162182799846
 20
-12.66207279005289
 30
0.0
 10
539.3169825844003
 20
-12.71750882247403
 30
0.0
  0
LINE
  5
5B75
330
A
100
AcDbEntity
  8
0
100
AcDbLine
 10
590.6112935339964
 20
-126.1307869598971
 30
0.0
 11
595.5610431307964
 21
-123.2733573397971
 31
0.0
  0
SPLINE
  5
5B76
330
A
100
AcDbEntity
  8
0
100
AcDbSpline
210
0.0
220
0.0
230
1.0
 70
     8
 71
     3
 72
    12
 73
     8
 74
     0
 42
0.000000001
 43
0.00000001
 40
0.0
 40
0.0
 40
0.0
 40
0.0
 40
0.1835531456569836
 40
0.4228667577507708
 40
0.6557181335021591
 40
0.8944307036128338
 40
0.9999999999999999
 40
0.9999999999999999
 40
0.9999999999999999
 40
0.9999999999999999
 10
595.5521712191558
 20
-123.2641578203112
 30
0.0
 10
595.6358627751044
 20
-123.2147166089506
 30
0.0
 10
595.8286700233184
 20
-123.1008147486881
 30
0.0
 10
596.0452389234106
 20
-122.8231728932807
 30
0.0
 10
596.2019373199084
 20
-122.4849340789498
 30
0.0
 10
596.2619720737364
 20
-122.1864384684857
 30
0.0
 10
596.26676169794
 20
-122.005076653821
 30
0.0
 10
596.2682303702877
 20
-121.9494645492383
 30
0.0
  0
SPLINE
  5
5B77
330
A
100
AcDbEntity
  8
0
100
AcDbSpline
210
0.0
220
0.0
230
1.0
 70
     8
 71
     3
 72
    14
 73
    10
 74
     0
 42
0.000000001
 43
0.00000001
 40
0.0
 40
0.0
 40
0.0
 40
0.0
 40
0.0477031812128397
 40
0.2269320624211508
 40
0.4047577674715263
 40
0.5862609940867145
 40
0.7754650246809007
 40
0.9737313540049003
 40
1.0
 40
1.0
 40
1.0
 40
1.0
 10
520.611257642818
 20
-23.51339784021343
 30
0.0
 10
520.5710772745064
 20
-23.53265122523379
 30
0.0
 10
520.3799324992947
 20
-23.6242428185019
 30
0.0
 10
520.0996032848409
 20
-23.88905549016283
 30
0.0
 10
519.7907886394555
 20
-24.28805707644773
 30
0.0
 10
519.5681861760114
 20
-24.76147189525909
 30
0.0
 10
519.4267552206284
 20
-25.29573643459793
 30
0.0
 10
519.3872006731114
 20
-25.71057979633719
 30
0.0
 10
519.3857873646102
 20
-25.94159016149598
 30
0.0
 10
519.3856220197652
 20
-25.9686163719781
 30
0.0
  0
LINE
  5
5B78
330
A
100
AcDbEntity
  8
0
100
AcDbLine
 10
525.5604277203964
 20
-20.64268179609712
 30
0.0
 11
520.6106794406965
 21
-23.50011065589712
 31
0.0
  0
LINE
  5
5B79
330
A
100
AcDbEntity
  8
0
100
AcDbLine
 10
519.3856220197964
 20
-25.96861637199709
 30
0.0
 11
519.3856220197964
 21
-98.23247638049712
 31
0.0
  0
SPLINE
  5
5B7A
330
A
100
AcDbEntity
  8
0
100
AcDbSpline
210
0.0
220
0.0
230
1.0
 70
     8
 71
     3
 72
    12
 73
     8
 74
     0
 42
0.000000001
 43
0.00000001
 40
0.0
 40
0.0
 40
0.0
 40
0.0
 40
0.1943429930148677
 40
0.4462412331369607
 40
0.6873082288782597
 40
0.9247318195555074
 40
0.9999999999999999
 40
0.9999999999999999
 40
0.9999999999999999
 40
0.9999999999999999
 10
575.3935456277268
 20
-134.0004372266613
 30
0.0
 10
575.4844628931824
 20
-134.0473646896567
 30
0.0
 10
575.6932228387864
 20
-134.1551173213836
 30
0.0
 10
576.0472422133337
 20
-134.2389618820771
 30
0.0
 10
576.4296095610368
 20
-134.2264579108547
 30
0.0
 10
576.721930041437
 20
-134.156725126752
 30
0.0
 10
576.8563129304343
 20
-134.0610390616792
 30
0.0
 10
576.8886602976241
 20
-134.0380064248238
 30
0.0
  0
LINE
  5
5B7B
330
A
100
AcDbEntity
  8
0
100
AcDbLine
 10
576.8934228914964
 20
-134.0499451177971
 30
0.0
 11
581.8431711710964
 21
-131.1925162579971
 31
0.0
  0
LINE
  5
5B7C
330
A
100
AcDbEntity
  8
0
100
AcDbLine
 10
522.3605375655964
 20
-103.3851333373971
 30
0.0
 11
575.3935456276964
 21
-134.0004372266971
 31
0.0
  0
SPLINE
  5
5B7D
330
A
100
AcDbEntity
  8
0
100
AcDbSpline
210
0.0
220
0.0
230
1.0
 70
     8
 71
     3
 72
    17
 73
    13
 74
     0
 42
0.000000001
 43
0.00000001
 40
0.0
 40
0.0
 40
0.0
 40
0.0
 40
0.0622723763358961
 40
0.175253445769973
 40
0.2878534624838252
 40
0.3999979630795638
 40
0.5118227680614205
 40
0.623704700626373
 40
0.7360131447718584
 40
0.8491858640731418
 40
0.9636979079212473
 40
1.0
 40
1.0
 40
1.0
 40
1.0
 10
519.3856220197652
 20
-98.2324763805049
 30
0.0
 10
519.3885522333088
 20
-98.35154887518938
 30
0.0
 10
519.3967987472624
 20
-98.68665516497258
 30
0.0
 10
519.4840667747903
 20
-99.25637829122518
 30
0.0
 10
519.6687584761326
 20
-99.93235239479087
 30
0.0
 10
519.9347864631386
 20
-100.6004391755142
 30
0.0
 10
520.2725867666428
 20
-101.2445349924605
 30
0.0
 10
520.674329974719
 20
-101.8498178264656
 30
0.0
 10
521.1315173538192
 20
-102.4024891353616
 30
0.0
 10
521.6362976191899
 20
-102.8878092887375
 30
0.0
 10
522.05431620721
 20
-103.2022342843204
 30
0.0
 10
522.3011280954993
 20
-103.3496494120883
 30
0.0
 10
522.3605375655713
 20
-103.3851333374454
 30
0.0
  0
LINE
  5
5B7E
330
A
100
AcDbEntity
  8
0
100
AcDbLine
 10
568.0206001012964
 20
-30.22896199139711
 30
0.0
 11
564.2701259903964
 21
-28.0638593726971
 31
0.0
  0
LINE
  5
5B7F
330
A
100
AcDbEntity
  8
0
100
AcDbLine
 10
545.4983447540965
 20
-30.6000085255971
 30
0.0
 11
545.1914340374965
 21
-30.77718431099709
 31
0.0
  0
LINE
  5
5B80
330
A
100
AcDbEntity
  8
0
100
AcDbLine
 10
536.8819220698964
 20
-16.79551772539713
 30
0.0
 11
535.9524023019965
 21
-17.33211806559711
 31
0.0
  0
LINE
  5
5B81
330
A
100
AcDbEntity
  8
0
100
AcDbLine
 10
588.5203462325965
 20
-53.9195660038971
 30
0.0
 11
589.5102940445964
 21
-53.34808129649713
 31
0.0
  0
LINE
  5
5B82
330
A
100
AcDbEntity
  8
0
100
AcDbLine
 10
537.9701510642965
 20
-18.3773826981971
 30
0.0
 11
536.9802032522964
 21
-18.94886740569711
 31
0.0
  0
LINE
  5
5B83
330
A
100
AcDbEntity
  8
0
100
AcDbLine
 10
588.5203462325965
 20
-124.1420766899971
 30
0.0
 11
589.5102940445964
 21
-123.5705919824971
 31
0.0
  0
LINE
  5
5B84
330
A
100
AcDbEntity
  8
0
100
AcDbLine
 10
587.5453500150963
 20
-114.1361382725971
 30
0.0
 11
587.1917959079965
 21
-113.9320358309971
 31
0.0
  0
LINE
  5
5B85
330
A
100
AcDbEntity
  8
0
100
AcDbLine
 10
583.1921205703964
 20
-120.8604269057971
 30
0.0
 11
583.5456746774964
 21
-121.0645293473971
 31
0.0
  0
LINE
  5
5B86
330
A
100
AcDbEntity
  8
0
100
AcDbLine
 10
587.5453500150963
 20
-60.24444383949708
 30
0.0
 11
587.1917959079965
 21
-60.04034139789712
 31
0.0
  0
LINE
  5
5B87
330
A
100
AcDbEntity
  8
0
100
AcDbLine
 10
583.1921205703964
 20
-66.96873361339709
 30
0.0
 11
583.5456746774964
 21
-67.1728360549971
 31
0.0
  0
LINE
  5
5B88
330
A
100
AcDbEntity
  8
0
100
AcDbLine
 10
590.3184835723964
 20
-56.01332823709708
 30
0.0
 11
590.3184835723964
 21
-48.46032562989711
 31
0.0
  0
ARC
  5
5B89
330
A
100
AcDbEntity
  8
0
100
AcDbCircle
 10
588.7832749837964
 20
-48.53018692069713
 30
0.0
 40
1.53679732253037
100
AcDbArc
 50
2.605507551599657
 51
57.39473907100351
  0
LINE
  5
5B8A
330
A
100
AcDbEntity
  8
0
100
AcDbLine
 10
589.6113753581965
 20
-47.23558436369711
 30
0.0
 11
536.5783672959965
 21
-16.62028047449712
 31
0.0
  0
ARC
  5
5B8B
330
A
100
AcDbEntity
  8
0
100
AcDbCircle
 10
535.6122529113965
 20
-17.80471201759713
 30
0.0
 40
1.528481300013084
100
AcDbArc
 50
50.79664221960156
 51
189.2141095352006
  0
LINE
  5
5B8C
330
A
100
AcDbEntity
  8
0
100
AcDbLine
 10
534.1034938147964
 20
-18.04945897439711
 30
0.0
 11
534.1034938147964
 21
-24.37625471369711
 31
0.0
  0
LINE
  5
5B8D
330
A
100
AcDbEntity
  8
0
100
AcDbLine
 10
584.3069547628965
 20
-122.1530534024971
 30
0.0
 11
589.6113753581965
 21
-125.2152302318971
 31
0.0
  0
ARC
  5
5B8E
330
A
100
AcDbEntity
  8
0
100
AcDbCircle
 10
589.8874081146964
 20
-124.8768198721971
 30
0.0
 40
0.4367100344235659
100
AcDbArc
 50
230.7967463117992
 51
9.213820605702566
  0
LINE
  5
5B8F
330
A
100
AcDbEntity
  8
0
100
AcDbLine
 10
590.3184835723964
 20
-124.8068941692971
 30
0.0
 11
590.3184835723964
 21
-118.6826720558971
 31
0.0
  0
LINE
  5
5B90
330
A
100
AcDbEntity
  8
0
100
AcDbLine
 10
591.0255891523964
 20
-125.2150975317971
 30
0.0
 11
591.0255891523964
 21
-118.2744675536971
 31
0.0
  0
ARC
  5
5B91
330
A
100
AcDbEntity
  8
0
100
AcDbCircle
 10
590.1634399662964
 20
-125.3549514118971
 30
0.0
 40
0.8734187579922671
100
AcDbArc
 50
230.7967527686998
 51
9.213998986001554
  0
LINE
  5
5B92
330
A
100
AcDbEntity
  8
0
100
AcDbLine
 10
583.5997319619964
 20
-122.5613233154971
 30
0.0
 11
589.6113753581965
 21
-126.0317711775971
 31
0.0
  0
LINE
  5
5B93
330
A
100
AcDbEntity
  8
0
100
AcDbLine
 10
533.3963856005964
 20
-17.64125409119708
 30
0.0
 11
533.3963856005964
 21
-23.96804983049708
 31
0.0
  0
ARC
  5
5B94
330
A
100
AcDbEntity
  8
0
100
AcDbCircle
 10
535.3459618845964
 20
-17.34344968619712
 30
0.0
 40
1.972190444837528
100
AcDbArc
 50
51.32576209109993
 51
188.6849896636009
  0
LINE
  5
5B95
330
A
100
AcDbEntity
  8
0
100
AcDbLine
 10
589.6113753581965
 20
-46.41904189709709
 30
0.0
 11
536.5783672959965
 21
-15.8037380078971
 31
0.0
  0
ARC
  5
5B96
330
A
100
AcDbEntity
  8
0
100
AcDbCircle
 10
587.9551596421963
 20
-49.00825208999709
 30
0.0
 40
3.073606988727276
100
AcDbArc
 50
2.605506710700543
 51
57.39455505419933
  0
LINE
  5
5B97
330
A
100
AcDbEntity
  8
0
100
AcDbLine
 10
591.0255891523964
 20
-56.42153159959713
 30
0.0
 11
591.0255891523964
 21
-48.86852899229712
 31
0.0
  0
LINE
  5
5B98
330
A
100
AcDbEntity
  8
0
100
AcDbLine
 10
590.3184835723964
 20
-56.01332823709708
 30
0.0
 11
591.0255891523964
 21
-56.42153159959713
 31
0.0
  0
LINE
  5
5B99
330
A
100
AcDbEntity
  8
0
100
AcDbLine
 10
592.0508955360965
 20
-117.0701981480971
 30
0.0
 11
594.2075708477964
 21
-115.8251759916971
 31
0.0
  0
LINE
  5
5B9A
330
A
100
AcDbEntity
  8
0
100
AcDbLine
 10
594.2075708477964
 20
-54.58461266679711
 30
0.0
 11
594.2075708477964
 21
-115.8251759916971
 31
0.0
  0
LINE
  5
5B9B
330
A
100
AcDbEntity
  8
0
100
AcDbLine
 10
591.0255891523964
 20
-56.42153159959713
 30
0.0
 11
594.2075708477964
 21
-54.58461266679711
 31
0.0
  0
LINE
  5
5B9C
330
A
100
AcDbEntity
  8
0
100
AcDbLine
 10
560.2310891182965
 20
-27.6620658369971
 30
0.0
 11
567.3021566897964
 21
-31.74410625729712
 31
0.0
  0
LINE
  5
5B9D
330
A
100
AcDbEntity
  8
0
100
AcDbLine
 10
567.3021566897964
 20
-31.74410625729712
 30
0.0
 11
569.4234786981965
 21
-30.51949312849712
 31
0.0
  0
ARC
  5
5B9E
330
A
100
AcDbEntity
  8
0
100
AcDbCircle
 10
554.3415117579964
 20
-48.47964895709708
 30
0.0
 40
23.45278073433992
100
AcDbArc
 50
49.97827823619983
 51
70.02709829649983
  0
LINE
  5
5B9F
330
A
100
AcDbEntity
  8
0
100
AcDbLine
 10
562.3524111266964
 20
-26.4374527081971
 30
0.0
 11
560.2310891182965
 21
-27.6620658369971
 31
0.0
  0
LINE
  5
5BA0
330
A
100
AcDbEntity
  8
0
100
AcDbLine
 10
594.2075708477964
 20
-115.8251759916971
 30
0.0
 11
593.5004652677965
 21
-115.4169726291971
 31
0.0
  0
LINE
  5
5BA1
330
A
100
AcDbEntity
  8
0
100
AcDbLine
 10
593.5004652677965
 20
-115.4169726291971
 30
0.0
 11
593.5004652677965
 21
-54.99281792949711
 31
0.0
  0
LINE
  5
5BA2
330
A
100
AcDbEntity
  8
0
100
AcDbLine
 10
562.3524111266964
 20
-27.25399517479713
 30
0.0
 11
562.3524111266964
 21
-26.4374527081971
 31
0.0
  0
LINE
  5
5BA3
330
A
100
AcDbEntity
  8
0
100
AcDbLine
 10
562.3524111266964
 20
-27.25399517479713
 30
0.0
 11
563.1889035802965
 21
-27.58747315079711
 31
0.0
  0
ARC
  5
5BA4
330
A
100
AcDbEntity
  8
0
100
AcDbCircle
 10
554.7945681814964
 20
-48.6988866665971
 30
0.0
 40
22.71361573804117
100
AcDbArc
 50
51.78447404799997
 51
67.33792716389988
  0
LINE
  5
5BA5
330
A
100
AcDbEntity
  8
0
100
AcDbLine
 10
560.9383132362964
 20
-28.07033651059709
 30
0.0
 11
562.3524111266964
 21
-27.25399517479713
 31
0.0
  0
LINE
  5
5BA6
330
A
100
AcDbEntity
  8
0
100
AcDbLine
 10
592.0508955360965
 20
-116.2537914230971
 30
0.0
 11
593.5004652677965
 21
-115.4169726291971
 31
0.0
  0
ARC
  5
5BA7
330
A
100
AcDbEntity
  8
0
100
AcDbCircle
 10
579.1870372792964
 20
-54.06998138819711
 30
0.0
 40
3.073606988727136
100
AcDbArc
 50
2.605506710699581
 51
57.39455505419998
  0
LINE
  5
5BA8
330
A
100
AcDbEntity
  8
0
100
AcDbLine
 10
582.2574667894964
 20
-123.3361968518971
 30
0.0
 11
582.2574667894964
 21
-130.2768268299971
 31
0.0
  0
LINE
  5
5BA9
330
A
100
AcDbEntity
  8
0
100
AcDbLine
 10
582.2574667894964
 20
-53.93025829049708
 30
0.0
 11
582.2574667894964
 21
-61.48326089779709
 31
0.0
  0
LINE
  5
5BAA
330
A
100
AcDbEntity
  8
0
100
AcDbLine
 10
582.2574667894964
 20
-61.48326089779709
 30
0.0
 11
579.0754850939963
 21
-63.32017983059711
 31
0.0
  0
LINE
  5
5BAB
330
A
100
AcDbEntity
  8
0
100
AcDbLine
 10
579.0754850939963
 20
-124.5607431555971
 30
0.0
 11
579.0754850939963
 21
-63.32017983059711
 31
0.0
  0
LINE
  5
5BAC
330
A
100
AcDbEntity
  8
0
100
AcDbLine
 10
579.1461969690964
 20
-124.5199220589971
 30
0.0
 11
579.0754850939963
 21
-124.5607431555971
 31
0.0
  0
LINE
  5
5BAD
330
A
100
AcDbEntity
  8
0
100
AcDbLine
 10
527.8102449330964
 20
-20.86546730599713
 30
0.0
 11
580.8432529952964
 21
-51.48077119529711
 31
0.0
  0
LINE
  5
5BAE
330
A
100
AcDbEntity
  8
0
100
AcDbLine
 10
555.4227645064964
 20
-38.6019333917971
 30
0.0
 11
548.3516969349964
 21
-34.5198929713971
 31
0.0
  0
LINE
  5
5BAF
330
A
100
AcDbEntity
  8
0
100
AcDbLine
 10
548.3516969349964
 20
-34.5198929713971
 30
0.0
 11
546.2303762437964
 21
-35.7445053398971
 31
0.0
  0
ARC
  5
5BB0
330
A
100
AcDbEntity
  8
0
100
AcDbCircle
 10
561.3122901684965
 20
-17.78444134669712
 30
0.0
 40
23.45267631364618
100
AcDbArc
 50
229.9782331424999
 51
250.0271433901997
  0
LINE
  5
5BB1
330
A
100
AcDbEntity
  8
0
100
AcDbLine
 10
553.3014438152965
 20
-39.82654576019712
 30
0.0
 11
555.4227645064964
 21
-38.6019333917971
 31
0.0
  0
LINE
  5
5BB2
330
A
100
AcDbEntity
  8
0
100
AcDbLine
 10
548.3516969349964
 20
-35.33643543809711
 30
0.0
 11
548.3516969349964
 21
-34.5198929713971
 31
0.0
  0
LINE
  5
5BB3
330
A
100
AcDbEntity
  8
0
100
AcDbLine
 10
548.3516969349964
 20
-35.33643543809711
 30
0.0
 11
549.0587748561965
 21
-35.7446228333971
 31
0.0
  0
LINE
  5
5BB4
330
A
100
AcDbEntity
  8
0
100
AcDbLine
 10
554.5388810085965
 20
-38.90822077619708
 30
0.0
 11
554.7155427756965
 21
-39.01020544349711
 31
0.0
  0
LINE
  5
5BB5
330
A
100
AcDbEntity
  8
0
100
AcDbLine
 10
546.8081581703964
 20
-36.2275013999971
 30
0.0
 11
548.3516969349964
 21
-35.33643543809711
 31
0.0
  0
ARC
  5
5BB6
330
A
100
AcDbEntity
  8
0
100
AcDbCircle
 10
526.4924302183964
 20
-22.70215224799711
 30
0.0
 40
2.260541350760664
100
AcDbArc
 50
54.34069902129841
 51
114.3488790504986
  0
ARC
  5
5BB7
330
A
100
AcDbEntity
  8
0
100
AcDbCircle
 10
581.3060650439963
 20
-130.3979404042971
 30
0.0
 40
0.9590796521409007
100
AcDbArc
 50
304.0573496456027
 51
7.254740141300907
  0
LINE
  5
5BB8
330
A
100
AcDbEntity
  8
0
100
AcDbLine
 10
579.1461969690964
 20
-124.9281925317971
 30
0.0
 11
579.3229740226964
 21
-125.0302437525971
 31
0.0
  0
LINE
  5
5BB9
330
A
100
AcDbEntity
  8
0
100
AcDbLine
 10
579.0754850939963
 20
-63.64680887079709
 30
0.0
 11
579.3229740226964
 21
-63.78968118819711
 31
0.0
  0
LINE
  5
5BBA
330
A
100
AcDbEntity
  8
0
100
AcDbLine
 10
579.3229740226964
 20
-63.78968118819711
 30
0.0
 11
579.3229740226964
 21
-125.0302437525971
 31
0.0
  0
LINE
  5
5BBB
330
A
100
AcDbEntity
  8
0
100
AcDbLine
 10
589.9295761618964
 20
-55.21739688999713
 30
0.0
 11
582.2574667894964
 21
-59.6464113563971
 31
0.0
  0
LINE
  5
5BBC
330
A
100
AcDbEntity
  8
0
100
AcDbLine
 10
589.9295761618964
 20
-55.21739688999713
 30
0.0
 11
590.3184835723964
 21
-55.44190835909711
 31
0.0
  0
LINE
  5
5BBD
330
A
100
AcDbEntity
  8
0
100
AcDbLine
 10
591.5205064235964
 20
-56.1358213807971
 30
0.0
 11
592.0508955360965
 21
-56.4420084980971
 31
0.0
  0
LINE
  5
5BBE
330
A
100
AcDbEntity
  8
0
100
AcDbLine
 10
592.0508955360965
 20
-56.4420084980971
 30
0.0
 11
579.3229740226964
 21
-63.78968118819711
 31
0.0
  0
LINE
  5
5BBF
330
A
100
AcDbEntity
  8
0
100
AcDbLine
 10
579.3229740226964
 20
-125.0302437525971
 30
0.0
 11
592.0508955360965
 21
-117.6825710624971
 31
0.0
  0
LINE
  5
5BC0
330
A
100
AcDbEntity
  8
0
100
AcDbLine
 10
592.0508955360965
 20
-117.6825710624971
 30
0.0
 11
592.0508955360965
 21
-56.4420084980971
 31
0.0
  0
LINE
  5
5BC1
330
A
100
AcDbEntity
  8
0
100
AcDbLine
 10
589.2224679476965
 20
-90.32818854329713
 30
0.0
 11
589.2224679476965
 21
-87.0620247603971
 31
0.0
  0
LWPOLYLINE
  5
5BC2
330
A
100
AcDbEntity
  8
0
100
AcDbPolyline
 90
       20
 70
   128
 43
0.0
 10
589.2224679476965
 20
-87.0620247603971
 10
589.1742493188965
 20
-86.41787014389712
 10
589.0309026186965
 20
-85.8469619914971
 10
588.7963448699963
 20
-85.36486734619712
 10
588.4769665886964
 20
-84.9847458574971
 10
588.0814869040964
 20
-84.71695584819713
 10
587.6206875067965
 20
-84.56880941999708
 10
587.1071413285964
 20
-84.5443458107971
 10
586.5548569281964
 20
-84.64422945859712
 10
585.9788965356964
 20
-84.86573931969713
 10
585.3949730229965
 20
-85.20283118829713
 10
584.8190126304964
 20
-85.6463110417971
 10
584.2667255959964
 20
-86.18408291039708
 10
583.7531794177964
 20
-86.80147431619713
 10
583.2923826546964
 20
-87.48164688329712
 10
582.8969003357964
 20
-88.2060495379971
 10
582.5775246886965
 20
-88.95491582059708
 10
582.3429643058964
 20
-89.70782659869712
 10
582.1996202398964
 20
-90.44423780749713
 10
582.1514016109963
 20
-91.14406446789712
  0
LINE
  5
5BC3
330
A
100
AcDbEntity
  8
0
100
AcDbLine
 10
582.1514016109963
 20
-91.14406446789712
 30
0.0
 11
582.1514016109963
 21
-94.41022825079709
 31
0.0
  0
LWPOLYLINE
  5
5BC4
330
A
100
AcDbEntity
  8
0
100
AcDbPolyline
 90
       20
 70
   128
 43
0.0
 10
582.1514016109963
 20
-94.41022825079709
 10
582.1996202398964
 20
-95.05438286729706
 10
582.3429643058964
 20
-95.62529406129708
 10
582.5775246886965
 20
-96.10738566489708
 10
582.8969003357964
 20
-96.48751019519709
 10
583.2923826546964
 20
-96.75529716299711
 10
583.7531794177964
 20
-96.9034451117971
 10
584.2667255959964
 20
-96.92790872109707
 10
584.8190126304964
 20
-96.82802355259712
 10
585.3949730229965
 20
-96.60651369149711
 10
585.9788965356964
 20
-96.26942182279707
 10
586.5548569281964
 20
-95.82594196939708
 10
587.1071413285964
 20
-95.2881716213971
 10
587.6206875067965
 20
-94.67078021569709
 10
588.0814869040964
 20
-93.99060612789707
 10
588.4769665886964
 20
-93.26620651479708
 10
588.7963448699963
 20
-92.51733719059712
 10
589.0309026186965
 20
-91.76442945409713
 10
589.1742493188965
 20
-91.02801520369712
 10
589.2224679476965
 20
-90.32818854329713
  0
LWPOLYLINE
  5
5BC5
330
A
100
AcDbEntity
  8
0
100
AcDbPolyline
 90
       36
 70
   128
 43
0.0
 10
582.7170860749964
 20
-65.5047370230971
 10
582.7648121125965
 20
-66.08954050659713
 10
582.9064597678964
 20
-66.60044341459712
 10
583.1374719129965
 20
-67.02102844669713
 10
583.4504254339964
 20
-67.33777083429709
 10
583.8352630393964
 20
-67.54049768199712
 10
584.2796172632964
 20
-67.6226845785971
 10
584.7692003238965
 20
-67.58169898199708
 10
585.2882809101964
 20
-67.41885349579712
 10
585.8201767725964
 20
-67.13938006029713
 10
586.3477868272964
 20
-66.75226574229708
 10
586.8541601387965
 20
-66.26994860309713
 10
587.3230148524965
 20
-65.70793599519709
 10
587.7392861042964
 20
-65.0842874987971
 10
588.0895922698965
 20
-64.41904765979712
 10
588.3626748722965
 20
-63.73359963849708
 10
588.5497568302965
 20
-63.04997474209711
 10
588.6448269496964
 20
-62.39014065859709
 10
588.6448269496964
 20
-61.77530945289709
 10
588.5497568302965
 20
-61.22524099279713
 10
588.3626748722965
 20
-60.75761936929712
 10
588.0895922698965
 20
-60.38746276759713
 10
587.7392861042964
 20
-60.12667781839713
 10
587.3230148524965
 20
-59.98364587909708
 10
586.8541601387965
 20
-59.96296140119711
 10
586.3477868272964
 20
-60.06529044289709
 10
585.8201767725964
 20
-60.2873417275971
 10
585.2882809101964
 20
-60.62198218309709
 10
584.7692003238965
 20
-61.05845742679713
 10
584.2796172632964
 20
-61.5827323999971
 10
583.8352630393964
 20
-62.17795672129711
 10
583.4504254339964
 20
-62.82500456859708
 10
583.1374719129965
 20
-63.50307844239711
 10
582.9064597678964
 20
-64.19038441979711
 10
582.7648121125965
 20
-64.86483022959709
 10
582.7170860749964
 20
-65.5047370230971
  0
LWPOLYLINE
  5
5BC6
330
A
100
AcDbEntity
  8
0
100
AcDbPolyline
 90
       36
 70
   128
 43
0.0
 10
582.7170860749964
 20
-119.3964310759971
 10
582.7648121125965
 20
-119.9812349397971
 10
582.9064597678964
 20
-120.4921378477971
 10
583.1374719129965
 20
-120.9127205984971
 10
583.4504254339964
 20
-121.2294652673971
 10
583.8352630393964
 20
-121.4321902138971
 10
584.2796172632964
 20
-121.5143778710971
 10
584.7692003238965
 20
-121.4733915138971
 10
585.2882809101964
 20
-121.3105452672971
 10
585.8201767725964
 20
-121.0310725922971
 10
586.3477868272964
 20
-120.6439590346971
 10
586.8541601387965
 20
-120.1616434164971
 10
587.3230148524965
 20
-119.5996300480971
 10
587.7392861042964
 20
-118.9759807911971
 10
588.0895922698965
 20
-118.3107417126971
 10
588.3626748722965
 20
-117.6252936913971
 10
588.5497568302965
 20
-116.9416676542971
 10
588.6448269496964
 20
-116.2818343312971
 10
588.6448269496964
 20
-115.6670035058971
 10
588.5497568302965
 20
-115.1169359962971
 10
588.3626748722965
 20
-114.6493100000971
 10
588.0895922698965
 20
-114.2791564402971
 10
587.7392861042964
 20
-114.0183722515971
 10
587.3230148524965
 20
-113.8753397418971
 10
586.8541601387965
 20
-113.8546546936971
 10
586.3477868272964
 20
-113.9569845908971
 10
585.8201767725964
 20
-114.1790366359971
 10
585.2882809101964
 20
-114.5136778994971
 10
584.7692003238965
 20
-114.9501494834971
 10
584.2796172632964
 20
-115.4744236962971
 10
583.8352630393964
 20
-116.0696523901971
 10
583.4504254339964
 20
-116.7167010930971
 10
583.1374719129965
 20
-117.3947740161971
 10
582.9064597678964
 20
-118.0820779023971
 10
582.7648121125965
 20
-118.7565235219971
 10
582.7170860749964
 20
-119.3964310759971
  0
ARC
  5
5BC7
330
A
100
AcDbEntity
  8
0
100
AcDbCircle
 10
584.0382981508965
 20
-65.59416711219711
 30
0.0
 40
1.8271520049004
100
AcDbArc
 50
250.1469186264965
 51
287.9256251132988
  0
ARC
  5
5BC8
330
A
100
AcDbEntity
  8
0
100
AcDbCircle
 10
586.3904569629965
 20
-61.48099734619711
 30
0.0
 40
1.864879739594446
100
AcDbArc
 50
12.47581353520056
 51
49.46217442839923
  0
ARC
  5
5BC9
330
A
100
AcDbEntity
  8
0
100
AcDbCircle
 10
583.6869647879964
 20
-85.7544746949971
 30
0.0
 40
3.415191020944375
100
AcDbArc
 50
358.6084260719
 51
20.30278511019998
  0
ARC
  5
5BCA
330
A
100
AcDbEntity
  8
0
100
AcDbCircle
 10
580.0892986866965
 20
-89.04479757129712
 30
0.0
 40
7.012096252179859
100
AcDbArc
 50
288.9167068995002
 51
359.5197086874998
  0
LINE
  5
5BCB
330
A
100
AcDbEntity
  8
0
100
AcDbLine
 10
587.1011485735964
 20
-89.10357693509712
 30
0.0
 11
587.1011485735964
 21
-85.83741315219709
 31
0.0
  0
ARC
  5
5BCC
330
A
100
AcDbEntity
  8
0
100
AcDbCircle
 10
584.0382978685964
 20
-119.4858115056971
 30
0.0
 40
1.827198617109839
100
AcDbArc
 50
250.1474557855021
 51
287.9251616032031
  0
ARC
  5
5BCD
330
A
100
AcDbEntity
  8
0
100
AcDbCircle
 10
586.3904643129964
 20
-115.3726860794971
 30
0.0
 40
1.864871208700386
100
AcDbArc
 50
12.47567422299922
 51
49.46224741010085
  0
LINE
  5
5BCE
330
A
100
AcDbEntity
  8
0
100
AcDbLine
 10
583.7070338869964
 20
-54.5847263246971
 30
0.0
 11
583.7070338869964
 21
-51.46185200159709
 31
0.0
  0
LINE
  5
5BCF
330
A
100
AcDbEntity
  8
0
100
AcDbLine
 10
583.7070338869964
 20
-51.46185200159709
 30
0.0
 11
576.8687156186963
 21
-47.51417489389712
 31
0.0
  0
ARC
  5
5BD0
330
A
100
AcDbEntity
  8
0
100
AcDbCircle
 10
576.3830289932964
 20
-48.27329468459709
 30
0.0
 40
0.9011960689418133
100
AcDbArc
 50
57.38879153579609
 51
94.32648847809668
  0
ARC
  5
5BD1
330
A
100
AcDbEntity
  8
0
100
AcDbCircle
 10
576.3059721819964
 20
-47.25486036799708
 30
0.0
 40
0.1201492251449674
100
AcDbArc
 50
237.3891750248213
 51
274.3297402751377
  0
LINE
  5
5BD2
330
A
100
AcDbEntity
  8
0
100
AcDbLine
 10
576.2412201670963
 20
-47.35606813889711
 30
0.0
 11
552.6355289594965
 21
-33.72879266939708
 31
0.0
  0
ARC
  5
5BD3
330
A
100
AcDbEntity
  8
0
100
AcDbCircle
 10
552.7719508751965
 20
-33.50344570869709
 30
0.0
 40
0.2634239772035246
100
AcDbArc
 50
217.048758708487
 51
238.8098705701907
  0
ARC
  5
5BD4
330
A
100
AcDbEntity
  8
0
100
AcDbCircle
 10
550.9848141638964
 20
-34.85261752729713
 30
0.0
 40
1.975799598381848
100
AcDbArc
 50
37.05065009940158
 51
58.81010955379926
  0
LINE
  5
5BD5
330
A
100
AcDbEntity
  8
0
100
AcDbLine
 10
552.0080335078965
 20
-33.16240859729709
 30
0.0
 11
547.9981415108964
 21
-30.84754722059711
 31
0.0
  0
ARC
  5
5BD6
330
A
100
AcDbEntity
  8
0
100
AcDbCircle
 10
546.5412284272965
 20
-32.81433865839711
 30
0.0
 40
2.447624213949905
100
AcDbArc
 50
53.47057022270118
 51
115.2190417120012
  0
ARC
  5
5BD7
330
A
100
AcDbEntity
  8
0
100
AcDbCircle
 10
589.9570049703964
 20
-122.8871285475971
 30
0.0
 40
1.026707195643904
100
AcDbArc
 50
234.711942896605
 51
290.6143237259041
  0
LINE
  5
5BD8
330
A
100
AcDbEntity
  8
0
100
AcDbLine
 10
589.3031949676964
 20
-123.6901485771971
 30
0.0
 11
589.3638890636964
 21
-123.7251865329971
 31
0.0
  0
LINE
  5
5BD9
330
A
100
AcDbEntity
  8
0
100
AcDbLine
 10
534.9166672073964
 20
-19.62134391669713
 30
0.0
 11
534.9166672073964
 21
-24.8456874770971
 31
0.0
  0
LWPOLYLINE
  5
5BDA
330
A
100
AcDbEntity
  8
0
100
AcDbPolyline
 90
        9
 70
   128
 43
0.0
 10
537.5931079916965
 20
-17.20607556509708
 10
537.2429756818964
 20
-17.12780659709711
 10
536.6844324744964
 20
-17.10612649839709
 10
536.1796027913964
 20
-17.2228866707971
 10
535.7438254511965
 20
-17.47453735519713
 10
535.3903371985964
 20
-17.85343161559712
 10
535.1298854797965
 20
-18.34806416089708
 10
534.9703780974965
 20
-18.94339229309713
 10
534.9166672073964
 20
-19.62134391669713
  0
LINE
  5
5BDB
330
A
100
AcDbEntity
  8
0
100
AcDbLine
 10
590.3184835723964
 20
-55.2785606639971
 30
0.0
 11
589.7174431707964
 21
-54.9315874256971
 31
0.0
  0
LINE
  5
5BDC
330
A
100
AcDbEntity
  8
0
100
AcDbLine
 10
589.7174431707964
 20
-54.9315874256971
 30
0.0
 11
589.7174431707964
 21
-55.33985865899712
 31
0.0
  0
LINE
  5
5BDD
330
A
100
AcDbEntity
  8
0
100
AcDbLine
 10
593.2529763391965
 20
-115.5598446612971
 30
0.0
 11
593.2529763391965
 21
-55.13568996149712
 31
0.0
  0
LINE
  5
5BDE
330
A
100
AcDbEntity
  8
0
100
AcDbLine
 10
592.1923166520965
 20
-55.74799709529708
 30
0.0
 11
592.1923166520965
 21
-115.5599776465971
 31
0.0
  0
LINE
  5
5BDF
330
A
100
AcDbEntity
  8
0
100
AcDbLine
 10
592.1923166520965
 20
-115.5599776465971
 30
0.0
 11
592.0508955360965
 21
-115.6416183190971
 31
0.0
  0
LINE
  5
5BE0
330
A
100
AcDbEntity
  8
0
100
AcDbLine
 10
592.1923166520965
 20
-115.5599776465971
 30
0.0
 11
592.7225292746964
 21
-115.8660628784971
 31
0.0
  0
LINE
  5
5BE1
330
A
100
AcDbEntity
  8
0
100
AcDbLine
 10
581.8438639599965
 20
-52.53743710599713
 30
0.0
 11
583.7070338869964
 21
-51.46185200159709
 31
0.0
  0
LINE
  5
5BE2
330
A
100
AcDbEntity
  8
0
100
AcDbLine
 10
566.9486912803964
 20
-31.54005113839713
 30
0.0
 11
568.5395952002964
 21
-30.62164185439713
 31
0.0
  0
LINE
  5
5BE3
330
A
100
AcDbEntity
  8
0
100
AcDbLine
 10
568.5395952002964
 20
-30.62164185439713
 30
0.0
 11
568.5395952002964
 21
-31.02974882769712
 31
0.0
  0
LINE
  5
5BE4
330
A
100
AcDbEntity
  8
0
100
AcDbLine
 10
563.2362944187964
 20
-27.56011147969713
 30
0.0
 11
561.6453904988964
 21
-28.47852076379712
 31
0.0
  0
LINE
  5
5BE5
330
A
100
AcDbEntity
  8
0
100
AcDbLine
 10
568.5395952002964
 20
-30.62164185439713
 30
0.0
 11
563.2362944187964
 21
-27.56011147969713
 31
0.0
  0
LINE
  5
5BE6
330
A
100
AcDbEntity
  8
0
100
AcDbLine
 10
583.3534824140964
 20
-54.3806227443971
 30
0.0
 11
582.2574667894964
 21
-55.0133390967971
 31
0.0
  0
LINE
  5
5BE7
330
A
100
AcDbEntity
  8
0
100
AcDbLine
 10
583.3534824140964
 20
-54.3806227443971
 30
0.0
 11
587.3662759582965
 21
-56.69715914859711
 31
0.0
  0
LINE
  5
5BE8
330
A
100
AcDbEntity
  8
0
100
AcDbLine
 10
549.2355802270964
 20
-35.64255174299711
 30
0.0
 11
547.4152446689964
 21
-36.69340909249712
 31
0.0
  0
LINE
  5
5BE9
330
A
100
AcDbEntity
  8
0
100
AcDbLine
 10
554.5388810085965
 20
-38.70408211769711
 30
0.0
 11
549.2355802270964
 21
-35.64255174299711
 31
0.0
  0
LINE
  5
5BEA
330
A
100
AcDbEntity
  8
0
100
AcDbLine
 10
552.8795674852964
 20
-39.66198342519709
 30
0.0
 11
554.5388810085965
 21
-38.70408211769711
 31
0.0
  0
LINE
  5
5BEB
330
A
100
AcDbEntity
  8
0
100
AcDbLine
 10
554.5388810085965
 20
-38.70408211769711
 30
0.0
 11
554.5388810085965
 21
-39.11218909099711
 31
0.0
  0
ARC
  5
5BEC
330
A
100
AcDbEntity
  8
0
100
AcDbCircle
 10
579.9023354849965
 20
-52.35614936359713
 30
0.0
 40
1.334741333506831
100
AcDbArc
 50
36.29408025670148
 51
58.69975134780506
  0
LINE
  5
5BED
330
A
100
AcDbEntity
  8
0
100
AcDbLine
 10
531.8053973869964
 20
-23.04959170229711
 30
0.0
 11
580.5957640666963
 21
-51.21567085459708
 31
0.0
  0
LWPOLYLINE
  5
5BEE
330
A
100
AcDbEntity
  8
0
100
AcDbPolyline
 90
        3
 70
   128
 43
0.0
 10
530.9915127662964
 20
-22.70197379129712
 10
531.2528522030964
 20
-22.7864382170971
 10
531.8053973869964
 20
-23.04959170229711
  0
LINE
  5
5BEF
330
A
100
AcDbEntity
  8
0
100
AcDbLine
 10
588.7274953587964
 20
-48.56247941769709
 30
0.0
 11
588.7274953587964
 21
-53.46172205029711
 31
0.0
  0
ARC
  5
5BF0
330
A
100
AcDbEntity
  8
0
100
AcDbCircle
 10
588.2964184876964
 20
-53.53164656599711
 30
0.0
 40
0.4367112395487054
100
AcDbArc
 50
230.7971145855022
 51
9.21363716929693
  0
LINE
  5
5BF1
330
A
100
AcDbEntity
  8
0
100
AcDbLine
 10
588.0203871445965
 20
-53.87005963369711
 30
0.0
 11
543.8262133204964
 21
-28.35730613929712
 31
0.0
  0
ARC
  5
5BF2
330
A
100
AcDbEntity
  8
0
100
AcDbCircle
 10
543.5501812654965
 20
-28.69571671389713
 30
0.0
 40
0.436709757609729
100
AcDbArc
 50
50.79683545331157
 51
189.2141011385994
  0
LINE
  5
5BF3
330
A
100
AcDbEntity
  8
0
100
AcDbLine
 10
543.1191064233965
 20
-28.76564448309711
 30
0.0
 11
543.1191064233965
 21
-29.5808546187971
 31
0.0
  0
LINE
  5
5BF4
330
A
100
AcDbEntity
  8
0
100
AcDbLine
 10
588.7274953587964
 20
-119.6011302855971
 30
0.0
 11
588.7274953587964
 21
-123.6842327362971
 31
0.0
  0
ARC
  5
5BF5
330
A
100
AcDbEntity
  8
0
100
AcDbCircle
 10
588.2964196451965
 20
-123.7541579959971
 30
0.0
 40
0.4367102160850648
100
AcDbArc
 50
230.79680908259
 51
9.213757834898342
  0
LINE
  5
5BF6
330
A
100
AcDbEntity
  8
0
100
AcDbLine
 10
588.0203871445965
 20
-124.0925687988971
 30
0.0
 11
584.4838187442964
 21
-122.0509513183971
 31
0.0
  0
LINE
  5
5BF7
330
A
100
AcDbEntity
  8
0
100
AcDbLine
 10
536.0480387695964
 20
-25.49881415089709
 30
0.0
 11
536.0480387695964
 21
-21.0091689989971
 31
0.0
  0
ARC
  5
5BF8
330
A
100
AcDbEntity
  8
0
100
AcDbCircle
 10
537.9976072751964
 20
-20.71135112449713
 30
0.0
 40
1.972184789675615
100
AcDbArc
 50
51.32534113909954
 51
188.6854106157004
  0
LINE
  5
5BF9
330
A
100
AcDbEntity
  8
0
100
AcDbLine
 10
539.2300204649964
 20
-19.17165291559712
 30
0.0
 11
588.0203871445965
 21
-47.33773206789709
 31
0.0
  0
ARC
  5
5BFA
330
A
100
AcDbEntity
  8
0
100
AcDbCircle
 10
587.1922729381964
 20
-48.63234226379711
 30
0.0
 40
1.536811210979474
100
AcDbArc
 50
2.605542031301027
 51
57.39445811429987
  0
ARC
  5
5BFB
330
A
100
AcDbEntity
  8
0
100
AcDbCircle
 10
588.1852227907964
 20
-48.0621429966971
 30
0.0
 40
1.533871367413883
100
AcDbArc
 50
2.658606082400635
 51
38.67863284319782
  0
LINE
  5
5BFC
330
A
100
AcDbEntity
  8
0
100
AcDbLine
 10
589.7174431707964
 20
-47.99099471029712
 30
0.0
 11
589.7174431707964
 21
-52.89023734279709
 31
0.0
  0
ARC
  5
5BFD
330
A
100
AcDbEntity
  8
0
100
AcDbCircle
 10
589.2417399392964
 20
-52.95079163039713
 30
0.0
 40
0.4795418503719333
100
AcDbArc
 50
304.057336389412
 51
7.254408293698322
  0
ARC
  5
5BFE
330
A
100
AcDbEntity
  8
0
100
AcDbCircle
 10
538.8368374577965
 20
-20.0259944900971
 30
0.0
 40
1.862542924313947
100
AcDbArc
 50
72.21806188670149
 51
117.731209114201
  0
LINE
  5
5BFF
330
A
100
AcDbEntity
  8
0
100
AcDbLine
 10
544.1090542353965
 20
-28.52058695079711
 30
0.0
 11
544.1090542353965
 21
-30.15233955309708
 31
0.0
  0
LINE
  5
5C00
330
A
100
AcDbEntity
  8
0
100
AcDbLine
 10
589.7174431707964
 20
-119.0296455780971
 30
0.0
 11
589.7174431707964
 21
-123.1127480287971
 31
0.0
  0
ARC
  5
5C01
330
A
100
AcDbEntity
  8
0
100
AcDbCircle
 10
589.2476873557964
 20
-123.1759931942971
 30
0.0
 40
0.4739941736766289
100
AcDbArc
 50
303.6438855140015
 51
7.667859169097086
  0
LWPOLYLINE
  5
5C02
330
A
100
AcDbEntity
  8
0
100
AcDbPolyline
 90
       27
 70
   128
 43
0.0
 10
582.7179474511964
 20
-119.3132972773971
 10
582.7302095499964
 20
-119.5398448859971
 10
582.8281535575964
 20
-120.0753233747971
 10
583.0186336051964
 20
-120.5265189384971
 10
583.2951643466964
 20
-120.8780665762971
 10
583.6483259611964
 20
-121.1179957183971
 10
584.0660960603964
 20
-121.2381340629971
 10
584.5342448143964
 20
-121.2343924065971
 10
585.0368328119964
 20
-121.1068962507971
 10
585.5567405300965
 20
-120.8599892741971
 10
586.0762689266965
 20
-120.5020774937971
 10
586.5777215934964
 20
-120.0453509901971
 10
587.0440237887965
 20
-119.5053619085971
 10
587.4592940529965
 20
-118.9005009340971
 10
587.8093947525964
 20
-118.2513631171971
 10
588.0824009638964
 20
-117.5800555158971
 10
588.2690193064964
 20
-116.9094371530971
 10
588.3628882406964
 20
-116.2623483149971
 10
588.3608177767965
 20
-115.6608212132971
 10
588.2628737691964
 20
-115.1253429145971
 10
588.0723937214964
 20
-114.6741471607971
 10
587.7958629800964
 20
-114.3225997131971
 10
587.4426987313964
 20
-114.0826718064971
 10
587.0249312663964
 20
-113.9625318461971
 10
586.5567825123965
 20
-113.9662737877971
 10
586.0541945147964
 20
-114.0937701336971
 10
585.6148900101964
 20
-114.2951024326971
  0
LINE
  5
5C03
330
A
100
AcDbEntity
  8
0
100
AcDbLine
 10
585.4886786381965
 20
-117.1759245938971
 30
0.0
 11
584.4619181881965
 21
-116.8806566697971
 31
0.0
  0
ARC
  5
5C04
330
A
100
AcDbEntity
  8
0
100
AcDbCircle
 10
587.7057228256964
 20
-118.8507034223971
 30
0.0
 40
3.795174927998639
100
AcDbArc
 50
148.7286037085004
 51
160.7467917586999
  0
LINE
  5
5C05
330
A
100
AcDbEntity
  8
0
100
AcDbLine
 10
584.1228099133964
 20
-117.5992691265971
 30
0.0
 11
585.1495703633964
 21
-117.8945370506971
 31
0.0
  0
LINE
  5
5C06
330
A
100
AcDbEntity
  8
0
100
AcDbLine
 10
585.1495703633964
 20
-117.8945370506971
 30
0.0
 11
584.3805800388964
 21
-119.5241307860971
 31
0.0
  0
ARC
  5
5C07
330
A
100
AcDbEntity
  8
0
100
AcDbCircle
 10
584.8207337012964
 20
-118.8458910989971
 30
0.0
 40
0.8085445687032456
100
AcDbArc
 50
237.0178494090987
 51
270.8944693651045
  0
LINE
  5
5C08
330
A
100
AcDbEntity
  8
0
100
AcDbLine
 10
584.8333557298964
 20
-119.6543371416971
 30
0.0
 11
585.6023486885964
 21
-118.0247418855971
 31
0.0
  0
LINE
  5
5C09
330
A
100
AcDbEntity
  8
0
100
AcDbLine
 10
585.6023486885964
 20
-118.0247418855971
 30
0.0
 11
586.6291091385965
 21
-118.3200096195971
 31
0.0
  0
ARC
  5
5C0A
330
A
100
AcDbEntity
  8
0
100
AcDbCircle
 10
583.3853561783965
 20
-116.3499977385971
 30
0.0
 40
3.795112656859036
100
AcDbArc
 50
328.728648698599
 51
340.7469967295995
  0
LINE
  5
5C0B
330
A
100
AcDbEntity
  8
0
100
AcDbLine
 10
586.9682147791964
 20
-117.6013986834971
 30
0.0
 11
585.9414543291964
 21
-117.3061305692971
 31
0.0
  0
LINE
  5
5C0C
330
A
100
AcDbEntity
  8
0
100
AcDbLine
 10
585.9414543291964
 20
-117.3061305692971
 30
0.0
 11
586.7104472878964
 21
-115.6765353132971
 31
0.0
  0
ARC
  5
5C0D
330
A
100
AcDbEntity
  8
0
100
AcDbCircle
 10
586.2702936477965
 20
-116.3547761030971
 30
0.0
 40
0.8085454815865472
100
AcDbArc
 50
57.01789327690449
 51
90.89446993790555
  0
LINE
  5
5C0E
330
A
100
AcDbEntity
  8
0
100
AcDbLine
 10
586.2576715967964
 20
-115.5463291476971
 30
0.0
 11
585.4886786381965
 21
-117.1759245938971
 31
0.0
  0
LINE
  5
5C0F
330
A
100
AcDbEntity
  8
0
100
AcDbLine
 10
583.0323392334965
 20
-120.7521102100971
 30
0.0
 11
583.1921205703964
 21
-120.8604269057971
 31
0.0
  0
LWPOLYLINE
  5
5C10
330
A
100
AcDbEntity
  8
0
100
AcDbPolyline
 90
        3
 70
   128
 43
0.0
 10
587.1917959079965
 20
-113.9320358309971
 10
587.0891446242964
 20
-113.8785693648971
 10
587.0180929401964
 20
-113.8478355293971
  0
LINE
  5
5C11
330
A
100
AcDbEntity
  8
0
100
AcDbLine
 10
584.2170766084964
 20
-117.3562198642971
 30
0.0
 11
585.1495703633964
 21
-117.8945370506971
 31
0.0
  0
ARC
  5
5C12
330
A
100
AcDbEntity
  8
0
100
AcDbCircle
 10
582.8069563385964
 20
-116.0192798930971
 30
0.0
 40
2.921404096208714
100
AcDbArc
 50
326.8469588151011
 51
337.1265917757999
  0
LINE
  5
5C13
330
A
100
AcDbEntity
  8
0
100
AcDbLine
 10
584.5416890014965
 20
-117.4124360815971
 30
0.0
 11
585.2527932637964
 21
-117.6169293003971
 31
0.0
  0
LINE
  5
5C14
330
A
100
AcDbEntity
  8
0
100
AcDbLine
 10
584.4930410015965
 20
-117.5155278511971
 30
0.0
 11
584.5416890014965
 21
-117.4124360815971
 31
0.0
  0
LINE
  5
5C15
330
A
100
AcDbEntity
  8
0
100
AcDbLine
 10
586.2162438788964
 20
-115.6341206861971
 30
0.0
 11
586.7104472878964
 21
-115.6765353132971
 31
0.0
  0
LINE
  5
5C16
330
A
100
AcDbEntity
  8
0
100
AcDbLine
 10
584.5193037565964
 20
-119.2301558683971
 30
0.0
 11
584.8333557298964
 21
-119.6543371416971
 31
0.0
  0
LINE
  5
5C17
330
A
100
AcDbEntity
  8
0
100
AcDbLine
 10
585.5373266380964
 20
-117.0728326190971
 30
0.0
 11
585.9414543291964
 21
-117.3061305692971
 31
0.0
  0
LINE
  5
5C18
330
A
100
AcDbEntity
  8
0
100
AcDbLine
 10
584.5416890014965
 20
-117.4124360815971
 30
0.0
 11
585.6023486885964
 21
-118.0247418855971
 31
0.0
  0
LINE
  5
5C19
330
A
100
AcDbEntity
  8
0
100
AcDbLine
 10
585.2527932637964
 20
-117.6169293003971
 30
0.0
 11
586.6291091385965
 21
-118.3200096195971
 31
0.0
  0
LWPOLYLINE
  5
5C1A
330
A
100
AcDbEntity
  8
0
100
AcDbPolyline
 90
       28
 70
   128
 43
0.0
 10
582.7179474511964
 20
-65.4216039848971
 10
582.7232052705965
 20
-65.55265961109711
 10
582.8054311378964
 20
-66.10039072399712
 10
582.9809648593964
 20
-66.5666789328971
 10
583.2438321192965
 20
-66.93563608649708
 10
583.5850793466964
 20
-67.19470306049709
 10
583.9930898161964
 20
-67.3350573952971
 10
584.4539629704964
 20
-67.35191751689712
 10
584.9520096451964
 20
-67.24471008489712
 10
585.4702657336964
 20
-67.0170867712971
 10
585.9910848774964
 20
-66.67679807909713
 10
586.4967311557964
 20
-66.23543027749713
 10
586.9699849467964
 20
-65.7080191438971
 10
587.3947303493965
 20
-65.1125192160971
 10
587.7565004577964
 20
-64.46921220259713
 10
588.0429804895964
 20
-63.80000588389709
 10
588.2444108153963
 20
-63.12768737519713
 10
588.3539346695964
 20
-62.47515052899712
 10
588.3678220561965
 20
-61.86462180449712
 10
588.2855961888964
 20
-61.31688764969709
 10
588.1100624673963
 20
-60.85059944079711
 10
587.8471952073965
 20
-60.48163924529712
 10
587.5059453458964
 20
-60.22257379199709
 10
587.0979375104964
 20
-60.08222402019709
 10
586.6370643561964
 20
-60.06536389869711
 10
586.1390176815964
 20
-60.17257133069711
 10
585.6207589588964
 20
-60.4001931230971
 10
585.6148900101964
 20
-60.40341085129711
  0
LINE
  5
5C1B
330
A
100
AcDbEntity
  8
0
100
AcDbLine
 10
585.7167589430965
 20
-63.19234810089711
 30
0.0
 11
585.2853438016964
 21
-62.0463447961971
 31
0.0
  0
ARC
  5
5C1C
330
A
100
AcDbEntity
  8
0
100
AcDbCircle
 10
587.2445921117965
 20
-64.5588171456971
 30
0.0
 40
3.186090276139444
100
AcDbArc
 50
127.947422873501
 51
141.4573883096012
  0
LINE
  5
5C1D
330
A
100
AcDbEntity
  8
0
100
AcDbLine
 10
584.7526076364964
 20
-62.57357544179712
 30
0.0
 11
585.1840227778964
 21
-63.71957570469709
 31
0.0
  0
LINE
  5
5C1E
330
A
100
AcDbEntity
  8
0
100
AcDbLine
 10
585.1840227778964
 20
-63.71957570469709
 30
0.0
 11
583.9759386830965
 21
-64.91517008969709
 31
0.0
  0
ARC
  5
5C1F
330
A
100
AcDbEntity
  8
0
100
AcDbCircle
 10
585.1678228481965
 20
-64.75496497709713
 30
0.0
 40
1.20260281937545
100
AcDbArc
 50
187.6554328069001
 51
213.6030022119984
  0
LINE
  5
5C20
330
A
100
AcDbEntity
  8
0
100
AcDbLine
 10
584.1661842888964
 20
-65.42052769969712
 30
0.0
 11
585.3742683836964
 21
-64.22493331469713
 31
0.0
  0
LINE
  5
5C21
330
A
100
AcDbEntity
  8
0
100
AcDbLine
 10
585.3742683836964
 20
-64.22493331469713
 30
0.0
 11
585.8056835250964
 21
-65.3709335775971
 31
0.0
  0
ARC
  5
5C22
330
A
100
AcDbEntity
  8
0
100
AcDbCircle
 10
583.8464998590964
 20
-62.85853327159708
 30
0.0
 40
3.185993712221939
100
AcDbArc
 50
307.9473028438001
 51
321.4576263824
  0
LINE
  5
5C23
330
A
100
AcDbEntity
  8
0
100
AcDbLine
 10
586.3384170560964
 20
-64.84370445259708
 30
0.0
 11
585.9070019146964
 21
-63.69770418969711
 31
0.0
  0
LINE
  5
5C24
330
A
100
AcDbEntity
  8
0
100
AcDbLine
 10
585.9070019146964
 20
-63.69770418969711
 30
0.0
 11
587.1150860094965
 21
-62.50210980469711
 31
0.0
  0
ARC
  5
5C25
330
A
100
AcDbEntity
  8
0
100
AcDbCircle
 10
585.9231769589965
 20
-62.66231706169708
 30
0.0
 40
1.20262776861089
100
AcDbArc
 50
7.655376118199197
 51
33.60242203899971
  0
LINE
  5
5C26
330
A
100
AcDbEntity
  8
0
100
AcDbLine
 10
586.9248430378964
 20
-61.99675067409709
 30
0.0
 11
585.7167589430965
 21
-63.19234810089711
 31
0.0
  0
LINE
  5
5C27
330
A
100
AcDbEntity
  8
0
100
AcDbLine
 10
583.0323392334965
 20
-66.8604180583971
 30
0.0
 11
583.1921205703964
 21
-66.96873361339709
 31
0.0
  0
LWPOLYLINE
  5
5C28
330
A
100
AcDbEntity
  8
0
100
AcDbPolyline
 90
        3
 70
   128
 43
0.0
 10
587.1917959079965
 20
-60.04034139789712
 10
587.1523912387964
 20
-60.01847135039708
 10
587.0180929401964
 20
-59.95614185669712
  0
LINE
  5
5C29
330
A
100
AcDbEntity
  8
0
100
AcDbLine
 10
584.7825134596965
 20
-62.65301966329713
 30
0.0
 11
585.7167589430965
 21
-63.19234810089711
 31
0.0
  0
LINE
  5
5C2A
330
A
100
AcDbEntity
  8
0
100
AcDbLine
 10
584.9184291435964
 20
-63.0140585212971
 30
0.0
 11
585.0987649716965
 21
-62.83558567669712
 31
0.0
  0
LINE
  5
5C2B
330
A
100
AcDbEntity
  8
0
100
AcDbLine
 10
585.1451291391963
 20
-63.8790835180971
 30
0.0
 11
585.1119384959964
 21
-63.79091537799712
 31
0.0
  0
LWPOLYLINE
  5
5C2C
330
A
100
AcDbEntity
  8
0
100
AcDbPolyline
 90
        3
 70
   128
 43
0.0
 10
585.0278766066965
 20
-64.02496580069709
 10
585.0842980658964
 20
-63.95729750219709
 10
585.1451291391963
 20
-63.8790835180971
  0
LINE
  5
5C2D
330
A
100
AcDbEntity
  8
0
100
AcDbLine
 10
584.9316026679965
 20
-63.96938783639712
 30
0.0
 11
585.3742683836964
 21
-64.22493331469713
 31
0.0
  0
LINE
  5
5C2E
330
A
100
AcDbEntity
  8
0
100
AcDbLine
 10
586.5174173558964
 20
-62.39996708659709
 30
0.0
 11
587.1150860094965
 21
-62.50210980469711
 31
0.0
  0
LINE
  5
5C2F
330
A
100
AcDbEntity
  8
0
100
AcDbLine
 10
584.9727564313964
 20
-63.15837575209713
 30
0.0
 11
585.9070019146964
 21
-63.69770418969711
 31
0.0
  0
LINE
  5
5C30
330
A
100
AcDbEntity
  8
0
100
AcDbLine
 10
585.1451291391963
 20
-63.8790835180971
 30
0.0
 11
586.3384170560964
 21
-64.84370445259708
 31
0.0
  0
LINE
  5
5C31
330
A
100
AcDbEntity
  8
0
  6
Continuous
 62
     8
370
     0
100
AcDbLine
 10
594.5611249548964
 20
-43.5616122769971
 30
0.0
 11
589.6113753581965
 21
-46.41904189709709
 31
0.0
  0
ARC
  5
5C32
330
A
100
AcDbEntity
  8
0
  6
Continuous
 62
     8
370
     0
100
AcDbCircle
 10
592.9049092388964
 20
-46.15082246989709
 30
0.0
 40
3.073606988727422
100
AcDbArc
 50
2.60550671070035
 51
57.39455505419841
  0
LINE
  5
5C33
330
A
100
AcDbEntity
  8
0
  6
Continuous
 62
     8
370
     0
100
AcDbLine
 10
595.9753387490964
 20
-46.01109937219712
 30
0.0
 11
591.0255891523964
 21
-48.86852899229712
 31
0.0
  0
LINE
  5
5C34
330
A
100
AcDbEntity
  8
0
  6
Continuous
 62
     8
370
     0
100
AcDbLine
 10
595.9753387490964
 20
-122.3576679116971
 30
0.0
 11
595.9753387490964
 21
-46.01109937219712
 31
0.0
  0
LINE
  5
5C35
330
A
100
AcDbEntity
  8
0
  6
Continuous
 62
     8
370
     0
100
AcDbLine
 10
595.9753387490964
 20
-122.3576679116971
 30
0.0
 11
591.0255891523964
 21
-125.2150975317971
 31
0.0
  0
LINE
  5
5C36
330
A
100
AcDbEntity
  8
0
  6
Continuous
 62
     8
370
     0
100
AcDbLine
 10
541.5281168927964
 20
-12.9463083877971
 30
0.0
 11
536.5783672959965
 21
-15.8037380078971
 31
0.0
  0
LINE
  5
5C37
330
A
100
AcDbEntity
  8
0
  6
Continuous
 62
     8
370
     0
100
AcDbLine
 10
594.5611249548964
 20
-43.5616122769971
 30
0.0
 11
541.5281168927964
 21
-12.9463083877971
 31
0.0
  0
ARC
  5
5C38
330
A
100
AcDbEntity
  8
0
  6
Continuous
 62
     8
370
     0
100
AcDbCircle
 10
594.8513359673964
 20
-43.94324835599713
 30
0.0
 40
0.4794460642765312
100
AcDbArc
 50
64.036136971193
 51
127.2507795016945
  0
ARC
  5
5C39
330
A
100
AcDbEntity
  8
0
  6
Continuous
 62
     8
370
     0
100
AcDbCircle
 10
595.7900143109964
 20
-45.56896252359712
 30
0.0
 40
0.4794060286176586
100
AcDbArc
 50
292.7413006800963
 51
355.9622107266991
  0
ARC
  5
5C3A
330
A
100
AcDbEntity
  8
0
  6
Continuous
 62
     8
370
     0
100
AcDbCircle
 10
595.7677720440964
 20
-121.8995572997971
 30
0.0
 40
0.5029406225101966
100
AcDbArc
 50
294.3749467808934
 51
354.3051161226987
  0
ARC
  5
5C3B
330
A
100
AcDbEntity
  8
0
  6
Continuous
 62
     8
370
     0
100
AcDbCircle
 10
541.8210362441964
 20
-13.35519933539712
 30
0.0
 40
0.5029846453522898
100
AcDbArc
 50
65.6932090430053
 51
125.6168742557997
  0
ARC
  5
5C3C
330
A
100
AcDbEntity
  8
0
  6
Continuous
 62
     8
370
     0
100
AcDbCircle
 10
540.2168974376964
 20
-14.71639057429712
 30
0.0
 40
2.202836218655905
100
AcDbArc
 50
53.47015258829969
 51
115.2194254834991
  0
LINE
  5
5C3D
330
A
100
AcDbEntity
  8
0
  6
Continuous
 62
     8
370
     0
100
AcDbLine
 10
536.5787703252964
 20
-16.6205122608971
 30
0.0
 11
534.1034938147964
 21
-18.04945897439711
 31
0.0
  0
ARC
  5
5C3E
330
A
100
AcDbEntity
  8
0
  6
Continuous
 62
     8
370
     0
100
AcDbCircle
 10
594.9953020044964
 20
-122.4658258327971
 30
0.0
 40
0.9859868947927172
100
AcDbArc
 50
305.0143506417086
 51
6.297739145100885
  0
LINE
  5
5C3F
330
A
100
AcDbEntity
  8
0
  6
Continuous
 62
     8
370
     0
100
AcDbLine
 10
590.3184835723964
 20
-124.8070253486971
 30
0.0
 11
589.6113753581965
 21
-125.2152302318971
 31
0.0
  0
ARC
  5
5C40
330
A
100
AcDbEntity
  8
0
  6
Continuous
 62
     8
370
     0
100
AcDbCircle
 10
574.3582974440965
 20
-56.85754920139709
 30
0.0
 40
1.536797322530778
100
AcDbArc
 50
2.605507551701085
 51
57.39473907100264
  0
ARC
  5
5C41
330
A
100
AcDbEntity
  8
0
  6
Continuous
 62
     8
370
     0
100
AcDbCircle
 10
576.7216168566964
 20
-55.6328074506971
 30
0.0
 40
1.536807739182155
100
AcDbArc
 50
122.6055332691008
 51
177.3945282044008
  0
ARC
  5
5C42
330
A
100
AcDbEntity
  8
0
  6
Continuous
 62
     8
370
     0
100
AcDbCircle
 10
574.2372889995964
 20
-56.92741024789711
 30
0.0
 40
3.073606988727136
100
AcDbArc
 50
2.605506710699581
 51
57.39455505419998
  0
ARC
  5
5C43
330
A
100
AcDbEntity
  8
0
  6
Continuous
 62
     8
370
     0
100
AcDbCircle
 10
576.6006115375965
 20
-55.42297599829709
 30
0.0
 40
1.537022055323674
100
AcDbArc
 50
242.6097286705003
 51
297.3903329386953
  0
LINE
  5
5C44
330
A
100
AcDbEntity
  8
0
  6
Continuous
 62
     8
370
     0
100
AcDbLine
 10
577.3077185097964
 20
-56.78768715029713
 30
0.0
 11
582.2574667894964
 21
-53.93025829049708
 31
0.0
  0
LINE
  5
5C45
330
A
100
AcDbEntity
  8
0
  6
Continuous
 62
     8
370
     0
100
AcDbLine
 10
575.8935047156965
 20
-54.33820005499712
 30
0.0
 11
580.8432529952964
 21
-51.48077119529711
 31
0.0
  0
LINE
  5
5C46
330
A
100
AcDbEntity
  8
0
  6
Continuous
 62
     8
370
     0
100
AcDbLine
 10
577.3077185097964
 20
-56.78768715029713
 30
0.0
 11
577.3077185097964
 21
-133.1342556896971
 31
0.0
  0
ARC
  5
5C47
330
A
100
AcDbEntity
  8
0
  6
Continuous
 62
     8
370
     0
100
AcDbCircle
 10
576.6006115375965
 20
-131.7695445377971
 30
0.0
 40
1.537022055323736
100
AcDbArc
 50
242.6097286704965
 51
297.3903329386986
  0
LINE
  5
5C48
330
A
100
AcDbEntity
  8
0
  6
Continuous
 62
     8
370
     0
100
AcDbLine
 10
575.8935060326965
 20
-133.1342564500971
 30
0.0
 11
575.8935060326965
 21
-56.78768791059713
 31
0.0
  0
LINE
  5
5C49
330
A
100
AcDbEntity
  8
0
  6
Continuous
 62
     8
370
     0
100
AcDbLine
 10
575.1863978185964
 20
-55.56294664449712
 30
0.0
 11
522.1533897563965
 21
-24.94764275529712
 31
0.0
  0
ARC
  5
5C4A
330
A
100
AcDbEntity
  8
0
  6
Continuous
 62
     8
370
     0
100
AcDbCircle
 10
575.4624305749965
 20
-133.2041821529971
 30
0.0
 40
0.4367100344235746
100
AcDbArc
 50
230.7967463117876
 51
9.213820605704406
  0
LINE
  5
5C4B
330
A
100
AcDbEntity
  8
0
  6
Continuous
 62
     8
370
     0
100
AcDbLine
 10
522.1533897563965
 20
-102.9272886233971
 30
0.0
 11
575.1863978185964
 21
-133.5425925125971
 31
0.0
  0
ARC
  5
5C4C
330
A
100
AcDbEntity
  8
0
  6
Continuous
 62
     8
370
     0
100
AcDbCircle
 10
525.0517737137964
 20
-98.3961681667971
 30
0.0
 40
5.37881791446375
100
AcDbArc
 50
182.6054791734003
 51
237.3945121695001
  0
LINE
  5
5C4D
330
A
100
AcDbEntity
  8
0
  6
Continuous
 62
     8
370
     0
100
AcDbLine
 10
519.6785162750964
 20
-26.37682125509713
 30
0.0
 11
519.6785162750964
 21
-98.64068126369709
 31
0.0
  0
ARC
  5
5C4E
330
A
100
AcDbEntity
  8
0
  6
Continuous
 62
     8
370
     0
100
AcDbCircle
 10
521.1872753717964
 20
-26.13207429829708
 30
0.0
 40
1.528481300013045
100
AcDbArc
 50
50.79664221960088
 51
189.2141095352006
  0
ARC
  5
5C4F
330
A
100
AcDbEntity
  8
0
  6
Continuous
 62
     8
370
     0
100
AcDbCircle
 10
523.6886087944964
 20
-25.01750356149711
 30
0.0
 40
1.536807739182063
100
AcDbArc
 50
122.6055332690989
 51
177.3945282044006
  0
LINE
  5
5C50
330
A
100
AcDbEntity
  8
0
  6
Continuous
 62
     8
370
     0
100
AcDbLine
 10
522.8604966534964
 20
-23.72289616579712
 30
0.0
 11
575.8935047156965
 21
-54.33820005499712
 31
0.0
  0
LINE
  5
5C51
330
A
100
AcDbEntity
  8
0
  6
Continuous
 62
     8
370
     0
100
AcDbLine
 10
577.3077185097964
 20
-133.1342556896971
 30
0.0
 11
582.2574667894964
 21
-130.2768268299971
 31
0.0
  0
LINE
  5
5C52
330
A
100
AcDbEntity
  8
0
  6
Continuous
 62
     8
370
     0
100
AcDbLine
 10
522.8604966534964
 20
-23.72289616579712
 30
0.0
 11
527.8102449330964
 21
-20.86546730599713
 31
0.0
  0
ARC
  5
5C53
330
A
100
AcDbEntity
  8
0
  6
Continuous
 62
     8
370
     0
100
AcDbCircle
 10
519.8593471909965
 20
-25.93790262559713
 30
0.0
 40
0.4747097886707722
100
AcDbArc
 50
183.6958366035975
 51
247.6087361694007
  0
ARC
  5
5C54
330
A
100
AcDbEntity
  8
0
  6
Continuous
 62
     8
370
     0
100
AcDbCircle
 10
521.5432768753965
 20
-25.55793463629709
 30
0.0
 40
2.258856819702628
100
AcDbArc
 50
54.32861391390006
 51
114.4903201242002
  0
ARC
  5
5C55
330
A
100
AcDbEntity
  8
0
  6
Continuous
 62
     8
370
     0
100
AcDbCircle
 10
519.8860827876964
 20
-98.18256774619708
 30
0.0
 40
0.5029431896984848
100
AcDbArc
 50
185.6950132628978
 51
245.6252097877008
  0
ARC
  5
5C56
330
A
100
AcDbEntity
  8
0
  6
Continuous
 62
     8
370
     0
100
AcDbCircle
 10
576.3055496116965
 20
-133.2326410924971
 30
0.0
 40
1.006986687037175
100
AcDbArc
 50
305.8507128669998
 51
5.60690184099887
  0
ARC
  5
5C57
330
A
100
AcDbEntity
  8
0
  6
Continuous
 62
     8
370
     0
100
AcDbCircle
 10
575.6870777948964
 20
-133.5918581711971
 30
0.0
 40
0.503097946526798
100
AcDbArc
 50
174.380328559201
 51
234.2948448348107
  0
ARC
  5
5C58
330
A
100
AcDbEntity
  8
0
  6
Continuous
 62
     8
370
     0
100
AcDbCircle
 10
522.6434079069965
 20
-102.9813676842971
 30
0.0
 40
0.4929932380532629
100
AcDbArc
 50
173.7022464422974
 51
234.9856637708
  0
LINE
  5
5C59
330
A
100
AcDbEntity
  8
0
  6
Continuous
 62
     8
370
     0
100
AcDbLine
 10
587.1011485735964
 20
-85.83741315219709
 30
0.0
 11
589.2224679476965
 21
-87.0620247603971
 31
0.0
  0
LINE
  5
5C5A
330
A
100
AcDbEntity
  8
0
  6
Continuous
 62
     8
370
     0
100
AcDbLine
 10
587.1011485735964
 20
-89.10357693509712
 30
0.0
 11
589.2224679476965
 21
-90.32818854329713
 31
0.0
  0
LINE
  5
5C5B
330
A
100
AcDbEntity
  8
0
  6
Continuous
 62
     8
370
     0
100
AcDbLine
 10
568.6808159000964
 20
-30.9482230675971
 30
0.0
 11
568.5395956838964
 21
-30.86669837209712
 31
0.0
  0
LINE
  5
5C5C
330
A
100
AcDbEntity
  8
0
  6
Continuous
 62
     8
370
     0
100
AcDbLine
 10
563.0240481579965
 20
-27.68264055999708
 30
0.0
 11
562.3169695782965
 21
-27.27445278439711
 31
0.0
  0
LINE
  5
5C5D
330
A
100
AcDbEntity
  8
0
  6
Continuous
 62
     8
370
     0
100
AcDbLine
 10
575.5263042492963
 20
-48.28913248199711
 30
0.0
 11
576.8687156186963
 21
-47.51417489389712
 31
0.0
  0
LINE
  5
5C5E
330
A
100
AcDbEntity
  8
0
  6
Continuous
 62
     8
370
     0
100
AcDbLine
 10
575.1286381968964
 20
-48.05956361509709
 30
0.0
 11
576.3150430064964
 21
-47.37466669689712
 31
0.0
  0
LINE
  5
5C5F
330
A
100
AcDbEntity
  8
0
  6
Continuous
 62
     8
370
     0
100
AcDbLine
 10
575.0756148272965
 20
-48.02895777869713
 30
0.0
 11
576.2412201670963
 21
-47.35606813889711
 31
0.0
  0
LINE
  5
5C60
330
A
100
AcDbEntity
  8
0
  6
Continuous
 62
     8
370
     0
100
AcDbLine
 10
551.4699236195964
 20
-34.4016823091971
 30
0.0
 11
552.6355289594965
 21
-33.72879266939708
 31
0.0
  0
LINE
  5
5C61
330
A
100
AcDbEntity
  8
0
  6
Continuous
 62
     8
370
     0
100
AcDbLine
 10
551.3753013104964
 20
-34.34705410959708
 30
0.0
 11
552.5617061200965
 21
-33.66215719139711
 31
0.0
  0
LINE
  5
5C62
330
A
100
AcDbEntity
  8
0
  6
Continuous
 62
     8
370
     0
100
AcDbLine
 10
550.6656221385964
 20
-33.93736618539708
 30
0.0
 11
552.0080335078965
 21
-33.16240859729709
 31
0.0
  0
LINE
  5
5C63
330
A
100
AcDbEntity
  8
0
  6
Continuous
 62
     8
370
     0
100
AcDbLine
 10
546.6557301414964
 20
-31.6225048086971
 30
0.0
 11
547.9981415108964
 21
-30.84754722059711
 31
0.0
  0
LINE
  5
5C64
330
A
100
AcDbEntity
  8
0
  6
Continuous
 62
     8
370
     0
100
AcDbLine
 10
580.4898990856964
 20
-51.27678540719711
 30
0.0
 11
580.5957640666963
 21
-51.21567085459708
 31
0.0
  0
LINE
  5
5C65
330
A
100
AcDbEntity
  8
0
  6
Continuous
 62
     8
370
     0
100
AcDbLine
 10
531.6995324060964
 20
-23.11070625489708
 30
0.0
 11
531.8053973869964
 21
-23.04959170229711
 31
0.0
  0
LINE
  5
5C66
330
A
100
AcDbEntity
  8
0
  6
Continuous
 62
     8
370
     0
100
AcDbLine
 10
588.7274953587964
 20
-48.56247941769709
 30
0.0
 11
589.7174431707964
 21
-47.99099471029712
 31
0.0
  0
LINE
  5
5C67
330
A
100
AcDbEntity
  8
0
  6
Continuous
 62
     8
370
     0
100
AcDbLine
 10
588.0203871445965
 20
-47.33773206789709
 30
0.0
 11
588.9043567060965
 21
-46.82742730229711
 31
0.0
  0
LINE
  5
5C68
330
A
100
AcDbEntity
  8
0
  6
Continuous
 62
     8
370
     0
100
AcDbLine
 10
588.7274953587964
 20
-53.46172205029711
 30
0.0
 11
589.7174431707964
 21
-52.89023734279709
 31
0.0
  0
LINE
  5
5C69
330
A
100
AcDbEntity
  8
0
  6
Continuous
 62
     8
370
     0
100
AcDbLine
 10
539.2300204649964
 20
-19.17165291559712
 30
0.0
 11
540.1139900264964
 21
-18.66134814999708
 31
0.0
  0
LINE
  5
5C6A
330
A
100
AcDbEntity
  8
0
  6
Continuous
 62
     8
370
     0
100
AcDbLine
 10
543.1191064233965
 20
-28.76564448309711
 30
0.0
 11
543.8263279071964
 21
-28.3573742107971
 31
0.0
  0
LINE
  5
5C6B
330
A
100
AcDbEntity
  8
0
  6
Continuous
 62
     8
370
     0
100
AcDbLine
 10
588.7274953587964
 20
-123.6842327362971
 30
0.0
 11
589.7174431707964
 21
-123.1127480287971
 31
0.0
  0
LINE
  5
5C6C
330
A
100
AcDbEntity
  8
0
100
AcDbLine
 10
380.8459503620383
 20
94.00337950746247
 30
0.0
 11
380.3459493487383
 21
93.50337849416248
 31
0.0
  0
LINE
  5
5C6D
330
A
100
AcDbEntity
  8
0
100
AcDbLine
 10
380.3459493487383
 20
90.50337986506243
 30
0.0
 11
380.8459503620383
 21
90.00337885186242
 31
0.0
  0
LINE
  5
5C6E
330
A
100
AcDbEntity
  8
0
100
AcDbLine
 10
381.5459510355383
 20
94.00337950746247
 30
0.0
 11
380.8459503620383
 21
94.00337950746247
 31
0.0
  0
LINE
  5
5C6F
330
A
100
AcDbEntity
  8
0
100
AcDbLine
 10
380.8459503620383
 20
90.00337885186242
 30
0.0
 11
381.5459510355383
 21
90.00337885186242
 31
0.0
  0
LINE
  5
5C70
330
A
100
AcDbEntity
  8
0
100
AcDbLine
 10
371.0459502458383
 20
92.00337917966245
 30
0.0
 11
371.0459502458383
 21
90.10338054456243
 31
0.0
  0
LINE
  5
5C71
330
A
100
AcDbEntity
  8
0
100
AcDbLine
 10
376.0459510653383
 20
90.10338054456243
 30
0.0
 11
376.0459510653383
 21
92.00337917966245
 31
0.0
  0
LINE
  5
5C72
330
A
100
AcDbEntity
  8
0
100
AcDbLine
 10
332.0459494411383
 20
88.80338089026243
 30
0.0
 11
332.0459494411383
 21
90.70337952536245
 31
0.0
  0
LINE
  5
5C73
330
A
100
AcDbEntity
  8
0
100
AcDbLine
 10
327.0459504842383
 20
90.70337952536245
 30
0.0
 11
327.0459504842383
 21
88.80338089026243
 31
0.0
  0
LINE
  5
5C74
330
A
100
AcDbEntity
  8
0
100
AcDbLine
 10
370.3959504186383
 20
92.00337917966245
 30
0.0
 11
370.3959504186383
 21
91.20338053866244
 31
0.0
  0
LINE
  5
5C75
330
A
100
AcDbEntity
  8
0
100
AcDbLine
 10
376.6959508925383
 20
91.20338053866244
 30
0.0
 11
376.6959508925383
 21
92.00337917966245
 31
0.0
  0
LINE
  5
5C76
330
A
100
AcDbEntity
  8
0
100
AcDbLine
 10
370.3959504186383
 20
91.20338053866244
 30
0.0
 11
370.8959495693383
 21
90.70337952536245
 31
0.0
  0
LINE
  5
5C77
330
A
100
AcDbEntity
  8
0
100
AcDbLine
 10
376.1959498792383
 20
90.70337952536245
 30
0.0
 11
376.6959508925383
 21
91.20338053866244
 31
0.0
  0
LINE
  5
5C78
330
A
100
AcDbEntity
  8
0
100
AcDbLine
 10
326.3959506571383
 20
91.20338053866244
 30
0.0
 11
326.8959498077383
 21
90.70337952536245
 31
0.0
  0
LINE
  5
5C79
330
A
100
AcDbEntity
  8
0
100
AcDbLine
 10
332.1959501176383
 20
90.70337952536245
 30
0.0
 11
332.6959492683383
 21
91.20338053866244
 31
0.0
  0
LINE
  5
5C7A
330
A
100
AcDbEntity
  8
0
100
AcDbLine
 10
326.3959506571383
 20
92.00337917966245
 30
0.0
 11
326.3959506571383
 21
91.20338053866244
 31
0.0
  0
LINE
  5
5C7B
330
A
100
AcDbEntity
  8
0
100
AcDbLine
 10
332.6959492683383
 20
91.20338053866244
 30
0.0
 11
332.6959492683383
 21
92.00337917966245
 31
0.0
  0
LINE
  5
5C7C
330
A
100
AcDbEntity
  8
0
100
AcDbLine
 10
332.6959492683383
 20
88.80338089026243
 30
0.0
 11
332.6959492683383
 21
89.60337953126243
 31
0.0
  0
LINE
  5
5C7D
330
A
100
AcDbEntity
  8
0
100
AcDbLine
 10
326.3959506571383
 20
89.60337953126243
 30
0.0
 11
326.3959506571383
 21
88.80338089026243
 31
0.0
  0
LINE
  5
5C7E
330
A
100
AcDbEntity
  8
0
100
AcDbLine
 10
332.6959492683383
 20
89.60337953126243
 30
0.0
 11
332.1959501176383
 21
90.10338054456243
 31
0.0
  0
LINE
  5
5C7F
330
A
100
AcDbEntity
  8
0
100
AcDbLine
 10
326.8959498077383
 20
90.10338054456243
 30
0.0
 11
326.3959506571383
 21
89.60337953126243
 31
0.0
  0
LINE
  5
5C80
330
A
100
AcDbEntity
  8
0
100
AcDbLine
 10
376.6959508925383
 20
88.80338089026243
 30
0.0
 11
376.6959508925383
 21
89.60337953126243
 31
0.0
  0
LINE
  5
5C81
330
A
100
AcDbEntity
  8
0
100
AcDbLine
 10
370.3959504186383
 20
89.60337953126243
 30
0.0
 11
370.3959504186383
 21
88.80338089026243
 31
0.0
  0
LINE
  5
5C82
330
A
100
AcDbEntity
  8
0
100
AcDbLine
 10
376.6959508925383
 20
89.60337953126243
 30
0.0
 11
376.1959498792383
 21
90.10338054456243
 31
0.0
  0
LINE
  5
5C83
330
A
100
AcDbEntity
  8
0
100
AcDbLine
 10
370.8959495693383
 20
90.10338054456243
 30
0.0
 11
370.3959504186383
 21
89.60337953126243
 31
0.0
  0
LINE
  5
5C84
330
A
100
AcDbEntity
  8
0
100
AcDbLine
 10
388.2959498137383
 20
76.20337994256245
 30
0.0
 11
313.2959505587383
 21
76.20337994256245
 31
0.0
  0
LINE
  5
5C85
330
A
100
AcDbEntity
  8
0
100
AcDbLine
 10
313.2959505587383
 20
84.20338125386247
 30
0.0
 11
388.2959498137383
 21
84.20338125386247
 31
0.0
  0
LINE
  5
5C86
330
A
100
AcDbEntity
  8
0
100
AcDbLine
 10
354.5459502188383
 20
82.00338126576243
 30
0.0
 11
344.5459505587383
 21
82.00338126576243
 31
0.0
  0
LINE
  5
5C87
330
A
100
AcDbEntity
  8
0
100
AcDbLine
 10
344.5459505587383
 20
82.00338126576243
 30
0.0
 11
344.5459505587383
 21
79.00337891146246
 31
0.0
  0
ARC
  5
5C88
330
A
100
AcDbEntity
  8
0
100
AcDbCircle
 10
349.5459501904383
 20
103.4982771318625
 30
0.0
 40
25.00000000000002
100
AcDbArc
 50
258.4630409672001
 51
281.5369590327999
  0
LINE
  5
5C89
330
A
100
AcDbEntity
  8
0
100
AcDbLine
 10
354.5459502188383
 20
79.00337891146246
 30
0.0
 11
354.5459502188383
 21
82.00338126576243
 31
0.0
  0
LINE
  5
5C8A
330
A
100
AcDbEntity
  8
0
100
AcDbLine
 10
389.2959518402383
 20
76.20337994256245
 30
0.0
 11
388.2959498137383
 21
76.20337994256245
 31
0.0
  0
ARC
  5
5C8B
330
A
100
AcDbEntity
  8
0
100
AcDbCircle
 10
389.2959501938383
 20
77.20337970396243
 30
0.0
 40
1.0
100
AcDbArc
 50
270.0
 51
0.0
  0
LINE
  5
5C8C
330
A
100
AcDbEntity
  8
0
100
AcDbLine
 10
388.2959498137383
 20
84.20338125386247
 30
0.0
 11
390.2959501415383
 21
84.20338125386247
 31
0.0
  0
LINE
  5
5C8D
330
A
100
AcDbEntity
  8
0
100
AcDbLine
 10
390.2959501415383
 20
77.20337824386247
 30
0.0
 11
390.2959501415383
 21
84.20338125386247
 31
0.0
  0
LINE
  5
5C8E
330
A
100
AcDbEntity
  8
0
100
AcDbLine
 10
313.2959505587383
 20
76.20337994256245
 30
0.0
 11
309.7959509163383
 21
76.20337994256245
 31
0.0
  0
ARC
  5
5C8F
330
A
100
AcDbEntity
  8
0
100
AcDbCircle
 10
309.7959501939383
 20
77.20337970396243
 30
0.0
 40
1.0
100
AcDbArc
 50
180.0
 51
270.0
  0
LINE
  5
5C90
330
A
100
AcDbEntity
  8
0
100
AcDbLine
 10
308.7959488898383
 20
84.20338125386247
 30
0.0
 11
313.2959505587383
 21
84.20338125386247
 31
0.0
  0
LINE
  5
5C91
330
A
100
AcDbEntity
  8
0
100
AcDbLine
 10
308.7959488898383
 20
77.20337824386247
 30
0.0
 11
308.7959488898383
 21
84.20338125386247
 31
0.0
  0
LINE
  5
5C92
330
A
100
AcDbEntity
  8
0
100
AcDbLine
 10
388.2959498137383
 20
96.60337881606246
 30
0.0
 11
313.2959505587383
 21
96.60337881606246
 31
0.0
  0
LINE
  5
5C93
330
A
100
AcDbEntity
  8
0
100
AcDbLine
 10
344.5459505587383
 20
98.80337880416245
 30
0.0
 11
354.5459502188383
 21
98.80337880416245
 31
0.0
  0
LINE
  5
5C94
330
A
100
AcDbEntity
  8
0
100
AcDbLine
 10
354.5459502188383
 20
98.80337880416245
 30
0.0
 11
354.5459502188383
 21
101.8033792958625
 31
0.0
  0
ARC
  5
5C95
330
A
100
AcDbEntity
  8
0
100
AcDbCircle
 10
349.5459501904383
 20
77.30848227616242
 30
0.0
 40
25.00000000000002
100
AcDbArc
 50
78.46304096720009
 51
101.5369590327999
  0
LINE
  5
5C96
330
A
100
AcDbEntity
  8
0
100
AcDbLine
 10
344.5459505587383
 20
101.8033792958625
 30
0.0
 11
344.5459505587383
 21
98.80337880416245
 31
0.0
  0
LINE
  5
5C97
330
A
100
AcDbEntity
  8
0
100
AcDbLine
 10
313.2959505587383
 20
96.60337881606246
 30
0.0
 11
308.7959488898383
 21
96.60337881606246
 31
0.0
  0
LINE
  5
5C98
330
A
100
AcDbEntity
  8
0
100
AcDbLine
 10
308.7959488898383
 20
103.6033799634624
 30
0.0
 11
308.7959488898383
 21
96.60337881606246
 31
0.0
  0
LINE
  5
5C99
330
A
100
AcDbEntity
  8
0
100
AcDbLine
 10
390.2959501415383
 20
103.6033799634624
 30
0.0
 11
390.2959501415383
 21
96.60337881606246
 31
0.0
  0
LINE
  5
5C9A
330
A
100
AcDbEntity
  8
0
100
AcDbLine
 10
390.2959501415383
 20
96.60337881606246
 30
0.0
 11
388.2959498137383
 21
96.60337881606246
 31
0.0
  0
LINE
  5
5C9B
330
A
100
AcDbEntity
  8
0
100
AcDbLine
 10
313.2959505587383
 20
104.6033801273624
 30
0.0
 11
388.2959498137383
 21
104.6033801273624
 31
0.0
  0
ARC
  5
5C9C
330
A
100
AcDbEntity
  8
0
100
AcDbCircle
 10
309.7959501939383
 20
103.6033797039625
 30
0.0
 40
1.000000000000014
100
AcDbArc
 50
90.0
 51
180.0
  0
LINE
  5
5C9D
330
A
100
AcDbEntity
  8
0
100
AcDbLine
 10
309.7959509163383
 20
104.6033801273624
 30
0.0
 11
313.2959505587383
 21
104.6033801273624
 31
0.0
  0
LINE
  5
5C9E
330
A
100
AcDbEntity
  8
0
100
AcDbLine
 10
388.2959498137383
 20
104.6033801273624
 30
0.0
 11
389.2959518402383
 21
104.6033801273624
 31
0.0
  0
ARC
  5
5C9F
330
A
100
AcDbEntity
  8
0
100
AcDbCircle
 10
389.2959501938383
 20
103.6033797039625
 30
0.0
 40
1.0
100
AcDbArc
 50
0.0
 51
90.0
  0
LINE
  5
5CA0
330
A
100
AcDbEntity
  8
0
100
AcDbLine
 10
390.2959501415383
 20
83.00337956706245
 30
0.0
 11
390.5459506481383
 21
83.00337956706245
 31
0.0
  0
LINE
  5
5CA1
330
A
100
AcDbEntity
  8
0
100
AcDbLine
 10
387.5459520190383
 20
96.60337881606246
 30
0.0
 11
387.5459520190383
 21
84.70337854186245
 31
0.0
  0
LINE
  5
5CA2
330
A
100
AcDbEntity
  8
0
100
AcDbLine
 10
390.2959501415383
 20
101.0033787921625
 30
0.0
 11
390.5459506481383
 21
101.0033787921625
 31
0.0
  0
LINE
  5
5CA3
330
A
100
AcDbEntity
  8
0
100
AcDbLine
 10
390.5459506481383
 20
101.0033787921625
 30
0.0
 11
390.5459506481383
 21
83.00337956706245
 31
0.0
  0
LINE
  5
5CA4
330
A
100
AcDbEntity
  8
0
100
AcDbLine
 10
334.2167934447383
 20
88.80338089026243
 30
0.0
 11
334.9998047619383
 21
88.80338089026243
 31
0.0
  0
LINE
  5
5CA5
330
A
100
AcDbEntity
  8
0
100
AcDbLine
 10
328.5459497987383
 20
88.80338089026243
 30
0.0
 11
334.2167934447383
 21
88.80338089026243
 31
0.0
  0
LINE
  5
5CA6
330
A
100
AcDbEntity
  8
0
100
AcDbLine
 10
369.3751072555383
 20
88.80338089026243
 30
0.0
 11
379.0459496944383
 21
88.80338089026243
 31
0.0
  0
LINE
  5
5CA7
330
A
100
AcDbEntity
  8
0
100
AcDbLine
 10
379.0459496944383
 20
88.80338089026243
 30
0.0
 11
379.0459496944383
 21
84.70337854186245
 31
0.0
  0
LINE
  5
5CA8
330
A
100
AcDbEntity
  8
0
100
AcDbLine
 10
368.5920959383383
 20
88.80338089026243
 30
0.0
 11
369.3751072555383
 21
88.80338089026243
 31
0.0
  0
LINE
  5
5CA9
330
A
100
AcDbEntity
  8
0
100
AcDbLine
 10
323.5459508418383
 20
88.80338089026243
 30
0.0
 11
323.5459508418383
 21
84.70337854186245
 31
0.0
  0
LINE
  5
5CAA
330
A
100
AcDbEntity
  8
0
100
AcDbLine
 10
323.5459508418383
 20
88.80338089026243
 30
0.0
 11
328.5459497987383
 21
88.80338089026243
 31
0.0
  0
LINE
  5
5CAB
330
A
100
AcDbEntity
  8
0
100
AcDbLine
 10
334.9998047619383
 20
88.80338089026243
 30
0.0
 11
335.1042060225383
 21
88.80338089026243
 31
0.0
  0
LINE
  5
5CAC
330
A
100
AcDbEntity
  8
0
100
AcDbLine
 10
368.4876946776383
 20
88.80338089026243
 30
0.0
 11
368.5920959383383
 21
88.80338089026243
 31
0.0
  0
LINE
  5
5CAD
330
A
100
AcDbEntity
  8
0
100
AcDbLine
 10
335.1042060225383
 20
88.80338089026243
 30
0.0
 11
368.4876946776383
 21
88.80338089026243
 31
0.0
  0
LINE
  5
5CAE
330
A
100
AcDbEntity
  8
0
100
AcDbLine
 10
328.5459497987383
 20
92.00337917966245
 30
0.0
 11
323.5459508418383
 21
92.00337917966245
 31
0.0
  0
LINE
  5
5CAF
330
A
100
AcDbEntity
  8
0
100
AcDbLine
 10
323.5459508418383
 20
92.00337917966245
 30
0.0
 11
323.5459508418383
 21
94.70338018096244
 31
0.0
  0
LINE
  5
5CB0
330
A
100
AcDbEntity
  8
0
100
AcDbLine
 10
369.3751072555383
 20
92.00337917966245
 30
0.0
 11
368.5920959383383
 21
92.00337917966245
 31
0.0
  0
LINE
  5
5CB1
330
A
100
AcDbEntity
  8
0
100
AcDbLine
 10
379.0459496944383
 20
92.00337917966245
 30
0.0
 11
369.3751072555383
 21
92.00337917966245
 31
0.0
  0
LINE
  5
5CB2
330
A
100
AcDbEntity
  8
0
100
AcDbLine
 10
379.0459496944383
 20
92.00337917966245
 30
0.0
 11
379.0459496944383
 21
94.70338018096244
 31
0.0
  0
LINE
  5
5CB3
330
A
100
AcDbEntity
  8
0
100
AcDbLine
 10
334.2167934447383
 20
92.00337917966245
 30
0.0
 11
328.5459497987383
 21
92.00337917966245
 31
0.0
  0
LINE
  5
5CB4
330
A
100
AcDbEntity
  8
0
100
AcDbLine
 10
334.9998047619383
 20
92.00337917966245
 30
0.0
 11
334.2167934447383
 21
92.00337917966245
 31
0.0
  0
LINE
  5
5CB5
330
A
100
AcDbEntity
  8
0
100
AcDbLine
 10
335.1042060225383
 20
92.00337917966245
 30
0.0
 11
334.9998047619383
 21
92.00337917966245
 31
0.0
  0
LINE
  5
5CB6
330
A
100
AcDbEntity
  8
0
100
AcDbLine
 10
368.5920959383383
 20
92.00337917966245
 30
0.0
 11
368.4876946776383
 21
92.00337917966245
 31
0.0
  0
LINE
  5
5CB7
330
A
100
AcDbEntity
  8
0
100
AcDbLine
 10
368.4876946776383
 20
92.00337917966245
 30
0.0
 11
335.1042060225383
 21
92.00337917966245
 31
0.0
  0
LINE
  5
5CB8
330
A
100
AcDbEntity
  8
0
100
AcDbLine
 10
381.5459510355383
 20
86.30337954916247
 30
0.0
 11
381.5459510355383
 21
94.70338018096244
 31
0.0
  0
LINE
  5
5CB9
330
A
100
AcDbEntity
  8
0
100
AcDbLine
 10
387.5459520190383
 20
86.30337954916247
 30
0.0
 11
381.5459510355383
 21
86.30337954916247
 31
0.0
  0
LINE
  5
5CBA
330
A
100
AcDbEntity
  8
0
100
AcDbLine
 10
312.5459490388383
 20
96.10338152806243
 30
0.0
 11
312.5459490388383
 21
94.70338018096244
 31
0.0
  0
LINE
  5
5CBB
330
A
100
AcDbEntity
  8
0
100
AcDbLine
 10
317.0459507077383
 20
96.10338152806243
 30
0.0
 11
312.5459490388383
 21
96.10338152806243
 31
0.0
  0
LINE
  5
5CBC
330
A
100
AcDbEntity
  8
0
100
AcDbLine
 10
317.0459507077383
 20
94.70338018096244
 30
0.0
 11
312.5459490388383
 21
94.70338018096244
 31
0.0
  0
LINE
  5
5CBD
330
A
100
AcDbEntity
  8
0
100
AcDbLine
 10
386.0459489792383
 20
96.10338152806243
 30
0.0
 11
317.0459507077383
 21
96.10338152806243
 31
0.0
  0
LINE
  5
5CBE
330
A
100
AcDbEntity
  8
0
100
AcDbLine
 10
386.0459489792383
 20
94.70338018096244
 30
0.0
 11
317.0459507077383
 21
94.70338018096244
 31
0.0
  0
LINE
  5
5CBF
330
A
100
AcDbEntity
  8
0
100
AcDbLine
 10
387.0459510057383
 20
96.10338152806243
 30
0.0
 11
387.0459510057383
 21
94.70338018096244
 31
0.0
  0
LINE
  5
5CC0
330
A
100
AcDbEntity
  8
0
100
AcDbLine
 10
387.0459510057383
 20
96.10338152806243
 30
0.0
 11
386.0459489792383
 21
96.10338152806243
 31
0.0
  0
LINE
  5
5CC1
330
A
100
AcDbEntity
  8
0
100
AcDbLine
 10
387.0459510057383
 20
94.70338018096244
 30
0.0
 11
386.0459489792383
 21
94.70338018096244
 31
0.0
  0
LINE
  5
5CC2
330
A
100
AcDbEntity
  8
0
100
AcDbLine
 10
313.0459500521383
 20
84.70337854186245
 30
0.0
 11
313.0459500521383
 21
84.20338125386247
 31
0.0
  0
LINE
  5
5CC3
330
A
100
AcDbEntity
  8
0
100
AcDbLine
 10
317.5459517210383
 20
84.70337854186245
 30
0.0
 11
313.0459500521383
 21
84.70337854186245
 31
0.0
  0
LINE
  5
5CC4
330
A
100
AcDbEntity
  8
0
100
AcDbLine
 10
386.5459499925383
 20
84.70337854186245
 30
0.0
 11
317.5459517210383
 21
84.70337854186245
 31
0.0
  0
LINE
  5
5CC5
330
A
100
AcDbEntity
  8
0
100
AcDbLine
 10
387.5459520190383
 20
84.70337854186245
 30
0.0
 11
387.5459520190383
 21
84.20338125386247
 31
0.0
  0
LINE
  5
5CC6
330
A
100
AcDbEntity
  8
0
100
AcDbLine
 10
387.5459520190383
 20
84.70337854186245
 30
0.0
 11
386.5459499925383
 21
84.70337854186245
 31
0.0
  0
LINE
  5
5CC7
330
A
100
AcDbEntity
  8
0
100
AcDbLine
 10
312.5459490388383
 20
96.60337881606246
 30
0.0
 11
312.5459490388383
 21
96.10338152806243
 31
0.0
  0
LINE
  5
5CC8
330
A
100
AcDbEntity
  8
0
100
AcDbLine
 10
387.0459510057383
 20
96.60337881606246
 30
0.0
 11
387.0459510057383
 21
96.10338152806243
 31
0.0
  0
CIRCLE
  5
5CC9
330
A
100
AcDbEntity
  8
0
100
AcDbCircle
 10
349.5459501938383
 20
100.5033797039624
 30
0.0
 40
1.250000000027285
  0
LINE
  5
5CCA
330
A
100
AcDbEntity
  8
0
100
AcDbLine
 10
350.1233003612383
 20
99.50337947766248
 30
0.0
 11
350.7006507411383
 21
100.5033796415625
 31
0.0
  0
LINE
  5
5CCB
330
A
100
AcDbEntity
  8
0
100
AcDbLine
 10
350.7006507411383
 20
100.5033796415625
 30
0.0
 11
350.1233003612383
 21
101.5033798054624
 31
0.0
  0
LINE
  5
5CCC
330
A
100
AcDbEntity
  8
0
100
AcDbLine
 10
350.1233003612383
 20
101.5033798054624
 30
0.0
 11
348.9685998342383
 21
101.5033798054624
 31
0.0
  0
LINE
  5
5CCD
330
A
100
AcDbEntity
  8
0
100
AcDbLine
 10
348.9685998342383
 20
101.5033798054624
 30
0.0
 11
348.3912496872383
 21
100.5033796415625
 31
0.0
  0
LINE
  5
5CCE
330
A
100
AcDbEntity
  8
0
100
AcDbLine
 10
348.9685998342383
 20
99.50337947766248
 30
0.0
 11
348.3912496872383
 21
100.5033796415625
 31
0.0
  0
LINE
  5
5CCF
330
A
100
AcDbEntity
  8
0
100
AcDbLine
 10
348.9685998342383
 20
99.50337947766248
 30
0.0
 11
350.1233003612383
 21
99.50337947766248
 31
0.0
  0
CIRCLE
  5
5CD0
330
A
100
AcDbEntity
  8
0
100
AcDbCircle
 10
349.5459501938383
 20
100.5033797039624
 30
0.0
 40
1.39999999999992
  0
ARC
  5
5CD1
330
A
100
AcDbEntity
  8
0
100
AcDbCircle
 10
349.5459501938383
 20
100.5033797039624
 30
0.0
 40
2.000000000000041
100
AcDbArc
 50
301.7883306170001
 51
63.45172518219882
  0
ARC
  5
5CD2
330
A
100
AcDbEntity
  8
0
100
AcDbCircle
 10
349.5459501938383
 20
100.5033797039624
 30
0.0
 40
2.000000000000032
100
AcDbArc
 50
116.5482748005993
 51
238.2116693830013
  0
CIRCLE
  5
5CD3
330
A
100
AcDbEntity
  8
0
100
AcDbCircle
 10
349.5459501938383
 20
80.30337970396245
 30
0.0
 40
1.250000000027285
  0
LINE
  5
5CD4
330
A
100
AcDbEntity
  8
0
100
AcDbLine
 10
348.5459502830383
 20
79.72602934996247
 30
0.0
 11
349.5459502141383
 21
79.14868013426248
 31
0.0
  0
LINE
  5
5CD5
330
A
100
AcDbEntity
  8
0
100
AcDbLine
 10
349.5459502141383
 20
79.14868013426248
 30
0.0
 11
350.5459501452383
 21
79.72602934996247
 31
0.0
  0
LINE
  5
5CD6
330
A
100
AcDbEntity
  8
0
100
AcDbLine
 10
350.5459501452383
 20
79.72602934996247
 30
0.0
 11
350.5459501452383
 21
80.88073150676247
 31
0.0
  0
LINE
  5
5CD7
330
A
100
AcDbEntity
  8
0
100
AcDbLine
 10
350.5459501452383
 20
80.88073150676247
 30
0.0
 11
349.5459502141383
 21
81.45808072246247
 31
0.0
  0
LINE
  5
5CD8
330
A
100
AcDbEntity
  8
0
100
AcDbLine
 10
348.5459502830383
 20
80.88073150676247
 30
0.0
 11
349.5459502141383
 21
81.45808072246247
 31
0.0
  0
LINE
  5
5CD9
330
A
100
AcDbEntity
  8
0
100
AcDbLine
 10
348.5459502830383
 20
80.88073150676247
 30
0.0
 11
348.5459502830383
 21
79.72602934996247
 31
0.0
  0
CIRCLE
  5
5CDA
330
A
100
AcDbEntity
  8
0
100
AcDbCircle
 10
349.5459501938383
 20
80.30337970396245
 30
0.0
 40
1.400000000000006
  0
ARC
  5
5CDB
330
A
100
AcDbEntity
  8
0
100
AcDbCircle
 10
349.5459501938383
 20
80.30337970396245
 30
0.0
 40
2.000000000000014
100
AcDbArc
 50
296.5482748178017
 51
0.0
  0
ARC
  5
5CDC
330
A
100
AcDbEntity
  8
0
100
AcDbCircle
 10
349.5459501938383
 20
80.30337970396245
 30
0.0
 40
2.000000000000026
100
AcDbArc
 50
121.7883306170986
 51
243.4517251994006
  0
ARC
  5
5CDD
330
A
100
AcDbEntity
  8
0
100
AcDbCircle
 10
349.5459501938383
 20
80.30337970396245
 30
0.0
 40
2.000000000000014
100
AcDbArc
 50
0.0
 51
58.21166938289983
  0
LINE
  5
5CDE
330
A
100
AcDbEntity
  8
0
100
AcDbLine
 10
380.8459503620383
 20
90.40257350966245
 30
0.0
 11
380.8459503620383
 21
90.00337885186242
 31
0.0
  0
LINE
  5
5CDF
330
A
100
AcDbEntity
  8
0
100
AcDbLine
 10
380.8459503620383
 20
94.00337950746247
 30
0.0
 11
380.8459503620383
 21
90.40257350966245
 31
0.0
  0
LINE
  5
5CE0
330
A
100
AcDbEntity
  8
0
100
AcDbLine
 10
380.3459493487383
 20
90.80277399576245
 30
0.0
 11
380.3459493487383
 21
93.50337849416248
 31
0.0
  0
LINE
  5
5CE1
330
A
100
AcDbEntity
  8
0
100
AcDbLine
 10
380.3459493487383
 20
90.50337986506243
 30
0.0
 11
380.3459493487383
 21
90.80277399576245
 31
0.0
  0
LINE
  5
5CE2
330
A
100
AcDbEntity
  8
0
100
AcDbLine
 10
376.0459510653383
 20
91.20338053866244
 30
0.0
 11
376.6959508925383
 21
91.20338053866244
 31
0.0
  0
LINE
  5
5CE3
330
A
100
AcDbEntity
  8
0
100
AcDbLine
 10
370.3959504186383
 20
91.20338053866244
 30
0.0
 11
371.0459502458383
 21
91.20338053866244
 31
0.0
  0
LINE
  5
5CE4
330
A
100
AcDbEntity
  8
0
100
AcDbLine
 10
371.0459502458383
 20
90.70337952536245
 30
0.0
 11
370.8959495693383
 21
90.70337952536245
 31
0.0
  0
LINE
  5
5CE5
330
A
100
AcDbEntity
  8
0
100
AcDbLine
 10
376.1959498792383
 20
90.70337952536245
 30
0.0
 11
376.0459510653383
 21
90.70337952536245
 31
0.0
  0
LINE
  5
5CE6
330
A
100
AcDbEntity
  8
0
100
AcDbLine
 10
326.8179701685383
 20
91.20338053866244
 30
0.0
 11
332.6959492683383
 21
91.20338053866244
 31
0.0
  0
LINE
  5
5CE7
330
A
100
AcDbEntity
  8
0
100
AcDbLine
 10
326.3959506571383
 20
91.20338053866244
 30
0.0
 11
326.8179701685383
 21
91.20338053866244
 31
0.0
  0
LINE
  5
5CE8
330
A
100
AcDbEntity
  8
0
100
AcDbLine
 10
327.2509830116383
 20
90.70337952536245
 30
0.0
 11
326.8959498077383
 21
90.70337952536245
 31
0.0
  0
LINE
  5
5CE9
330
A
100
AcDbEntity
  8
0
100
AcDbLine
 10
332.1959501176383
 20
90.70337952536245
 30
0.0
 11
327.2509830116383
 21
90.70337952536245
 31
0.0
  0
LINE
  5
5CEA
330
A
100
AcDbEntity
  8
0
100
AcDbLine
 10
332.6959492683383
 20
89.60337953126243
 30
0.0
 11
332.0459494411383
 21
89.60337953126243
 31
0.0
  0
LINE
  5
5CEB
330
A
100
AcDbEntity
  8
0
100
AcDbLine
 10
327.0459504842383
 20
89.60337953126243
 30
0.0
 11
326.3959506571383
 21
89.60337953126243
 31
0.0
  0
LINE
  5
5CEC
330
A
100
AcDbEntity
  8
0
100
AcDbLine
 10
326.8959498077383
 20
90.10338054456243
 30
0.0
 11
327.0459504842383
 21
90.10338054456243
 31
0.0
  0
LINE
  5
5CED
330
A
100
AcDbEntity
  8
0
100
AcDbLine
 10
332.0459494411383
 20
90.10338054456243
 30
0.0
 11
332.1959501176383
 21
90.10338054456243
 31
0.0
  0
LINE
  5
5CEE
330
A
100
AcDbEntity
  8
0
100
AcDbLine
 10
376.6959508925383
 20
89.60337953126243
 30
0.0
 11
370.3959504186383
 21
89.60337953126243
 31
0.0
  0
LINE
  5
5CEF
330
A
100
AcDbEntity
  8
0
100
AcDbLine
 10
370.8959495693383
 20
90.10338054456243
 30
0.0
 11
376.1959498792383
 21
90.10338054456243
 31
0.0
  0
LINE
  5
5CF0
330
A
100
AcDbEntity
  8
0
  6
Continuous
 62
     8
370
     0
100
AcDbLine
 10
313.2959505587383
 20
76.20337994256245
 30
0.0
 11
313.2959505587383
 21
77.20337824386247
 31
0.0
  0
LINE
  5
5CF1
330
A
100
AcDbEntity
  8
0
  6
Continuous
 62
     8
370
     0
100
AcDbLine
 10
313.2959505587383
 20
77.20337824386247
 30
0.0
 11
388.2959498137383
 21
77.20337824386247
 31
0.0
  0
LINE
  5
5CF2
330
A
100
AcDbEntity
  8
0
  6
Continuous
 62
     8
370
     0
100
AcDbLine
 10
388.2959498137383
 20
76.20337994256245
 30
0.0
 11
388.2959498137383
 21
77.20337824386247
 31
0.0
  0
LINE
  5
5CF3
330
A
100
AcDbEntity
  8
0
  6
Continuous
 62
     8
370
     0
100
AcDbLine
 10
388.2959498137383
 20
77.20337824386247
 30
0.0
 11
388.2959498137383
 21
84.20338125386247
 31
0.0
  0
LINE
  5
5CF4
330
A
100
AcDbEntity
  8
0
  6
Continuous
 62
     8
370
     0
100
AcDbLine
 10
313.2959505587383
 20
77.20337824386247
 30
0.0
 11
313.2959505587383
 21
84.20338125386247
 31
0.0
  0
LINE
  5
5CF5
330
A
100
AcDbEntity
  8
0
  6
Continuous
 62
     8
370
     0
100
AcDbLine
 10
388.2959498137383
 20
77.20337824386247
 30
0.0
 11
390.2959501415383
 21
77.20337824386247
 31
0.0
  0
LINE
  5
5CF6
330
A
100
AcDbEntity
  8
0
  6
Continuous
 62
     8
370
     0
100
AcDbLine
 10
308.7959488898383
 20
77.20337824386247
 30
0.0
 11
313.2959505587383
 21
77.20337824386247
 31
0.0
  0
LINE
  5
5CF7
330
A
100
AcDbEntity
  8
0
  6
Continuous
 62
     8
370
     0
100
AcDbLine
 10
313.2959505587383
 20
103.6033799634624
 30
0.0
 11
313.2959505587383
 21
96.60337881606246
 31
0.0
  0
LINE
  5
5CF8
330
A
100
AcDbEntity
  8
0
  6
Continuous
 62
     8
370
     0
100
AcDbLine
 10
388.2959498137383
 20
103.6033799634624
 30
0.0
 11
313.2959505587383
 21
103.6033799634624
 31
0.0
  0
LINE
  5
5CF9
330
A
100
AcDbEntity
  8
0
  6
Continuous
 62
     8
370
     0
100
AcDbLine
 10
388.2959498137383
 20
103.6033799634624
 30
0.0
 11
388.2959498137383
 21
96.60337881606246
 31
0.0
  0
LINE
  5
5CFA
330
A
100
AcDbEntity
  8
0
  6
Continuous
 62
     8
370
     0
100
AcDbLine
 10
313.2959505587383
 20
103.6033799634624
 30
0.0
 11
308.7959488898383
 21
103.6033799634624
 31
0.0
  0
LINE
  5
5CFB
330
A
100
AcDbEntity
  8
0
  6
Continuous
 62
     8
370
     0
100
AcDbLine
 10
390.2959501415383
 20
103.6033799634624
 30
0.0
 11
388.2959498137383
 21
103.6033799634624
 31
0.0
  0
LINE
  5
5CFC
330
A
100
AcDbEntity
  8
0
  6
Continuous
 62
     8
370
     0
100
AcDbLine
 10
313.2959505587383
 20
103.6033799634624
 30
0.0
 11
313.2959505587383
 21
104.6033801273624
 31
0.0
  0
LINE
  5
5CFD
330
A
100
AcDbEntity
  8
0
  6
Continuous
 62
     8
370
     0
100
AcDbLine
 10
388.2959498137383
 20
103.6033799634624
 30
0.0
 11
388.2959498137383
 21
104.6033801273624
 31
0.0
  0
LINE
  5
5CFE
330
A
100
AcDbEntity
  8
0
  6
Continuous
 62
     8
370
     0
100
AcDbLine
 10
353.6639841899383
 20
82.00338126576243
 30
0.0
 11
353.6639841899383
 21
78.83977533736244
 31
0.0
  0
LINE
  5
5CFF
330
A
100
AcDbEntity
  8
0
  6
Continuous
 62
     8
370
     0
100
AcDbLine
 10
352.7695569916383
 20
78.70697991406247
 30
0.0
 11
352.7695569916383
 21
82.00338126576243
 31
0.0
  0
LINE
  5
5D00
330
A
100
AcDbEntity
  8
0
  6
Continuous
 62
     8
370
     0
100
AcDbLine
 10
346.3223435960383
 20
82.00338126576243
 30
0.0
 11
346.3223435960383
 21
78.70697991406247
 31
0.0
  0
LINE
  5
5D01
330
A
100
AcDbEntity
  8
0
  6
Continuous
 62
     8
370
     0
100
AcDbLine
 10
345.4279162965383
 20
78.83977533736244
 30
0.0
 11
345.4279162965383
 21
82.00338126576243
 31
0.0
  0
LINE
  5
5D02
330
A
100
AcDbEntity
  8
0
  6
Continuous
 62
     8
370
     0
100
AcDbLine
 10
346.7695567801383
 20
78.65292222656247
 30
0.0
 11
346.7695567801383
 21
82.00338126576243
 31
0.0
  0
LINE
  5
5D03
330
A
100
AcDbEntity
  8
0
  6
Continuous
 62
     8
370
     0
100
AcDbLine
 10
352.3223433862383
 20
78.65292222656247
 30
0.0
 11
352.3223433862383
 21
82.00338126576243
 31
0.0
  0
LINE
  5
5D04
330
A
100
AcDbEntity
  8
0
  6
Continuous
 62
     8
370
     0
100
AcDbLine
 10
347.6639840796383
 20
78.56921495356245
 30
0.0
 11
347.6639840796383
 21
79.62647096676245
 31
0.0
  0
LINE
  5
5D05
330
A
100
AcDbEntity
  8
0
  6
Continuous
 62
     8
370
     0
100
AcDbLine
 10
347.6639840796383
 20
80.98028616466247
 30
0.0
 11
347.6639840796383
 21
82.00338126576243
 31
0.0
  0
LINE
  5
5D06
330
A
100
AcDbEntity
  8
0
  6
Continuous
 62
     8
370
     0
100
AcDbLine
 10
351.4279162322383
 20
78.56921495356245
 30
0.0
 11
351.4279162322383
 21
79.62647096676245
 31
0.0
  0
LINE
  5
5D07
330
A
100
AcDbEntity
  8
0
  6
Continuous
 62
     8
370
     0
100
AcDbLine
 10
351.4279162322383
 20
80.98028616466247
 30
0.0
 11
351.4279162322383
 21
82.00338126576243
 31
0.0
  0
LINE
  5
5D08
330
A
100
AcDbEntity
  8
0
  6
Continuous
 62
     8
370
     0
100
AcDbLine
 10
334.2167934447383
 20
88.80338089026243
 30
0.0
 11
334.2167934447383
 21
84.70337854186245
 31
0.0
  0
LINE
  5
5D09
330
A
100
AcDbEntity
  8
0
  6
Continuous
 62
     8
370
     0
100
AcDbLine
 10
334.9998047619383
 20
88.80338089026243
 30
0.0
 11
334.9998047619383
 21
84.70337854186245
 31
0.0
  0
LINE
  5
5D0A
330
A
100
AcDbEntity
  8
0
  6
Continuous
 62
     8
370
     0
100
AcDbLine
 10
328.5459497987383
 20
88.80338089026243
 30
0.0
 11
328.5459497987383
 21
84.70337854186245
 31
0.0
  0
LINE
  5
5D0B
330
A
100
AcDbEntity
  8
0
  6
Continuous
 62
     8
370
     0
100
AcDbLine
 10
369.3751072555383
 20
88.80338089026243
 30
0.0
 11
369.3751072555383
 21
84.70337854186245
 31
0.0
  0
LINE
  5
5D0C
330
A
100
AcDbEntity
  8
0
  6
Continuous
 62
     8
370
     0
100
AcDbLine
 10
368.5920959383383
 20
88.80338089026243
 30
0.0
 11
368.5920959383383
 21
84.70337854186245
 31
0.0
  0
LINE
  5
5D0D
330
A
100
AcDbEntity
  8
0
  6
Continuous
 62
     8
370
     0
100
AcDbLine
 10
335.1042060225383
 20
88.80338089026243
 30
0.0
 11
335.1042060225383
 21
84.70337854186245
 31
0.0
  0
LINE
  5
5D0E
330
A
100
AcDbEntity
  8
0
  6
Continuous
 62
     8
370
     0
100
AcDbLine
 10
368.4876946776383
 20
88.80338089026243
 30
0.0
 11
368.4876946776383
 21
84.70337854186245
 31
0.0
  0
LINE
  5
5D0F
330
A
100
AcDbEntity
  8
0
  6
Continuous
 62
     8
370
     0
100
AcDbLine
 10
352.7695569916383
 20
98.80337880416245
 30
0.0
 11
352.7695569916383
 21
102.0997782931625
 31
0.0
  0
LINE
  5
5D10
330
A
100
AcDbEntity
  8
0
  6
Continuous
 62
     8
370
     0
100
AcDbLine
 10
353.6639841899383
 20
101.9669865951625
 30
0.0
 11
353.6639841899383
 21
98.80337880416245
 31
0.0
  0
LINE
  5
5D11
330
A
100
AcDbEntity
  8
0
  6
Continuous
 62
     8
370
     0
100
AcDbLine
 10
345.4279162965383
 20
98.80337880416245
 30
0.0
 11
345.4279162965383
 21
101.9669865951625
 31
0.0
  0
LINE
  5
5D12
330
A
100
AcDbEntity
  8
0
  6
Continuous
 62
     8
370
     0
100
AcDbLine
 10
346.3223435960383
 20
102.0997782931625
 30
0.0
 11
346.3223435960383
 21
98.80337880416245
 31
0.0
  0
LINE
  5
5D13
330
A
100
AcDbEntity
  8
0
  6
Continuous
 62
     8
370
     0
100
AcDbLine
 10
352.3223433862383
 20
98.80337880416245
 30
0.0
 11
352.3223433862383
 21
102.1538359806625
 31
0.0
  0
LINE
  5
5D14
330
A
100
AcDbEntity
  8
0
  6
Continuous
 62
     8
370
     0
100
AcDbLine
 10
346.7695567801383
 20
98.80337880416245
 30
0.0
 11
346.7695567801383
 21
102.1538359806625
 31
0.0
  0
LINE
  5
5D15
330
A
100
AcDbEntity
  8
0
  6
Continuous
 62
     8
370
     0
100
AcDbLine
 10
351.4279162322383
 20
98.80337880416245
 30
0.0
 11
351.4279162322383
 21
99.82647204256246
 31
0.0
  0
LINE
  5
5D16
330
A
100
AcDbEntity
  8
0
  6
Continuous
 62
     8
370
     0
100
AcDbLine
 10
351.4279162322383
 20
101.1802872405625
 30
0.0
 11
351.4279162322383
 21
102.2375451163624
 31
0.0
  0
LINE
  5
5D17
330
A
100
AcDbEntity
  8
0
  6
Continuous
 62
     8
370
     0
100
AcDbLine
 10
347.6639840796383
 20
98.80337880416245
 30
0.0
 11
347.6639840796383
 21
99.82647204256246
 31
0.0
  0
LINE
  5
5D18
330
A
100
AcDbEntity
  8
0
  6
Continuous
 62
     8
370
     0
100
AcDbLine
 10
347.6639840796383
 20
101.1802872405625
 30
0.0
 11
347.6639840796383
 21
102.2375451163624
 31
0.0
  0
LINE
  5
5D19
330
A
100
AcDbEntity
  8
0
  6
Continuous
 62
     8
370
     0
100
AcDbLine
 10
328.5459497987383
 20
92.00337917966245
 30
0.0
 11
328.5459497987383
 21
94.70338018096244
 31
0.0
  0
LINE
  5
5D1A
330
A
100
AcDbEntity
  8
0
  6
Continuous
 62
     8
370
     0
100
AcDbLine
 10
369.3751072555383
 20
92.00337917966245
 30
0.0
 11
369.3751072555383
 21
94.70338018096244
 31
0.0
  0
LINE
  5
5D1B
330
A
100
AcDbEntity
  8
0
  6
Continuous
 62
     8
370
     0
100
AcDbLine
 10
368.5920959383383
 20
92.00337917966245
 30
0.0
 11
368.5920959383383
 21
94.70338018096244
 31
0.0
  0
LINE
  5
5D1C
330
A
100
AcDbEntity
  8
0
  6
Continuous
 62
     8
370
     0
100
AcDbLine
 10
334.2167934447383
 20
92.00337917966245
 30
0.0
 11
334.2167934447383
 21
94.70338018096244
 31
0.0
  0
LINE
  5
5D1D
330
A
100
AcDbEntity
  8
0
  6
Continuous
 62
     8
370
     0
100
AcDbLine
 10
334.9998047619383
 20
92.00337917966245
 30
0.0
 11
334.9998047619383
 21
94.70338018096244
 31
0.0
  0
LINE
  5
5D1E
330
A
100
AcDbEntity
  8
0
  6
Continuous
 62
     8
370
     0
100
AcDbLine
 10
335.1042060225383
 20
92.00337917966245
 30
0.0
 11
335.1042060225383
 21
94.70338018096244
 31
0.0
  0
LINE
  5
5D1F
330
A
100
AcDbEntity
  8
0
  6
Continuous
 62
     8
370
     0
100
AcDbLine
 10
368.4876946776383
 20
92.00337917966245
 30
0.0
 11
368.4876946776383
 21
94.70338018096244
 31
0.0
  0
LINE
  5
5D20
330
A
100
AcDbEntity
  8
0
  6
Continuous
 62
     8
370
     0
100
AcDbLine
 10
317.0459507077383
 20
96.10338152806243
 30
0.0
 11
317.0459507077383
 21
94.70338018096244
 31
0.0
  0
LINE
  5
5D21
330
A
100
AcDbEntity
  8
0
  6
Continuous
 62
     8
370
     0
100
AcDbLine
 10
386.0459489792383
 20
96.10338152806243
 30
0.0
 11
386.0459489792383
 21
94.70338018096244
 31
0.0
  0
LINE
  5
5D22
330
A
100
AcDbEntity
  8
0
  6
Continuous
 62
     8
370
     0
100
AcDbLine
 10
317.5459517210383
 20
84.70337854186245
 30
0.0
 11
317.5459517210383
 21
84.20338125386247
 31
0.0
  0
LINE
  5
5D23
330
A
100
AcDbEntity
  8
0
  6
Continuous
 62
     8
370
     0
100
AcDbLine
 10
386.5459499925383
 20
84.70337854186245
 30
0.0
 11
386.5459499925383
 21
84.20338125386247
 31
0.0
  0
LINE
  5
5D24
330
A
100
AcDbEntity
  8
0
  6
Continuous
 62
     8
370
     0
100
AcDbLine
 10
317.0459507077383
 20
96.60337881606246
 30
0.0
 11
317.0459507077383
 21
96.10338152806243
 31
0.0
  0
LINE
  5
5D25
330
A
100
AcDbEntity
  8
0
  6
Continuous
 62
     8
370
     0
100
AcDbLine
 10
386.0459489792383
 20
96.60337881606246
 30
0.0
 11
386.0459489792383
 21
96.10338152806243
 31
0.0
  0
ENDSEC
  0
SECTION
  2
OBJECTS
  0
DICTIONARY
  5
19
330
0
100
AcDbDictionary
281
     1
  3
ACAD_GROUP
350
1A
  3
ACAD_IMAGE_VARS
350
44CB
  3
ACAD_LAYOUT
350
1E
  3
ACAD_MLINESTYLE
350
1B
  3
ACAD_PLOTSETTINGS
350
22
  3
ACAD_PLOTSTYLENAME
350
1F
  3
ACAD_SCALELIST
350
2312
  3
ACAD_WIPEOUT_VARS
350
23
  3
AcDbVariableDictionary
350
4443
  3
APPDATA
350
44CA
  3
ASE_INDEX_DICTIONARY
350
443E
  3
DWGPROPS
350
5D26
  0
DICTIONARY
  5
4441
330
14
100
AcDbDictionary
280
     1
281
     1
  3
ADSK_XREC_LAYER_RECONCILED
360
4442
  0
DICTIONARY
  5
233E
330
A
100
AcDbDictionary
280
     1
281
     1
  3
ACAD_SORTENTS
360
233F
  0
DICTIONARY
  5
1A
102
{ACAD_REACTORS
330
19
102
}
330
19
100
AcDbDictionary
281
     1
  0
RASTERVARIABLES
  5
44CB
102
{ACAD_REACTORS
330
19
102
}
330
19
100
AcDbRasterVariables
 90
        0
 70
     1
 71
     1
 72
     0
  0
DICTIONARY
  5
1E
102
{ACAD_REACTORS
330
19
102
}
330
19
100
AcDbDictionary
281
     1
  3
Layout1
350
21
  3
Model
350
20
  0
DICTIONARY
  5
1B
102
{ACAD_REACTORS
330
19
102
}
330
19
100
AcDbDictionary
281
     1
  3
Standard
350
1C
  0
DICTIONARY
  5
22
102
{ACAD_REACTORS
330
19
102
}
330
19
100
AcDbDictionary
281
     1
  0
ACDBDICTIONARYWDFLT
  5
1F
102
{ACAD_REACTORS
330
19
102
}
330
19
100
AcDbDictionary
281
     1
  3
Normal
350
1D
100
AcDbDictionaryWithDefault
340
1D
  0
DICTIONARY
  5
2312
102
{ACAD_REACTORS
330
19
102
}
330
19
100
AcDbDictionary
281
     1
  3
A0
350
2313
  3
A1
350
2314
  3
A2
350
2315
  3
A3
350
2316
  3
A4
350
2317
  3
A5
350
2318
  3
A6
350
2319
  3
A7
350
231A
  3
A8
350
231B
  3
A9
350
231C
  3
B0
350
231D
  3
B1
350
231E
  3
B2
350
231F
  3
B3
350
2320
  3
B4
350
2321
  3
B5
350
2322
  3
B6
350
2323
  3
B7
350
2324
  3
B8
350
2325
  3
B9
350
2326
  3
C0
350
2327
  3
C1
350
2328
  3
C2
350
2329
  3
C3
350
232A
  3
C4
350
232B
  3
C5
350
232C
  3
C6
350
232D
  3
C7
350
232E
  3
C8
350
232F
  3
C9
350
2330
  3
D0
350
2331
  3
D1
350
2332
  3
D2
350
2333
  0
WIPEOUTVARIABLES
  5
23
330
19
100
AcDbWipeoutVariables
 70
     1
  0
DICTIONARY
  5
4443
102
{ACAD_REACTORS
330
19
102
}
330
19
100
AcDbDictionary
281
     1
  3
DIMASSOC
350
4449
  3
INDEXCTL
350
4448
  3
SORTENTS
350
4447
  0
DICTIONARY
  5
44CA
102
{ACAD_REACTORS
330
19
102
}
330
19
100
AcDbDictionary
281
     1
  0
DICTIONARY
  5
443E
102
{ACAD_REACTORS
330
19
102
}
330
19
100
AcDbDictionary
281
     1
  3
ASEBlockHierarchyIndexRecord
350
4440
1001
DCO15
1040
1686558972.246
  0
XRECORD
  5
5D26
102
{ACAD_REACTORS
330
19
102
}
330
19
100
AcDbXrecord
280
     1
  1
DWGPROPS COOKIE
  2

  3

  4

  6

  7

  8
emilio
  9

300
=
301
=
302
=
303
=
304
=
305
=
306
=
307
=
308
=
309
=
 40
0.0
 41
2455323.486527315
 42
2457329.628139745
  1

 90
        0
  0
XRECORD
  5
4442
102
{ACAD_REACTORS
330
4441
102
}
330
4441
100
AcDbXrecord
280
     1
290
     1
  0
SORTENTSTABLE
  5
233F
102
{ACAD_REACTORS
330
233E
102
}
330
233E
100
AcDbSortentsTable
330
A
331
0
  5
381D
  0
LAYOUT
  5
21
102
{ACAD_REACTORS
330
1E
102
}
330
1E
100
AcDbPlotSettings
  1

  2

  4

  6

 40
0.0
 41
0.0
 42
0.0
 43
0.0
 44
0.0
 45
0.0
 46
0.0
 47
0.0
 48
0.0
 49
0.0
140
0.0
141
0.0
142
1.0
143
1.0
 70
     0
 72
     0
 73
     0
 74
     0
  7

 75
     0
147
1.0
148
0.0
149
0.0
100
AcDbLayout
  1
Layout1
 70
     0
 71
     1
 10
0.0
 20
0.0
 11
12.0
 21
9.0
 12
0.0
 22
0.0
 32
0.0
 14
1.000000000000000E+20
 24
1.000000000000000E+20
 34
1.000000000000000E+20
 15
-1.000000000000000E+20
 25
-1.000000000000000E+20
 35
-1.000000000000000E+20
146
0.0
 13
0.0
 23
0.0
 33
0.0
 16
1.0
 26
0.0
 36
0.0
 17
0.0
 27
1.0
 37
0.0
 76
     0
330
B
  0
LAYOUT
  5
20
102
{ACAD_REACTORS
330
1E
102
}
330
1E
100
AcDbPlotSettings
  1

  2

  4

  6

 40
0.0
 41
0.0
 42
0.0
 43
0.0
 44
0.0
 45
0.0
 46
0.0
 47
0.0
 48
0.0
 49
0.0
140
0.0
141
0.0
142
1.0
143
1.0
 70
  1024
 72
     0
 73
     0
 74
     0
  7

 75
     0
147
1.0
148
0.0
149
0.0
100
AcDbLayout
  1
Model
 70
     0
 71
     0
 10
0.0
 20
0.0
 11
0.0
 21
0.0
 12
0.0
 22
0.0
 32
0.0
 14
216.2697182171847
 24
-134.0499451177971
 34
0.0
 15
596.2682303702964
 25
179.9499685658226
 35
0.0
146
0.0
 13
0.0
 23
0.0
 33
0.0
 16
0.0
 26
0.0
 36
0.0
 17
0.0
 27
0.0
 37
0.0
 76
     0
330
A
331
15
  0
MLINESTYLE
  5
1C
102
{ACAD_REACTORS
330
1B
102
}
330
1B
100
AcDbMlineStyle
  2
STANDARD
 70
     0
  3

 62
     0
 51
90.0
 52
90.0
 71
     2
 49
0.5
 62
   256
  6
BYLAYER
 49
-0.5
 62
   256
  6
BYLAYER
  0
ACDBPLACEHOLDER
  5
1D
102
{ACAD_REACTORS
330
1F
102
}
330
1F
  0
SCALE
  5
2313
102
{ACAD_REACTORS
330
2312
102
}
330
2312
100
AcDbScale
 70
     0
300
1:1
140
1.0
141
1.0
290
     1
  0
SCALE
  5
2314
102
{ACAD_REACTORS
330
2312
102
}
330
2312
100
AcDbScale
 70
     0
300
1:2
140
1.0
141
2.0
290
     0
  0
SCALE
  5
2315
102
{ACAD_REACTORS
330
2312
102
}
330
2312
100
AcDbScale
 70
     0
300
1:4
140
1.0
141
4.0
290
     0
  0
SCALE
  5
2316
102
{ACAD_REACTORS
330
2312
102
}
330
2312
100
AcDbScale
 70
     0
300
1:5
140
1.0
141
5.0
290
     0
  0
SCALE
  5
2317
102
{ACAD_REACTORS
330
2312
102
}
330
2312
100
AcDbScale
 70
     0
300
1:8
140
1.0
141
8.0
290
     0
  0
SCALE
  5
2318
102
{ACAD_REACTORS
330
2312
102
}
330
2312
100
AcDbScale
 70
     0
300
1:10
140
1.0
141
10.0
290
     0
  0
SCALE
  5
2319
102
{ACAD_REACTORS
330
2312
102
}
330
2312
100
AcDbScale
 70
     0
300
1:16
140
1.0
141
16.0
290
     0
  0
SCALE
  5
231A
102
{ACAD_REACTORS
330
2312
102
}
330
2312
100
AcDbScale
 70
     0
300
1:20
140
1.0
141
20.0
290
     0
  0
SCALE
  5
231B
102
{ACAD_REACTORS
330
2312
102
}
330
2312
100
AcDbScale
 70
     0
300
1:30
140
1.0
141
30.0
290
     0
  0
SCALE
  5
231C
102
{ACAD_REACTORS
330
2312
102
}
330
2312
100
AcDbScale
 70
     0
300
1:40
140
1.0
141
40.0
290
     0
  0
SCALE
  5
231D
102
{ACAD_REACTORS
330
2312
102
}
330
2312
100
AcDbScale
 70
     0
300
1:50
140
1.0
141
50.0
290
     0
  0
SCALE
  5
231E
102
{ACAD_REACTORS
330
2312
102
}
330
2312
100
AcDbScale
 70
     0
300
1:100
140
1.0
141
100.0
290
     0
  0
SCALE
  5
231F
102
{ACAD_REACTORS
330
2312
102
}
330
2312
100
AcDbScale
 70
     0
300
2:1
140
2.0
141
1.0
290
     0
  0
SCALE
  5
2320
102
{ACAD_REACTORS
330
2312
102
}
330
2312
100
AcDbScale
 70
     0
300
4:1
140
4.0
141
1.0
290
     0
  0
SCALE
  5
2321
102
{ACAD_REACTORS
330
2312
102
}
330
2312
100
AcDbScale
 70
     0
300
8:1
140
8.0
141
1.0
290
     0
  0
SCALE
  5
2322
102
{ACAD_REACTORS
330
2312
102
}
330
2312
100
AcDbScale
 70
     0
300
10:1
140
10.0
141
1.0
290
     0
  0
SCALE
  5
2323
102
{ACAD_REACTORS
330
2312
102
}
330
2312
100
AcDbScale
 70
     0
300
100:1
140
100.0
141
1.0
290
     0
  0
SCALE
  5
2324
102
{ACAD_REACTORS
330
2312
102
}
330
2312
100
AcDbScale
 70
     0
300
1/128" = 1'-0"
140
0.0078125
141
12.0
290
     0
  0
SCALE
  5
2325
102
{ACAD_REACTORS
330
2312
102
}
330
2312
100
AcDbScale
 70
     0
300
1/64" = 1'-0"
140
0.015625
141
12.0
290
     0
  0
SCALE
  5
2326
102
{ACAD_REACTORS
330
2312
102
}
330
2312
100
AcDbScale
 70
     0
300
1/32" = 1'-0"
140
0.03125
141
12.0
290
     0
  0
SCALE
  5
2327
102
{ACAD_REACTORS
330
2312
102
}
330
2312
100
AcDbScale
 70
     0
300
1/16" = 1'-0"
140
0.0625
141
12.0
290
     0
  0
SCALE
  5
2328
102
{ACAD_REACTORS
330
2312
102
}
330
2312
100
AcDbScale
 70
     0
300
3/32" = 1'-0"
140
0.09375
141
12.0
290
     0
  0
SCALE
  5
2329
102
{ACAD_REACTORS
330
2312
102
}
330
2312
100
AcDbScale
 70
     0
300
1/8" = 1'-0"
140
0.125
141
12.0
290
     0
  0
SCALE
  5
232A
102
{ACAD_REACTORS
330
2312
102
}
330
2312
100
AcDbScale
 70
     0
300
3/16" = 1'-0"
140
0.1875
141
12.0
290
     0
  0
SCALE
  5
232B
102
{ACAD_REACTORS
330
2312
102
}
330
2312
100
AcDbScale
 70
     0
300
1/4" = 1'-0"
140
0.25
141
12.0
290
     0
  0
SCALE
  5
232C
102
{ACAD_REACTORS
330
2312
102
}
330
2312
100
AcDbScale
 70
     0
300
3/8" = 1'-0"
140
0.375
141
12.0
290
     0
  0
SCALE
  5
232D
102
{ACAD_REACTORS
330
2312
102
}
330
2312
100
AcDbScale
 70
     0
300
1/2" = 1'-0"
140
0.5
141
12.0
290
     0
  0
SCALE
  5
232E
102
{ACAD_REACTORS
330
2312
102
}
330
2312
100
AcDbScale
 70
     0
300
3/4" = 1'-0"
140
0.75
141
12.0
290
     0
  0
SCALE
  5
232F
102
{ACAD_REACTORS
330
2312
102
}
330
2312
100
AcDbScale
 70
     0
300
1" = 1'-0"
140
1.0
141
12.0
290
     0
  0
SCALE
  5
2330
102
{ACAD_REACTORS
330
2312
102
}
330
2312
100
AcDbScale
 70
     0
300
1-1/2" = 1'-0"
140
1.5
141
12.0
290
     0
  0
SCALE
  5
2331
102
{ACAD_REACTORS
330
2312
102
}
330
2312
100
AcDbScale
 70
     0
300
3" = 1'-0"
140
3.0
141
12.0
290
     0
  0
SCALE
  5
2332
102
{ACAD_REACTORS
330
2312
102
}
330
2312
100
AcDbScale
 70
     0
300
6" = 1'-0"
140
6.0
141
12.0
290
     0
  0
SCALE
  5
2333
102
{ACAD_REACTORS
330
2312
102
}
330
2312
100
AcDbScale
 70
     0
300
1'-0" = 1'-0"
140
12.0
141
12.0
290
     0
  0
DICTIONARYVAR
  5
4449
102
{ACAD_REACTORS
330
4443
102
}
330
4443
100
DictionaryVariables
280
     0
  1
1
  0
DICTIONARYVAR
  5
4448
102
{ACAD_REACTORS
330
4443
102
}
330
4443
100
DictionaryVariables
280
     0
  1
0
  0
DICTIONARYVAR
  5
4447
102
{ACAD_REACTORS
330
4443
102
}
330
4443
100
DictionaryVariables
280
     0
  1
127
  0
XRECORD
  5
4440
102
{ACAD_REACTORS
330
443E
102
}
330
443E
100
AcDbXrecord
280
     1
  0
ENDSEC
  0
EOF
