  0
SECTION
  2
HEADER
  9
$ACADVER
  1
AC1015
  9
$ACADMAINTVER
 70
     6
  9
$DWGCODEPAGE
  3
ANSI_1252
  9
$INSBASE
 10
0.0
 20
0.0
 30
0.0
  9
$EXTMIN
 10
47.19278668310002
 20
150.6127166883243
 30
0.0
  9
$EXTMAX
 10
682.9867940712
 20
507.4872722959
 30
0.0
  9
$LIMMIN
 10
0.0
 20
0.0
  9
$LIMMAX
 10
840.0
 20
594.0
  9
$ORTHOMODE
 70
     1
  9
$REGENMODE
 70
     1
  9
$FILLMODE
 70
     1
  9
$QTEXTMODE
 70
     0
  9
$MIRRTEXT
 70
     1
  9
$LTSCALE
 40
1.0
  9
$ATTMODE
 70
     1
  9
$TEXTSIZE
 40
2.8
  9
$TRACEWID
 40
1.0
  9
$TEXTSTYLE
  7
STANDARD
  9
$CLAYER
  8
0
  9
$CELTYPE
  6
BYLAYER
  9
$CECOLOR
 62
   256
  9
$CELTSCALE
 40
1.0
  9
$DISPSILH
 70
     0
  9
$DIMSCALE
 40
1.0
  9
$DIMASZ
 40
3.2
  9
$DIMEXO
 40
0.1
  9
$DIMDLI
 40
3.75
  9
$DIMRND
 40
0.0
  9
$DIMDLE
 40
0.0
  9
$DIMEXE
 40
1.0
  9
$DIMTP
 40
0.0
  9
$DIMTM
 40
0.0
  9
$DIMTXT
 40
3.2
  9
$DIMCEN
 40
2.5
  9
$DIMTSZ
 40
0.0
  9
$DIMTOL
 70
     0
  9
$DIMLIM
 70
     0
  9
$DIMTIH
 70
     1
  9
$DIMTOH
 70
     1
  9
$DIMSE1
 70
     0
  9
$DIMSE2
 70
     0
  9
$DIMTAD
 70
     1
  9
$DIMZIN
 70
     0
  9
$DIMBLK
  1

  9
$DIMASO
 70
     1
  9
$DIMSHO
 70
     1
  9
$DIMPOST
  1

  9
$DIMAPOST
  1

  9
$DIMALT
 70
     0
  9
$DIMALTD
 70
     3
  9
$DIMALTF
 40
0.0393700787
  9
$DIMLFAC
 40
1.0
  9
$DIMTOFL
 70
     1
  9
$DIMTVP
 40
0.0
  9
$DIMTIX
 70
     0
  9
$DIMSOXD
 70
     0
  9
$DIMSAH
 70
     0
  9
$DIMBLK1
  1

  9
$DIMBLK2
  1

  9
$DIMSTYLE
  2
ISO-25
  9
$DIMCLRD
 70
     0
  9
$DIMCLRE
 70
     0
  9
$DIMCLRT
 70
     0
  9
$DIMTFAC
 40
1.0
  9
$DIMGAP
 40
2.0
  9
$DIMJUST
 70
     0
  9
$DIMSD1
 70
     0
  9
$DIMSD2
 70
     0
  9
$DIMTOLJ
 70
     0
  9
$DIMTZIN
 70
     0
  9
$DIMALTZ
 70
     0
  9
$DIMALTTZ
 70
     0
  9
$DIMUPT
 70
     0
  9
$DIMDEC
 70
     2
  9
$DIMTDEC
 70
     2
  9
$DIMALTU
 70
     2
  9
$DIMALTTD
 70
     3
  9
$DIMTXSTY
  7
STANDARD
  9
$DIMAUNIT
 70
     0
  9
$DIMADEC
 70
     0
  9
$DIMALTRND
 40
0.0
  9
$DIMAZIN
 70
     0
  9
$DIMDSEP
 70
    46
  9
$DIMATFIT
 70
     3
  9
$DIMFRAC
 70
     0
  9
$DIMLDRBLK
  1

  9
$DIMLUNIT
 70
     2
  9
$DIMLWD
 70
    -2
  9
$DIMLWE
 70
    -2
  9
$DIMTMOVE
 70
     2
  9
$LUNITS
 70
     2
  9
$LUPREC
 70
     2
  9
$SKETCHINC
 40
1.0
  9
$FILLETRAD
 40
10.0
  9
$AUNITS
 70
     0
  9
$AUPREC
 70
     2
  9
$MENU
  1
.
  9
$ELEVATION
 40
0.0
  9
$PELEVATION
 40
0.0
  9
$THICKNESS
 40
0.0
  9
$LIMCHECK
 70
     0
  9
$CHAMFERA
 40
10.0
  9
$CHAMFERB
 40
10.0
  9
$CHAMFERC
 40
20.0
  9
$CHAMFERD
 40
0.0
  9
$SKPOLY
 70
     0
  9
$TDCREATE
 40
2456568.310472107
  9
$TDUCREATE
 40
2456568.26880544
  9
$TDUPDATE
 40
2457345.470429722
  9
$TDUUPDATE
 40
2457345.428763056
  9
$TDINDWG
 40
0.0007043866
  9
$TDUSRTIMER
 40
2457345.428058727
  9
$USRTIMER
 70
     1
  9
$ANGBASE
 50
0.0
  9
$ANGDIR
 70
     0
  9
$PDMODE
 70
     0
  9
$PDSIZE
 40
-1.0
  9
$PLINEWID
 40
0.0
  9
$SPLFRAME
 70
     0
  9
$SPLINETYPE
 70
     6
  9
$SPLINESEGS
 70
     8
  9
$HANDSEED
  5
4CD
  9
$SURFTAB1
 70
     6
  9
$SURFTAB2
 70
     6
  9
$SURFTYPE
 70
     6
  9
$SURFU
 70
     6
  9
$SURFV
 70
     6
  9
$UCSBASE
  2

  9
$UCSNAME
  2

  9
$UCSORG
 10
0.0
 20
0.0
 30
0.0
  9
$UCSXDIR
 10
1.0
 20
0.0
 30
0.0
  9
$UCSYDIR
 10
0.0
 20
1.0
 30
0.0
  9
$UCSORTHOREF
  2

  9
$UCSORTHOVIEW
 70
     0
  9
$UCSORGTOP
 10
0.0
 20
0.0
 30
0.0
  9
$UCSORGBOTTOM
 10
0.0
 20
0.0
 30
0.0
  9
$UCSORGLEFT
 10
0.0
 20
0.0
 30
0.0
  9
$UCSORGRIGHT
 10
0.0
 20
0.0
 30
0.0
  9
$UCSORGFRONT
 10
0.0
 20
0.0
 30
0.0
  9
$UCSORGBACK
 10
0.0
 20
0.0
 30
0.0
  9
$PUCSBASE
  2

  9
$PUCSNAME
  2

  9
$PUCSORG
 10
0.0
 20
0.0
 30
0.0
  9
$PUCSXDIR
 10
1.0
 20
0.0
 30
0.0
  9
$PUCSYDIR
 10
0.0
 20
1.0
 30
0.0
  9
$PUCSORTHOREF
  2

  9
$PUCSORTHOVIEW
 70
     0
  9
$PUCSORGTOP
 10
0.0
 20
0.0
 30
0.0
  9
$PUCSORGBOTTOM
 10
0.0
 20
0.0
 30
0.0
  9
$PUCSORGLEFT
 10
0.0
 20
0.0
 30
0.0
  9
$PUCSORGRIGHT
 10
0.0
 20
0.0
 30
0.0
  9
$PUCSORGFRONT
 10
0.0
 20
0.0
 30
0.0
  9
$PUCSORGBACK
 10
0.0
 20
0.0
 30
0.0
  9
$USERI1
 70
     0
  9
$USERI2
 70
     0
  9
$USERI3
 70
     0
  9
$USERI4
 70
     0
  9
$USERI5
 70
     0
  9
$USERR1
 40
0.0
  9
$USERR2
 40
0.0
  9
$USERR3
 40
0.0
  9
$USERR4
 40
0.0
  9
$USERR5
 40
0.0
  9
$WORLDVIEW
 70
     1
  9
$SHADEDGE
 70
     3
  9
$SHADEDIF
 70
    70
  9
$TILEMODE
 70
     1
  9
$MAXACTVP
 70
    64
  9
$PINSBASE
 10
0.0
 20
0.0
 30
0.0
  9
$PLIMCHECK
 70
     0
  9
$PEXTMIN
 10
1.000000000000000E+20
 20
1.000000000000000E+20
 30
1.000000000000000E+20
  9
$PEXTMAX
 10
-1.000000000000000E+20
 20
-1.000000000000000E+20
 30
-1.000000000000000E+20
  9
$PLIMMIN
 10
0.0
 20
0.0
  9
$PLIMMAX
 10
0.0
 20
0.0
  9
$UNITMODE
 70
     0
  9
$VISRETAIN
 70
     1
  9
$PLINEGEN
 70
     0
  9
$PSLTSCALE
 70
     1
  9
$TREEDEPTH
 70
  3020
  9
$CMLSTYLE
  2
STANDARD
  9
$CMLJUST
 70
     0
  9
$CMLSCALE
 40
20.0
  9
$PROXYGRAPHICS
 70
     1
  9
$MEASUREMENT
 70
     1
  9
$CELWEIGHT
370
    -1
  9
$ENDCAPS
280
     0
  9
$JOINSTYLE
280
     0
  9
$LWDISPLAY
290
     0
  9
$INSUNITS
 70
     0
  9
$HYPERLINKBASE
  1

  9
$STYLESHEET
  1

  9
$XEDIT
290
     1
  9
$CEPSNTYPE
380
     0
  9
$PSTYLEMODE
290
     1
  9
$FINGERPRINTGUID
  2
{F12C2D55-EC95-4475-A546-CE4F3C4CF634}
  9
$VERSIONGUID
  2
{FAEB1C32-E019-11D5-929B-00C0DF256EC4}
  9
$EXTNAMES
290
     1
  9
$PSVPSCALE
 40
0.0
  9
$OLESTARTUP
290
     0
  0
ENDSEC
  0
SECTION
  2
CLASSES
  0
CLASS
  1
ACDBDICTIONARYWDFLT
  2
AcDbDictionaryWithDefault
  3
ObjectDBX Classes
 90
        0
280
     0
281
     0
  0
CLASS
  1
VISUALSTYLE
  2
AcDbVisualStyle
  3
ObjectDBX Classes
 90
     4095
280
     0
281
     0
  0
CLASS
  1
MATERIAL
  2
AcDbMaterial
  3
ObjectDBX Classes
 90
     1153
280
     0
281
     0
  0
CLASS
  1
XRECORD
  2
AcDbXrecord
  3
ObjectDBX Classes
 90
        0
280
     0
281
     0
  0
CLASS
  1
LWPOLYLINE
  2
AcDbPolyline
  3
ObjectDBX Classes
 90
        0
280
     0
281
     1
  0
CLASS
  1
HATCH
  2
AcDbHatch
  3
ObjectDBX Classes
 90
        0
280
     0
281
     1
  0
CLASS
  1
SCALE
  2
AcDbScale
  3
ObjectDBX Classes
 90
     1153
280
     0
281
     0
  0
CLASS
  1
TABLESTYLE
  2
AcDbTableStyle
  3
ObjectDBX Classes
 90
     4095
280
     0
281
     0
  0
CLASS
  1
RASTERVARIABLES
  2
AcDbRasterVariables
  3
ISM
 90
        0
280
     0
281
     0
  0
CLASS
  1
SORTENTSTABLE
  2
AcDbSortentsTable
  3
ObjectDBX Classes
 90
        0
280
     0
281
     0
  0
CLASS
  1
DICTIONARYVAR
  2
AcDbDictionaryVar
  3
ObjectDBX Classes
 90
        0
280
     0
281
     0
  0
CLASS
  1
CELLSTYLEMAP
  2
AcDbCellStyleMap
  3
ObjectDBX Classes
 90
     1152
280
     0
281
     0
  0
CLASS
  1
ACDBPLACEHOLDER
  2
AcDbPlaceHolder
  3
ObjectDBX Classes
 90
        0
280
     0
281
     0
  0
CLASS
  1
LAYOUT
  2
AcDbLayout
  3
ObjectDBX Classes
 90
        0
280
     0
281
     0
  0
CLASS
  1
SUN
  2
AcDbSun
  3
SCENEOE
 90
     1153
280
     0
281
     0
  0
ENDSEC
  0
SECTION
  2
TABLES
  0
TABLE
  2
VPORT
  5
8
330
0
100
AcDbSymbolTable
 70
     1
  0
VPORT
  5
29
330
8
100
AcDbSymbolTableRecord
100
AcDbViewportTableRecord
  2
*ACTIVE
 70
     0
 10
0.0
 20
0.0
 11
1.0
 21
1.0
 12
365.08979037715
 22
329.0499944921122
 13
0.0
 23
0.0
 14
10.0
 24
10.0
 15
10.0
 25
10.0
 16
0.0
 26
0.0
 36
1.0
 17
0.0
 27
0.0
 37
0.0
 40
364.0120467197272
 41
2.458950201884253
 42
50.0
 43
0.0
 44
0.0
 50
0.0
 51
0.0
 71
    16
 72
  2000
 73
     1
 74
     3
 75
     0
 76
     0
 77
     0
 78
     0
281
     0
 65
     1
110
0.0
120
0.0
130
0.0
111
1.0
121
0.0
131
0.0
112
0.0
122
1.0
132
0.0
 79
     0
146
0.0
  0
ENDTAB
  0
TABLE
  2
LTYPE
  5
5
330
0
100
AcDbSymbolTable
 70
     6
  0
LTYPE
  5
14
330
5
100
AcDbSymbolTableRecord
100
AcDbLinetypeTableRecord
  2
BYBLOCK
 70
     0
  3

 72
    65
 73
     0
 40
0.0
  0
LTYPE
  5
15
330
5
100
AcDbSymbolTableRecord
100
AcDbLinetypeTableRecord
  2
BYLAYER
 70
     0
  3

 72
    65
 73
     0
 40
0.0
  0
LTYPE
  5
16
330
5
100
AcDbSymbolTableRecord
100
AcDbLinetypeTableRecord
  2
CONTINUOUS
 70
     0
  3
Solid line
 72
    65
 73
     0
 40
0.0
  0
LTYPE
  5
3F
330
5
100
AcDbSymbolTableRecord
100
AcDbLinetypeTableRecord
  2
HIDDEN
 70
     0
  3
Hidden __ __ __ __ __ __ __ __ __ __ __ __ __ __
 72
    65
 73
     2
 40
1.905
 49
1.27
 74
     0
 49
-0.635
 74
     0
  0
LTYPE
  5
40
330
5
100
AcDbSymbolTableRecord
100
AcDbLinetypeTableRecord
  2
PHANTOM
 70
     0
  3
Phantom ______  __  __  ______  __  __  ______
 72
    65
 73
     6
 40
12.7
 49
6.35
 74
     0
 49
-1.27
 74
     0
 49
1.27
 74
     0
 49
-1.27
 74
     0
 49
1.27
 74
     0
 49
-1.27
 74
     0
  0
LTYPE
  5
41
330
5
100
AcDbSymbolTableRecord
100
AcDbLinetypeTableRecord
  2
CENTER
 70
     0
  3
Center ____ _ ____ _ ____ _ ____ _ ____ _ ____
 72
    65
 73
     4
 40
10.16
 49
6.35
 74
     0
 49
-1.27
 74
     0
 49
1.27
 74
     0
 49
-1.27
 74
     0
  0
LTYPE
  5
42
330
5
100
AcDbSymbolTableRecord
100
AcDbLinetypeTableRecord
  2
CENTERX2
 70
     0
  3
Center (2x) ________  __  ________  __  _____
 72
    65
 73
     4
 40
20.32
 49
12.7
 74
     0
 49
-2.54
 74
     0
 49
2.54
 74
     0
 49
-2.54
 74
     0
  0
LTYPE
  5
43
330
5
100
AcDbSymbolTableRecord
100
AcDbLinetypeTableRecord
  2
DOT2
 70
     0
  3
Dot (.5x) ........................................
 72
    65
 73
     2
 40
0.635
 49
0.0
 74
     0
 49
-0.635
 74
     0
  0
ENDTAB
  0
TABLE
  2
LAYER
  5
2
330
0
100
AcDbSymbolTable
 70
     2
  0
LAYER
  5
10
330
2
100
AcDbSymbolTableRecord
100
AcDbLayerTableRecord
  2
0
 70
     0
 62
     7
  6
CONTINUOUS
370
    -3
390
430
  0
LAYER
  5
44
330
2
100
AcDbSymbolTableRecord
100
AcDbLayerTableRecord
  2
FORMAT
 70
     0
 62
     7
  6
CONTINUOUS
370
    -3
390
430
  0
ENDTAB
  0
TABLE
  2
STYLE
  5
3
330
0
100
AcDbSymbolTable
 70
     2
  0
STYLE
  5
11
330
3
100
AcDbSymbolTableRecord
100
AcDbTextStyleTableRecord
  2
STANDARD
 70
     0
 40
0.0
 41
1.0
 50
0.0
 71
     0
 42
2.8
  3
txt
  4

  0
STYLE
  5
45
330
3
100
AcDbSymbolTableRecord
100
AcDbTextStyleTableRecord
  2
SLDTEXTSTYLE0
 70
     0
 40
0.0
 41
0.75
 50
0.0
 71
     0
 42
0.2
  3
TXT
  4

  0
ENDTAB
  0
TABLE
  2
VIEW
  5
6
330
0
100
AcDbSymbolTable
 70
     0
  0
ENDTAB
  0
TABLE
  2
UCS
  5
7
330
0
100
AcDbSymbolTable
 70
     0
  0
ENDTAB
  0
TABLE
  2
APPID
  5
9
330
0
100
AcDbSymbolTable
 70
     1
  0
APPID
  5
12
330
9
100
AcDbSymbolTableRecord
100
AcDbRegAppTableRecord
  2
ACAD
 70
     0
  0
ENDTAB
  0
TABLE
  2
DIMSTYLE
  5
A
330
0
100
AcDbSymbolTable
 70
     2
100
AcDbDimStyleTable
  0
DIMSTYLE
105
27
330
A
100
AcDbSymbolTableRecord
100
AcDbDimStyleTableRecord
  2
ISO-25
 70
     0
 41
2.5
 42
0.625
 43
3.75
 44
1.25
 73
     0
 74
     0
 77
     1
 78
     8
140
2.5
141
2.5
143
0.0393700787
147
0.625
171
     3
172
     1
178
     0
271
     2
272
     2
274
     3
283
     0
284
     8
340
11
  0
DIMSTYLE
105
432
330
A
100
AcDbSymbolTableRecord
100
AcDbDimStyleTableRecord
  2
Standard
 70
     0
 41
1.25
 42
0.0
 44
0.75
 73
     0
 74
     0
 77
     1
140
2.5
146
0.8
147
1.25
176
     7
177
     7
271
     2
178
     7
271
     2
340
11
  0
ENDTAB
  0
TABLE
  2
BLOCK_RECORD
  5
1
330
0
100
AcDbSymbolTable
 70
     1
  0
BLOCK_RECORD
  5
1F
330
1
100
AcDbSymbolTableRecord
100
AcDbBlockTableRecord
  2
*MODEL_SPACE
340
3F0
  0
BLOCK_RECORD
  5
1B
330
1
100
AcDbSymbolTableRecord
100
AcDbBlockTableRecord
  2
*PAPER_SPACE
340
3F1
  0
BLOCK_RECORD
  5
23
330
1
100
AcDbSymbolTableRecord
100
AcDbBlockTableRecord
  2
*PAPER_SPACE0
340
0
  0
ENDTAB
  0
ENDSEC
  0
SECTION
  2
BLOCKS
  0
BLOCK
  5
20
330
1F
100
AcDbEntity
  8
0
100
AcDbBlockBegin
  2
*MODEL_SPACE
 70
     0
 10
0.0
 20
0.0
 30
0.0
  3
*MODEL_SPACE
  1
*MODEL_SPACE
  0
ENDBLK
  5
21
330
1F
100
AcDbEntity
  8
0
100
AcDbBlockEnd
  0
BLOCK
  5
1C
330
1B
100
AcDbEntity
 67
     1
  8
0
100
AcDbBlockBegin
  2
*PAPER_SPACE
 70
     0
 10
0.0
 20
0.0
 30
0.0
  3
*PAPER_SPACE
  1
*PAPER_SPACE
  0
ENDBLK
  5
1D
330
1B
100
AcDbEntity
 67
     1
  8
0
100
AcDbBlockEnd
  0
BLOCK
  5
24
330
23
100
AcDbEntity
  8
0
100
AcDbBlockBegin
  2
*PAPER_SPACE0
 70
     0
 10
0.0
 20
0.0
 30
0.0
  3
*PAPER_SPACE0
  1
*PAPER_SPACE0
  0
ENDBLK
  5
25
330
23
100
AcDbEntity
  8
0
100
AcDbBlockEnd
  0
ENDSEC
  0
SECTION
  2
ENTITIES
  0
MTEXT
  5
46
330
1F
100
AcDbEntity
  8
0
  6
Continuous
 62
     7
100
AcDbMText
 10
378.355517089
 20
507.4872722959
 30
0.0
 40
12.7
 41
0.0
 71
     1
 72
     1
  1
6650
  7
SLDTEXTSTYLE0
 73
     1
 44
1.0
  0
LINE
  5
47
330
1F
100
AcDbEntity
  8
0
  6
Continuous
 62
     7
100
AcDbLine
 10
103.2549631677
 20
358.9610915862
 30
0.0
 11
103.3851583383
 21
359.0261947594
 31
0.0
  0
LINE
  5
48
330
1F
100
AcDbEntity
  8
0
  6
Continuous
 62
     7
100
AcDbLine
 10
103.3927877329
 20
360.5800058924
 30
0.0
 11
103.2927860401
 21
360.6300067387
 31
0.0
  0
LINE
  5
49
330
1F
100
AcDbEntity
  8
0
  6
Continuous
 62
     7
100
AcDbLine
 10
93.6013054929
 20
357.3050063334
 30
0.0
 11
93.7967901013
 21
357.3050063334
 31
0.0
  0
LINE
  5
4A
330
1F
100
AcDbEntity
  8
0
  6
Continuous
 62
     7
100
AcDbLine
 10
93.2927881262
 20
362.3050090156
 30
0.0
 11
93.1927864335
 21
362.3050090156
 31
0.0
  0
LINE
  5
4B
330
1F
100
AcDbEntity
  8
0
  6
Continuous
 62
     7
100
AcDbLine
 10
160.1927843771
 20
378.9050068937
 30
0.0
 11
160.1927843771
 21
378.7050035082
 31
0.0
  0
LINE
  5
4C
330
1F
100
AcDbEntity
  8
0
  6
Continuous
 62
     7
100
AcDbLine
 10
56.2927867181
 20
410.8050067209
 30
0.0
 11
55.192786724
 21
410.8050067209
 31
0.0
  0
LINE
  5
4D
330
1F
100
AcDbEntity
  8
0
  6
Continuous
 62
     7
100
AcDbLine
 10
56.2927867181
 20
346.8050074063
 30
0.0
 11
55.192786724
 21
346.8050074063
 31
0.0
  0
LINE
  5
4E
330
1F
100
AcDbEntity
  8
0
  6
Continuous
 62
     7
100
AcDbLine
 10
55.192786724
 20
346.8050074063
 30
0.0
 11
55.192786724
 21
410.8050067209
 31
0.0
  0
ARC
  5
4F
330
1F
100
AcDbEntity
  8
0
  6
Continuous
 62
     7
100
AcDbCircle
 10
218.7927854142
 20
418.8050084792
 30
0.0
 40
2.5
100
AcDbArc
 50
0.0
 51
90.0
  0
ARC
  5
50
330
1F
100
AcDbEntity
  8
0
  6
Continuous
 62
     7
100
AcDbCircle
 10
218.7927854142
 20
338.8050084792
 30
0.0
 40
2.5
100
AcDbArc
 50
270.0
 51
0.0
  0
LINE
  5
51
330
1F
100
AcDbEntity
  8
0
  6
Continuous
 62
     7
100
AcDbLine
 10
58.7927871279
 20
421.305005648
 30
0.0
 11
218.7927854142
 21
421.305005648
 31
0.0
  0
LINE
  5
52
330
1F
100
AcDbEntity
  8
0
  6
Continuous
 62
     7
100
AcDbLine
 10
218.7927854142
 20
336.3050084792
 30
0.0
 11
58.7927871279
 21
336.3050084792
 31
0.0
  0
ARC
  5
53
330
1F
100
AcDbEntity
  8
0
  6
Continuous
 62
     7
100
AcDbCircle
 10
58.7927866831
 20
418.8050061652
 30
0.0
 40
2.5
100
AcDbArc
 50
90.0
 51
180.0
  0
LINE
  5
54
330
1F
100
AcDbEntity
  8
0
  6
Continuous
 62
     7
100
AcDbLine
 10
221.2927817611
 20
418.8050084835
 30
0.0
 11
221.2927817611
 21
338.805008409
 31
0.0
  0
LINE
  5
55
330
1F
100
AcDbEntity
  8
0
  6
Continuous
 62
     7
100
AcDbLine
 10
56.2927867181
 20
338.805006095
 30
0.0
 11
56.2927867181
 21
418.8050061695
 31
0.0
  0
LINE
  5
56
330
1F
100
AcDbEntity
  8
0
  6
Continuous
 62
     7
100
AcDbLine
 10
93.1427855871
 20
371.9175171338
 30
0.0
 11
93.1427855871
 21
359.305002936
 31
0.0
  0
LINE
  5
57
330
1F
100
AcDbEntity
  8
0
  6
Continuous
 62
     7
100
AcDbLine
 10
103.4427848539
 20
359.305002936
 30
0.0
 11
103.4427848539
 21
371.9175171338
 31
0.0
  0
ARC
  5
58
330
1F
100
AcDbEntity
  8
0
  6
Continuous
 62
     7
100
AcDbCircle
 10
98.2927866831
 20
359.3050061652
 30
0.0
 40
5.149999999999991
100
AcDbArc
 50
180.0
 51
0.0
  0
ARC
  5
59
330
1F
100
AcDbEntity
  8
0
  6
Continuous
 62
     7
100
AcDbCircle
 10
98.2927866831
 20
378.8050061652
 30
0.0
 40
8.600000000000046
100
AcDbArc
 50
306.7866642096
 51
233.2133357904
  0
ARC
  5
5A
330
1F
100
AcDbEntity
  8
0
  6
Continuous
 62
     7
100
AcDbCircle
 10
58.7927866831
 20
338.8050061652
 30
0.0
 40
2.5
100
AcDbArc
 50
180.0
 51
270.0
  0
CIRCLE
  5
5B
330
1F
100
AcDbEntity
  8
0
  6
Continuous
 62
     7
100
AcDbCircle
 10
158.2927866831
 20
378.8050061652
 30
0.0
 40
11.50000000000002
  0
CIRCLE
  5
5C
330
1F
100
AcDbEntity
  8
0
  6
Continuous
 62
     7
100
AcDbCircle
 10
158.2927866831
 20
378.8050061652
 30
0.0
 40
8.000000000000066
  0
LINE
  5
5D
330
1F
100
AcDbEntity
  8
0
  6
Continuous
 62
     7
100
AcDbLine
 10
162.292790123
 20
378.9050068937
 30
0.0
 11
158.3927837095
 21
378.9050068937
 31
0.0
  0
LINE
  5
5E
330
1F
100
AcDbEntity
  8
0
  6
Continuous
 62
     7
100
AcDbLine
 10
158.3927837095
 20
378.9050068937
 30
0.0
 11
155.377816864
 21
380.3211312972
 31
0.0
  0
ARC
  5
5F
330
1F
100
AcDbEntity
  8
0
  6
Continuous
 62
     7
100
AcDbCircle
 10
155.2927866831
 20
380.1401038565
 30
0.0
 40
0.2000000000000171
100
AcDbArc
 50
64.840698084
 51
180.0
  0
LINE
  5
60
330
1F
100
AcDbEntity
  8
0
  6
Continuous
 62
     7
100
AcDbLine
 10
155.0927874527
 20
380.1401045404
 30
0.0
 11
155.0927874527
 21
378.9050068937
 31
0.0
  0
LINE
  5
61
330
1F
100
AcDbEntity
  8
0
  6
Continuous
 62
     7
100
AcDbLine
 10
155.0927874527
 20
378.9050068937
 30
0.0
 11
154.2927888117
 21
378.9050068937
 31
0.0
  0
LINE
  5
62
330
1F
100
AcDbEntity
  8
0
  6
Continuous
 62
     7
100
AcDbLine
 10
154.2927888117
 20
378.9050068937
 30
0.0
 11
154.2927888117
 21
382.6050061963
 31
0.0
  0
ARC
  5
63
330
1F
100
AcDbEntity
  8
0
  6
Continuous
 62
     7
100
AcDbCircle
 10
154.4927866831
 20
382.6050061652
 30
0.0
 40
0.2000000000000455
100
AcDbArc
 50
90.0
 51
180.0
  0
LINE
  5
64
330
1F
100
AcDbEntity
  8
0
  6
Continuous
 62
     7
100
AcDbLine
 10
154.4927847467
 20
382.8050058566
 30
0.0
 11
162.0927867375
 21
382.8050058566
 31
0.0
  0
ARC
  5
65
330
1F
100
AcDbEntity
  8
0
  6
Continuous
 62
     7
100
AcDbCircle
 10
162.0927866831
 20
382.6050061652
 30
0.0
 40
0.2000000000000455
100
AcDbArc
 50
0.0
 51
90.0
  0
LINE
  5
66
330
1F
100
AcDbEntity
  8
0
  6
Continuous
 62
     7
100
AcDbLine
 10
162.292790123
 20
382.6050061963
 30
0.0
 11
162.292790123
 21
378.9050068937
 31
0.0
  0
ARC
  5
67
330
1F
100
AcDbEntity
  8
0
  6
Continuous
 62
     7
100
AcDbCircle
 10
154.4927866831
 20
375.0050061652
 30
0.0
 40
0.1999999999999886
100
AcDbArc
 50
180.0
 51
270.0
  0
LINE
  5
68
330
1F
100
AcDbEntity
  8
0
  6
Continuous
 62
     7
100
AcDbLine
 10
154.2927888117
 20
375.0050079308
 30
0.0
 11
154.2927888117
 21
378.7050035082
 31
0.0
  0
LINE
  5
69
330
1F
100
AcDbEntity
  8
0
  6
Continuous
 62
     7
100
AcDbLine
 10
154.2927888117
 20
378.7050035082
 30
0.0
 11
155.0927874527
 21
378.7050035082
 31
0.0
  0
LINE
  5
6A
330
1F
100
AcDbEntity
  8
0
  6
Continuous
 62
     7
100
AcDbLine
 10
155.0927874527
 20
378.7050035082
 30
0.0
 11
155.0927874527
 21
377.4699058615
 31
0.0
  0
ARC
  5
6B
330
1F
100
AcDbEntity
  8
0
  6
Continuous
 62
     7
100
AcDbCircle
 10
155.2927866831
 20
377.469908474
 30
0.0
 40
0.2000000000000171
100
AcDbArc
 50
180.0
 51
295.1593019160001
  0
LINE
  5
6C
330
1F
100
AcDbEntity
  8
0
  6
Continuous
 62
     7
100
AcDbLine
 10
162.292790123
 20
378.7050035082
 30
0.0
 11
162.292790123
 21
375.0050079308
 31
0.0
  0
ARC
  5
6D
330
1F
100
AcDbEntity
  8
0
  6
Continuous
 62
     7
100
AcDbCircle
 10
162.0927866831
 20
375.0050061652
 30
0.0
 40
0.2000000000000455
100
AcDbArc
 50
270.0
 51
0.0
  0
LINE
  5
6E
330
1F
100
AcDbEntity
  8
0
  6
Continuous
 62
     7
100
AcDbLine
 10
162.0927867375
 20
374.8050045453
 30
0.0
 11
154.4927847467
 21
374.8050045453
 31
0.0
  0
LINE
  5
6F
330
1F
100
AcDbEntity
  8
0
  6
Continuous
 62
     7
100
AcDbLine
 10
158.3927837095
 20
378.7050035082
 30
0.0
 11
162.292790123
 21
378.7050035082
 31
0.0
  0
LINE
  5
70
330
1F
100
AcDbEntity
  8
0
  6
Continuous
 62
     7
100
AcDbLine
 10
155.377816864
 20
377.2888791047
 30
0.0
 11
158.3927837095
 21
378.7050035082
 31
0.0
  0
LINE
  5
71
330
1F
100
AcDbEntity
  8
0
  6
Continuous
 62
     7
100
AcDbLine
 10
99.2927853844
 20
376.8050085984
 30
0.0
 11
99.2927853844
 21
374.8050045453
 31
0.0
  0
LINE
  5
72
330
1F
100
AcDbEntity
  8
0
  6
Continuous
 62
     7
100
AcDbLine
 10
99.2927853844
 20
381.8050075553
 30
0.0
 11
98.2927870832
 21
378.8050052009
 31
0.0
  0
ARC
  5
73
330
1F
100
AcDbEntity
  8
0
  6
Continuous
 62
     7
100
AcDbCircle
 10
98.2927866831
 20
378.8050061652
 30
0.0
 40
6.49999999999985
100
AcDbArc
 50
281.9871497638002
 51
258.0128502362
  0
LINE
  5
74
330
1F
100
AcDbEntity
  8
0
  6
Continuous
 62
     7
100
AcDbLine
 10
98.2927870832
 20
378.8050052009
 30
0.0
 11
99.2927853844
 21
376.8050085984
 31
0.0
  0
LINE
  5
75
330
1F
100
AcDbEntity
  8
0
  6
Continuous
 62
     7
100
AcDbLine
 10
98.2927870832
 20
381.8050075553
 30
0.0
 11
99.2927853844
 21
381.8050075553
 31
0.0
  0
LINE
  5
76
330
1F
100
AcDbEntity
  8
0
  6
Continuous
 62
     7
100
AcDbLine
 10
98.2927870832
 20
375.8050065718
 30
0.0
 11
96.9427865825
 21
377.8050031744
 31
0.0
  0
LINE
  5
77
330
1F
100
AcDbEntity
  8
0
  6
Continuous
 62
     7
100
AcDbLine
 10
96.9427865825
 20
377.8050031744
 30
0.0
 11
96.9427865825
 21
378.8050052009
 31
0.0
  0
LINE
  5
78
330
1F
100
AcDbEntity
  8
0
  6
Continuous
 62
     7
100
AcDbLine
 10
96.9427865825
 20
378.8050052009
 30
0.0
 11
98.2927870832
 21
381.8050075553
 31
0.0
  0
LINE
  5
79
330
1F
100
AcDbEntity
  8
0
  6
Continuous
 62
     7
100
AcDbLine
 10
99.6427875838
 20
372.8050079428
 30
0.0
 11
99.6427875838
 21
372.4467467747
 31
0.0
  0
LINE
  5
7A
330
1F
100
AcDbEntity
  8
0
  6
Continuous
 62
     7
100
AcDbLine
 10
98.2927870832
 20
372.8050079428
 30
0.0
 11
99.6427875838
 21
372.8050079428
 31
0.0
  0
LINE
  5
7B
330
1F
100
AcDbEntity
  8
0
  6
Continuous
 62
     7
100
AcDbLine
 10
96.9427865825
 20
372.4467467747
 30
0.0
 11
96.9427865825
 21
373.8050025187
 31
0.0
  0
LINE
  5
7C
330
1F
100
AcDbEntity
  8
0
  6
Continuous
 62
     7
100
AcDbLine
 10
99.2927853844
 20
374.8050045453
 30
0.0
 11
98.2927870832
 21
373.8050025187
 31
0.0
  0
LINE
  5
7D
330
1F
100
AcDbEntity
  8
0
  6
Continuous
 62
     7
100
AcDbLine
 10
98.2927870832
 20
373.8050025187
 30
0.0
 11
98.2927870832
 21
372.8050079428
 31
0.0
  0
LINE
  5
7E
330
1F
100
AcDbEntity
  8
0
  6
Continuous
 62
     7
100
AcDbLine
 10
96.9427865825
 20
373.8050025187
 30
0.0
 11
98.2927870832
 21
375.8050065718
 31
0.0
  0
ARC
  5
7F
330
1F
100
AcDbEntity
  8
0
  6
Continuous
 62
     7
100
AcDbCircle
 10
98.2927866831
 20
378.8050061652
 30
0.0
 40
8.50000000000004
100
AcDbArc
 50
306.0318790725
 51
233.9681209275
  0
CIRCLE
  5
80
330
1F
100
AcDbEntity
  8
0
  6
Continuous
 62
     7
100
AcDbCircle
 10
98.2927866831
 20
378.8050061652
 30
0.0
 40
7.25
  0
LINE
  5
81
330
1F
100
AcDbEntity
  8
0
  6
Continuous
 62
     7
100
AcDbLine
 10
96.8621116958
 20
354.4550027929
 30
0.0
 11
99.7234587453
 21
354.4550027929
 31
0.0
  0
LINE
  5
82
330
1F
100
AcDbEntity
  8
0
  6
Continuous
 62
     7
100
AcDbLine
 10
93.2927881262
 20
359.6050080143
 30
0.0
 11
93.2927881262
 21
371.9311442457
 31
0.0
  0
LINE
  5
83
330
1F
100
AcDbEntity
  8
0
  6
Continuous
 62
     7
100
AcDbLine
 10
103.2927860401
 20
371.9311442457
 30
0.0
 11
103.2927860401
 21
359.6050080143
 31
0.0
  0
ARC
  5
84
330
1F
100
AcDbEntity
  8
0
  6
Continuous
 62
     7
100
AcDbCircle
 10
97.7927866831
 20
359.6050061652
 30
0.0
 40
5.5
100
AcDbArc
 50
290.5504215509
 51
0.0
  0
ARC
  5
85
330
1F
100
AcDbEntity
  8
0
  6
Continuous
 62
     7
100
AcDbCircle
 10
98.7927866831
 20
359.6050061652
 30
0.0
 40
5.5
100
AcDbArc
 50
180.0
 51
249.4495784491
  0
ARC
  5
86
330
1F
100
AcDbEntity
  8
0
  6
Continuous
 62
     7
100
AcDbCircle
 10
98.2927866831
 20
378.8050061652
 30
0.0
 40
6.500000000000014
100
AcDbArc
 50
258.0128502362
 51
281.9871497638002
  0
LINE
  5
87
330
1F
100
AcDbEntity
  8
0
  6
Continuous
 62
     7
100
AcDbLine
 10
99.0987573645
 20
374.6109765254
 30
0.0
 11
98.2927870832
 21
375.8050065718
 31
0.0
  0
LINE
  5
88
330
1F
100
AcDbEntity
  8
0
  6
Continuous
 62
     7
100
AcDbLine
 10
98.2927870832
 20
375.8050065718
 30
0.0
 11
99.1544877074
 21
377.0816039525
 31
0.0
  0
LINE
  5
89
330
1F
100
AcDbEntity
  8
0
  6
Continuous
 62
     7
100
AcDbLine
 10
98.8672529242
 20
380.5284139
 30
0.0
 11
98.2927870832
 21
381.8050075553
 31
0.0
  0
LINE
  5
8A
330
1F
100
AcDbEntity
  8
0
  6
Continuous
 62
     7
100
AcDbLine
 10
97.7183175168
 20
380.5284139
 30
0.0
 11
98.2927870832
 21
378.8050052009
 31
0.0
  0
LINE
  5
8B
330
1F
100
AcDbEntity
  8
0
  6
Continuous
 62
     7
100
AcDbLine
 10
98.2927870832
 20
378.8050052009
 30
0.0
 11
97.4310827336
 21
377.0816039525
 31
0.0
  0
LINE
  5
8C
330
1F
100
AcDbEntity
  8
0
  6
Continuous
 62
     7
100
AcDbLine
 10
98.2927870832
 20
372.8050079428
 30
0.0
 11
96.9427865825
 21
372.8050079428
 31
0.0
  0
LINE
  5
8D
330
1F
100
AcDbEntity
  8
0
  6
Continuous
 62
     7
100
AcDbLine
 10
97.4868168018
 20
374.6109765254
 30
0.0
 11
98.2927870832
 21
373.8050025187
 31
0.0
  0
ARC
  5
8E
330
1F
100
AcDbEntity
  8
0
  6
Continuous
 62
     7
100
AcDbCircle
 10
98.2927866831
 20
378.8050061652
 30
0.0
 40
7.000000000000023
100
AcDbArc
 50
281.1195709535
 51
258.8804290465
  0
LINE
  5
8F
330
1F
100
AcDbEntity
  8
0
  6
Continuous
 62
     7
100
AcDbLine
 10
96.9427865825
 20
371.9364192568
 30
0.0
 11
96.9427865825
 21
373.8050025187
 31
0.0
  0
LINE
  5
90
330
1F
100
AcDbEntity
  8
0
  6
Continuous
 62
     7
100
AcDbLine
 10
99.6427875838
 20
372.8050079428
 30
0.0
 11
99.6427875838
 21
371.9364192568
 31
0.0
  0
LINE
  5
91
330
1F
100
AcDbEntity
  8
0
  6
Continuous
 62
     7
100
AcDbLine
 10
103.3927877329
 20
371.8804132424
 30
0.0
 11
103.3927877329
 21
359.305002936
 31
0.0
  0
LINE
  5
92
330
1F
100
AcDbEntity
  8
0
  6
Continuous
 62
     7
100
AcDbLine
 10
154.2927888117
 20
374.8050045453
 30
0.0
 11
154.2927888117
 21
375.0050079308
 31
0.0
  0
LINE
  5
93
330
1F
100
AcDbEntity
  8
0
  6
Continuous
 62
     7
100
AcDbLine
 10
154.2927888117
 20
378.7050035082
 30
0.0
 11
154.2927888117
 21
378.9050068937
 31
0.0
  0
LINE
  5
94
330
1F
100
AcDbEntity
  8
0
  6
Continuous
 62
     7
100
AcDbLine
 10
154.2927888117
 20
382.6050061963
 30
0.0
 11
154.2927888117
 21
382.8050058566
 31
0.0
  0
LINE
  5
95
330
1F
100
AcDbEntity
  8
0
  6
Continuous
 62
     7
100
AcDbLine
 10
162.292790123
 20
374.8050045453
 30
0.0
 11
162.0927867375
 21
374.8050045453
 31
0.0
  0
LINE
  5
96
330
1F
100
AcDbEntity
  8
0
  6
Continuous
 62
     7
100
AcDbLine
 10
154.4927847467
 20
374.8050045453
 30
0.0
 11
154.2927888117
 21
374.8050045453
 31
0.0
  0
LINE
  5
97
330
1F
100
AcDbEntity
  8
0
  6
Continuous
 62
     7
100
AcDbLine
 10
162.292790123
 20
382.8050058566
 30
0.0
 11
162.292790123
 21
382.6050061963
 31
0.0
  0
LINE
  5
98
330
1F
100
AcDbEntity
  8
0
  6
Continuous
 62
     7
100
AcDbLine
 10
162.292790123
 20
378.9050068937
 30
0.0
 11
162.292790123
 21
378.7050035082
 31
0.0
  0
LINE
  5
99
330
1F
100
AcDbEntity
  8
0
  6
Continuous
 62
     7
100
AcDbLine
 10
162.292790123
 20
375.0050079308
 30
0.0
 11
162.292790123
 21
374.8050045453
 31
0.0
  0
LINE
  5
9A
330
1F
100
AcDbEntity
  8
0
  6
Continuous
 62
     7
100
AcDbLine
 10
154.2927888117
 20
382.8050058566
 30
0.0
 11
154.4927847467
 21
382.8050058566
 31
0.0
  0
LINE
  5
9B
330
1F
100
AcDbEntity
  8
0
  6
Continuous
 62
     7
100
AcDbLine
 10
162.0927867375
 20
382.8050058566
 30
0.0
 11
162.292790123
 21
382.8050058566
 31
0.0
  0
ARC
  5
9C
330
1F
100
AcDbEntity
  8
0
  6
Continuous
 62
     7
100
AcDbCircle
 10
98.2927866831
 20
359.3050061652
 30
0.0
 40
5.099999999999994
100
AcDbArc
 50
180.0
 51
0.0
  0
LINE
  5
9D
330
1F
100
AcDbEntity
  8
0
  6
Continuous
 62
     7
100
AcDbLine
 10
93.1927864335
 20
359.305002936
 30
0.0
 11
93.1927864335
 21
371.8804132424
 31
0.0
  0
ELLIPSE
  5
9E
330
1F
100
AcDbEntity
  8
0
  6
Continuous
 62
     7
100
AcDbEllipse
 10
50.9636039661
 20
392.0550061652
 30
0.0
 11
3.398968766056527
 21
-1.136868377216160E-13
 31
0.0
210
0.0
220
0.0
230
1.0
 40
0.9561723639
 41
3.699499693557754
 42
5.725278267211722
  0
ELLIPSE
  5
9F
330
1F
100
AcDbEntity
  8
0
  6
Continuous
 62
     7
100
AcDbEllipse
 10
54.7344212491
 20
389.8050061652
 30
0.0
 11
1.045836543402011
 21
0.0
 31
0.0
210
0.0
220
0.0
230
1.0
 40
0.9561723639
 41
1.570796326794897
 42
2.583685613621873
  0
LINE
  5
A0
330
1F
100
AcDbEntity
  8
0
  6
Continuous
 62
     7
100
AcDbLine
 10
54.7344214178
 20
390.8050071679
 30
0.0
 11
55.1469502865
 21
390.8050071679
 31
0.0
  0
LINE
  5
A1
330
1F
100
AcDbEntity
  8
0
  6
Continuous
 62
     7
100
AcDbLine
 10
54.7344214178
 20
366.805003234
 30
0.0
 11
55.1469502865
 21
366.805003234
 31
0.0
  0
ELLIPSE
  5
A2
330
1F
100
AcDbEntity
  8
0
  6
Continuous
 62
     7
100
AcDbEllipse
 10
54.7344212491
 20
367.8050061652
 30
0.0
 11
1.045836543402011
 21
0.0
 31
0.0
210
0.0
220
0.0
230
1.0
 40
0.9561723639
 41
3.699499693557676
 42
4.712388980384703
  0
ELLIPSE
  5
A3
330
1F
100
AcDbEntity
  8
0
  6
Continuous
 62
     7
100
AcDbEllipse
 10
50.9636039661
 20
365.5550061652
 30
0.0
 11
3.398968766056527
 21
-1.136868377216160E-13
 31
0.0
210
0.0
220
0.0
230
1.0
 40
0.9561723639
 41
0.5579070399679388
 42
2.583685613621924
  0
ELLIPSE
  5
A4
330
1F
100
AcDbEntity
  8
0
  6
Continuous
 62
     7
100
AcDbEllipse
 10
47.1927866831
 20
367.8050061652
 30
0.0
 11
1.045836543402011
 21
0.0
 31
0.0
210
0.0
220
0.0
230
1.0
 40
0.9561723639
 41
4.712388980384703
 42
5.725278267211729
  0
LINE
  5
A5
330
1F
100
AcDbEntity
  8
0
  6
Continuous
 62
     7
100
AcDbLine
 10
47.1927866933
 20
390.8050071679
 30
0.0
 11
47.1927866933
 21
366.805003234
 31
0.0
  0
ELLIPSE
  5
A6
330
1F
100
AcDbEntity
  8
0
  6
Continuous
 62
     7
100
AcDbEllipse
 10
47.1927866831
 20
389.8050061652
 30
0.0
 11
1.045836543402011
 21
0.0
 31
0.0
210
0.0
220
0.0
230
1.0
 40
0.9561723639
 41
0.5579070399679168
 42
1.570796326794842
  0
LINE
  5
A7
330
1F
100
AcDbEntity
  8
0
  6
Continuous
 62
     7
100
AcDbLine
 10
55.192786724
 20
366.805003234
 30
0.0
 11
55.1469502865
 21
366.805003234
 31
0.0
  0
LINE
  5
A8
330
1F
100
AcDbEntity
  8
0
  6
Continuous
 62
     7
100
AcDbLine
 10
55.1469502865
 20
390.8050071679
 30
0.0
 11
55.192786724
 21
390.8050071679
 31
0.0
  0
LINE
  5
A9
330
1F
100
AcDbEntity
  8
0
  6
Continuous
 62
     7
100
AcDbLine
 10
54.7344214178
 20
366.805003234
 30
0.0
 11
47.1927866933
 21
366.805003234
 31
0.0
  0
LINE
  5
AA
330
1F
100
AcDbEntity
  8
0
  6
Continuous
 62
     7
100
AcDbLine
 10
47.1927866933
 20
390.8050071679
 30
0.0
 11
54.7344214178
 21
390.8050071679
 31
0.0
  0
LINE
  5
AB
330
1F
100
AcDbEntity
  8
0
  6
Continuous
 62
     8
100
AcDbLine
 10
221.2927817611
 20
418.8050084835
 30
0.0
 11
219.2927926092
 21
418.8050084835
 31
0.0
  0
ARC
  5
AC
330
1F
100
AcDbEntity
  8
0
  6
Continuous
 62
     8
100
AcDbCircle
 10
218.7927854142
 20
418.8050084792
 30
0.0
 40
0.5
100
AcDbArc
 50
0.0
 51
90.0
  0
LINE
  5
AD
330
1F
100
AcDbEntity
  8
0
  6
Continuous
 62
     8
100
AcDbLine
 10
218.7927841453
 20
421.305007962
 30
0.0
 11
218.7927841453
 21
419.3050076341
 31
0.0
  0
ARC
  5
AE
330
1F
100
AcDbEntity
  8
0
  6
Continuous
 62
     8
100
AcDbCircle
 10
218.7927854142
 20
338.8050084792
 30
0.0
 40
0.5
100
AcDbArc
 50
270.0
 51
0.0
  0
LINE
  5
AF
330
1F
100
AcDbEntity
  8
0
  6
Continuous
 62
     8
100
AcDbLine
 10
219.2927926092
 20
338.805008409
 30
0.0
 11
221.2927817611
 21
338.805008409
 31
0.0
  0
LINE
  5
B0
330
1F
100
AcDbEntity
  8
0
  6
Continuous
 62
     8
100
AcDbLine
 10
218.7927841453
 20
338.3050073957
 30
0.0
 11
218.7927841453
 21
336.3050107932
 31
0.0
  0
LINE
  5
B1
330
1F
100
AcDbEntity
  8
0
  6
Continuous
 62
     8
100
AcDbLine
 10
218.7927854142
 20
419.3050053201
 30
0.0
 11
58.7927871279
 21
419.3050053201
 31
0.0
  0
LINE
  5
B2
330
1F
100
AcDbEntity
  8
0
  6
Continuous
 62
     8
100
AcDbLine
 10
58.7927871279
 20
421.305005648
 30
0.0
 11
58.7927871279
 21
419.3050053201
 31
0.0
  0
LINE
  5
B3
330
1F
100
AcDbEntity
  8
0
  6
Continuous
 62
     8
100
AcDbLine
 10
58.7927871279
 20
338.3050050817
 30
0.0
 11
218.7927854142
 21
338.3050050817
 31
0.0
  0
LINE
  5
B4
330
1F
100
AcDbEntity
  8
0
  6
Continuous
 62
     8
100
AcDbLine
 10
58.7927871279
 20
338.3050050817
 30
0.0
 11
58.7927871279
 21
336.3050084792
 31
0.0
  0
ARC
  5
B5
330
1F
100
AcDbEntity
  8
0
  6
Continuous
 62
     8
100
AcDbCircle
 10
58.7927866831
 20
418.8050061652
 30
0.0
 40
0.5
100
AcDbArc
 50
90.0
 51
180.0
  0
LINE
  5
B6
330
1F
100
AcDbEntity
  8
0
  6
Continuous
 62
     8
100
AcDbLine
 10
56.2927867181
 20
418.8050061695
 30
0.0
 11
58.2927870459
 21
418.8050061695
 31
0.0
  0
LINE
  5
B7
330
1F
100
AcDbEntity
  8
0
  6
Continuous
 62
     8
100
AcDbLine
 10
219.2927926092
 20
338.805008409
 30
0.0
 11
219.2927926092
 21
418.8050084835
 31
0.0
  0
LINE
  5
B8
330
1F
100
AcDbEntity
  8
0
  6
Continuous
 62
     8
100
AcDbLine
 10
58.2927870459
 20
418.8050061695
 30
0.0
 11
58.2927870459
 21
338.805006095
 31
0.0
  0
LINE
  5
B9
330
1F
100
AcDbEntity
  8
0
  6
Continuous
 62
     8
100
AcDbLine
 10
58.2927870459
 20
338.805006095
 30
0.0
 11
56.2927867181
 21
338.805006095
 31
0.0
  0
ARC
  5
BA
330
1F
100
AcDbEntity
  8
0
  6
Continuous
 62
     8
100
AcDbCircle
 10
58.7927866831
 20
338.8050061652
 30
0.0
 40
0.5
100
AcDbArc
 50
180.0
 51
270.0
  0
LINE
  5
BB
330
1F
100
AcDbEntity
  8
0
  6
Continuous
 62
     8
100
AcDbLine
 10
53.8471699587
 20
390.3344173215
 30
0.0
 11
48.0800378031
 21
390.3344173215
 31
0.0
  0
LINE
  5
BC
330
1F
100
AcDbEntity
  8
0
  6
Continuous
 62
     8
100
AcDbLine
 10
48.0800378031
 20
367.2755968056
 30
0.0
 11
53.8471699587
 21
367.2755968056
 31
0.0
  0
LINE
  5
BD
330
1F
100
AcDbEntity
  8
0
  6
Continuous
 62
     7
100
AcDbLine
 10
380.4441820927
 20
390.3050061546
 30
0.0
 11
378.9441809155
 21
390.3050061546
 31
0.0
  0
LINE
  5
BE
330
1F
100
AcDbEntity
  8
0
  6
Continuous
 62
     7
100
AcDbLine
 10
349.6441822596
 20
387.3050075255
 30
0.0
 11
344.2941811033
 21
387.3050075255
 31
0.0
  0
LINE
  5
BF
330
1F
100
AcDbEntity
  8
0
  6
Continuous
 62
     7
100
AcDbLine
 10
384.2941820719
 20
387.3050075255
 30
0.0
 11
378.9441809155
 21
387.3050075255
 31
0.0
  0
LINE
  5
C0
330
1F
100
AcDbEntity
  8
0
  6
Continuous
 62
     7
100
AcDbLine
 10
369.2941833385
 20
383.7050061904
 30
0.0
 11
368.9941819854
 21
383.7050061904
 31
0.0
  0
LINE
  5
C1
330
1F
100
AcDbEntity
  8
0
  6
Continuous
 62
     7
100
AcDbLine
 10
368.9941819854
 20
373.9050042115
 30
0.0
 11
369.2941833385
 21
373.9050042115
 31
0.0
  0
LINE
  5
C2
330
1F
100
AcDbEntity
  8
0
  6
Continuous
 62
     7
100
AcDbLine
 10
359.2941816993
 20
366.5550064526
 30
0.0
 11
359.3941833921
 21
366.5550064526
 31
0.0
  0
LINE
  5
C3
330
1F
100
AcDbEntity
  8
0
  6
Continuous
 62
     7
100
AcDbLine
 10
359.3941833921
 20
391.0550076745
 30
0.0
 11
359.2941816993
 21
391.0550076745
 31
0.0
  0
LINE
  5
C4
330
1F
100
AcDbEntity
  8
0
  6
Continuous
 62
     7
100
AcDbLine
 10
366.6441831835
 20
391.0550076745
 30
0.0
 11
369.2941833385
 21
391.0550076745
 31
0.0
  0
ARC
  5
C5
330
1F
100
AcDbEntity
  8
0
  6
Continuous
 62
     7
100
AcDbCircle
 10
363.8941817823
 20
391.9456311652
 30
0.0
 40
2.890624999999983
100
AcDbArc
 50
197.9452532298
 51
342.0547467701999
  0
LINE
  5
C6
330
1F
100
AcDbEntity
  8
0
  6
Continuous
 62
     7
100
AcDbLine
 10
359.3941833921
 20
391.0550076745
 30
0.0
 11
361.1441832133
 21
391.0550076745
 31
0.0
  0
LINE
  5
C7
330
1F
100
AcDbEntity
  8
0
  6
Continuous
 62
     7
100
AcDbLine
 10
359.8842304297
 20
410.8050067209
 30
0.0
 11
359.8842304297
 21
411.8050050221
 31
0.0
  0
LINE
  5
C8
330
1F
100
AcDbEntity
  8
0
  6
Continuous
 62
     7
100
AcDbLine
 10
359.8842304297
 20
411.8050050221
 30
0.0
 11
369.9441831656
 21
411.8050050221
 31
0.0
  0
LINE
  5
C9
330
1F
100
AcDbEntity
  8
0
  6
Continuous
 62
     7
100
AcDbLine
 10
371.6941829868
 20
346.305006393
 30
0.0
 11
371.6941829868
 21
346.8050074063
 31
0.0
  0
LINE
  5
CA
330
1F
100
AcDbEntity
  8
0
  6
Continuous
 62
     7
100
AcDbLine
 10
371.6941829868
 20
410.8050067209
 30
0.0
 11
371.6941829868
 21
411.3050077341
 31
0.0
  0
LINE
  5
CB
330
1F
100
AcDbEntity
  8
0
  6
Continuous
 62
     7
100
AcDbLine
 10
369.9441831656
 20
345.8050053798
 30
0.0
 11
359.8842304297
 21
345.8050053798
 31
0.0
  0
LINE
  5
CC
330
1F
100
AcDbEntity
  8
0
  6
Continuous
 62
     7
100
AcDbLine
 10
359.8842304297
 20
346.8050074063
 30
0.0
 11
359.8842304297
 21
345.8050053798
 31
0.0
  0
LINE
  5
CD
330
1F
100
AcDbEntity
  8
0
  6
Continuous
 62
     7
100
AcDbLine
 10
361.1441832133
 20
366.5550064526
 30
0.0
 11
359.3941833921
 21
366.5550064526
 31
0.0
  0
ARC
  5
CE
330
1F
100
AcDbEntity
  8
0
  6
Continuous
 62
     7
100
AcDbCircle
 10
363.8941817823
 20
365.6643811652
 30
0.0
 40
2.890624999999983
100
AcDbArc
 50
17.9452532298
 51
162.0547467702
  0
LINE
  5
CF
330
1F
100
AcDbEntity
  8
0
  6
Continuous
 62
     7
100
AcDbLine
 10
369.2941833385
 20
366.5550064526
 30
0.0
 11
366.6441831835
 21
366.5550064526
 31
0.0
  0
LINE
  5
D0
330
1F
100
AcDbEntity
  8
0
  6
Continuous
 62
     7
100
AcDbLine
 10
359.3941833921
 20
346.8050074063
 30
0.0
 11
359.3941833921
 21
345.8050053798
 31
0.0
  0
LINE
  5
D1
330
1F
100
AcDbEntity
  8
0
  6
Continuous
 62
     7
100
AcDbLine
 10
359.3941833921
 20
345.8050053798
 30
0.0
 11
359.8842304297
 21
345.8050053798
 31
0.0
  0
LINE
  5
D2
330
1F
100
AcDbEntity
  8
0
  6
Continuous
 62
     7
100
AcDbLine
 10
359.3941833921
 20
410.8050067209
 30
0.0
 11
359.3941833921
 21
411.8050050221
 31
0.0
  0
LINE
  5
D3
330
1F
100
AcDbEntity
  8
0
  6
Continuous
 62
     7
100
AcDbLine
 10
359.8842304297
 20
411.8050050221
 30
0.0
 11
359.3941833921
 21
411.8050050221
 31
0.0
  0
SPLINE
  5
D4
330
1F
100
AcDbEntity
  8
0
  6
Continuous
 62
     7
100
AcDbSpline
210
0.0
220
0.0
230
1.0
 70
     8
 71
     3
 72
     9
 73
     5
 74
     0
 42
0.000000001
 43
0.00000001
 40
0.0
 40
0.0
 40
0.0
 40
0.0
 40
0.50013466038932
 40
1.0
 40
1.0
 40
1.0
 40
1.0
 10
357.4087116964553
 20
346.8050074063106
 30
0.0
 10
357.4771256164042
 20
346.7115547288779
 30
0.0
 10
357.6139166156438
 20
346.5246996979549
 30
0.0
 10
357.8007758817622
 20
346.3879159369328
 30
0.0
 10
357.8941803522799
 20
346.3195424757762
 30
0.0
  0
LINE
  5
D5
330
1F
100
AcDbEntity
  8
0
  6
Continuous
 62
     7
100
AcDbLine
 10
358.6441818722
 20
345.9484588586
 30
0.0
 11
359.3941833921
 21
345.8050053798
 31
0.0
  0
LINE
  5
D6
330
1F
100
AcDbEntity
  8
0
  6
Continuous
 62
     7
100
AcDbLine
 10
359.3941833921
 20
411.8050050221
 30
0.0
 11
358.6441818722
 21
411.6615515433
 31
0.0
  0
SPLINE
  5
D7
330
1F
100
AcDbEntity
  8
0
  6
Continuous
 62
     7
100
AcDbSpline
210
0.0
220
0.0
230
1.0
 70
     8
 71
     3
 72
     9
 73
     5
 74
     0
 42
0.000000001
 43
0.00000001
 40
0.0
 40
0.0
 40
0.0
 40
0.0
 40
0.4998691358175996
 40
1.0
 40
1.0
 40
1.0
 40
1.0
 10
357.8941803522799
 20
411.2904716513916
 30
0.0
 10
357.8007761254352
 20
411.2220966982349
 30
0.0
 10
357.6139187658746
 20
411.0853109912221
 30
0.0
 10
357.4771259871118
 20
410.8984577792407
 30
0.0
 10
357.4087116964553
 20
410.8050067208572
 30
0.0
  0
LINE
  5
D8
330
1F
100
AcDbEntity
  8
0
  6
Continuous
 62
     7
100
AcDbLine
 10
373.2941802688
 20
410.8050067209
 30
0.0
 11
355.2941810437
 21
410.8050067209
 31
0.0
  0
LINE
  5
D9
330
1F
100
AcDbEntity
  8
0
  6
Continuous
 62
     7
100
AcDbLine
 10
373.2941802688
 20
346.8050074063
 30
0.0
 11
373.2941802688
 21
410.8050067209
 31
0.0
  0
LINE
  5
DA
330
1F
100
AcDbEntity
  8
0
  6
Continuous
 62
     7
100
AcDbLine
 10
355.2941810437
 20
346.8050074063
 30
0.0
 11
373.2941802688
 21
346.8050074063
 31
0.0
  0
LINE
  5
DB
330
1F
100
AcDbEntity
  8
0
  6
Continuous
 62
     7
100
AcDbLine
 10
355.2941810437
 20
410.8050067209
 30
0.0
 11
355.2941810437
 21
346.8050074063
 31
0.0
  0
LINE
  5
DC
330
1F
100
AcDbEntity
  8
0
  6
Continuous
 62
     7
100
AcDbLine
 10
359.2941816993
 20
391.3050044559
 30
0.0
 11
359.2941816993
 21
390.5191507421
 31
0.0
  0
LINE
  5
DD
330
1F
100
AcDbEntity
  8
0
  6
Continuous
 62
     7
100
AcDbLine
 10
359.2941816993
 20
367.0908596597
 30
0.0
 11
359.2941816993
 21
366.3050096713
 31
0.0
  0
LINE
  5
DE
330
1F
100
AcDbEntity
  8
0
  6
Continuous
 62
     7
100
AcDbLine
 10
359.2941816993
 20
366.3050096713
 30
0.0
 11
369.2941833385
 21
366.3050096713
 31
0.0
  0
LINE
  5
DF
330
1F
100
AcDbEntity
  8
0
  6
Continuous
 62
     7
100
AcDbLine
 10
369.2941833385
 20
366.3050096713
 30
0.0
 11
369.2941833385
 21
391.3050044559
 31
0.0
  0
LINE
  5
E0
330
1F
100
AcDbEntity
  8
0
  6
Continuous
 62
     7
100
AcDbLine
 10
369.2941833385
 20
391.3050044559
 30
0.0
 11
359.2941816993
 21
391.3050044559
 31
0.0
  0
CIRCLE
  5
E1
330
1F
100
AcDbEntity
  8
0
  6
Continuous
 62
     7
100
AcDbCircle
 10
364.2941817823
 20
404.3050061652
 30
0.0
 40
3.999999999999773
  0
CIRCLE
  5
E2
330
1F
100
AcDbEntity
  8
0
  6
Continuous
 62
     7
100
AcDbCircle
 10
364.2941817823
 20
353.3050061652
 30
0.0
 40
3.999999999999773
  0
ARC
  5
E3
330
1F
100
AcDbEntity
  8
0
  6
Continuous
 62
     7
100
AcDbCircle
 10
351.6441817823
 20
338.3050061652
 30
0.0
 40
2.0
100
AcDbArc
 50
180.0
 51
270.0
  0
LINE
  5
E4
330
1F
100
AcDbEntity
  8
0
  6
Continuous
 62
     7
100
AcDbLine
 10
349.6441822596
 20
338.3050050817
 30
0.0
 11
349.6441822596
 21
338.805006095
 31
0.0
  0
LINE
  5
E5
330
1F
100
AcDbEntity
  8
0
  6
Continuous
 62
     7
100
AcDbLine
 10
349.6441822596
 20
338.805006095
 30
0.0
 11
349.6441822596
 21
418.8050061695
 31
0.0
  0
LINE
  5
E6
330
1F
100
AcDbEntity
  8
0
  6
Continuous
 62
     7
100
AcDbLine
 10
358.6441818722
 20
338.805006095
 30
0.0
 11
358.6441818722
 21
336.3050084792
 31
0.0
  0
LINE
  5
E7
330
1F
100
AcDbEntity
  8
0
  6
Continuous
 62
     7
100
AcDbLine
 10
351.6441825875
 20
336.3050084792
 30
0.0
 11
358.6441818722
 21
336.3050084792
 31
0.0
  0
LINE
  5
E8
330
1F
100
AcDbEntity
  8
0
  6
Continuous
 62
     7
100
AcDbLine
 10
354.6441812165
 20
411.3050077341
 30
0.0
 11
354.6441812165
 21
346.305006393
 31
0.0
  0
LINE
  5
E9
330
1F
100
AcDbEntity
  8
0
  6
Continuous
 62
     7
100
AcDbLine
 10
354.6441812165
 20
346.305006393
 30
0.0
 11
358.6441818722
 21
346.305006393
 31
0.0
  0
LINE
  5
EA
330
1F
100
AcDbEntity
  8
0
  6
Continuous
 62
     7
100
AcDbLine
 10
358.6441818722
 20
346.305006393
 30
0.0
 11
358.6441818722
 21
338.805006095
 31
0.0
  0
LINE
  5
EB
330
1F
100
AcDbEntity
  8
0
  6
Continuous
 62
     7
100
AcDbLine
 10
358.6441818722
 20
418.8050061695
 30
0.0
 11
358.6441818722
 21
411.3050077341
 31
0.0
  0
LINE
  5
EC
330
1F
100
AcDbEntity
  8
0
  6
Continuous
 62
     7
100
AcDbLine
 10
354.6441812165
 20
411.3050077341
 30
0.0
 11
358.6441818722
 21
411.3050077341
 31
0.0
  0
LINE
  5
ED
330
1F
100
AcDbEntity
  8
0
  6
Continuous
 62
     7
100
AcDbLine
 10
349.6441822596
 20
418.8050061695
 30
0.0
 11
349.6441822596
 21
419.3050053201
 31
0.0
  0
ARC
  5
EE
330
1F
100
AcDbEntity
  8
0
  6
Continuous
 62
     7
100
AcDbCircle
 10
351.6441817823
 20
419.3050061652
 30
0.0
 40
2.0
100
AcDbArc
 50
90.0
 51
180.0
  0
LINE
  5
EF
330
1F
100
AcDbEntity
  8
0
  6
Continuous
 62
     7
100
AcDbLine
 10
358.6441818722
 20
421.305005648
 30
0.0
 11
358.6441818722
 21
418.8050061695
 31
0.0
  0
LINE
  5
F0
330
1F
100
AcDbEntity
  8
0
  6
Continuous
 62
     7
100
AcDbLine
 10
351.6441825875
 20
421.305005648
 30
0.0
 11
358.6441818722
 21
421.305005648
 31
0.0
  0
LINE
  5
F1
330
1F
100
AcDbEntity
  8
0
  6
Continuous
 62
     7
100
AcDbLine
 10
373.944180096
 20
346.305006393
 30
0.0
 11
373.944180096
 21
411.3050077341
 31
0.0
  0
LINE
  5
F2
330
1F
100
AcDbEntity
  8
0
  6
Continuous
 62
     7
100
AcDbLine
 10
373.944180096
 20
411.3050077341
 30
0.0
 11
369.9441831656
 21
411.3050077341
 31
0.0
  0
LINE
  5
F3
330
1F
100
AcDbEntity
  8
0
  6
Continuous
 62
     7
100
AcDbLine
 10
369.9441831656
 20
411.3050077341
 30
0.0
 11
369.9441831656
 21
418.8050061695
 31
0.0
  0
LINE
  5
F4
330
1F
100
AcDbEntity
  8
0
  6
Continuous
 62
     7
100
AcDbLine
 10
369.9441831656
 20
338.805006095
 30
0.0
 11
369.9441831656
 21
346.305006393
 31
0.0
  0
LINE
  5
F5
330
1F
100
AcDbEntity
  8
0
  6
Continuous
 62
     7
100
AcDbLine
 10
373.944180096
 20
346.305006393
 30
0.0
 11
369.9441831656
 21
346.305006393
 31
0.0
  0
LINE
  5
F6
330
1F
100
AcDbEntity
  8
0
  6
Continuous
 62
     7
100
AcDbLine
 10
376.9441824504
 20
336.3050084792
 30
0.0
 11
369.9441831656
 21
336.3050084792
 31
0.0
  0
LINE
  5
F7
330
1F
100
AcDbEntity
  8
0
  6
Continuous
 62
     7
100
AcDbLine
 10
369.9441831656
 20
336.3050084792
 30
0.0
 11
369.9441831656
 21
338.805006095
 31
0.0
  0
LINE
  5
F8
330
1F
100
AcDbEntity
  8
0
  6
Continuous
 62
     7
100
AcDbLine
 10
376.9441824504
 20
421.305005648
 30
0.0
 11
369.9441831656
 21
421.305005648
 31
0.0
  0
LINE
  5
F9
330
1F
100
AcDbEntity
  8
0
  6
Continuous
 62
     7
100
AcDbLine
 10
369.9441831656
 20
418.8050061695
 30
0.0
 11
369.9441831656
 21
421.305005648
 31
0.0
  0
LINE
  5
FA
330
1F
100
AcDbEntity
  8
0
  6
Continuous
 62
     7
100
AcDbLine
 10
378.9441809155
 20
418.8050061695
 30
0.0
 11
378.9441809155
 21
338.805006095
 31
0.0
  0
ARC
  5
FB
330
1F
100
AcDbEntity
  8
0
  6
Continuous
 62
     7
100
AcDbCircle
 10
376.9441817823
 20
419.3050061652
 30
0.0
 40
2.0
100
AcDbArc
 50
0.0
 51
90.0
  0
LINE
  5
FC
330
1F
100
AcDbEntity
  8
0
  6
Continuous
 62
     7
100
AcDbLine
 10
378.9441809155
 20
419.3050053201
 30
0.0
 11
378.9441809155
 21
418.8050061695
 31
0.0
  0
LINE
  5
FD
330
1F
100
AcDbEntity
  8
0
  6
Continuous
 62
     7
100
AcDbLine
 10
378.9441809155
 20
338.805006095
 30
0.0
 11
378.9441809155
 21
338.3050050817
 31
0.0
  0
ARC
  5
FE
330
1F
100
AcDbEntity
  8
0
  6
Continuous
 62
     7
100
AcDbCircle
 10
376.9441817823
 20
338.3050061652
 30
0.0
 40
2.0
100
AcDbArc
 50
270.0
 51
0.0
  0
LINE
  5
FF
330
1F
100
AcDbEntity
  8
0
  6
Continuous
 62
     7
100
AcDbLine
 10
380.4441820927
 20
390.3050061546
 30
0.0
 11
380.4441820927
 21
387.3050075255
 31
0.0
  0
LINE
  5
100
330
1F
100
AcDbEntity
  8
0
  6
Continuous
 62
     7
100
AcDbLine
 10
317.1014767237
 20
382.8050058566
 30
0.0
 11
344.2941811033
 21
382.8050058566
 31
0.0
  0
LINE
  5
101
330
1F
100
AcDbEntity
  8
0
  6
Continuous
 62
     7
100
AcDbLine
 10
384.2941820719
 20
382.8050058566
 30
0.0
 11
407.1014796597
 21
382.8050058566
 31
0.0
  0
LINE
  5
102
330
1F
100
AcDbEntity
  8
0
  6
Continuous
 62
     7
100
AcDbLine
 10
407.1014796597
 20
382.8050058566
 30
0.0
 11
407.1014796597
 21
382.6050061963
 31
0.0
  0
LINE
  5
103
330
1F
100
AcDbEntity
  8
0
  6
Continuous
 62
     7
100
AcDbLine
 10
317.1014767237
 20
382.6050061963
 30
0.0
 11
317.1014767237
 21
382.8050058566
 31
0.0
  0
LINE
  5
104
330
1F
100
AcDbEntity
  8
0
  6
Continuous
 62
     7
100
AcDbLine
 10
407.1014796597
 20
378.9050068937
 30
0.0
 11
407.1014796597
 21
382.6050061963
 31
0.0
  0
LINE
  5
105
330
1F
100
AcDbEntity
  8
0
  6
Continuous
 62
     7
100
AcDbLine
 10
317.1014767237
 20
378.9050068937
 30
0.0
 11
344.2941811033
 21
378.9050068937
 31
0.0
  0
LINE
  5
106
330
1F
100
AcDbEntity
  8
0
  6
Continuous
 62
     7
100
AcDbLine
 10
384.2941820719
 20
378.9050068937
 30
0.0
 11
407.1014796597
 21
378.9050068937
 31
0.0
  0
LINE
  5
107
330
1F
100
AcDbEntity
  8
0
  6
Continuous
 62
     7
100
AcDbLine
 10
317.1014767237
 20
378.9050068937
 30
0.0
 11
317.1014767237
 21
382.6050061963
 31
0.0
  0
LINE
  5
108
330
1F
100
AcDbEntity
  8
0
  6
Continuous
 62
     7
100
AcDbLine
 10
407.1014796597
 20
375.0050079308
 30
0.0
 11
407.1014796597
 21
374.8050045453
 31
0.0
  0
LINE
  5
109
330
1F
100
AcDbEntity
  8
0
  6
Continuous
 62
     7
100
AcDbLine
 10
407.1014796597
 20
374.8050045453
 30
0.0
 11
384.2941820719
 21
374.8050045453
 31
0.0
  0
LINE
  5
10A
330
1F
100
AcDbEntity
  8
0
  6
Continuous
 62
     7
100
AcDbLine
 10
344.2941811033
 20
374.8050045453
 30
0.0
 11
317.1014767237
 21
374.8050045453
 31
0.0
  0
LINE
  5
10B
330
1F
100
AcDbEntity
  8
0
  6
Continuous
 62
     7
100
AcDbLine
 10
317.1014767237
 20
374.8050045453
 30
0.0
 11
317.1014767237
 21
375.0050079308
 31
0.0
  0
LINE
  5
10C
330
1F
100
AcDbEntity
  8
0
  6
Continuous
 62
     7
100
AcDbLine
 10
407.1014796597
 20
375.0050079308
 30
0.0
 11
407.1014796597
 21
378.7050035082
 31
0.0
  0
LINE
  5
10D
330
1F
100
AcDbEntity
  8
0
  6
Continuous
 62
     7
100
AcDbLine
 10
317.1014767237
 20
375.0050079308
 30
0.0
 11
317.1014767237
 21
378.7050035082
 31
0.0
  0
LINE
  5
10E
330
1F
100
AcDbEntity
  8
0
  6
Continuous
 62
     7
100
AcDbLine
 10
317.1014767237
 20
378.7050035082
 30
0.0
 11
344.2941811033
 21
378.7050035082
 31
0.0
  0
LINE
  5
10F
330
1F
100
AcDbEntity
  8
0
  6
Continuous
 62
     7
100
AcDbLine
 10
384.2941820719
 20
378.7050035082
 30
0.0
 11
407.1014796597
 21
378.7050035082
 31
0.0
  0
ARC
  5
110
330
1F
100
AcDbEntity
  8
0
  6
Continuous
 62
     7
100
AcDbCircle
 10
364.2941817823
 20
404.3050061652
 30
0.0
 40
2.299999999990024
100
AcDbArc
 50
237.2948877453
 51
263.1728266452
  0
LINE
  5
111
330
1F
100
AcDbEntity
  8
0
  6
Continuous
 62
     7
100
AcDbLine
 10
364.6046761521
 20
403.6461871348
 30
0.0
 11
364.0207704254
 21
402.0213160895
 31
0.0
  0
LINE
  5
112
330
1F
100
AcDbEntity
  8
0
  6
Continuous
 62
     7
100
AcDbLine
 10
366.2295471974
 20
403.0622814081
 30
0.0
 11
364.6046761521
 21
403.6461871348
 31
0.0
  0
ARC
  5
113
330
1F
100
AcDbEntity
  8
0
  6
Continuous
 62
     7
100
AcDbCircle
 10
364.2941817823
 20
404.3050061652
 30
0.0
 40
2.299999999990074
100
AcDbArc
 50
327.2948877453001
 51
353.1728266452
  0
LINE
  5
114
330
1F
100
AcDbEntity
  8
0
  6
Continuous
 62
     7
100
AcDbLine
 10
364.9530019708
 20
404.6155002199
 30
0.0
 11
366.5778730162
 21
404.0315944932
 31
0.0
  0
LINE
  5
115
330
1F
100
AcDbEntity
  8
0
  6
Continuous
 62
     7
100
AcDbLine
 10
365.5369076975
 20
406.2403712652
 30
0.0
 11
364.9530019708
 21
404.6155002199
 31
0.0
  0
ARC
  5
116
330
1F
100
AcDbEntity
  8
0
  6
Continuous
 62
     7
100
AcDbCircle
 10
364.2941817823
 20
404.3050061652
 30
0.0
 40
2.299999999991129
100
AcDbArc
 50
57.2948877453
 51
83.1728266452
  0
LINE
  5
117
330
1F
100
AcDbEntity
  8
0
  6
Continuous
 62
     7
100
AcDbLine
 10
363.9836888858
 20
404.9638260387
 30
0.0
 11
364.5675946124
 21
406.588697084
 31
0.0
  0
LINE
  5
118
330
1F
100
AcDbEntity
  8
0
  6
Continuous
 62
     7
100
AcDbLine
 10
362.3588178404
 20
405.5477317653
 30
0.0
 11
363.9836888858
 21
404.9638260387
 31
0.0
  0
ARC
  5
119
330
1F
100
AcDbEntity
  8
0
  6
Continuous
 62
     7
100
AcDbCircle
 10
364.2941817823
 20
404.3050061652
 30
0.0
 40
2.29999999999116
100
AcDbArc
 50
147.2948877453
 51
173.1728266452
  0
LINE
  5
11A
330
1F
100
AcDbEntity
  8
0
  6
Continuous
 62
     7
100
AcDbLine
 10
363.635363067
 20
403.9945129536
 30
0.0
 11
362.0104920216
 21
404.5784186803
 31
0.0
  0
LINE
  5
11B
330
1F
100
AcDbEntity
  8
0
  6
Continuous
 62
     7
100
AcDbLine
 10
363.0514573403
 20
402.3696419082
 30
0.0
 11
363.635363067
 21
403.9945129536
 31
0.0
  0
CIRCLE
  5
11C
330
1F
100
AcDbEntity
  8
0
  6
Continuous
 62
     7
100
AcDbCircle
 10
364.2941817823
 20
404.3050061652
 30
0.0
 40
3.750000000000005
  0
ARC
  5
11D
330
1F
100
AcDbEntity
  8
0
  6
Continuous
 62
     7
100
AcDbCircle
 10
364.2941817823
 20
404.3050061652
 30
0.0
 40
1.080668528574412
100
AcDbArc
 50
131.7730917218
 51
188.6946226687
  0
ARC
  5
11E
330
1F
100
AcDbEntity
  8
0
  6
Continuous
 62
     7
100
AcDbCircle
 10
364.2941817823
 20
404.3050061652
 30
0.0
 40
1.0806685285744
100
AcDbArc
 50
41.77309172190001
 51
98.6946226687
  0
ARC
  5
11F
330
1F
100
AcDbEntity
  8
0
  6
Continuous
 62
     7
100
AcDbCircle
 10
364.2941817823
 20
404.3050061652
 30
0.0
 40
1.080668528574438
100
AcDbArc
 50
311.7730917219
 51
8.694622668700001
  0
ARC
  5
120
330
1F
100
AcDbEntity
  8
0
  6
Continuous
 62
     7
100
AcDbCircle
 10
364.2941817823
 20
404.3050061652
 30
0.0
 40
1.080668528574412
100
AcDbArc
 50
221.7730917218
 51
278.6946226687
  0
ARC
  5
121
330
1F
100
AcDbEntity
  8
0
  6
Continuous
 62
     7
100
AcDbCircle
 10
364.2941817823
 20
353.3050061652
 30
0.0
 40
2.299999999990014
100
AcDbArc
 50
325.7923125012001
 51
351.6702514011
  0
LINE
  5
122
330
1F
100
AcDbEntity
  8
0
  6
Continuous
 62
     7
100
AcDbLine
 10
364.9609182127
 20
353.598118969
 30
0.0
 11
366.5699195214
 21
352.9718082629
 31
0.0
  0
LINE
  5
123
330
1F
100
AcDbEntity
  8
0
  6
Continuous
 62
     7
100
AcDbLine
 10
365.5872289189
 20
355.2071165524
 30
0.0
 11
364.9609182127
 21
353.598118969
 31
0.0
  0
ARC
  5
124
330
1F
100
AcDbEntity
  8
0
  6
Continuous
 62
     7
100
AcDbCircle
 10
364.2941817823
 20
353.3050061652
 30
0.0
 40
2.29999999999007
100
AcDbArc
 50
55.79231250119999
 51
81.6702514011
  0
LINE
  5
125
330
1F
100
AcDbEntity
  8
0
  6
Continuous
 62
     7
100
AcDbLine
 10
364.0010710903
 20
353.9717432342
 30
0.0
 11
364.6273817964
 21
355.5807408176
 31
0.0
  0
LINE
  5
126
330
1F
100
AcDbEntity
  8
0
  6
Continuous
 62
     7
100
AcDbLine
 10
362.3920697816
 20
354.5980539404
 30
0.0
 11
364.0010710903
 21
353.9717432342
 31
0.0
  0
ARC
  5
127
330
1F
100
AcDbEntity
  8
0
  6
Continuous
 62
     7
100
AcDbCircle
 10
364.2941817823
 20
353.3050061652
 30
0.0
 40
2.299999999991154
100
AcDbArc
 50
145.7923125012
 51
171.6702514011
  0
LINE
  5
128
330
1F
100
AcDbEntity
  8
0
  6
Continuous
 62
     7
100
AcDbLine
 10
363.6274468251
 20
353.0118923865
 30
0.0
 11
362.0184455164
 21
353.6382105432
 31
0.0
  0
LINE
  5
129
330
1F
100
AcDbEntity
  8
0
  6
Continuous
 62
     7
100
AcDbLine
 10
363.001136119
 20
351.4028948031
 30
0.0
 11
363.6274468251
 21
353.0118923865
 31
0.0
  0
ARC
  5
12A
330
1F
100
AcDbEntity
  8
0
  6
Continuous
 62
     7
100
AcDbCircle
 10
364.2941817823
 20
353.3050061652
 30
0.0
 40
2.299999999991122
100
AcDbArc
 50
235.7923125011999
 51
261.6702514011
  0
LINE
  5
12B
330
1F
100
AcDbEntity
  8
0
  6
Continuous
 62
     7
100
AcDbLine
 10
364.5872939475
 20
352.6382681213
 30
0.0
 11
363.9609795161
 21
351.0292705379
 31
0.0
  0
LINE
  5
12C
330
1F
100
AcDbEntity
  8
0
  6
Continuous
 62
     7
100
AcDbLine
 10
366.1962952562
 20
352.0119574152
 30
0.0
 11
364.5872939475
 21
352.6382681213
 31
0.0
  0
CIRCLE
  5
12D
330
1F
100
AcDbEntity
  8
0
  6
Continuous
 62
     7
100
AcDbCircle
 10
364.2941817823
 20
353.3050061652
 30
0.0
 40
3.749999999999969
  0
ARC
  5
12E
330
1F
100
AcDbEntity
  8
0
  6
Continuous
 62
     7
100
AcDbCircle
 10
364.2941817823
 20
353.3050061652
 30
0.0
 40
1.080668528574454
100
AcDbArc
 50
130.2705164777
 51
187.1920474246
  0
ARC
  5
12F
330
1F
100
AcDbEntity
  8
0
  6
Continuous
 62
     7
100
AcDbCircle
 10
364.2941817823
 20
353.3050061652
 30
0.0
 40
1.080668528574366
100
AcDbArc
 50
220.2705164777
 51
277.1920474245
  0
ARC
  5
130
330
1F
100
AcDbEntity
  8
0
  6
Continuous
 62
     7
100
AcDbCircle
 10
364.2941817823
 20
353.3050061652
 30
0.0
 40
1.080668528574454
100
AcDbArc
 50
40.2705164777
 51
97.1920474246
  0
ARC
  5
131
330
1F
100
AcDbEntity
  8
0
  6
Continuous
 62
     7
100
AcDbCircle
 10
364.2941817823
 20
353.3050061652
 30
0.0
 40
1.080668528574422
100
AcDbArc
 50
310.2705164777
 51
7.1920474245
  0
LINE
  5
132
330
1F
100
AcDbEntity
  8
0
  6
Continuous
 62
     7
100
AcDbLine
 10
369.2941833385
 20
344.3050097905
 30
0.0
 11
369.2941833385
 21
339.3050071083
 31
0.0
  0
LINE
  5
133
330
1F
100
AcDbEntity
  8
0
  6
Continuous
 62
     7
100
AcDbLine
 10
369.2941833385
 20
418.3050070189
 30
0.0
 11
369.2941833385
 21
413.3050061993
 31
0.0
  0
LINE
  5
134
330
1F
100
AcDbEntity
  8
0
  6
Continuous
 62
     7
100
AcDbLine
 10
369.2941833385
 20
419.3050053201
 30
0.0
 11
369.2941833385
 21
418.3050070189
 31
0.0
  0
LINE
  5
135
330
1F
100
AcDbEntity
  8
0
  6
Continuous
 62
     7
100
AcDbLine
 10
369.2941833385
 20
419.3050053201
 30
0.0
 11
369.9441831656
 21
419.3050053201
 31
0.0
  0
LINE
  5
136
330
1F
100
AcDbEntity
  8
0
  6
Continuous
 62
     7
100
AcDbLine
 10
369.2941833385
 20
345.3050043665
 30
0.0
 11
369.2941833385
 21
344.3050097905
 31
0.0
  0
LINE
  5
137
330
1F
100
AcDbEntity
  8
0
  6
Continuous
 62
     7
100
AcDbLine
 10
369.2941833385
 20
345.3050043665
 30
0.0
 11
369.9441831656
 21
345.3050043665
 31
0.0
  0
LINE
  5
138
330
1F
100
AcDbEntity
  8
0
  6
Continuous
 62
     7
100
AcDbLine
 10
369.2941833385
 20
338.3050050817
 30
0.0
 11
369.9441831656
 21
338.3050050817
 31
0.0
  0
LINE
  5
139
330
1F
100
AcDbEntity
  8
0
  6
Continuous
 62
     7
100
AcDbLine
 10
369.2941833385
 20
339.3050071083
 30
0.0
 11
369.2941833385
 21
338.3050050817
 31
0.0
  0
LINE
  5
13A
330
1F
100
AcDbEntity
  8
0
  6
Continuous
 62
     7
100
AcDbLine
 10
369.2941833385
 20
412.3050060354
 30
0.0
 11
369.9441831656
 21
412.3050060354
 31
0.0
  0
LINE
  5
13B
330
1F
100
AcDbEntity
  8
0
  6
Continuous
 62
     7
100
AcDbLine
 10
369.2941833385
 20
413.3050061993
 30
0.0
 11
369.2941833385
 21
412.3050060354
 31
0.0
  0
LINE
  5
13C
330
1F
100
AcDbEntity
  8
0
  6
Continuous
 62
     7
100
AcDbLine
 10
369.2941833385
 20
412.3050060354
 30
0.0
 11
369.2941833385
 21
411.8050050221
 31
0.0
  0
LINE
  5
13D
330
1F
100
AcDbEntity
  8
0
  6
Continuous
 62
     7
100
AcDbLine
 10
369.2941833385
 20
345.8050053798
 30
0.0
 11
369.2941833385
 21
345.3050043665
 31
0.0
  0
LINE
  5
13E
330
1F
100
AcDbEntity
  8
0
  6
Continuous
 62
     7
100
AcDbLine
 10
367.8941819914
 20
419.3050053201
 30
0.0
 11
367.8941819914
 21
418.3050070189
 31
0.0
  0
LINE
  5
13F
330
1F
100
AcDbEntity
  8
0
  6
Continuous
 62
     7
100
AcDbLine
 10
367.8941819914
 20
419.3050053201
 30
0.0
 11
369.2941833385
 21
419.3050053201
 31
0.0
  0
LINE
  5
140
330
1F
100
AcDbEntity
  8
0
  6
Continuous
 62
     7
100
AcDbLine
 10
367.8941819914
 20
418.3050070189
 30
0.0
 11
367.8941819914
 21
413.3050061993
 31
0.0
  0
LINE
  5
141
330
1F
100
AcDbEntity
  8
0
  6
Continuous
 62
     7
100
AcDbLine
 10
367.8941819914
 20
345.3050043665
 30
0.0
 11
369.2941833385
 21
345.3050043665
 31
0.0
  0
LINE
  5
142
330
1F
100
AcDbEntity
  8
0
  6
Continuous
 62
     7
100
AcDbLine
 10
367.8941819914
 20
345.3050043665
 30
0.0
 11
367.8941819914
 21
344.3050097905
 31
0.0
  0
LINE
  5
143
330
1F
100
AcDbEntity
  8
0
  6
Continuous
 62
     7
100
AcDbLine
 10
367.8941819914
 20
412.3050060354
 30
0.0
 11
369.2941833385
 21
412.3050060354
 31
0.0
  0
LINE
  5
144
330
1F
100
AcDbEntity
  8
0
  6
Continuous
 62
     7
100
AcDbLine
 10
367.8941819914
 20
413.3050061993
 30
0.0
 11
367.8941819914
 21
412.3050060354
 31
0.0
  0
LINE
  5
145
330
1F
100
AcDbEntity
  8
0
  6
Continuous
 62
     7
100
AcDbLine
 10
367.8941819914
 20
344.3050097905
 30
0.0
 11
367.8941819914
 21
339.3050071083
 31
0.0
  0
LINE
  5
146
330
1F
100
AcDbEntity
  8
0
  6
Continuous
 62
     7
100
AcDbLine
 10
367.8941819914
 20
338.3050050817
 30
0.0
 11
369.2941833385
 21
338.3050050817
 31
0.0
  0
LINE
  5
147
330
1F
100
AcDbEntity
  8
0
  6
Continuous
 62
     7
100
AcDbLine
 10
367.8941819914
 20
339.3050071083
 30
0.0
 11
367.8941819914
 21
338.3050050817
 31
0.0
  0
LINE
  5
148
330
1F
100
AcDbEntity
  8
0
  6
Continuous
 62
     7
100
AcDbLine
 10
367.8941819914
 20
412.3050060354
 30
0.0
 11
367.8941819914
 21
411.8050050221
 31
0.0
  0
LINE
  5
149
330
1F
100
AcDbEntity
  8
0
  6
Continuous
 62
     7
100
AcDbLine
 10
367.8941819914
 20
391.0550076745
 30
0.0
 11
367.8941819914
 21
390.8050071679
 31
0.0
  0
LINE
  5
14A
330
1F
100
AcDbEntity
  8
0
  6
Continuous
 62
     7
100
AcDbLine
 10
367.8941819914
 20
366.805003234
 30
0.0
 11
367.8941819914
 21
366.5550064526
 31
0.0
  0
LINE
  5
14B
330
1F
100
AcDbEntity
  8
0
  6
Continuous
 62
     7
100
AcDbLine
 10
367.8941819914
 20
345.8050053798
 30
0.0
 11
367.8941819914
 21
345.3050043665
 31
0.0
  0
LINE
  5
14C
330
1F
100
AcDbEntity
  8
0
  6
Continuous
 62
     7
100
AcDbLine
 10
358.6441818722
 20
412.3050060354
 30
0.0
 11
359.2941816993
 21
412.3050060354
 31
0.0
  0
LINE
  5
14D
330
1F
100
AcDbEntity
  8
0
  6
Continuous
 62
     7
100
AcDbLine
 10
359.2941816993
 20
413.3050061993
 30
0.0
 11
359.2941816993
 21
412.3050060354
 31
0.0
  0
LINE
  5
14E
330
1F
100
AcDbEntity
  8
0
  6
Continuous
 62
     7
100
AcDbLine
 10
358.6441818722
 20
419.3050053201
 30
0.0
 11
359.2941816993
 21
419.3050053201
 31
0.0
  0
LINE
  5
14F
330
1F
100
AcDbEntity
  8
0
  6
Continuous
 62
     7
100
AcDbLine
 10
359.2941816993
 20
419.3050053201
 30
0.0
 11
359.2941816993
 21
418.3050070189
 31
0.0
  0
LINE
  5
150
330
1F
100
AcDbEntity
  8
0
  6
Continuous
 62
     7
100
AcDbLine
 10
359.2941816993
 20
344.3050097905
 30
0.0
 11
359.2941816993
 21
339.3050071083
 31
0.0
  0
LINE
  5
151
330
1F
100
AcDbEntity
  8
0
  6
Continuous
 62
     7
100
AcDbLine
 10
359.2941816993
 20
418.3050070189
 30
0.0
 11
359.2941816993
 21
413.3050061993
 31
0.0
  0
LINE
  5
152
330
1F
100
AcDbEntity
  8
0
  6
Continuous
 62
     7
100
AcDbLine
 10
358.6441818722
 20
345.3050043665
 30
0.0
 11
359.2941816993
 21
345.3050043665
 31
0.0
  0
LINE
  5
153
330
1F
100
AcDbEntity
  8
0
  6
Continuous
 62
     7
100
AcDbLine
 10
359.2941816993
 20
345.3050043665
 30
0.0
 11
359.2941816993
 21
344.3050097905
 31
0.0
  0
LINE
  5
154
330
1F
100
AcDbEntity
  8
0
  6
Continuous
 62
     7
100
AcDbLine
 10
358.6441818722
 20
338.3050050817
 30
0.0
 11
359.2941816993
 21
338.3050050817
 31
0.0
  0
LINE
  5
155
330
1F
100
AcDbEntity
  8
0
  6
Continuous
 62
     7
100
AcDbLine
 10
359.2941816993
 20
339.3050071083
 30
0.0
 11
359.2941816993
 21
338.3050050817
 31
0.0
  0
LINE
  5
156
330
1F
100
AcDbEntity
  8
0
  6
Continuous
 62
     7
100
AcDbLine
 10
359.2941816993
 20
412.3050060354
 30
0.0
 11
359.2941816993
 21
411.8413079761
 31
0.0
  0
LINE
  5
157
330
1F
100
AcDbEntity
  8
0
  6
Continuous
 62
     7
100
AcDbLine
 10
359.2941816993
 20
345.7534771643
 30
0.0
 11
359.2941816993
 21
345.3050043665
 31
0.0
  0
LINE
  5
158
330
1F
100
AcDbEntity
  8
0
  6
Continuous
 62
     7
100
AcDbLine
 10
354.8941817232
 20
346.305006393
 30
0.0
 11
354.8941817232
 21
411.3050077341
 31
0.0
  0
LINE
  5
159
330
1F
100
AcDbEntity
  8
0
  6
Continuous
 62
     7
100
AcDbLine
 10
356.894182051
 20
346.305006393
 30
0.0
 11
356.894182051
 21
346.8050074063
 31
0.0
  0
LINE
  5
15A
330
1F
100
AcDbEntity
  8
0
  6
Continuous
 62
     7
100
AcDbLine
 10
356.894182051
 20
410.8050067209
 30
0.0
 11
356.894182051
 21
411.3050077341
 31
0.0
  0
LINE
  5
15B
330
1F
100
AcDbEntity
  8
0
  6
Continuous
 62
     7
100
AcDbLine
 10
357.8941803523
 20
410.8050067209
 30
0.0
 11
357.8941803523
 21
411.3050077341
 31
0.0
  0
LINE
  5
15C
330
1F
100
AcDbEntity
  8
0
  6
Continuous
 62
     7
100
AcDbLine
 10
344.2941811033
 20
371.9311442457
 30
0.0
 11
349.6441822596
 21
371.9311442457
 31
0.0
  0
LINE
  5
15D
330
1F
100
AcDbEntity
  8
0
  6
Continuous
 62
     7
100
AcDbLine
 10
344.2941811033
 20
387.3050075255
 30
0.0
 11
344.2941811033
 21
371.9311442457
 31
0.0
  0
LINE
  5
15E
330
1F
100
AcDbEntity
  8
0
  6
Continuous
 62
     7
100
AcDbLine
 10
384.2941820719
 20
371.9311442457
 30
0.0
 11
384.2941820719
 21
387.3050075255
 31
0.0
  0
LINE
  5
15F
330
1F
100
AcDbEntity
  8
0
  6
Continuous
 62
     7
100
AcDbLine
 10
384.2941820719
 20
371.9311442457
 30
0.0
 11
378.9441809155
 21
371.9311442457
 31
0.0
  0
LINE
  5
160
330
1F
100
AcDbEntity
  8
0
  6
Continuous
 62
     7
100
AcDbLine
 10
384.2941820719
 20
354.4550027929
 30
0.0
 11
378.9441809155
 21
354.4550027929
 31
0.0
  0
LINE
  5
161
330
1F
100
AcDbEntity
  8
0
  6
Continuous
 62
     7
100
AcDbLine
 10
349.6441822596
 20
354.4550027929
 30
0.0
 11
344.2941811033
 21
354.4550027929
 31
0.0
  0
LINE
  5
162
330
1F
100
AcDbEntity
  8
0
  6
Continuous
 62
     7
100
AcDbLine
 10
384.2941820719
 20
359.6050080143
 30
0.0
 11
384.2941820719
 21
354.4550027929
 31
0.0
  0
LINE
  5
163
330
1F
100
AcDbEntity
  8
0
  6
Continuous
 62
     7
100
AcDbLine
 10
344.2941811033
 20
354.4550027929
 30
0.0
 11
344.2941811033
 21
359.6050080143
 31
0.0
  0
LINE
  5
164
330
1F
100
AcDbEntity
  8
0
  6
Continuous
 62
     7
100
AcDbLine
 10
384.2941820719
 20
359.6050080143
 30
0.0
 11
384.2941820719
 21
371.9311442457
 31
0.0
  0
LINE
  5
165
330
1F
100
AcDbEntity
  8
0
  6
Continuous
 62
     7
100
AcDbLine
 10
344.2941811033
 20
359.6050080143
 30
0.0
 11
344.2941811033
 21
371.9311442457
 31
0.0
  0
LINE
  5
166
330
1F
100
AcDbEntity
  8
0
  6
Continuous
 62
     7
100
AcDbLine
 10
373.6941833146
 20
346.305006393
 30
0.0
 11
373.6941833146
 21
411.3050077341
 31
0.0
  0
ARC
  5
167
330
1F
100
AcDbEntity
  8
0
  6
Continuous
 62
     7
100
AcDbCircle
 10
359.9941817823
 20
389.8050061652
 30
0.0
 40
1.0
100
AcDbArc
 50
90.0
 51
180.0
  0
LINE
  5
168
330
1F
100
AcDbEntity
  8
0
  6
Continuous
 62
     7
100
AcDbLine
 10
360.3886310108
 20
390.8050071679
 30
0.0
 11
359.9941823729
 21
390.8050071679
 31
0.0
  0
LINE
  5
169
330
1F
100
AcDbEntity
  8
0
  6
Continuous
 62
     7
100
AcDbLine
 10
360.3886310108
 20
390.8050071679
 30
0.0
 11
360.3886310108
 21
366.805003234
 31
0.0
  0
LINE
  5
16A
330
1F
100
AcDbEntity
  8
0
  6
Continuous
 62
     7
100
AcDbLine
 10
359.9941823729
 20
366.805003234
 30
0.0
 11
360.3886310108
 21
366.805003234
 31
0.0
  0
LINE
  5
16B
330
1F
100
AcDbEntity
  8
0
  6
Continuous
 62
     7
100
AcDbLine
 10
358.9941803463
 20
389.8050051413
 30
0.0
 11
358.9941803463
 21
367.8050052605
 31
0.0
  0
ARC
  5
16C
330
1F
100
AcDbEntity
  8
0
  6
Continuous
 62
     7
100
AcDbCircle
 10
359.9941817823
 20
367.8050061652
 30
0.0
 40
1.0
100
AcDbArc
 50
180.0
 51
270.0
  0
ARC
  5
16D
330
1F
100
AcDbEntity
  8
0
  6
Continuous
 62
     7
100
AcDbCircle
 10
363.9941817823
 20
392.0550061652
 30
0.0
 40
3.25000000000002
100
AcDbArc
 50
211.9657187508
 51
328.0342812492
  0
ARC
  5
16E
330
1F
100
AcDbEntity
  8
0
  6
Continuous
 62
     7
100
AcDbCircle
 10
367.5997330577
 20
389.8050061652
 30
0.0
 40
1.000000000000014
100
AcDbArc
 50
90.0
 51
148.0342812492
  0
LINE
  5
16F
330
1F
100
AcDbEntity
  8
0
  6
Continuous
 62
     7
100
AcDbLine
 10
367.5997313209
 20
390.8050071679
 30
0.0
 11
367.9941799589
 21
390.8050071679
 31
0.0
  0
ARC
  5
170
330
1F
100
AcDbEntity
  8
0
  6
Continuous
 62
     7
100
AcDbCircle
 10
367.9941817823
 20
389.8050061652
 30
0.0
 40
1.0
100
AcDbArc
 50
0.0
 51
90.0
  0
LINE
  5
171
330
1F
100
AcDbEntity
  8
0
  6
Continuous
 62
     7
100
AcDbLine
 10
368.9941819854
 20
389.8050051413
 30
0.0
 11
368.9941819854
 21
367.8050052605
 31
0.0
  0
ARC
  5
172
330
1F
100
AcDbEntity
  8
0
  6
Continuous
 62
     7
100
AcDbCircle
 10
367.9941817823
 20
367.8050061652
 30
0.0
 40
1.000000000000057
100
AcDbArc
 50
270.0
 51
360.0
  0
LINE
  5
173
330
1F
100
AcDbEntity
  8
0
  6
Continuous
 62
     7
100
AcDbLine
 10
367.5997313209
 20
366.805003234
 30
0.0
 11
367.9941799589
 21
366.805003234
 31
0.0
  0
ARC
  5
174
330
1F
100
AcDbEntity
  8
0
  6
Continuous
 62
     7
100
AcDbCircle
 10
367.5997330577
 20
367.8050061652
 30
0.0
 40
1.0
100
AcDbArc
 50
211.9657187508
 51
270.0
  0
ARC
  5
175
330
1F
100
AcDbEntity
  8
0
  6
Continuous
 62
     7
100
AcDbCircle
 10
363.9941817823
 20
365.5550061652
 30
0.0
 40
3.25000000000002
100
AcDbArc
 50
31.9657187508
 51
148.0342812492
  0
ARC
  5
176
330
1F
100
AcDbEntity
  8
0
  6
Continuous
 62
     7
100
AcDbCircle
 10
360.3886305068
 20
389.8050061652
 30
0.0
 40
1.000000000000014
100
AcDbArc
 50
31.9657187508
 51
90.0
  0
ARC
  5
177
330
1F
100
AcDbEntity
  8
0
  6
Continuous
 62
     7
100
AcDbCircle
 10
360.3886305068
 20
367.8050061652
 30
0.0
 40
1.0
100
AcDbArc
 50
270.0
 51
328.0342812492
  0
LINE
  5
178
330
1F
100
AcDbEntity
  8
0
  6
Continuous
 62
     8
100
AcDbLine
 10
359.3941833921
 20
366.3050096713
 30
0.0
 11
359.3941833921
 21
366.5550064526
 31
0.0
  0
LINE
  5
179
330
1F
100
AcDbEntity
  8
0
  6
Continuous
 62
     8
100
AcDbLine
 10
359.3941833921
 20
391.0550076745
 30
0.0
 11
359.3941833921
 21
391.3050044559
 31
0.0
  0
LINE
  5
17A
330
1F
100
AcDbEntity
  8
0
  6
Continuous
 62
     8
100
AcDbLine
 10
351.6441825875
 20
338.805006095
 30
0.0
 11
351.6441825875
 21
336.3050084792
 31
0.0
  0
LINE
  5
17B
330
1F
100
AcDbEntity
  8
0
  6
Continuous
 62
     8
100
AcDbLine
 10
351.6441825875
 20
338.805006095
 30
0.0
 11
349.6441822596
 21
338.805006095
 31
0.0
  0
LINE
  5
17C
330
1F
100
AcDbEntity
  8
0
  6
Continuous
 62
     8
100
AcDbLine
 10
351.6441825875
 20
418.8050061695
 30
0.0
 11
351.6441825875
 21
338.805006095
 31
0.0
  0
LINE
  5
17D
330
1F
100
AcDbEntity
  8
0
  6
Continuous
 62
     8
100
AcDbLine
 10
349.6441822596
 20
418.8050061695
 30
0.0
 11
351.6441825875
 21
418.8050061695
 31
0.0
  0
LINE
  5
17E
330
1F
100
AcDbEntity
  8
0
  6
Continuous
 62
     8
100
AcDbLine
 10
351.6441825875
 20
338.805006095
 30
0.0
 11
358.6441818722
 21
338.805006095
 31
0.0
  0
LINE
  5
17F
330
1F
100
AcDbEntity
  8
0
  6
Continuous
 62
     8
100
AcDbLine
 10
351.6441825875
 20
418.8050061695
 30
0.0
 11
358.6441818722
 21
418.8050061695
 31
0.0
  0
LINE
  5
180
330
1F
100
AcDbEntity
  8
0
  6
Continuous
 62
     8
100
AcDbLine
 10
351.6441825875
 20
421.305005648
 30
0.0
 11
351.6441825875
 21
418.8050061695
 31
0.0
  0
LINE
  5
181
330
1F
100
AcDbEntity
  8
0
  6
Continuous
 62
     8
100
AcDbLine
 10
376.9441824504
 20
418.8050061695
 30
0.0
 11
369.9441831656
 21
418.8050061695
 31
0.0
  0
LINE
  5
182
330
1F
100
AcDbEntity
  8
0
  6
Continuous
 62
     8
100
AcDbLine
 10
376.9441824504
 20
338.805006095
 30
0.0
 11
376.9441824504
 21
418.8050061695
 31
0.0
  0
LINE
  5
183
330
1F
100
AcDbEntity
  8
0
  6
Continuous
 62
     8
100
AcDbLine
 10
376.9441824504
 20
338.805006095
 30
0.0
 11
369.9441831656
 21
338.805006095
 31
0.0
  0
LINE
  5
184
330
1F
100
AcDbEntity
  8
0
  6
Continuous
 62
     8
100
AcDbLine
 10
376.9441824504
 20
336.3050084792
 30
0.0
 11
376.9441824504
 21
338.805006095
 31
0.0
  0
LINE
  5
185
330
1F
100
AcDbEntity
  8
0
  6
Continuous
 62
     8
100
AcDbLine
 10
376.9441824504
 20
418.8050061695
 30
0.0
 11
376.9441824504
 21
421.305005648
 31
0.0
  0
LINE
  5
186
330
1F
100
AcDbEntity
  8
0
  6
Continuous
 62
     8
100
AcDbLine
 10
376.9441824504
 20
418.8050061695
 30
0.0
 11
378.9441809155
 21
418.8050061695
 31
0.0
  0
LINE
  5
187
330
1F
100
AcDbEntity
  8
0
  6
Continuous
 62
     8
100
AcDbLine
 10
378.9441809155
 20
338.805006095
 30
0.0
 11
376.9441824504
 21
338.805006095
 31
0.0
  0
LINE
  5
188
330
1F
100
AcDbEntity
  8
0
  6
Continuous
 62
     8
100
AcDbLine
 10
407.1014796597
 20
382.6050061963
 30
0.0
 11
384.2941820719
 21
382.6050061963
 31
0.0
  0
LINE
  5
189
330
1F
100
AcDbEntity
  8
0
  6
Continuous
 62
     8
100
AcDbLine
 10
344.2941811033
 20
382.6050061963
 30
0.0
 11
317.1014767237
 21
382.6050061963
 31
0.0
  0
LINE
  5
18A
330
1F
100
AcDbEntity
  8
0
  6
Continuous
 62
     8
100
AcDbLine
 10
317.1014767237
 20
375.0050079308
 30
0.0
 11
344.2941811033
 21
375.0050079308
 31
0.0
  0
LINE
  5
18B
330
1F
100
AcDbEntity
  8
0
  6
Continuous
 62
     8
100
AcDbLine
 10
384.2941820719
 20
375.0050079308
 30
0.0
 11
407.1014796597
 21
375.0050079308
 31
0.0
  0
LINE
  5
18C
330
1F
100
AcDbEntity
  8
0
  6
Continuous
 62
     8
100
AcDbLine
 10
369.2941833385
 20
339.3050071083
 30
0.0
 11
369.9441831656
 21
339.3050071083
 31
0.0
  0
LINE
  5
18D
330
1F
100
AcDbEntity
  8
0
  6
Continuous
 62
     8
100
AcDbLine
 10
369.2941833385
 20
344.3050097905
 30
0.0
 11
369.9441831656
 21
344.3050097905
 31
0.0
  0
LINE
  5
18E
330
1F
100
AcDbEntity
  8
0
  6
Continuous
 62
     8
100
AcDbLine
 10
369.2941833385
 20
413.3050061993
 30
0.0
 11
369.9441831656
 21
413.3050061993
 31
0.0
  0
LINE
  5
18F
330
1F
100
AcDbEntity
  8
0
  6
Continuous
 62
     8
100
AcDbLine
 10
369.2941833385
 20
418.3050070189
 30
0.0
 11
369.9441831656
 21
418.3050070189
 31
0.0
  0
LINE
  5
190
330
1F
100
AcDbEntity
  8
0
  6
Continuous
 62
     8
100
AcDbLine
 10
367.8941819914
 20
418.3050070189
 30
0.0
 11
369.2941833385
 21
418.3050070189
 31
0.0
  0
LINE
  5
191
330
1F
100
AcDbEntity
  8
0
  6
Continuous
 62
     8
100
AcDbLine
 10
367.8941819914
 20
413.3050061993
 30
0.0
 11
369.2941833385
 21
413.3050061993
 31
0.0
  0
LINE
  5
192
330
1F
100
AcDbEntity
  8
0
  6
Continuous
 62
     8
100
AcDbLine
 10
367.8941819914
 20
344.3050097905
 30
0.0
 11
369.2941833385
 21
344.3050097905
 31
0.0
  0
LINE
  5
193
330
1F
100
AcDbEntity
  8
0
  6
Continuous
 62
     8
100
AcDbLine
 10
367.8941819914
 20
339.3050071083
 30
0.0
 11
369.2941833385
 21
339.3050071083
 31
0.0
  0
LINE
  5
194
330
1F
100
AcDbEntity
  8
0
  6
Continuous
 62
     8
100
AcDbLine
 10
358.6441818722
 20
413.3050061993
 30
0.0
 11
359.2941816993
 21
413.3050061993
 31
0.0
  0
LINE
  5
195
330
1F
100
AcDbEntity
  8
0
  6
Continuous
 62
     8
100
AcDbLine
 10
358.6441818722
 20
418.3050070189
 30
0.0
 11
359.2941816993
 21
418.3050070189
 31
0.0
  0
LINE
  5
196
330
1F
100
AcDbEntity
  8
0
  6
Continuous
 62
     8
100
AcDbLine
 10
358.6441818722
 20
339.3050071083
 30
0.0
 11
359.2941816993
 21
339.3050071083
 31
0.0
  0
LINE
  5
197
330
1F
100
AcDbEntity
  8
0
  6
Continuous
 62
     8
100
AcDbLine
 10
358.6441818722
 20
344.3050097905
 30
0.0
 11
359.2941816993
 21
344.3050097905
 31
0.0
  0
LINE
  5
198
330
1F
100
AcDbEntity
  8
0
  6
Continuous
 62
     8
100
AcDbLine
 10
344.2941811033
 20
359.6050080143
 30
0.0
 11
349.6441822596
 21
359.6050080143
 31
0.0
  0
LINE
  5
199
330
1F
100
AcDbEntity
  8
0
  6
Continuous
 62
     8
100
AcDbLine
 10
378.9441809155
 20
359.6050080143
 30
0.0
 11
384.2941820719
 21
359.6050080143
 31
0.0
  0
LINE
  5
19A
330
1F
100
AcDbEntity
  8
0
  6
Continuous
 62
     7
100
AcDbLine
 10
636.986794331
 20
362.3050090156
 30
0.0
 11
636.8867926382
 21
362.3050090156
 31
0.0
  0
LINE
  5
19B
330
1F
100
AcDbEntity
  8
0
  6
Continuous
 62
     7
100
AcDbLine
 10
636.3827906632
 20
357.3050063334
 30
0.0
 11
636.5782752716
 21
357.3050063334
 31
0.0
  0
LINE
  5
19C
330
1F
100
AcDbEntity
  8
0
  6
Continuous
 62
     7
100
AcDbLine
 10
626.8867947244
 20
360.6300067387
 30
0.0
 11
626.7867930316
 21
360.5800058924
 31
0.0
  0
LINE
  5
19D
330
1F
100
AcDbEntity
  8
0
  6
Continuous
 62
     7
100
AcDbLine
 10
626.7944224262
 20
359.0261947594
 30
0.0
 11
626.9246175968
 21
358.9610915862
 31
0.0
  0
LINE
  5
19E
330
1F
100
AcDbEntity
  8
0
  6
Continuous
 62
     7
100
AcDbLine
 10
626.7867930316
 20
359.305002936
 30
0.0
 11
626.7867930316
 21
371.8804132424
 31
0.0
  0
ARC
  5
19F
330
1F
100
AcDbEntity
  8
0
  6
Continuous
 62
     7
100
AcDbCircle
 10
631.8867940814
 20
359.3050061652
 30
0.0
 40
5.100000000000023
100
AcDbArc
 50
180.0
 51
0.0
  0
LINE
  5
1A0
330
1F
100
AcDbEntity
  8
0
  6
Continuous
 62
     7
100
AcDbLine
 10
636.986794331
 20
371.8804132424
 30
0.0
 11
636.986794331
 21
359.305002936
 31
0.0
  0
LINE
  5
1A1
330
1F
100
AcDbEntity
  8
0
  6
Continuous
 62
     7
100
AcDbLine
 10
569.9867963874
 20
378.7050035082
 30
0.0
 11
569.9867963874
 21
378.9050068937
 31
0.0
  0
LINE
  5
1A2
330
1F
100
AcDbEntity
  8
0
  6
Continuous
 62
     7
100
AcDbLine
 10
577.9867976987
 20
374.8050045453
 30
0.0
 11
575.6867960178
 21
374.8050045453
 31
0.0
  0
LINE
  5
1A3
330
1F
100
AcDbEntity
  8
0
  6
Continuous
 62
     7
100
AcDbLine
 10
577.9867976987
 20
382.8050058566
 30
0.0
 11
577.9867976987
 21
374.8050045453
 31
0.0
  0
LINE
  5
1A4
330
1F
100
AcDbEntity
  8
0
  6
Continuous
 62
     7
100
AcDbLine
 10
575.6867960178
 20
382.8050058566
 30
0.0
 11
577.9867976987
 21
382.8050058566
 31
0.0
  0
LINE
  5
1A5
330
1F
100
AcDbEntity
  8
0
  6
Continuous
 62
     7
100
AcDbLine
 10
673.8867940464
 20
346.8050074063
 30
0.0
 11
674.9867940404
 21
346.8050074063
 31
0.0
  0
LINE
  5
1A6
330
1F
100
AcDbEntity
  8
0
  6
Continuous
 62
     7
100
AcDbLine
 10
673.8867940464
 20
410.8050067209
 30
0.0
 11
674.9867940404
 21
410.8050067209
 31
0.0
  0
LINE
  5
1A7
330
1F
100
AcDbEntity
  8
0
  6
Continuous
 62
     7
100
AcDbLine
 10
674.9867940404
 20
410.8050067209
 30
0.0
 11
674.9867940404
 21
346.8050074063
 31
0.0
  0
LINE
  5
1A8
330
1F
100
AcDbEntity
  8
0
  6
Continuous
 62
     7
100
AcDbLine
 10
508.8867977344
 20
338.805006095
 30
0.0
 11
508.8867977344
 21
418.8050061695
 31
0.0
  0
ARC
  5
1A9
330
1F
100
AcDbEntity
  8
0
  6
Continuous
 62
     7
100
AcDbCircle
 10
631.8867940814
 20
378.8050061652
 30
0.0
 40
8.600000000000028
100
AcDbArc
 50
306.7866642096
 51
233.2133357904
  0
LINE
  5
1AA
330
1F
100
AcDbEntity
  8
0
  6
Continuous
 62
     7
100
AcDbLine
 10
626.7367959105
 20
371.9175171338
 30
0.0
 11
626.7367959105
 21
359.305002936
 31
0.0
  0
ARC
  5
1AB
330
1F
100
AcDbEntity
  8
0
  6
Continuous
 62
     7
100
AcDbCircle
 10
631.8867940814
 20
359.3050061652
 30
0.0
 40
5.149999999999977
100
AcDbArc
 50
180.0
 51
0.0
  0
LINE
  5
1AC
330
1F
100
AcDbEntity
  8
0
  6
Continuous
 62
     7
100
AcDbLine
 10
637.0367951774
 20
359.305002936
 30
0.0
 11
637.0367951774
 21
371.9175171338
 31
0.0
  0
CIRCLE
  5
1AD
330
1F
100
AcDbEntity
  8
0
  6
Continuous
 62
     7
100
AcDbCircle
 10
571.8867940814
 20
378.8050061652
 30
0.0
 40
10.04999999999995
  0
LINE
  5
1AE
330
1F
100
AcDbEntity
  8
0
  6
Continuous
 62
     7
100
AcDbLine
 10
511.3867953503
 20
421.305005648
 30
0.0
 11
671.3867936366
 21
421.305005648
 31
0.0
  0
ARC
  5
1AF
330
1F
100
AcDbEntity
  8
0
  6
Continuous
 62
     7
100
AcDbCircle
 10
511.3867940814
 20
418.8050061652
 30
0.0
 40
2.5
100
AcDbArc
 50
90.0
 51
180.0
  0
LINE
  5
1B0
330
1F
100
AcDbEntity
  8
0
  6
Continuous
 62
     7
100
AcDbLine
 10
671.3867936366
 20
336.3050084792
 30
0.0
 11
511.3867953503
 21
336.3050084792
 31
0.0
  0
ARC
  5
1B1
330
1F
100
AcDbEntity
  8
0
  6
Continuous
 62
     7
100
AcDbCircle
 10
511.3867940814
 20
338.8050061652
 30
0.0
 40
2.5
100
AcDbArc
 50
180.0
 51
270.0
  0
ARC
  5
1B2
330
1F
100
AcDbEntity
  8
0
  6
Continuous
 62
     7
100
AcDbCircle
 10
671.3867940814
 20
338.8050061652
 30
0.0
 40
2.5
100
AcDbArc
 50
270.0
 51
0.0
  0
ARC
  5
1B3
330
1F
100
AcDbEntity
  8
0
  6
Continuous
 62
     7
100
AcDbCircle
 10
671.3867940814
 20
418.8050061652
 30
0.0
 40
2.5
100
AcDbArc
 50
0.0
 51
90.0
  0
LINE
  5
1B4
330
1F
100
AcDbEntity
  8
0
  6
Continuous
 62
     7
100
AcDbLine
 10
673.8867940464
 20
418.8050061695
 30
0.0
 11
673.8867940464
 21
338.805006095
 31
0.0
  0
ARC
  5
1B5
330
1F
100
AcDbEntity
  8
0
  6
Continuous
 62
     7
100
AcDbCircle
 10
575.6867940814
 20
382.6050061652
 30
0.0
 40
0.2000000000001592
100
AcDbArc
 50
0.0
 51
90.0
  0
ARC
  5
1B6
330
1F
100
AcDbEntity
  8
0
  6
Continuous
 62
     7
100
AcDbCircle
 10
574.8867940814
 20
380.1401038565
 30
0.0
 40
0.199999999999997
100
AcDbArc
 50
0.0
 51
115.1593019161
  0
LINE
  5
1B7
330
1F
100
AcDbEntity
  8
0
  6
Continuous
 62
     7
100
AcDbLine
 10
571.7867970549
 20
378.9050068937
 30
0.0
 11
574.8017639005
 21
380.3211312972
 31
0.0
  0
LINE
  5
1B8
330
1F
100
AcDbEntity
  8
0
  6
Continuous
 62
     7
100
AcDbLine
 10
567.8867906415
 20
378.9050068937
 30
0.0
 11
571.7867970549
 21
378.9050068937
 31
0.0
  0
LINE
  5
1B9
330
1F
100
AcDbEntity
  8
0
  6
Continuous
 62
     7
100
AcDbLine
 10
567.8867906415
 20
382.6050061963
 30
0.0
 11
567.8867906415
 21
378.9050068937
 31
0.0
  0
ARC
  5
1BA
330
1F
100
AcDbEntity
  8
0
  6
Continuous
 62
     7
100
AcDbCircle
 10
568.0867940814
 20
382.6050061652
 30
0.0
 40
0.2000000000000455
100
AcDbArc
 50
90.0
 51
180.0
  0
LINE
  5
1BB
330
1F
100
AcDbEntity
  8
0
  6
Continuous
 62
     7
100
AcDbLine
 10
575.8867919528
 20
378.9050068937
 30
0.0
 11
575.8867919528
 21
382.6050061963
 31
0.0
  0
LINE
  5
1BC
330
1F
100
AcDbEntity
  8
0
  6
Continuous
 62
     7
100
AcDbLine
 10
575.0867933118
 20
378.9050068937
 30
0.0
 11
575.8867919528
 21
378.9050068937
 31
0.0
  0
LINE
  5
1BD
330
1F
100
AcDbEntity
  8
0
  6
Continuous
 62
     7
100
AcDbLine
 10
575.0867933118
 20
380.1401045404
 30
0.0
 11
575.0867933118
 21
378.9050068937
 31
0.0
  0
LINE
  5
1BE
330
1F
100
AcDbEntity
  8
0
  6
Continuous
 62
     7
100
AcDbLine
 10
575.6867960178
 20
382.8050058566
 30
0.0
 11
568.086794027
 21
382.8050058566
 31
0.0
  0
ARC
  5
1BF
330
1F
100
AcDbEntity
  8
0
  6
Continuous
 62
     7
100
AcDbCircle
 10
574.8867940814
 20
377.469908474
 30
0.0
 40
0.2000000000000484
100
AcDbArc
 50
244.8406980839
 51
0.0
  0
LINE
  5
1C0
330
1F
100
AcDbEntity
  8
0
  6
Continuous
 62
     7
100
AcDbLine
 10
575.0867933118
 20
378.7050035082
 30
0.0
 11
575.0867933118
 21
377.4699058615
 31
0.0
  0
LINE
  5
1C1
330
1F
100
AcDbEntity
  8
0
  6
Continuous
 62
     7
100
AcDbLine
 10
575.8867919528
 20
378.7050035082
 30
0.0
 11
575.0867933118
 21
378.7050035082
 31
0.0
  0
LINE
  5
1C2
330
1F
100
AcDbEntity
  8
0
  6
Continuous
 62
     7
100
AcDbLine
 10
575.8867919528
 20
375.0050079308
 30
0.0
 11
575.8867919528
 21
378.7050035082
 31
0.0
  0
ARC
  5
1C3
330
1F
100
AcDbEntity
  8
0
  6
Continuous
 62
     7
100
AcDbCircle
 10
575.6867940814
 20
375.0050061652
 30
0.0
 40
0.2000000000001592
100
AcDbArc
 50
270.0
 51
0.0
  0
LINE
  5
1C4
330
1F
100
AcDbEntity
  8
0
  6
Continuous
 62
     7
100
AcDbLine
 10
568.086794027
 20
374.8050045453
 30
0.0
 11
575.6867960178
 21
374.8050045453
 31
0.0
  0
ARC
  5
1C5
330
1F
100
AcDbEntity
  8
0
  6
Continuous
 62
     7
100
AcDbCircle
 10
568.0867940814
 20
375.0050061652
 30
0.0
 40
0.1999999999999886
100
AcDbArc
 50
180.0
 51
270.0
  0
LINE
  5
1C6
330
1F
100
AcDbEntity
  8
0
  6
Continuous
 62
     7
100
AcDbLine
 10
567.8867906415
 20
378.7050035082
 30
0.0
 11
567.8867906415
 21
375.0050079308
 31
0.0
  0
LINE
  5
1C7
330
1F
100
AcDbEntity
  8
0
  6
Continuous
 62
     7
100
AcDbLine
 10
571.7867970549
 20
378.7050035082
 30
0.0
 11
567.8867906415
 21
378.7050035082
 31
0.0
  0
LINE
  5
1C8
330
1F
100
AcDbEntity
  8
0
  6
Continuous
 62
     7
100
AcDbLine
 10
574.8017639005
 20
377.2888791047
 30
0.0
 11
571.7867970549
 21
378.7050035082
 31
0.0
  0
CIRCLE
  5
1C9
330
1F
100
AcDbEntity
  8
0
  6
Continuous
 62
     7
100
AcDbCircle
 10
571.8867940814
 20
378.8050061652
 30
0.0
 40
10.0
  0
ARC
  5
1CA
330
1F
100
AcDbEntity
  8
0
  6
Continuous
 62
     7
100
AcDbCircle
 10
631.8867940814
 20
378.8050061652
 30
0.0
 40
6.500000000000052
100
AcDbArc
 50
281.9871497638002
 51
258.0128502362
  0
LINE
  5
1CB
330
1F
100
AcDbEntity
  8
0
  6
Continuous
 62
     7
100
AcDbLine
 10
632.8867957079
 20
376.8050085984
 30
0.0
 11
632.8867957079
 21
374.8050045453
 31
0.0
  0
LINE
  5
1CC
330
1F
100
AcDbEntity
  8
0
  6
Continuous
 62
     7
100
AcDbLine
 10
631.8867936813
 20
378.8050052009
 30
0.0
 11
632.8867957079
 21
376.8050085984
 31
0.0
  0
LINE
  5
1CD
330
1F
100
AcDbEntity
  8
0
  6
Continuous
 62
     7
100
AcDbLine
 10
632.8867957079
 20
381.8050075553
 30
0.0
 11
631.8867936813
 21
378.8050052009
 31
0.0
  0
LINE
  5
1CE
330
1F
100
AcDbEntity
  8
0
  6
Continuous
 62
     7
100
AcDbLine
 10
630.5367931806
 20
377.8050031744
 30
0.0
 11
630.5367931806
 21
378.8050052009
 31
0.0
  0
LINE
  5
1CF
330
1F
100
AcDbEntity
  8
0
  6
Continuous
 62
     7
100
AcDbLine
 10
631.8867936813
 20
381.8050075553
 30
0.0
 11
632.8867957079
 21
381.8050075553
 31
0.0
  0
LINE
  5
1D0
330
1F
100
AcDbEntity
  8
0
  6
Continuous
 62
     7
100
AcDbLine
 10
630.5367931806
 20
378.8050052009
 30
0.0
 11
631.8867936813
 21
381.8050075553
 31
0.0
  0
LINE
  5
1D1
330
1F
100
AcDbEntity
  8
0
  6
Continuous
 62
     7
100
AcDbLine
 10
631.8867936813
 20
375.8050065718
 30
0.0
 11
630.5367931806
 21
377.8050031744
 31
0.0
  0
LINE
  5
1D2
330
1F
100
AcDbEntity
  8
0
  6
Continuous
 62
     7
100
AcDbLine
 10
630.5367931806
 20
372.4467467747
 30
0.0
 11
630.5367931806
 21
373.8050025187
 31
0.0
  0
LINE
  5
1D3
330
1F
100
AcDbEntity
  8
0
  6
Continuous
 62
     7
100
AcDbLine
 10
631.8867936813
 20
372.8050079428
 30
0.0
 11
633.236794182
 21
372.8050079428
 31
0.0
  0
LINE
  5
1D4
330
1F
100
AcDbEntity
  8
0
  6
Continuous
 62
     7
100
AcDbLine
 10
632.8867957079
 20
374.8050045453
 30
0.0
 11
631.8867936813
 21
373.8050025187
 31
0.0
  0
LINE
  5
1D5
330
1F
100
AcDbEntity
  8
0
  6
Continuous
 62
     7
100
AcDbLine
 10
630.5367931806
 20
373.8050025187
 30
0.0
 11
631.8867936813
 21
375.8050065718
 31
0.0
  0
LINE
  5
1D6
330
1F
100
AcDbEntity
  8
0
  6
Continuous
 62
     7
100
AcDbLine
 10
631.8867936813
 20
373.8050025187
 30
0.0
 11
631.8867936813
 21
372.8050079428
 31
0.0
  0
LINE
  5
1D7
330
1F
100
AcDbEntity
  8
0
  6
Continuous
 62
     7
100
AcDbLine
 10
633.236794182
 20
372.8050079428
 30
0.0
 11
633.236794182
 21
372.4467467747
 31
0.0
  0
ARC
  5
1D8
330
1F
100
AcDbEntity
  8
0
  6
Continuous
 62
     7
100
AcDbCircle
 10
631.8867940814
 20
378.8050061652
 30
0.0
 40
8.50000000000004
100
AcDbArc
 50
306.0318790725
 51
233.9681209275
  0
CIRCLE
  5
1D9
330
1F
100
AcDbEntity
  8
0
  6
Continuous
 62
     7
100
AcDbCircle
 10
631.8867940814
 20
378.8050061652
 30
0.0
 40
7.25
  0
LINE
  5
1DA
330
1F
100
AcDbEntity
  8
0
  6
Continuous
 62
     7
100
AcDbLine
 10
633.3174690687
 20
354.4550027929
 30
0.0
 11
630.4561220192
 21
354.4550027929
 31
0.0
  0
LINE
  5
1DB
330
1F
100
AcDbEntity
  8
0
  6
Continuous
 62
     7
100
AcDbLine
 10
636.8867926382
 20
359.6050080143
 30
0.0
 11
636.8867926382
 21
371.9311442457
 31
0.0
  0
LINE
  5
1DC
330
1F
100
AcDbEntity
  8
0
  6
Continuous
 62
     7
100
AcDbLine
 10
626.8867947244
 20
371.9311442457
 30
0.0
 11
626.8867947244
 21
359.6050080143
 31
0.0
  0
ARC
  5
1DD
330
1F
100
AcDbEntity
  8
0
  6
Continuous
 62
     7
100
AcDbCircle
 10
632.3867940814
 20
359.6050061652
 30
0.0
 40
5.500000000000114
100
AcDbArc
 50
180.0
 51
249.4495784491
  0
ARC
  5
1DE
330
1F
100
AcDbEntity
  8
0
  6
Continuous
 62
     7
100
AcDbCircle
 10
631.3867940814
 20
359.6050061652
 30
0.0
 40
5.499999999999966
100
AcDbArc
 50
290.5504215509
 51
0.0
  0
ARC
  5
1DF
330
1F
100
AcDbEntity
  8
0
  6
Continuous
 62
     7
100
AcDbCircle
 10
631.8867940814
 20
378.8050061652
 30
0.0
 40
6.500000000000052
100
AcDbArc
 50
258.0128502362
 51
281.9871497638002
  0
LINE
  5
1E0
330
1F
100
AcDbEntity
  8
0
  6
Continuous
 62
     7
100
AcDbLine
 10
632.6927639627
 20
374.6109765254
 30
0.0
 11
631.8867936813
 21
375.8050065718
 31
0.0
  0
LINE
  5
1E1
330
1F
100
AcDbEntity
  8
0
  6
Continuous
 62
     7
100
AcDbLine
 10
631.8867936813
 20
375.8050065718
 30
0.0
 11
632.7484980308
 21
377.0816039525
 31
0.0
  0
LINE
  5
1E2
330
1F
100
AcDbEntity
  8
0
  6
Continuous
 62
     7
100
AcDbLine
 10
632.4612632477
 20
380.5284139
 30
0.0
 11
631.8867936813
 21
381.8050075553
 31
0.0
  0
LINE
  5
1E3
330
1F
100
AcDbEntity
  8
0
  6
Continuous
 62
     7
100
AcDbLine
 10
631.3123278403
 20
380.5284139
 30
0.0
 11
631.8867936813
 21
378.8050052009
 31
0.0
  0
LINE
  5
1E4
330
1F
100
AcDbEntity
  8
0
  6
Continuous
 62
     7
100
AcDbLine
 10
631.8867936813
 20
378.8050052009
 30
0.0
 11
631.0250930571
 21
377.0816039525
 31
0.0
  0
LINE
  5
1E5
330
1F
100
AcDbEntity
  8
0
  6
Continuous
 62
     7
100
AcDbLine
 10
631.8867936813
 20
372.8050079428
 30
0.0
 11
630.5367931806
 21
372.8050079428
 31
0.0
  0
LINE
  5
1E6
330
1F
100
AcDbEntity
  8
0
  6
Continuous
 62
     7
100
AcDbLine
 10
631.0808234
 20
374.6109765254
 30
0.0
 11
631.8867936813
 21
373.8050025187
 31
0.0
  0
ARC
  5
1E7
330
1F
100
AcDbEntity
  8
0
  6
Continuous
 62
     7
100
AcDbCircle
 10
631.8867940814
 20
378.8050061652
 30
0.0
 40
7.000000000000019
100
AcDbArc
 50
281.1195709535
 51
258.8804290465
  0
LINE
  5
1E8
330
1F
100
AcDbEntity
  8
0
  6
Continuous
 62
     7
100
AcDbLine
 10
630.5367931806
 20
371.9364192568
 30
0.0
 11
630.5367931806
 21
373.8050025187
 31
0.0
  0
LINE
  5
1E9
330
1F
100
AcDbEntity
  8
0
  6
Continuous
 62
     7
100
AcDbLine
 10
633.236794182
 20
372.8050079428
 30
0.0
 11
633.236794182
 21
371.9364192568
 31
0.0
  0
LINE
  5
1EA
330
1F
100
AcDbEntity
  8
0
  6
Continuous
 62
     7
100
AcDbLine
 10
575.8867919528
 20
382.8050058566
 30
0.0
 11
575.8867919528
 21
382.6050061963
 31
0.0
  0
LINE
  5
1EB
330
1F
100
AcDbEntity
  8
0
  6
Continuous
 62
     7
100
AcDbLine
 10
575.8867919528
 20
378.9050068937
 30
0.0
 11
575.8867919528
 21
378.7050035082
 31
0.0
  0
LINE
  5
1EC
330
1F
100
AcDbEntity
  8
0
  6
Continuous
 62
     7
100
AcDbLine
 10
575.8867919528
 20
375.0050079308
 30
0.0
 11
575.8867919528
 21
374.8050045453
 31
0.0
  0
LINE
  5
1ED
330
1F
100
AcDbEntity
  8
0
  6
Continuous
 62
     7
100
AcDbLine
 10
682.9867940712
 20
389.8050051413
 30
0.0
 11
682.9867940712
 21
367.8050052605
 31
0.0
  0
LINE
  5
1EE
330
1F
100
AcDbEntity
  8
0
  6
Continuous
 62
     7
100
AcDbLine
 10
674.9867940404
 20
390.8050071679
 30
0.0
 11
682.9867940712
 21
390.8050071679
 31
0.0
  0
LINE
  5
1EF
330
1F
100
AcDbEntity
  8
0
  6
Continuous
 62
     7
100
AcDbLine
 10
682.9867940712
 20
390.8050071679
 30
0.0
 11
682.9867940712
 21
389.8050051413
 31
0.0
  0
LINE
  5
1F0
330
1F
100
AcDbEntity
  8
0
  6
Continuous
 62
     7
100
AcDbLine
 10
682.9867940712
 20
366.805003234
 30
0.0
 11
674.9867940404
 21
366.805003234
 31
0.0
  0
LINE
  5
1F1
330
1F
100
AcDbEntity
  8
0
  6
Continuous
 62
     7
100
AcDbLine
 10
682.9867940712
 20
367.8050052605
 30
0.0
 11
682.9867940712
 21
366.805003234
 31
0.0
  0
LINE
  5
1F2
330
1F
100
AcDbEntity
  8
0
  6
Continuous
 62
     8
100
AcDbLine
 10
510.8867868864
 20
418.8050061695
 30
0.0
 11
508.8867977344
 21
418.8050061695
 31
0.0
  0
LINE
  5
1F3
330
1F
100
AcDbEntity
  8
0
  6
Continuous
 62
     8
100
AcDbLine
 10
510.8867868864
 20
418.8050061695
 30
0.0
 11
510.8867868864
 21
338.805006095
 31
0.0
  0
LINE
  5
1F4
330
1F
100
AcDbEntity
  8
0
  6
Continuous
 62
     8
100
AcDbLine
 10
508.8867977344
 20
338.805006095
 30
0.0
 11
510.8867868864
 21
338.805006095
 31
0.0
  0
LINE
  5
1F5
330
1F
100
AcDbEntity
  8
0
  6
Continuous
 62
     8
100
AcDbLine
 10
671.3867936366
 20
419.3050053201
 30
0.0
 11
511.3867953503
 21
419.3050053201
 31
0.0
  0
ARC
  5
1F6
330
1F
100
AcDbEntity
  8
0
  6
Continuous
 62
     8
100
AcDbCircle
 10
671.3867940814
 20
418.8050061652
 30
0.0
 40
0.5
100
AcDbArc
 50
0.0
 51
90.0
  0
LINE
  5
1F7
330
1F
100
AcDbEntity
  8
0
  6
Continuous
 62
     8
100
AcDbLine
 10
671.8867937186
 20
338.805006095
 30
0.0
 11
671.8867937186
 21
418.8050061695
 31
0.0
  0
ARC
  5
1F8
330
1F
100
AcDbEntity
  8
0
  6
Continuous
 62
     8
100
AcDbCircle
 10
671.3867940814
 20
338.8050061652
 30
0.0
 40
0.5
100
AcDbArc
 50
270.0
 51
0.0
  0
LINE
  5
1F9
330
1F
100
AcDbEntity
  8
0
  6
Continuous
 62
     8
100
AcDbLine
 10
511.3867953503
 20
338.3050050817
 30
0.0
 11
671.3867936366
 21
338.3050050817
 31
0.0
  0
ARC
  5
1FA
330
1F
100
AcDbEntity
  8
0
  6
Continuous
 62
     8
100
AcDbCircle
 10
511.3867940814
 20
338.8050061652
 30
0.0
 40
0.5
100
AcDbArc
 50
180.0
 51
270.0
  0
ARC
  5
1FB
330
1F
100
AcDbEntity
  8
0
  6
Continuous
 62
     8
100
AcDbCircle
 10
511.3867940814
 20
418.8050061652
 30
0.0
 40
0.5
100
AcDbArc
 50
90.0
 51
180.0
  0
LINE
  5
1FC
330
1F
100
AcDbEntity
  8
0
  6
Continuous
 62
     8
100
AcDbLine
 10
511.3867953503
 20
419.3050053201
 30
0.0
 11
511.3867953503
 21
421.305005648
 31
0.0
  0
LINE
  5
1FD
330
1F
100
AcDbEntity
  8
0
  6
Continuous
 62
     8
100
AcDbLine
 10
671.3867936366
 20
419.3050053201
 30
0.0
 11
671.3867936366
 21
421.305005648
 31
0.0
  0
LINE
  5
1FE
330
1F
100
AcDbEntity
  8
0
  6
Continuous
 62
     8
100
AcDbLine
 10
511.3867953503
 20
336.3050084792
 30
0.0
 11
511.3867953503
 21
338.3050050817
 31
0.0
  0
LINE
  5
1FF
330
1F
100
AcDbEntity
  8
0
  6
Continuous
 62
     8
100
AcDbLine
 10
671.3867936366
 20
336.3050084792
 30
0.0
 11
671.3867936366
 21
338.3050050817
 31
0.0
  0
LINE
  5
200
330
1F
100
AcDbEntity
  8
0
  6
Continuous
 62
     8
100
AcDbLine
 10
673.8867940464
 20
338.805006095
 30
0.0
 11
671.8867937186
 21
338.805006095
 31
0.0
  0
LINE
  5
201
330
1F
100
AcDbEntity
  8
0
  6
Continuous
 62
     8
100
AcDbLine
 10
671.8867937186
 20
418.8050061695
 30
0.0
 11
673.8867940464
 21
418.8050061695
 31
0.0
  0
LINE
  5
202
330
1F
100
AcDbEntity
  8
0
  6
Continuous
 62
     8
100
AcDbLine
 10
674.9867940404
 20
367.8050052605
 30
0.0
 11
682.9867940712
 21
367.8050052605
 31
0.0
  0
LINE
  5
203
330
1F
100
AcDbEntity
  8
0
  6
Continuous
 62
     8
100
AcDbLine
 10
682.9867940712
 20
389.8050051413
 30
0.0
 11
674.9867940404
 21
389.8050051413
 31
0.0
  0
LINE
  5
204
330
1F
100
AcDbEntity
  8
0
  6
Continuous
 62
     7
100
AcDbLine
 10
560.386797794
 20
230.5493855453
 30
0.0
 11
560.386797794
 21
229.0493843681
 31
0.0
  0
LINE
  5
205
330
1F
100
AcDbEntity
  8
0
  6
Continuous
 62
     7
100
AcDbLine
 10
583.3867922508
 20
229.0493843681
 30
0.0
 11
583.3867922508
 21
230.5493855453
 31
0.0
  0
LINE
  5
206
330
1F
100
AcDbEntity
  8
0
  6
Continuous
 62
     7
100
AcDbLine
 10
560.386797794
 20
211.1493849731
 30
0.0
 11
560.386797794
 21
209.6493856585
 31
0.0
  0
LINE
  5
207
330
1F
100
AcDbEntity
  8
0
  6
Continuous
 62
     7
100
AcDbLine
 10
561.9367942297
 20
214.6493846154
 30
0.0
 11
561.9367942297
 21
211.1493849731
 31
0.0
  0
LINE
  5
208
330
1F
100
AcDbEntity
  8
0
  6
Continuous
 62
     7
100
AcDbLine
 10
669.9867941522
 20
216.3993844366
 30
0.0
 11
669.8867943221
 21
216.3993844366
 31
0.0
  0
LINE
  5
209
330
1F
100
AcDbEntity
  8
0
  6
Continuous
 62
     7
100
AcDbLine
 10
669.8867943221
 20
212.399383781
 30
0.0
 11
669.9867941522
 21
212.399383781
 31
0.0
  0
LINE
  5
20A
330
1F
100
AcDbEntity
  8
0
  6
Continuous
 62
     7
100
AcDbLine
 10
556.8867907011
 20
212.999386487
 30
0.0
 11
556.8867907011
 21
215.7993854559
 31
0.0
  0
LINE
  5
20B
330
1F
100
AcDbEntity
  8
0
  6
Continuous
 62
     7
100
AcDbLine
 10
558.7867930614
 20
209.3993851519
 30
0.0
 11
558.7867930614
 21
212.999386487
 31
0.0
  0
LINE
  5
20C
330
1F
100
AcDbEntity
  8
0
  6
Continuous
 62
     7
100
AcDbLine
 10
623.386795082
 20
234.3993855244
 30
0.0
 11
623.386795082
 21
229.0493843681
 31
0.0
  0
LINE
  5
20D
330
1F
100
AcDbEntity
  8
0
  6
Continuous
 62
     7
100
AcDbLine
 10
640.3867922806
 20
229.0493843681
 30
0.0
 11
640.3867922806
 21
234.3993855244
 31
0.0
  0
LINE
  5
20E
330
1F
100
AcDbEntity
  8
0
  6
Continuous
 62
     7
100
AcDbLine
 10
623.386795082
 20
199.7493857122
 30
0.0
 11
623.386795082
 21
194.3993845558
 31
0.0
  0
LINE
  5
20F
330
1F
100
AcDbEntity
  8
0
  6
Continuous
 62
     7
100
AcDbLine
 10
640.3867922806
 20
194.3993845558
 30
0.0
 11
640.3867922806
 21
199.7493857122
 31
0.0
  0
LINE
  5
210
330
1F
100
AcDbEntity
  8
0
  6
Continuous
 62
     7
100
AcDbLine
 10
558.7867930614
 20
215.7993854559
 30
0.0
 11
558.7867930614
 21
217.9993854439
 31
0.0
  0
LINE
  5
211
330
1F
100
AcDbEntity
  8
0
  6
Continuous
 62
     7
100
AcDbLine
 10
669.8867943221
 20
217.9993854439
 30
0.0
 11
669.8867943221
 21
209.9894338822
 31
0.0
  0
LINE
  5
212
330
1F
100
AcDbEntity
  8
0
  6
Continuous
 62
     7
100
AcDbLine
 10
669.8867943221
 20
209.9894338822
 30
0.0
 11
669.4867940702
 21
209.9894338822
 31
0.0
  0
ARC
  5
213
330
1F
100
AcDbEntity
  8
0
  6
Continuous
 62
     7
100
AcDbCircle
 10
669.4867940814
 20
209.4894342348
 30
0.0
 40
0.5000000000000102
100
AcDbArc
 50
90.0
 51
178.8596241058
  0
LINE
  5
214
330
1F
100
AcDbEntity
  8
0
  6
Continuous
 62
     7
100
AcDbLine
 10
562.4867960894
 20
217.9993854439
 30
0.0
 11
562.4867960894
 21
209.4993868446
 31
0.0
  0
SPLINE
  5
215
330
1F
100
AcDbEntity
  8
0
  6
Continuous
 62
     7
100
AcDbSpline
210
0.0
220
0.0
230
1.0
 70
     8
 71
     3
 72
     9
 73
     5
 74
     0
 42
0.000000001
 43
0.00000001
 40
0.0
 40
0.0
 40
0.0
 40
0.0
 40
0.3399514605051263
 40
1.0
 40
1.0
 40
1.0
 40
1.0
 10
562.4629691326053
 20
209.3993851518721
 30
0.0
 10
562.4681202425103
 20
209.4098603078597
 30
0.0
 10
562.4832727289778
 20
209.4406739892367
 30
0.0
 10
562.485395173167
 20
209.4760421450529
 30
0.0
 10
562.4867960893542
 20
209.499386844644
 30
0.0
  0
LINE
  5
216
330
1F
100
AcDbEntity
  8
0
  6
Continuous
 62
     7
100
AcDbLine
 10
562.4809771859
 20
209.3993851519
 30
0.0
 11
562.4867960894
 21
209.4993868446
 31
0.0
  0
LINE
  5
217
330
1F
100
AcDbEntity
  8
0
  6
Continuous
 62
     7
100
AcDbLine
 10
668.9868927085
 20
209.4993868446
 30
0.0
 11
668.9866766416
 21
209.3993851519
 31
0.0
  0
LINE
  5
218
330
1F
100
AcDbEntity
  8
0
  6
Continuous
 62
     7
100
AcDbLine
 10
671.98679448
 20
209.9894338822
 30
0.0
 11
671.98679448
 21
220.0493866181
 31
0.0
  0
LINE
  5
219
330
1F
100
AcDbEntity
  8
0
  6
Continuous
 62
     7
100
AcDbLine
 10
671.98679448
 20
209.9894338822
 30
0.0
 11
669.9867941522
 21
209.9894338822
 31
0.0
  0
LINE
  5
21A
330
1F
100
AcDbEntity
  8
0
  6
Continuous
 62
     7
100
AcDbLine
 10
669.9867941522
 20
209.9894338822
 30
0.0
 11
669.9867941522
 21
220.0493866181
 31
0.0
  0
LINE
  5
21B
330
1F
100
AcDbEntity
  8
0
  6
Continuous
 62
     7
100
AcDbLine
 10
669.9867941522
 20
209.4993868446
 30
0.0
 11
671.98679448
 21
209.4993868446
 31
0.0
  0
LINE
  5
21C
330
1F
100
AcDbEntity
  8
0
  6
Continuous
 62
     7
100
AcDbLine
 10
669.9867941522
 20
209.4993868446
 30
0.0
 11
669.9867941522
 21
209.9894338822
 31
0.0
  0
SPLINE
  5
21D
330
1F
100
AcDbEntity
  8
0
  6
Continuous
 62
     7
100
AcDbSpline
210
0.0
220
0.0
230
1.0
 70
     8
 71
     3
 72
    10
 73
     6
 74
     0
 42
0.000000001
 43
0.00000001
 40
0.0
 40
0.0
 40
0.0
 40
0.0
 40
0.091226535936241
 40
0.4084514996616915
 40
1.0
 40
1.0
 40
1.0
 40
1.0
 10
669.8867943220765
 20
209.2029617703051
 30
0.0
 10
669.8930282853647
 20
209.2103458488976
 30
0.0
 10
669.9209398094375
 20
209.2434068211657
 30
0.0
 10
669.9684315882041
 20
209.3405398631124
 30
0.0
 10
669.979554141423
 20
209.4367564920012
 30
0.0
 10
669.9867941522033
 20
209.499386844644
 30
0.0
  0
LINE
  5
21E
330
1F
100
AcDbEntity
  8
0
  6
Continuous
 62
     7
100
AcDbLine
 10
671.8433391386
 20
208.7493853247
 30
0.0
 11
671.98679448
 21
209.4993868446
 31
0.0
  0
LINE
  5
21F
330
1F
100
AcDbEntity
  8
0
  6
Continuous
 62
     7
100
AcDbLine
 10
551.2202069246
 20
215.7993854559
 30
0.0
 11
551.2202069246
 21
212.999386487
 31
0.0
  0
LINE
  5
220
330
1F
100
AcDbEntity
  8
0
  6
Continuous
 62
     7
100
AcDbLine
 10
543.2202056133
 20
217.9993854439
 30
0.0
 11
543.2202056133
 21
209.3993851519
 31
0.0
  0
LINE
  5
221
330
1F
100
AcDbEntity
  8
0
  6
Continuous
 62
     7
100
AcDbLine
 10
673.8867940464
 20
205.3993844962
 30
0.0
 11
674.9867940404
 21
205.3993844962
 31
0.0
  0
LINE
  5
222
330
1F
100
AcDbEntity
  8
0
  6
Continuous
 62
     7
100
AcDbLine
 10
673.8867940464
 20
223.3993837214
 30
0.0
 11
674.9867940404
 21
223.3993837214
 31
0.0
  0
LINE
  5
223
330
1F
100
AcDbEntity
  8
0
  6
Continuous
 62
     7
100
AcDbLine
 10
671.98679448
 20
209.9894338822
 30
0.0
 11
671.98679448
 21
208.7493853247
 31
0.0
  0
LINE
  5
224
330
1F
100
AcDbEntity
  8
0
  6
Continuous
 62
     7
100
AcDbLine
 10
674.9867940404
 20
223.3993837214
 30
0.0
 11
674.9867940404
 21
205.3993844962
 31
0.0
  0
LINE
  5
225
330
1F
100
AcDbEntity
  8
0
  6
Continuous
 62
     7
100
AcDbLine
 10
511.3867953503
 20
208.7493853247
 30
0.0
 11
671.3867936366
 21
208.7493853247
 31
0.0
  0
CIRCLE
  5
226
330
1F
100
AcDbEntity
  8
0
  6
Continuous
 62
     7
100
AcDbCircle
 10
632.3867940814
 20
204.2493852348
 30
0.0
 40
1.5
  0
LINE
  5
227
330
1F
100
AcDbEntity
  8
0
  6
Continuous
 62
     7
100
AcDbLine
 10
673.8867940464
 20
201.74938604
 30
0.0
 11
673.8867940464
 21
208.7493853247
 31
0.0
  0
LINE
  5
228
330
1F
100
AcDbEntity
  8
0
  6
Continuous
 62
     7
100
AcDbLine
 10
671.3867936366
 20
208.7493853247
 30
0.0
 11
673.8867940464
 21
208.7493853247
 31
0.0
  0
LINE
  5
229
330
1F
100
AcDbEntity
  8
0
  6
Continuous
 62
     7
100
AcDbLine
 10
671.8867937186
 20
199.7493857122
 30
0.0
 11
671.3867936366
 21
199.7493857122
 31
0.0
  0
ARC
  5
22A
330
1F
100
AcDbEntity
  8
0
  6
Continuous
 62
     7
100
AcDbCircle
 10
671.8867940814
 20
201.7493852348
 30
0.0
 40
2.0
100
AcDbArc
 50
270.0
 51
0.0
  0
LINE
  5
22B
330
1F
100
AcDbEntity
  8
0
  6
Continuous
 62
     7
100
AcDbLine
 10
671.3867936366
 20
199.7493857122
 30
0.0
 11
511.3867953503
 21
199.7493857122
 31
0.0
  0
LINE
  5
22C
330
1F
100
AcDbEntity
  8
0
  6
Continuous
 62
     7
100
AcDbLine
 10
508.8867977344
 20
201.74938604
 30
0.0
 11
508.8867977344
 21
208.7493853247
 31
0.0
  0
LINE
  5
22D
330
1F
100
AcDbEntity
  8
0
  6
Continuous
 62
     7
100
AcDbLine
 10
508.8867977344
 20
208.7493853247
 30
0.0
 11
511.3867953503
 21
208.7493853247
 31
0.0
  0
LINE
  5
22E
330
1F
100
AcDbEntity
  8
0
  6
Continuous
 62
     7
100
AcDbLine
 10
511.3867953503
 20
199.7493857122
 30
0.0
 11
510.8867868864
 21
199.7493857122
 31
0.0
  0
ARC
  5
22F
330
1F
100
AcDbEntity
  8
0
  6
Continuous
 62
     7
100
AcDbCircle
 10
510.8867940814
 20
201.7493852348
 30
0.0
 40
2.0
100
AcDbArc
 50
180.0
 51
270.0
  0
LINE
  5
230
330
1F
100
AcDbEntity
  8
0
  6
Continuous
 62
     7
100
AcDbLine
 10
671.3867936366
 20
229.0493843681
 30
0.0
 11
671.8867937186
 21
229.0493843681
 31
0.0
  0
ARC
  5
231
330
1F
100
AcDbEntity
  8
0
  6
Continuous
 62
     7
100
AcDbCircle
 10
671.8867940814
 20
227.0493852348
 30
0.0
 40
2.0
100
AcDbArc
 50
0.0
 51
90.0
  0
ARC
  5
232
330
1F
100
AcDbEntity
  8
0
  6
Continuous
 62
     7
100
AcDbCircle
 10
510.8867940814
 20
227.0493852348
 30
0.0
 40
2.0
100
AcDbArc
 50
90.0
 51
180.0
  0
LINE
  5
233
330
1F
100
AcDbEntity
  8
0
  6
Continuous
 62
     7
100
AcDbLine
 10
510.8867868864
 20
229.0493843681
 30
0.0
 11
511.3867953503
 21
229.0493843681
 31
0.0
  0
LINE
  5
234
330
1F
100
AcDbEntity
  8
0
  6
Continuous
 62
     7
100
AcDbLine
 10
511.3867953503
 20
229.0493843681
 30
0.0
 11
671.3867936366
 21
229.0493843681
 31
0.0
  0
LINE
  5
235
330
1F
100
AcDbEntity
  8
0
  6
Continuous
 62
     7
100
AcDbLine
 10
511.3867953503
 20
220.0493866181
 30
0.0
 11
508.8867977344
 21
220.0493866181
 31
0.0
  0
LINE
  5
236
330
1F
100
AcDbEntity
  8
0
  6
Continuous
 62
     7
100
AcDbLine
 10
508.8867977344
 20
227.0493859029
 30
0.0
 11
508.8867977344
 21
220.0493866181
 31
0.0
  0
LINE
  5
237
330
1F
100
AcDbEntity
  8
0
  6
Continuous
 62
     7
100
AcDbLine
 10
673.8867940464
 20
220.0493866181
 30
0.0
 11
671.3867936366
 21
220.0493866181
 31
0.0
  0
LINE
  5
238
330
1F
100
AcDbEntity
  8
0
  6
Continuous
 62
     7
100
AcDbLine
 10
673.8867940464
 20
227.0493859029
 30
0.0
 11
673.8867940464
 21
220.0493866181
 31
0.0
  0
LINE
  5
239
330
1F
100
AcDbEntity
  8
0
  6
Continuous
 62
     7
100
AcDbLine
 10
671.3867936366
 20
220.0493866181
 30
0.0
 11
511.3867953503
 21
220.0493866181
 31
0.0
  0
CIRCLE
  5
23A
330
1F
100
AcDbEntity
  8
0
  6
Continuous
 62
     7
100
AcDbCircle
 10
632.3867940814
 20
224.5493852348
 30
0.0
 40
1.5
  0
LINE
  5
23B
330
1F
100
AcDbEntity
  8
0
  6
Continuous
 62
     7
100
AcDbLine
 10
560.386797794
 20
230.5493855453
 30
0.0
 11
583.3867922508
 21
230.5493855453
 31
0.0
  0
LINE
  5
23C
330
1F
100
AcDbEntity
  8
0
  6
Continuous
 62
     7
100
AcDbLine
 10
562.4867960894
 20
209.6493856585
 30
0.0
 11
560.386797794
 21
209.6493856585
 31
0.0
  0
LINE
  5
23D
330
1F
100
AcDbEntity
  8
0
  6
Continuous
 62
     7
100
AcDbLine
 10
562.4867960894
 20
211.1493849731
 30
0.0
 11
560.386797794
 21
211.1493849731
 31
0.0
  0
LINE
  5
23E
330
1F
100
AcDbEntity
  8
0
  6
Continuous
 62
     7
100
AcDbLine
 10
562.4867960894
 20
214.6493846154
 30
0.0
 11
561.9367942297
 21
214.6493846154
 31
0.0
  0
LINE
  5
23F
330
1F
100
AcDbEntity
  8
0
  6
Continuous
 62
     7
100
AcDbLine
 10
575.6867960178
 20
257.2066831123
 30
0.0
 11
575.8867919528
 21
257.2066831123
 31
0.0
  0
LINE
  5
240
330
1F
100
AcDbEntity
  8
0
  6
Continuous
 62
     7
100
AcDbLine
 10
575.8867919528
 20
257.2066831123
 30
0.0
 11
575.8867919528
 21
230.5493855453
 31
0.0
  0
LINE
  5
241
330
1F
100
AcDbEntity
  8
0
  6
Continuous
 62
     7
100
AcDbLine
 10
575.8867919528
 20
199.7493857122
 30
0.0
 11
575.8867919528
 21
167.2066801763
 31
0.0
  0
LINE
  5
242
330
1F
100
AcDbEntity
  8
0
  6
Continuous
 62
     7
100
AcDbLine
 10
575.8867919528
 20
167.2066801763
 30
0.0
 11
575.6867960178
 21
167.2066801763
 31
0.0
  0
LINE
  5
243
330
1F
100
AcDbEntity
  8
0
  6
Continuous
 62
     7
100
AcDbLine
 10
567.8867906415
 20
167.2066801763
 30
0.0
 11
567.8867906415
 21
199.7493857122
 31
0.0
  0
LINE
  5
244
330
1F
100
AcDbEntity
  8
0
  6
Continuous
 62
     7
100
AcDbLine
 10
567.8867906415
 20
230.5493855453
 30
0.0
 11
567.8867906415
 21
257.2066831123
 31
0.0
  0
LINE
  5
245
330
1F
100
AcDbEntity
  8
0
  6
Continuous
 62
     7
100
AcDbLine
 10
568.086794027
 20
167.2066801763
 30
0.0
 11
567.8867906415
 21
167.2066801763
 31
0.0
  0
LINE
  5
246
330
1F
100
AcDbEntity
  8
0
  6
Continuous
 62
     7
100
AcDbLine
 10
567.8867906415
 20
257.2066831123
 30
0.0
 11
568.086794027
 21
257.2066831123
 31
0.0
  0
LINE
  5
247
330
1F
100
AcDbEntity
  8
0
  6
Continuous
 62
     7
100
AcDbLine
 10
575.6867960178
 20
167.2066801763
 30
0.0
 11
568.086794027
 21
167.2066801763
 31
0.0
  0
LINE
  5
248
330
1F
100
AcDbEntity
  8
0
  6
Continuous
 62
     7
100
AcDbLine
 10
575.6867960178
 20
257.2066831123
 30
0.0
 11
568.086794027
 21
257.2066831123
 31
0.0
  0
CIRCLE
  5
249
330
1F
100
AcDbEntity
  8
0
  6
Continuous
 62
     7
100
AcDbCircle
 10
632.3867940814
 20
204.2493852348
 30
0.0
 40
1.250000000027357
  0
LINE
  5
24A
330
1F
100
AcDbEntity
  8
0
  6
Continuous
 62
     7
100
AcDbLine
 10
631.25464172
 20
204.4764699018
 30
0.0
 11
631.6240564072
 21
203.3824564493
 31
0.0
  0
LINE
  5
24B
330
1F
100
AcDbEntity
  8
0
  6
Continuous
 62
     7
100
AcDbLine
 10
631.6240564072
 20
203.3824564493
 30
0.0
 11
632.7562093818
 21
203.1553702033
 31
0.0
  0
LINE
  5
24C
330
1F
100
AcDbEntity
  8
0
  6
Continuous
 62
     7
100
AcDbLine
 10
632.7562093818
 20
203.1553702033
 30
0.0
 11
633.5189439439
 21
204.0223011351
 31
0.0
  0
LINE
  5
24D
330
1F
100
AcDbEntity
  8
0
  6
Continuous
 62
     7
100
AcDbLine
 10
633.5189439439
 20
204.0223011351
 30
0.0
 11
633.1495329821
 21
205.1163145876
 31
0.0
  0
LINE
  5
24E
330
1F
100
AcDbEntity
  8
0
  6
Continuous
 62
     7
100
AcDbLine
 10
632.0173800074
 20
205.3434008336
 30
0.0
 11
633.1495329821
 21
205.1163145876
 31
0.0
  0
LINE
  5
24F
330
1F
100
AcDbEntity
  8
0
  6
Continuous
 62
     7
100
AcDbLine
 10
632.0173800074
 20
205.3434008336
 30
0.0
 11
631.25464172
 21
204.4764699018
 31
0.0
  0
CIRCLE
  5
250
330
1F
100
AcDbEntity
  8
0
  6
Continuous
 62
     7
100
AcDbCircle
 10
632.3867940814
 20
204.2493852348
 30
0.0
 40
1.399999999999995
  0
CIRCLE
  5
251
330
1F
100
AcDbEntity
  8
0
  6
Continuous
 62
     7
100
AcDbCircle
 10
632.3867940814
 20
224.5493852348
 30
0.0
 40
1.250000000027307
  0
LINE
  5
252
330
1F
100
AcDbEntity
  8
0
  6
Continuous
 62
     7
100
AcDbLine
 10
633.4008261644
 20
223.9970506704
 30
0.0
 11
633.3721451544
 21
225.1513951993
 31
0.0
  0
LINE
  5
253
330
1F
100
AcDbEntity
  8
0
  6
Continuous
 62
     7
100
AcDbLine
 10
632.3581136846
 20
225.7037290907
 30
0.0
 11
631.3727632248
 21
225.1017184532
 31
0.0
  0
LINE
  5
254
330
1F
100
AcDbEntity
  8
0
  6
Continuous
 62
     7
100
AcDbLine
 10
631.3727632248
 20
225.1017184532
 30
0.0
 11
631.4014442348
 21
223.9473739243
 31
0.0
  0
LINE
  5
255
330
1F
100
AcDbEntity
  8
0
  6
Continuous
 62
     7
100
AcDbLine
 10
632.4154757046
 20
223.3950400329
 30
0.0
 11
631.4014442348
 21
223.9473739243
 31
0.0
  0
LINE
  5
256
330
1F
100
AcDbEntity
  8
0
  6
Continuous
 62
     7
100
AcDbLine
 10
632.4154757046
 20
223.3950400329
 30
0.0
 11
633.4008261644
 21
223.9970506704
 31
0.0
  0
LINE
  5
257
330
1F
100
AcDbEntity
  8
0
  6
Continuous
 62
     7
100
AcDbLine
 10
633.3721451544
 20
225.1513951993
 30
0.0
 11
632.3581136846
 21
225.7037290907
 31
0.0
  0
CIRCLE
  5
258
330
1F
100
AcDbEntity
  8
0
  6
Continuous
 62
     7
100
AcDbCircle
 10
632.3867940814
 20
224.5493852348
 30
0.0
 40
1.399999999999986
  0
LINE
  5
259
330
1F
100
AcDbEntity
  8
0
  6
Continuous
 62
     7
100
AcDbLine
 10
669.8867943221
 20
219.399386791
 30
0.0
 11
669.8867943221
 21
220.0493866181
 31
0.0
  0
LINE
  5
25A
330
1F
100
AcDbEntity
  8
0
  6
Continuous
 62
     7
100
AcDbLine
 10
668.8867941582
 20
219.399386791
 30
0.0
 11
669.8867943221
 21
219.399386791
 31
0.0
  0
LINE
  5
25B
330
1F
100
AcDbEntity
  8
0
  6
Continuous
 62
     7
100
AcDbLine
 10
511.886788913
 20
219.399386791
 30
0.0
 11
512.8867909395
 21
219.399386791
 31
0.0
  0
LINE
  5
25C
330
1F
100
AcDbEntity
  8
0
  6
Continuous
 62
     7
100
AcDbLine
 10
511.886788913
 20
219.399386791
 30
0.0
 11
511.886788913
 21
220.0493866181
 31
0.0
  0
LINE
  5
25D
330
1F
100
AcDbEntity
  8
0
  6
Continuous
 62
     7
100
AcDbLine
 10
512.8867909395
 20
219.399386791
 30
0.0
 11
668.8867941582
 21
219.399386791
 31
0.0
  0
LINE
  5
25E
330
1F
100
AcDbEntity
  8
0
  6
Continuous
 62
     7
100
AcDbLine
 10
511.886788913
 20
217.9993854439
 30
0.0
 11
512.8867909395
 21
217.9993854439
 31
0.0
  0
LINE
  5
25F
330
1F
100
AcDbEntity
  8
0
  6
Continuous
 62
     7
100
AcDbLine
 10
511.886788913
 20
217.9993854439
 30
0.0
 11
511.886788913
 21
219.399386791
 31
0.0
  0
LINE
  5
260
330
1F
100
AcDbEntity
  8
0
  6
Continuous
 62
     7
100
AcDbLine
 10
512.8867909395
 20
217.9993854439
 30
0.0
 11
668.8867941582
 21
217.9993854439
 31
0.0
  0
LINE
  5
261
330
1F
100
AcDbEntity
  8
0
  6
Continuous
 62
     7
100
AcDbLine
 10
669.8867943221
 20
217.9993854439
 30
0.0
 11
669.8867943221
 21
219.399386791
 31
0.0
  0
LINE
  5
262
330
1F
100
AcDbEntity
  8
0
  6
Continuous
 62
     7
100
AcDbLine
 10
668.8867941582
 20
217.9993854439
 30
0.0
 11
669.8867943221
 21
217.9993854439
 31
0.0
  0
LINE
  5
263
330
1F
100
AcDbEntity
  8
0
  6
Continuous
 62
     7
100
AcDbLine
 10
511.886788913
 20
208.7493853247
 30
0.0
 11
511.886788913
 21
209.3993851519
 31
0.0
  0
LINE
  5
264
330
1F
100
AcDbEntity
  8
0
  6
Continuous
 62
     7
100
AcDbLine
 10
511.886788913
 20
209.3993851519
 30
0.0
 11
512.8867909395
 21
209.3993851519
 31
0.0
  0
LINE
  5
265
330
1F
100
AcDbEntity
  8
0
  6
Continuous
 62
     7
100
AcDbLine
 10
669.8867943221
 20
208.7493853247
 30
0.0
 11
669.8867943221
 21
209.3993851519
 31
0.0
  0
LINE
  5
266
330
1F
100
AcDbEntity
  8
0
  6
Continuous
 62
     7
100
AcDbLine
 10
668.8867941582
 20
209.3993851519
 30
0.0
 11
669.8867943221
 21
209.3993851519
 31
0.0
  0
LINE
  5
267
330
1F
100
AcDbEntity
  8
0
  6
Continuous
 62
     7
100
AcDbLine
 10
512.8867909395
 20
209.3993851519
 30
0.0
 11
668.8867941582
 21
209.3993851519
 31
0.0
  0
LINE
  5
268
330
1F
100
AcDbEntity
  8
0
  6
Continuous
 62
     7
100
AcDbLine
 10
550.9668275797
 20
212.999386487
 30
0.0
 11
558.7867930614
 21
212.999386487
 31
0.0
  0
LINE
  5
269
330
1F
100
AcDbEntity
  8
0
  6
Continuous
 62
     7
100
AcDbLine
 10
640.3867922806
 20
234.3993855244
 30
0.0
 11
623.386795082
 21
234.3993855244
 31
0.0
  0
LINE
  5
26A
330
1F
100
AcDbEntity
  8
0
  6
Continuous
 62
     7
100
AcDbLine
 10
623.386795082
 20
194.3993845558
 30
0.0
 11
640.3867922806
 21
194.3993845558
 31
0.0
  0
LINE
  5
26B
330
1F
100
AcDbEntity
  8
0
  6
Continuous
 62
     7
100
AcDbLine
 10
558.7867930614
 20
215.7993854559
 30
0.0
 11
550.9668275797
 21
215.7993854559
 31
0.0
  0
LWPOLYLINE
  5
26C
330
1F
100
AcDbEntity
  8
0
  6
Continuous
 62
     7
100
AcDbPolyline
 90
        6
 70
   128
 43
0.0
 10
675.4451593467
 20
217.7049347735
 10
675.6555767813
 20
217.5037430203
 10
675.8573883296
 20
217.3107729828
 10
676.0423410767
 20
217.1339297271
 10
676.2028698892
 20
216.9804328656
 10
676.3324108058
 20
216.8565706885
  0
LINE
  5
26D
330
1F
100
AcDbEntity
  8
0
  6
Continuous
 62
     7
100
AcDbLine
 10
675.4451593467
 20
217.7049347735
 30
0.0
 11
675.0326304779
 21
218.0993834114
 31
0.0
  0
LWPOLYLINE
  5
26E
330
1F
100
AcDbEntity
  8
0
  6
Continuous
 62
     7
100
AcDbPolyline
 90
        6
 70
   128
 43
0.0
 10
682.0995429614
 20
211.3421985483
 10
682.2290835286
 20
211.2183363712
 10
682.3896126905
 20
211.064843235
 10
682.5745652047
 20
210.887996254
 10
682.7763768694
 20
210.6950299418
 10
682.9867940712
 20
210.4938344634
  0
LINE
  5
26F
330
1F
100
AcDbEntity
  8
0
  6
Continuous
 62
     7
100
AcDbLine
 10
669.8867943221
 20
219.099385438
 30
0.0
 11
669.9867941522
 21
219.099385438
 31
0.0
  0
LINE
  5
270
330
1F
100
AcDbEntity
  8
0
  6
Continuous
 62
     7
100
AcDbLine
 10
682.9867940712
 20
210.4938344634
 30
0.0
 11
682.9867940712
 21
210.0993858254
 31
0.0
  0
LINE
  5
271
330
1F
100
AcDbEntity
  8
0
  6
Continuous
 62
     7
100
AcDbLine
 10
682.9867940712
 20
209.0993837988
 30
0.0
 11
674.9867940404
 21
209.0993837988
 31
0.0
  0
LINE
  5
272
330
1F
100
AcDbEntity
  8
0
  6
Continuous
 62
     7
100
AcDbLine
 10
671.98679448
 20
209.0993837988
 30
0.0
 11
671.9102853992
 21
209.0993837988
 31
0.0
  0
LINE
  5
273
330
1F
100
AcDbEntity
  8
0
  6
Continuous
 62
     7
100
AcDbLine
 10
682.9867940712
 20
210.0993858254
 30
0.0
 11
682.9867940712
 21
209.0993837988
 31
0.0
  0
LWPOLYLINE
  5
274
330
1F
100
AcDbEntity
  8
0
  6
Continuous
 62
     7
100
AcDbPolyline
 90
       12
 70
   128
 43
0.0
 10
682.0995429614
 20
211.3421985483
 10
681.7212617049
 20
211.7039018846
 10
681.2582522714
 20
212.1466191089
 10
680.72617354
 20
212.6553782797
 10
680.1430202638
 20
213.212972281
 10
679.5285145369
 20
213.8005436933
 10
678.9034389974
 20
214.3982255435
 10
678.2889332705
 20
214.9857969558
 10
677.7057800525
 20
215.5433946824
 10
677.1737014958
 20
216.0521538532
 10
676.7106916838
 20
216.4948710775
 10
676.3324108058
 20
216.8565706885
  0
LINE
  5
275
330
1F
100
AcDbEntity
  8
0
  6
Continuous
 62
     8
100
AcDbLine
 10
668.9868927085
 20
209.4993868446
 30
0.0
 11
562.4867960894
 21
209.4993868446
 31
0.0
  0
LINE
  5
276
330
1F
100
AcDbEntity
  8
0
  6
Continuous
 62
     8
100
AcDbLine
 10
550.7201984608
 20
217.9993854439
 30
0.0
 11
550.7201984608
 21
209.3993851519
 31
0.0
  0
LINE
  5
277
330
1F
100
AcDbEntity
  8
0
  6
Continuous
 62
     8
100
AcDbLine
 10
543.720199176
 20
217.9993854439
 30
0.0
 11
543.720199176
 21
209.3993851519
 31
0.0
  0
LINE
  5
278
330
1F
100
AcDbEntity
  8
0
  6
Continuous
 62
     8
100
AcDbLine
 10
671.3867936366
 20
201.74938604
 30
0.0
 11
671.3867936366
 21
208.7493853247
 31
0.0
  0
LINE
  5
279
330
1F
100
AcDbEntity
  8
0
  6
Continuous
 62
     8
100
AcDbLine
 10
511.3867953503
 20
201.74938604
 30
0.0
 11
671.3867936366
 21
201.74938604
 31
0.0
  0
LINE
  5
27A
330
1F
100
AcDbEntity
  8
0
  6
Continuous
 62
     8
100
AcDbLine
 10
511.3867953503
 20
201.74938604
 30
0.0
 11
511.3867953503
 21
208.7493853247
 31
0.0
  0
LINE
  5
27B
330
1F
100
AcDbEntity
  8
0
  6
Continuous
 62
     8
100
AcDbLine
 10
671.3867936366
 20
201.74938604
 30
0.0
 11
673.8867940464
 21
201.74938604
 31
0.0
  0
LINE
  5
27C
330
1F
100
AcDbEntity
  8
0
  6
Continuous
 62
     8
100
AcDbLine
 10
671.3867936366
 20
199.7493857122
 30
0.0
 11
671.3867936366
 21
201.74938604
 31
0.0
  0
LINE
  5
27D
330
1F
100
AcDbEntity
  8
0
  6
Continuous
 62
     8
100
AcDbLine
 10
511.3867953503
 20
199.7493857122
 30
0.0
 11
511.3867953503
 21
201.74938604
 31
0.0
  0
LINE
  5
27E
330
1F
100
AcDbEntity
  8
0
  6
Continuous
 62
     8
100
AcDbLine
 10
508.8867977344
 20
201.74938604
 30
0.0
 11
511.3867953503
 21
201.74938604
 31
0.0
  0
LINE
  5
27F
330
1F
100
AcDbEntity
  8
0
  6
Continuous
 62
     8
100
AcDbLine
 10
673.8867940464
 20
227.0493859029
 30
0.0
 11
671.3867936366
 21
227.0493859029
 31
0.0
  0
LINE
  5
280
330
1F
100
AcDbEntity
  8
0
  6
Continuous
 62
     8
100
AcDbLine
 10
671.3867936366
 20
227.0493859029
 30
0.0
 11
671.3867936366
 21
229.0493843681
 31
0.0
  0
LINE
  5
281
330
1F
100
AcDbEntity
  8
0
  6
Continuous
 62
     8
100
AcDbLine
 10
511.3867953503
 20
227.0493859029
 30
0.0
 11
508.8867977344
 21
227.0493859029
 31
0.0
  0
LINE
  5
282
330
1F
100
AcDbEntity
  8
0
  6
Continuous
 62
     8
100
AcDbLine
 10
511.3867953503
 20
227.0493859029
 30
0.0
 11
511.3867953503
 21
229.0493843681
 31
0.0
  0
LINE
  5
283
330
1F
100
AcDbEntity
  8
0
  6
Continuous
 62
     8
100
AcDbLine
 10
671.3867936366
 20
227.0493859029
 30
0.0
 11
511.3867953503
 21
227.0493859029
 31
0.0
  0
LINE
  5
284
330
1F
100
AcDbEntity
  8
0
  6
Continuous
 62
     8
100
AcDbLine
 10
511.3867953503
 20
227.0493859029
 30
0.0
 11
511.3867953503
 21
220.0493866181
 31
0.0
  0
LINE
  5
285
330
1F
100
AcDbEntity
  8
0
  6
Continuous
 62
     8
100
AcDbLine
 10
671.3867936366
 20
227.0493859029
 30
0.0
 11
671.3867936366
 21
220.0493866181
 31
0.0
  0
LINE
  5
286
330
1F
100
AcDbEntity
  8
0
  6
Continuous
 62
     8
100
AcDbLine
 10
575.6867960178
 20
167.2066801763
 30
0.0
 11
575.6867960178
 21
199.7493857122
 31
0.0
  0
LINE
  5
287
330
1F
100
AcDbEntity
  8
0
  6
Continuous
 62
     8
100
AcDbLine
 10
575.6867960178
 20
230.5493855453
 30
0.0
 11
575.6867960178
 21
257.2066831123
 31
0.0
  0
LINE
  5
288
330
1F
100
AcDbEntity
  8
0
  6
Continuous
 62
     8
100
AcDbLine
 10
568.086794027
 20
257.2066831123
 30
0.0
 11
568.086794027
 21
230.5493855453
 31
0.0
  0
LINE
  5
289
330
1F
100
AcDbEntity
  8
0
  6
Continuous
 62
     8
100
AcDbLine
 10
568.086794027
 20
199.7493857122
 30
0.0
 11
568.086794027
 21
167.2066801763
 31
0.0
  0
LINE
  5
28A
330
1F
100
AcDbEntity
  8
0
  6
Continuous
 62
     8
100
AcDbLine
 10
668.8867941582
 20
219.399386791
 30
0.0
 11
668.8867941582
 21
220.0493866181
 31
0.0
  0
LINE
  5
28B
330
1F
100
AcDbEntity
  8
0
  6
Continuous
 62
     8
100
AcDbLine
 10
512.8867909395
 20
219.399386791
 30
0.0
 11
512.8867909395
 21
220.0493866181
 31
0.0
  0
LINE
  5
28C
330
1F
100
AcDbEntity
  8
0
  6
Continuous
 62
     8
100
AcDbLine
 10
512.8867909395
 20
217.9993854439
 30
0.0
 11
512.8867909395
 21
219.399386791
 31
0.0
  0
LINE
  5
28D
330
1F
100
AcDbEntity
  8
0
  6
Continuous
 62
     8
100
AcDbLine
 10
668.8867941582
 20
217.9993854439
 30
0.0
 11
668.8867941582
 21
219.399386791
 31
0.0
  0
LINE
  5
28E
330
1F
100
AcDbEntity
  8
0
  6
Continuous
 62
     8
100
AcDbLine
 10
512.8867909395
 20
208.7493853247
 30
0.0
 11
512.8867909395
 21
209.3993851519
 31
0.0
  0
LINE
  5
28F
330
1F
100
AcDbEntity
  8
0
  6
Continuous
 62
     8
100
AcDbLine
 10
668.8867941582
 20
208.7493853247
 30
0.0
 11
668.8867941582
 21
209.3993851519
 31
0.0
  0
LINE
  5
290
330
1F
100
AcDbEntity
  8
0
  6
Continuous
 62
     8
100
AcDbLine
 10
676.3324108058
 20
216.8565706885
 30
0.0
 11
674.9867940404
 21
216.8565706885
 31
0.0
  0
LINE
  5
291
330
1F
100
AcDbEntity
  8
0
  6
Continuous
 62
     8
100
AcDbLine
 10
669.9867941522
 20
216.8565706885
 30
0.0
 11
669.8867943221
 21
216.8565706885
 31
0.0
  0
LINE
  5
292
330
1F
100
AcDbEntity
  8
0
  6
Continuous
 62
     8
100
AcDbLine
 10
669.8867943221
 20
217.7049347735
 30
0.0
 11
669.9867941522
 21
217.7049347735
 31
0.0
  0
LINE
  5
293
330
1F
100
AcDbEntity
  8
0
  6
Continuous
 62
     8
100
AcDbLine
 10
674.9867940404
 20
217.7049347735
 30
0.0
 11
675.4451593467
 21
217.7049347735
 31
0.0
  0
LINE
  5
294
330
1F
100
AcDbEntity
  8
0
  6
Continuous
 62
     8
100
AcDbLine
 10
675.0326304779
 20
218.0993834114
 30
0.0
 11
674.9867940404
 21
218.0993834114
 31
0.0
  0
LINE
  5
295
330
1F
100
AcDbEntity
  8
0
  6
Continuous
 62
     8
100
AcDbLine
 10
669.9867941522
 20
218.0993834114
 30
0.0
 11
669.8867943221
 21
218.0993834114
 31
0.0
  0
LINE
  5
296
330
1F
100
AcDbEntity
  8
0
  6
Continuous
 62
     8
100
AcDbLine
 10
682.9867940712
 20
210.4938344634
 30
0.0
 11
674.9867940404
 21
210.4938344634
 31
0.0
  0
LINE
  5
297
330
1F
100
AcDbEntity
  8
0
  6
Continuous
 62
     8
100
AcDbLine
 10
669.9867941522
 20
210.4938344634
 30
0.0
 11
669.8867943221
 21
210.4938344634
 31
0.0
  0
LINE
  5
298
330
1F
100
AcDbEntity
  8
0
  6
Continuous
 62
     8
100
AcDbLine
 10
669.8867943221
 20
211.3421985483
 30
0.0
 11
669.9867941522
 21
211.3421985483
 31
0.0
  0
LINE
  5
299
330
1F
100
AcDbEntity
  8
0
  6
Continuous
 62
     8
100
AcDbLine
 10
674.9867940404
 20
211.3421985483
 30
0.0
 11
682.0995429614
 21
211.3421985483
 31
0.0
  0
LINE
  5
29A
330
1F
100
AcDbEntity
  8
0
  6
Continuous
 62
     8
100
AcDbLine
 10
669.8867943221
 20
210.0993858254
 30
0.0
 11
669.9867941522
 21
210.0993858254
 31
0.0
  0
LINE
  5
29B
330
1F
100
AcDbEntity
  8
0
  6
Continuous
 62
     8
100
AcDbLine
 10
674.9867940404
 20
210.0993858254
 30
0.0
 11
682.9867940712
 21
210.0993858254
 31
0.0
  0
SPLINE
  5
29C
330
1F
100
AcDbEntity
  8
0
  6
Continuous
 62
     7
100
AcDbSpline
210
0.0
220
0.0
230
1.0
 70
     8
 71
     3
 72
    11
 73
     7
 74
     0
 42
0.000000001
 43
0.00000001
 40
0.0
 40
0.0
 40
0.0
 40
0.0
 40
0.2708262533339596
 40
0.5314331548539449
 40
0.7950839831990045
 40
1.0
 40
1.0
 40
1.0
 40
1.0
 10
383.525395156725
 20
150.9283680953332
 30
0.0
 10
383.7176194047379
 20
150.8355868731803
 30
0.0
 10
384.0948145152685
 20
150.6535254334459
 30
0.0
 10
384.7232445751726
 20
150.5883428515029
 30
0.0
 10
385.3023437258107
 20
150.6637666396006
 30
0.0
 10
385.6273405920903
 20
150.8412353952487
 30
0.0
 10
385.7694698613732
 20
150.91884692686
 30
0.0
  0
LINE
  5
29D
330
1F
100
AcDbEntity
  8
0
  6
Continuous
 62
     7
100
AcDbLine
 10
385.7752123695
 20
150.9036141499
 30
0.0
 11
390.724959332
 21
153.7610422493
 31
0.0
  0
LINE
  5
29E
330
1F
100
AcDbEntity
  8
0
  6
Continuous
 62
     7
100
AcDbLine
 10
270.3883113786
 20
216.2410163416
 30
0.0
 11
383.5253951567
 21
150.9283680953
 31
0.0
  0
SPLINE
  5
29F
330
1F
100
AcDbEntity
  8
0
  6
Continuous
 62
     7
100
AcDbSpline
210
0.0
220
0.0
230
1.0
 70
     8
 71
     3
 72
    12
 73
     8
 74
     0
 42
0.000000001
 43
0.00000001
 40
0.0
 40
0.0
 40
0.0
 40
0.0
 40
0.0610941845852182
 40
0.3351503701069169
 40
0.585919547255038
 40
0.8245796213730212
 40
1.0
 40
1.0
 40
1.0
 40
1.0
 10
270.1440730256569
 20
285.8545372945092
 30
0.0
 10
270.1002694418594
 20
285.8348551836249
 30
0.0
 10
269.8599718190761
 20
285.72688309443
 30
0.0
 10
269.5304869206739
 20
285.3824919240706
 30
0.0
 10
269.2124236564526
 20
284.8754465292997
 30
0.0
 10
269.0575461709134
 20
284.3697249170958
 30
0.0
 10
269.0414795710352
 20
284.0459273179893
 30
0.0
 10
269.034673142441
 20
283.9087542226229
 30
0.0
  0
LINE
  5
2A0
330
1F
100
AcDbEntity
  8
0
  6
Continuous
 62
     7
100
AcDbLine
 10
275.0880801143
 20
288.7271996916
 30
0.0
 11
270.1383331517
 21
285.8697715922
 31
0.0
  0
LINE
  5
2A1
330
1F
100
AcDbEntity
  8
0
  6
Continuous
 62
     7
100
AcDbLine
 10
269.0346731424
 20
283.9087542226
 30
0.0
 11
269.0346731424
 21
218.5854892109
 31
0.0
  0
SPLINE
  5
2A2
330
1F
100
AcDbEntity
  8
0
  6
Continuous
 62
     7
100
AcDbSpline
210
0.0
220
0.0
230
1.0
 70
     8
 71
     3
 72
    12
 73
     8
 74
     0
 42
0.000000001
 43
0.00000001
 40
0.0
 40
0.0
 40
0.0
 40
0.0
 40
0.2176185572118857
 40
0.4397454542841211
 40
0.690247647695455
 40
0.9254259681936035
 40
0.9999999999999999
 40
0.9999999999999999
 40
0.9999999999999999
 40
0.9999999999999999
 10
269.034673142441
 20
218.5854892109259
 30
0.0
 10
269.0493866178793
 20
218.3812141129202
 30
0.0
 10
269.0791183835137
 20
217.9684320095818
 30
0.0
 10
269.3154749507682
 20
217.3521985858143
 30
0.0
 10
269.6884208801005
 20
216.7900816875485
 30
0.0
 10
270.081325920799
 20
216.4291969232463
 30
0.0
 10
270.3287444473646
 20
216.2775305786468
 30
0.0
 10
270.3883113785996
 20
216.2410163416378
 30
0.0
  0
SPLINE
  5
2A3
330
1F
100
AcDbEntity
  8
0
  6
Continuous
 62
     7
100
AcDbSpline
210
0.0
220
0.0
230
1.0
 70
     8
 71
     3
 72
    12
 73
     8
 74
     0
 42
0.000000001
 43
0.00000001
 40
0.0
 40
0.0
 40
0.0
 40
0.0
 40
0.2176161638845947
 40
0.4397467991987047
 40
0.690248892046244
 40
0.9254282804328577
 40
1.0
 40
1.0
 40
1.0
 40
1.0
 10
404.7686685774929
 20
228.5154621310753
 30
0.0
 10
404.7539574782212
 20
228.7197347925674
 30
0.0
 10
404.7242300962934
 20
229.1325177745456
 30
0.0
 10
404.4878634513838
 20
229.7487490261566
 30
0.0
 10
404.1149193927868
 20
230.3108692468387
 30
0.0
 10
403.7220159509903
 20
230.6717551139166
 30
0.0
 10
403.4745981293882
 20
230.8234192410702
 30
0.0
 10
403.4150329755125
 20
230.859931958759
 30
0.0
  0
LINE
  5
2A4
330
1F
100
AcDbEntity
  8
0
  6
Continuous
 62
     7
100
AcDbLine
 10
404.7686685775
 20
163.1921971194
 30
0.0
 11
404.7686685775
 21
228.5154621311
 31
0.0
  0
LINE
  5
2A5
330
1F
100
AcDbEntity
  8
0
  6
Continuous
 62
     7
100
AcDbLine
 10
403.4150329755
 20
230.8599319588
 30
0.0
 11
290.2779491974
 21
296.1725802051
 31
0.0
  0
LINE
  5
2A6
330
1F
100
AcDbEntity
  8
0
  6
Continuous
 62
     7
100
AcDbLine
 10
398.715266874
 20
158.3737486091
 30
0.0
 11
403.6650138366
 21
161.2311767085
 31
0.0
  0
SPLINE
  5
2A7
330
1F
100
AcDbEntity
  8
0
  6
Continuous
 62
     7
100
AcDbSpline
210
0.0
220
0.0
230
1.0
 70
     8
 71
     3
 72
    12
 73
     8
 74
     0
 42
0.000000001
 43
0.00000001
 40
0.0
 40
0.0
 40
0.0
 40
0.0
 40
0.0624717183526361
 40
0.3361235345323985
 40
0.5865247598048563
 40
0.8248375670709919
 40
1.0
 40
1.0
 40
1.0
 40
1.0
 10
403.6561564129323
 20
161.2449182692622
 30
0.0
 10
403.7010244335262
 20
161.2650548812962
 30
0.0
 10
403.9424328350743
 20
161.373398134673
 30
0.0
 10
404.2728891809193
 20
161.7183924238726
 30
0.0
 10
404.5909130045748
 20
162.2255173037882
 30
0.0
 10
404.7457948668957
 20
162.7312232736896
 30
0.0
 10
404.7618619883444
 20
163.0550239413537
 30
0.0
 10
404.7686685774929
 20
163.1921971193784
 30
0.0
  0
LINE
  5
2A8
330
1F
100
AcDbEntity
  8
0
  6
Continuous
 62
     7
100
AcDbLine
 10
288.0281346188
 20
296.1973341507
 30
0.0
 11
283.0783876563
 21
293.3399060513
 31
0.0
  0
SPLINE
  5
2A9
330
1F
100
AcDbEntity
  8
0
  6
Continuous
 62
     7
100
AcDbSpline
210
0.0
220
0.0
230
1.0
 70
     8
 71
     3
 72
    11
 73
     7
 74
     0
 42
0.000000001
 43
0.00000001
 40
0.0
 40
0.0
 40
0.0
 40
0.0
 40
0.2712254874441312
 40
0.5322118084028682
 40
0.7962500224190646
 40
1.0
 40
1.0
 40
1.0
 40
1.0
 10
290.277949197387
 20
296.1725802050636
 30
0.0
 10
290.08572238543
 20
296.2653664499315
 30
0.0
 10
289.708525610233
 20
296.4474361206009
 30
0.0
 10
289.0801111017187
 20
296.5125633333802
 30
0.0
 10
288.5021156815376
 20
296.4374645323791
 30
0.0
 10
288.1781078010922
 20
296.2606209285959
 30
0.0
 10
288.0369828228165
 20
296.1835948707488
 30
0.0
  0
LINE
  5
2AA
330
1F
100
AcDbEntity
  8
0
  6
Continuous
 62
     7
100
AcDbLine
 10
314.1488283759
 20
232.7716391495
 30
0.0
 11
286.9558081572
 21
217.0734427228
 31
0.0
  0
LINE
  5
2AB
330
1F
100
AcDbEntity
  8
0
  6
Continuous
 62
     7
100
AcDbLine
 10
292.5298026298
 20
207.4189615795
 30
0.0
 11
319.7223855749
 21
223.1169055736
 31
0.0
  0
LINE
  5
2AC
330
1F
100
AcDbEntity
  8
0
  6
Continuous
 62
     7
100
AcDbLine
 10
393.752041481
 20
207.2232365673
 30
0.0
 11
394.1055949296
 21
207.0191345059
 31
0.0
  0
LINE
  5
2AD
330
1F
100
AcDbEntity
  8
0
  6
Continuous
 62
     7
100
AcDbLine
 10
397.8552894061
 20
213.5144985008
 30
0.0
 11
397.5017359576
 21
213.7186005622
 31
0.0
  0
LINE
  5
2AE
330
1F
100
AcDbEntity
  8
0
  6
Continuous
 62
     7
100
AcDbLine
 10
393.752041481
 20
165.5796559399
 30
0.0
 11
394.1055949296
 21
165.3755538785
 31
0.0
  0
LINE
  5
2AF
330
1F
100
AcDbEntity
  8
0
  6
Continuous
 62
     7
100
AcDbLine
 10
397.8552894061
 20
171.8709148315
 30
0.0
 11
397.5017359576
 21
172.0750168929
 31
0.0
  0
LINE
  5
2B0
330
1F
100
AcDbEntity
  8
0
  6
Continuous
 62
     7
100
AcDbLine
 10
395.7379410553
 20
221.2602905565
 30
0.0
 11
396.7278888673
 21
221.8317752639
 31
0.0
  0
LINE
  5
2B1
330
1F
100
AcDbEntity
  8
0
  6
Continuous
 62
     7
100
AcDbLine
 10
395.7379410553
 20
160.8362712191
 30
0.0
 11
396.7278888673
 21
161.4077559266
 31
0.0
  0
LINE
  5
2B2
330
1F
100
AcDbEntity
  8
0
  6
Continuous
 62
     7
100
AcDbLine
 10
285.4193131846
 20
291.3264086607
 30
0.0
 11
284.4293653726
 21
290.7549239532
 31
0.0
  0
LINE
  5
2B3
330
1F
100
AcDbEntity
  8
0
  6
Continuous
 62
     7
100
AcDbLine
 10
394.7479906091
 20
220.6888043283
 30
0.0
 11
395.7379410553
 21
221.2602905565
 31
0.0
  0
LINE
  5
2B4
330
1F
100
AcDbEntity
  8
0
  6
Continuous
 62
     7
100
AcDbLine
 10
394.7479906091
 20
160.264784991
 30
0.0
 11
395.7379410553
 21
160.8362712191
 31
0.0
  0
LINE
  5
2B5
330
1F
100
AcDbEntity
  8
0
  6
Continuous
 62
     7
100
AcDbLine
 10
284.4293653726
 20
290.7549239532
 30
0.0
 11
283.4394149264
 21
290.1834377251
 31
0.0
  0
LINE
  5
2B6
330
1F
100
AcDbEntity
  8
0
  6
Continuous
 62
     7
100
AcDbLine
 10
351.5846154299
 20
208.7769176585
 30
0.0
 11
347.1477060517
 21
206.2155443948
 31
0.0
  0
LINE
  5
2B7
330
1F
100
AcDbEntity
  8
0
  6
Continuous
 62
     7
100
AcDbLine
 10
355.6470158148
 20
191.492711127
 30
0.0
 11
360.083925193
 21
194.0540843906
 31
0.0
  0
LINE
  5
2B8
330
1F
100
AcDbEntity
  8
0
  6
Continuous
 62
     7
100
AcDbLine
 10
348.8414509161
 20
205.4613204008
 30
0.0
 11
348.2511974736
 21
205.1205743414
 31
0.0
  0
LINE
  5
2B9
330
1F
100
AcDbEntity
  8
0
  6
Continuous
 62
     7
100
AcDbLine
 10
355.2506299729
 20
192.9958875842
 30
0.0
 11
355.8408834154
 21
193.3366336435
 31
0.0
  0
LINE
  5
2BA
330
1F
100
AcDbEntity
  8
0
  6
Continuous
 62
     7
100
AcDbLine
 10
353.7935818097
 20
178.6173803088
 30
0.0
 11
358.384785532
 21
181.2678258013
 31
0.0
  0
LINE
  5
2BB
330
1F
100
AcDbEntity
  8
0
  6
Continuous
 62
     7
100
AcDbLine
 10
348.8414509161
 20
205.4613204008
 30
0.0
 11
347.8976433665
 21
204.9164718998
 31
0.0
  0
LINE
  5
2BC
330
1F
100
AcDbEntity
  8
0
  6
Continuous
 62
     7
100
AcDbLine
 10
354.8970758658
 20
192.7917851426
 30
0.0
 11
355.8408834154
 21
193.3366336435
 31
0.0
  0
LINE
  5
2BD
330
1F
100
AcDbEntity
  8
0
  6
Continuous
 62
     7
100
AcDbLine
 10
397.8313816063
 20
160.9252552712
 30
0.0
 11
398.1724734171
 21
161.1221633823
 31
0.0
  0
LINE
  5
2BE
330
1F
100
AcDbEntity
  8
0
  6
Continuous
 62
     7
100
AcDbLine
 10
285.1871472696
 20
291.4955134219
 30
0.0
 11
285.0229220744
 21
291.4007082346
 31
0.0
  0
LINE
  5
2BF
330
1F
100
AcDbEntity
  8
0
  6
Continuous
 62
     7
100
AcDbLine
 10
398.8880943892
 20
194.7145683156
 30
0.0
 11
393.1934054189
 21
198.0020422823
 31
0.0
  0
LINE
  5
2C0
330
1F
100
AcDbEntity
  8
0
  6
Continuous
 62
     7
100
AcDbLine
 10
398.6415892437
 20
201.0661076044
 30
0.0
 11
398.5713432889
 21
201.106659731
 31
0.0
  0
LINE
  5
2C1
330
1F
100
AcDbEntity
  8
0
  6
Continuous
 62
     7
100
AcDbLine
 10
392.4752804136
 20
177.821340042
 30
0.0
 11
398.1321346849
 21
174.5557075821
 31
0.0
  0
LINE
  5
2C2
330
1F
100
AcDbEntity
  8
0
  6
Continuous
 62
     7
100
AcDbLine
 10
391.2428268793
 20
216.0643078646
 30
0.0
 11
398.1724747342
 21
220.0647084203
 31
0.0
  0
LINE
  5
2C3
330
1F
100
AcDbEntity
  8
0
  6
Continuous
 62
     7
100
AcDbLine
 10
391.2428268793
 20
217.6971243559
 30
0.0
 11
397.0057472345
 21
221.0239874627
 31
0.0
  0
LINE
  5
2C4
330
1F
100
AcDbEntity
  8
0
  6
Continuous
 62
     7
100
AcDbLine
 10
395.46007281
 20
221.0998795898
 30
0.0
 11
396.2279310965
 21
220.6566044364
 31
0.0
  0
LINE
  5
2C5
330
1F
100
AcDbEntity
  8
0
  6
Continuous
 62
     7
100
AcDbLine
 10
396.2279310965
 20
220.6566044364
 30
0.0
 11
391.2428281964
 21
217.7787657887
 31
0.0
  0
LINE
  5
2C6
330
1F
100
AcDbEntity
  8
0
  6
Continuous
 62
     7
100
AcDbLine
 10
396.2279310965
 20
220.6566044364
 30
0.0
 11
396.2279310965
 21
220.5749641823
 31
0.0
  0
LINE
  5
2C7
330
1F
100
AcDbEntity
  8
0
  6
Continuous
 62
     7
100
AcDbLine
 10
402.3797582036
 20
219.2277580671
 30
0.0
 11
389.6518366901
 21
211.880085377
 31
0.0
  0
LINE
  5
2C8
330
1F
100
AcDbEntity
  8
0
  6
Continuous
 62
     7
100
AcDbLine
 10
402.3797582036
 20
166.9691466661
 30
0.0
 11
402.3797582036
 21
219.2277580671
 31
0.0
  0
LINE
  5
2C9
330
1F
100
AcDbEntity
  8
0
  6
Continuous
 62
     7
100
AcDbLine
 10
389.6518366901
 20
159.621473976
 30
0.0
 11
402.3797582036
 21
166.9691466661
 31
0.0
  0
LINE
  5
2CA
330
1F
100
AcDbEntity
  8
0
  6
Continuous
 62
     7
100
AcDbLine
 10
389.6518366901
 20
211.880085377
 30
0.0
 11
389.6518366901
 21
159.621473976
 31
0.0
  0
LINE
  5
2CB
330
1F
100
AcDbEntity
  8
0
  6
Continuous
 62
     7
100
AcDbLine
 10
392.4802642785
 20
197.590354187
 30
0.0
 11
392.4802642785
 21
196.9486725576
 31
0.0
  0
LINE
  5
2CC
330
1F
100
AcDbEntity
  8
0
  6
Continuous
 62
     7
100
AcDbLine
 10
392.4802642785
 20
177.8184619827
 30
0.0
 11
392.4802642785
 21
177.1768381485
 31
0.0
  0
LINE
  5
2CD
330
1F
100
AcDbEntity
  8
0
  6
Continuous
 62
     7
100
AcDbLine
 10
392.4802642785
 20
177.1768381485
 30
0.0
 11
393.0359915495
 21
177.4976526733
 31
0.0
  0
LINE
  5
2CE
330
1F
100
AcDbEntity
  8
0
  6
Continuous
 62
     7
100
AcDbLine
 10
398.911011985
 20
180.889229779
 30
0.0
 11
399.5513332494
 21
181.2588793767
 31
0.0
  0
LINE
  5
2CF
330
1F
100
AcDbEntity
  8
0
  6
Continuous
 62
     7
100
AcDbLine
 10
399.5513332494
 20
181.2588793767
 30
0.0
 11
399.5513332494
 21
201.6723954152
 31
0.0
  0
LINE
  5
2D0
330
1F
100
AcDbEntity
  8
0
  6
Continuous
 62
     7
100
AcDbLine
 10
399.5513332494
 20
201.6723954152
 30
0.0
 11
392.4802642785
 21
197.590354187
 31
0.0
  0
LWPOLYLINE
  5
2D1
330
1F
100
AcDbEntity
  8
0
  6
Continuous
 62
     7
100
AcDbPolyline
 90
       27
 70
   128
 43
0.0
 10
398.8442250352
 20
211.8792213056
 10
398.7620360464
 20
212.6134209578
 10
398.5202448449
 20
213.2100541606
 10
398.1329074045
 20
213.6344546548
 10
397.6225275083
 20
213.8619524333
 10
397.0187712692
 20
213.8793248256
 10
396.3567285728
 20
213.685569291
 10
395.6748689551
 20
213.2919401123
 10
395.0128236245
 20
212.7213158992
 10
394.4090673854
 20
212.006861391
 10
393.8986901233
 20
211.190093048
 10
393.5113500488
 20
210.3184807437
 10
393.2695588473
 20
209.4426813618
 10
393.1873698585
 20
208.613588323
 10
393.2695588473
 20
207.8793917127
 10
393.5113500488
 20
207.2827585098
 10
393.8986901233
 20
206.8583595364
 10
394.4090673854
 20
206.6308602372
 10
395.0128236245
 20
206.613484803
 10
395.6748689551
 20
206.8072418583
 10
396.3567285728
 20
207.200871037
 10
397.0187712692
 20
207.7714937294
 10
397.6225275083
 20
208.4859512795
 10
398.1329074045
 20
209.3027211431
 10
398.5202448449
 20
210.1743319267
 10
398.7620360464
 20
211.0501313087
 10
398.8442250352
 20
211.8792213056
  0
LWPOLYLINE
  5
2D2
330
1F
100
AcDbEntity
  8
0
  6
Continuous
 62
     7
100
AcDbPolyline
 90
       27
 70
   128
 43
0.0
 10
398.8442250352
 20
170.2356406781
 10
398.7620360464
 20
170.9698403304
 10
398.5202448449
 20
171.5664704913
 10
398.1329074045
 20
171.9908709854
 10
397.6225275083
 20
172.218368764
 10
397.0187712692
 20
172.2357441982
 10
396.3567285728
 20
172.0419917054
 10
395.6748689551
 20
171.6483625267
 10
395.0128236245
 20
171.0777352718
 10
394.4090673854
 20
170.3632777217
 10
393.8986901233
 20
169.5465093787
 10
393.5113500488
 20
168.6748970744
 10
393.2695588473
 20
167.7991007344
 10
393.1873698585
 20
166.9700076956
 10
393.2695588473
 20
166.2358080434
 10
393.5113500488
 20
165.6391778824
 10
393.8986901233
 20
165.2147789089
 10
394.4090673854
 20
164.9872796097
 10
395.0128236245
 20
164.9699041755
 10
395.6748689551
 20
165.1636642727
 10
396.3567285728
 20
165.5572934514
 10
397.0187712692
 20
166.1279131019
 10
397.6225275083
 20
166.842370652
 10
398.1329074045
 20
167.6591405157
 10
398.5202448449
 20
168.5307512993
 10
398.7620360464
 20
169.4065476394
 10
398.8442250352
 20
170.2356406781
  0
LINE
  5
2D3
330
1F
100
AcDbEntity
  8
0
  6
Continuous
 62
     7
100
AcDbLine
 10
388.5204084931
 20
212.5332449722
 30
0.0
 11
389.6518366901
 21
211.880085377
 31
0.0
  0
LINE
  5
2D4
330
1F
100
AcDbEntity
  8
0
  6
Continuous
 62
     7
100
AcDbLine
 10
398.243241927
 20
219.2890220264
 30
0.0
 11
391.2428268793
 21
215.2477684398
 31
0.0
  0
LINE
  5
2D5
330
1F
100
AcDbEntity
  8
0
  6
Continuous
 62
     7
100
AcDbLine
 10
401.2483300066
 20
219.8809176623
 30
0.0
 11
402.3797582036
 21
219.2277580671
 31
0.0
  0
LINE
  5
2D6
330
1F
100
AcDbEntity
  8
0
  6
Continuous
 62
     7
100
AcDbLine
 10
388.4143999495
 20
160.3358310008
 30
0.0
 11
389.6518366901
 21
159.621473976
 31
0.0
  0
ARC
  5
2D7
330
1F
100
AcDbEntity
  8
0
  6
Continuous
 62
     7
100
AcDbCircle
 10
396.6598190805
 20
212.2229472512
 30
0.0
 40
1.984646726185724
100
AcDbArc
 50
353.598887497
 51
51.0757946543
  0
ARC
  5
2D8
330
1F
100
AcDbEntity
  8
0
  6
Continuous
 62
     7
100
AcDbCircle
 10
394.6135631779
 20
208.8652872063
 30
0.0
 40
2.13526968387974
100
AcDbArc
 50
250.8387337151
 51
306.8430882795
  0
LINE
  5
2D9
330
1F
100
AcDbEntity
  8
0
  6
Continuous
 62
     7
100
AcDbLine
 10
398.6306679416
 20
211.8971630975
 30
0.0
 11
398.6320930319
 21
212.0016825044
 31
0.0
  0
LINE
  5
2DA
330
1F
100
AcDbEntity
  8
0
  6
Continuous
 62
     7
100
AcDbLine
 10
398.911011985
 20
181.6285289744
 30
0.0
 11
399.5513332494
 21
181.2588793767
 31
0.0
  0
ARC
  5
2DB
330
1F
100
AcDbEntity
  8
0
  6
Continuous
 62
     7
100
AcDbCircle
 10
396.6598226706
 20
170.5793654383
 30
0.0
 40
1.98464302632439
100
AcDbArc
 50
353.5989099518
 51
51.0758416146
  0
ARC
  5
2DC
330
1F
100
AcDbEntity
  8
0
  6
Continuous
 62
     7
100
AcDbCircle
 10
394.6135606122
 20
167.2217062063
 30
0.0
 40
2.135268489832467
100
AcDbArc
 50
250.8387954644
 51
306.8431983118
  0
LINE
  5
2DD
330
1F
100
AcDbEntity
  8
0
  6
Continuous
 62
     7
100
AcDbLine
 10
398.6306679416
 20
170.25358247
 30
0.0
 11
398.6320930319
 21
170.358101877
 31
0.0
  0
ARC
  5
2DE
330
1F
100
AcDbEntity
  8
0
  6
Continuous
 62
     7
100
AcDbCircle
 10
387.4047900767
 20
220.0542688186
 30
0.0
 40
3.842009177589639
100
AcDbArc
 50
2.6054633527
 51
57.39454911679999
  0
LWPOLYLINE
  5
2DF
330
1F
100
AcDbEntity
  8
0
  6
Continuous
 62
     7
100
AcDbPolyline
 90
       23
 70
   128
 43
0.0
 10
358.8219826941
 20
193.3118540955
 10
359.5567049966
 20
193.635869582
 10
360.1778705183
 20
194.1519627766
 10
360.6693554555
 20
194.8467434567
 10
361.0184077524
 20
195.702173767
 10
361.2159711048
 20
196.6960686342
 10
361.2569194023
 20
197.8026296341
 10
361.140188437
 20
198.9931415881
 10
360.8688075136
 20
200.2367208617
 10
360.44981779
 20
201.5010925493
 10
359.8940931531
 20
202.7534482603
 10
359.2160557277
 20
203.9612856433
 10
358.4332939205
 20
205.0932737563
 10
357.5661251465
 20
206.120028699
 10
356.6370479205
 20
207.0149166091
 10
355.670175508
 20
207.7547060871
 10
354.6905905524
 20
208.3202084449
 10
353.7237155058
 20
208.6967476133
 10
352.7946382798
 20
208.8745494356
 10
351.9274695058
 20
208.8490062479
 10
351.1447103327
 20
208.6207741598
 10
350.4666702731
 20
208.1957836456
 10
350.2768382333
 20
208.0219559556
  0
ARC
  5
2E0
330
1F
100
AcDbEntity
  8
0
  6
Continuous
 62
     7
100
AcDbCircle
 10
356.6204094341
 20
182.6319087228
 30
0.0
 40
2.234350971323668
100
AcDbArc
 50
277.4444784552
 51
9.8261547947
  0
LINE
  5
2E1
330
1F
100
AcDbEntity
  8
0
  6
Continuous
 62
     7
100
AcDbLine
 10
358.8219826941
 20
183.0132215125
 30
0.0
 11
358.8219826941
 21
193.3118540955
 31
0.0
  0
LWPOLYLINE
  5
2E2
330
1F
100
AcDbEntity
  8
0
  6
Continuous
 62
     7
100
AcDbPolyline
 90
       24
 70
   128
 43
0.0
 10
319.8604006987
 20
221.4278117231
 10
319.7810276462
 20
222.6967065718
 10
319.5446786565
 20
224.0289058732
 10
319.156643159
 20
225.3946364804
 10
318.6255770627
 20
226.76339856
 10
317.9633499738
 20
228.104613492
 10
317.1847554362
 20
229.3883234685
 10
316.3071842932
 20
230.5858485029
 10
315.3502453661
 20
231.6704373505
 10
314.3353018388
 20
232.617872794
 10
313.2850392524
 20
233.4069765493
 10
312.2229123281
 20
234.0201293714
 10
311.1726497417
 20
234.4436329872
 10
310.1577062144
 20
234.6680263974
 10
309.2007620189
 20
234.6882987587
 10
308.323190876
 20
234.503995799
 10
307.5445963383
 20
234.119231941
 10
306.8823745178
 20
233.5426050897
 10
306.3513084215
 20
232.7869988735
 10
305.963272924
 20
231.8692845154
 10
305.7269239343
 20
230.8099679491
 10
305.6475508818
 20
229.6327152761
 10
305.7269239343
 20
228.3638204274
 10
305.7855607373
 20
227.9436245543
  0
LWPOLYLINE
  5
2E3
330
1F
100
AcDbEntity
  8
0
  6
Continuous
 62
     7
100
AcDbPolyline
 90
       13
 70
   128
 43
0.0
 10
311.3591179362
 20
218.2888939381
 10
312.2229123281
 20
217.6535534917
 10
313.2850392524
 20
217.0404006697
 10
314.3353018388
 20
216.616894012
 10
315.3502453661
 20
216.3925036437
 10
316.3071842932
 20
216.3722343237
 10
317.1847554362
 20
216.5565372834
 10
317.9633499738
 20
216.9412980995
 10
318.6255770627
 20
217.5179219095
 10
319.156643159
 20
218.2735281257
 10
319.5446786565
 20
219.1912424838
 10
319.7810276462
 20
220.2505590501
 10
319.8604006987
 20
221.4278117231
  0
LINE
  5
2E4
330
1F
100
AcDbEntity
  8
0
  6
Continuous
 62
     7
100
AcDbLine
 10
388.4143999495
 20
212.4720485036
 30
0.0
 11
388.4143999495
 21
159.3968946359
 31
0.0
  0
LINE
  5
2E5
330
1F
100
AcDbEntity
  8
0
  6
Continuous
 62
     7
100
AcDbLine
 10
388.4143999495
 20
159.3968946359
 30
0.0
 11
389.227631294
 21
159.8663630982
 31
0.0
  0
LINE
  5
2E6
330
1F
100
AcDbEntity
  8
0
  6
Continuous
 62
     7
100
AcDbLine
 10
391.2428275378
 20
160.5399304394
 30
0.0
 11
391.2428275378
 21
154.9056547947
 31
0.0
  0
LINE
  5
2E7
330
1F
100
AcDbEntity
  8
0
  6
Continuous
 62
     7
100
AcDbLine
 10
391.2428275378
 20
220.2289198064
 30
0.0
 11
391.2428275378
 21
214.1048649949
 31
0.0
  0
LINE
  5
2E8
330
1F
100
AcDbEntity
  8
0
  6
Continuous
 62
     7
100
AcDbLine
 10
388.4143999495
 20
212.4720485036
 30
0.0
 11
391.2428275378
 21
214.1048649949
 31
0.0
  0
LINE
  5
2E9
330
1F
100
AcDbEntity
  8
0
  6
Continuous
 62
     7
100
AcDbLine
 10
276.337976517
 20
288.6034299636
 30
0.0
 11
389.4750602951
 21
223.2907817173
 31
0.0
  0
LWPOLYLINE
  5
2EA
330
1F
100
AcDbEntity
  8
0
  6
Continuous
 62
     7
100
AcDbPolyline
 90
       17
 70
   128
 43
0.0
 10
357.6552551944
 20
236.7615147291
 10
357.3300948923
 20
237.0424433747
 10
357.2159164455
 20
237.3738220538
 10
357.3300975265
 20
237.7051992123
 10
357.6552551944
 20
237.9861263372
 10
358.1418906099
 20
238.173837384
 10
358.7159148815
 20
238.239752719
 10
359.2899391532
 20
238.173837384
 10
359.7765772028
 20
237.9861278579
 10
360.1017348707
 20
237.7051976916
 10
360.2159159516
 20
237.3738205331
 10
360.1017348707
 20
237.0424433747
 10
359.7765745686
 20
236.7615147291
 10
359.2899417873
 20
236.5738052029
 10
358.7159175157
 20
236.5078898679
 10
358.1418906099
 20
236.5738036822
 10
357.6552551944
 20
236.7615147291
  0
LINE
  5
2EB
330
1F
100
AcDbEntity
  8
0
  6
Continuous
 62
     7
100
AcDbLine
 10
358.8219826941
 20
193.3118540955
 30
0.0
 11
359.8826423812
 21
193.9241598996
 31
0.0
  0
LINE
  5
2EC
330
1F
100
AcDbEntity
  8
0
  6
Continuous
 62
     7
100
AcDbLine
 10
351.3374979204
 20
208.6342617596
 30
0.0
 11
351.4438818344
 21
208.7353403021
 31
0.0
  0
LINE
  5
2ED
330
1F
100
AcDbEntity
  8
0
  6
Continuous
 62
     7
100
AcDbLine
 10
359.977541279
 20
193.9530085989
 30
0.0
 11
359.8826423812
 21
193.9241598996
 31
0.0
  0
ARC
  5
2EE
330
1F
100
AcDbEntity
  8
0
  6
Continuous
 62
     7
100
AcDbCircle
 10
390.0598234567
 20
154.7514345055
 30
0.0
 40
1.193014062676981
100
AcDbArc
 50
303.8848483014
 51
7.427379527000001
  0
LWPOLYLINE
  5
2EF
330
1F
100
AcDbEntity
  8
0
  6
Continuous
 62
     7
100
AcDbPolyline
 90
        3
 70
   128
 43
0.0
 10
358.2303120638
 20
181.0570792019
 10
358.0618405736
 20
181.0348578773
 10
357.9705636707
 20
181.0286971677
  0
ARC
  5
2F0
330
1F
100
AcDbEntity
  8
0
  6
Continuous
 62
     7
100
AcDbCircle
 10
311.9978163656
 20
230.6945622852
 30
0.0
 40
5.308673730797675
100
AcDbArc
 50
134.3360288872
 51
184.8576532688
  0
ARC
  5
2F1
330
1F
100
AcDbEntity
  8
0
  6
Continuous
 62
     7
100
AcDbCircle
 10
316.9580828415
 20
223.5199413997
 30
0.0
 40
6.475259744019938
100
AcDbArc
 50
225.503279062
 51
281.7872696493
  0
LWPOLYLINE
  5
2F2
330
1F
100
AcDbEntity
  8
0
  6
Continuous
 62
     7
100
AcDbPolyline
 90
        3
 70
   128
 43
0.0
 10
306.8462204243
 20
228.5559303583
 10
306.7875836214
 20
228.9761262314
 10
306.7082105689
 20
230.2450210802
  0
ARC
  5
2F3
330
1F
100
AcDbEntity
  8
0
  6
Continuous
 62
     7
100
AcDbCircle
 10
275.6056790415
 20
287.5812414133
 30
0.0
 40
1.257429530840143
100
AcDbArc
 50
54.38212911029999
 51
114.3074305244
  0
ARC
  5
2F4
330
1F
100
AcDbEntity
  8
0
  6
Continuous
 62
     7
100
AcDbCircle
 10
395.3950976187
 20
224.6669751784
 30
0.0
 40
3.842009177589425
100
AcDbArc
 50
2.6054633527
 51
57.39454911679999
  0
LINE
  5
2F5
330
1F
100
AcDbEntity
  8
0
  6
Continuous
 62
     7
100
AcDbLine
 10
399.2331350798
 20
159.5183611545
 30
0.0
 11
399.2331350798
 21
165.1526367991
 31
0.0
  0
ARC
  5
2F6
330
1F
100
AcDbEntity
  8
0
  6
Continuous
 62
     7
100
AcDbCircle
 10
398.1554517169
 20
159.3435402928
 30
0.0
 40
1.091770930354679
100
AcDbArc
 50
230.7964337426
 51
9.2142071096
  0
LINE
  5
2F7
330
1F
100
AcDbEntity
  8
0
  6
Continuous
 62
     7
100
AcDbLine
 10
394.4681085347
 20
160.2278023438
 30
0.0
 11
397.4653678371
 21
158.4975213786
 31
0.0
  0
LINE
  5
2F8
330
1F
100
AcDbEntity
  8
0
  6
Continuous
 62
     7
100
AcDbLine
 10
282.5605187919
 20
292.1952938861
 30
0.0
 11
282.5605187919
 21
285.0112328923
 31
0.0
  0
ARC
  5
2F9
330
1F
100
AcDbEntity
  8
0
  6
Continuous
 62
     7
100
AcDbCircle
 10
283.6382025625
 20
292.3701149119
 30
0.0
 40
1.091771359071458
100
AcDbArc
 50
50.7966135027
 51
189.2142121871
  0
LINE
  5
2FA
330
1F
100
AcDbEntity
  8
0
  6
Continuous
 62
     7
100
AcDbLine
 10
397.4653678371
 20
227.9034880771
 30
0.0
 11
284.328284059
 21
293.2161363234
 31
0.0
  0
LINE
  5
2FB
330
1F
100
AcDbEntity
  8
0
  6
Continuous
 62
     7
100
AcDbLine
 10
399.2331350798
 20
218.7175713546
 30
0.0
 11
399.2331350798
 21
224.8416261662
 31
0.0
  0
LINE
  5
2FC
330
1F
100
AcDbEntity
  8
0
  6
Continuous
 62
     7
100
AcDbLine
 10
399.2331350798
 20
218.7175713546
 30
0.0
 11
398.1724747342
 21
219.3298775389
 31
0.0
  0
LINE
  5
2FD
330
1F
100
AcDbEntity
  8
0
  6
Continuous
 62
     7
100
AcDbLine
 10
398.1724747342
 20
219.3298775389
 30
0.0
 11
398.1724747342
 21
225.4539323504
 31
0.0
  0
ARC
  5
2FE
330
1F
100
AcDbEntity
  8
0
  6
Continuous
 62
     7
100
AcDbCircle
 10
396.6372608348
 20
225.3840729033
 30
0.0
 40
1.536802544008407
100
AcDbArc
 50
2.6054298847
 51
57.394570261
  0
LINE
  5
2FF
330
1F
100
AcDbEntity
  8
0
  6
Continuous
 62
     7
100
AcDbLine
 10
397.4653678371
 20
226.678677419
 30
0.0
 11
284.328284059
 21
291.9913256653
 31
0.0
  0
ARC
  5
300
330
1F
100
AcDbEntity
  8
0
  6
Continuous
 62
     7
100
AcDbCircle
 10
284.0522488678
 20
291.6529195218
 30
0.0
 40
0.4367083062431708
100
AcDbArc
 50
50.79614914919999
 51
189.2144177684
  0
LINE
  5
301
330
1F
100
AcDbEntity
  8
0
  6
Continuous
 62
     7
100
AcDbLine
 10
283.6211758448
 20
291.5829896027
 30
0.0
 11
283.6211758448
 21
290.2883684512
 31
0.0
  0
LINE
  5
302
330
1F
100
AcDbEntity
  8
0
  6
Continuous
 62
     7
100
AcDbLine
 10
395.6368498635
 20
160.7779099524
 30
0.0
 11
397.4653678371
 21
159.7223289949
 31
0.0
  0
ARC
  5
303
330
1F
100
AcDbEntity
  8
0
  6
Continuous
 62
     7
100
AcDbCircle
 10
397.7413992744
 20
160.0607406392
 30
0.0
 40
0.4367101960925526
100
AcDbArc
 50
230.796986966
 51
9.2139496259
  0
LINE
  5
304
330
1F
100
AcDbEntity
  8
0
  6
Continuous
 62
     7
100
AcDbLine
 10
398.1724747342
 20
160.1306673387
 30
0.0
 11
398.1724747342
 21
164.5403300456
 31
0.0
  0
LINE
  5
305
330
1F
100
AcDbEntity
  8
0
  6
Continuous
 62
     7
100
AcDbLine
 10
402.061560034
 20
219.4114488772
 30
0.0
 11
402.061560034
 21
220.3503863252
 31
0.0
  0
LINE
  5
306
330
1F
100
AcDbEntity
  8
0
  6
Continuous
 62
     7
100
AcDbLine
 10
402.061560034
 20
220.3503863252
 30
0.0
 11
399.2331350798
 21
218.7175713546
 31
0.0
  0
LWPOLYLINE
  5
307
330
1F
100
AcDbEntity
  8
0
  6
Continuous
 62
     7
100
AcDbPolyline
 90
       17
 70
   128
 43
0.0
 10
374.1308441844
 20
246.2726698024
 10
373.6442074519
 20
246.4603800889
 10
373.0701831802
 20
246.5262954239
 10
372.4961589086
 20
246.4603800889
 10
372.0095234931
 20
246.272669042
 10
371.684363191
 20
245.9917403964
 10
371.5701821101
 20
245.660363238
 10
371.684363191
 20
245.3289860795
 10
372.0095234931
 20
245.0480574339
 10
372.4961589086
 20
244.860346387
 10
373.0701831802
 20
244.794431052
 10
373.6442074519
 20
244.860346387
 10
374.1308428673
 20
245.0480574339
 10
374.4560031694
 20
245.3289860795
 10
374.5701842504
 20
245.660363238
 10
374.4560031694
 20
245.9917403964
 10
374.1308441844
 20
246.2726698024
  0
ARC
  5
308
330
1F
100
AcDbEntity
  8
0
  6
Continuous
 62
     7
100
AcDbCircle
 10
292.2641919994
 20
213.7022690547
 30
0.0
 40
0.3073586720042369
100
AcDbArc
 50
2.6052761666
 51
57.39410778080001
  0
LINE
  5
309
330
1F
100
AcDbEntity
  8
0
  6
Continuous
 62
     7
100
AcDbLine
 10
292.5712329818
 20
210.6950396023
 30
0.0
 11
292.5712329818
 21
213.7162400369
 31
0.0
  0
LINE
  5
30A
330
1F
100
AcDbEntity
  8
0
  6
Continuous
 62
     7
100
AcDbLine
 10
292.0055485178
 20
211.0216022923
 30
0.0
 11
292.5712329818
 21
210.6950396023
 31
0.0
  0
LINE
  5
30B
330
1F
100
AcDbEntity
  8
0
  6
Continuous
 62
     7
100
AcDbLine
 10
292.0055485178
 20
212.0301099275
 30
0.0
 11
292.0055485178
 21
211.0216022923
 31
0.0
  0
ARC
  5
30C
330
1F
100
AcDbEntity
  8
0
  6
Continuous
 62
     7
100
AcDbCircle
 10
291.732900604
 20
212.0310604392
 30
0.0
 40
0.2726495707176699
100
AcDbArc
 50
359.8002548899
 51
74.8836222578
  0
LINE
  5
30D
330
1F
100
AcDbEntity
  8
0
  6
Continuous
 62
     7
100
AcDbLine
 10
289.6720987868
 20
212.3686741488
 30
0.0
 11
291.8040022883
 21
212.2942758242
 31
0.0
  0
LINE
  5
30E
330
1F
100
AcDbEntity
  8
0
  6
Continuous
 62
     7
100
AcDbLine
 10
286.9143778051
 20
213.9606725849
 30
0.0
 11
289.6720987868
 21
212.3686741488
 31
0.0
  0
LINE
  5
30F
330
1F
100
AcDbEntity
  8
0
  6
Continuous
 62
     7
100
AcDbLine
 10
286.9143778051
 20
216.9818730194
 30
0.0
 11
286.9143778051
 21
213.9606725849
 31
0.0
  0
ARC
  5
310
330
1F
100
AcDbEntity
  8
0
  6
Continuous
 62
     7
100
AcDbCircle
 10
287.0005960104
 20
216.9958529322
 30
0.0
 40
0.0873442435239673
100
AcDbArc
 50
50.7987949373
 51
189.2101084575
  0
LINE
  5
311
330
1F
100
AcDbEntity
  8
0
  6
Continuous
 62
     7
100
AcDbLine
 10
292.4298145
 20
213.9611870736
 30
0.0
 11
287.0558015553
 21
217.0635387112
 31
0.0
  0
LINE
  5
312
330
1F
100
AcDbEntity
  8
0
  6
Continuous
 62
     7
100
AcDbLine
 10
292.5712329818
 20
210.6950396023
 30
0.0
 11
318.9651463186
 21
225.9319214455
 31
0.0
  0
LINE
  5
313
330
1F
100
AcDbEntity
  8
0
  6
Continuous
 62
     7
100
AcDbLine
 10
292.5712329818
 20
210.5317286755
 30
0.0
 11
319.0151166759
 21
225.7974577919
 31
0.0
  0
LINE
  5
314
330
1F
100
AcDbEntity
  8
0
  6
Continuous
 62
     7
100
AcDbLine
 10
292.5712329818
 20
210.5317286755
 30
0.0
 11
292.0055485178
 21
210.8582913655
 31
0.0
  0
LINE
  5
315
330
1F
100
AcDbEntity
  8
0
  6
Continuous
 62
     7
100
AcDbLine
 10
292.0055485178
 20
210.8582913655
 30
0.0
 11
292.1469933415
 21
210.9399457241
 31
0.0
  0
LINE
  5
316
330
1F
100
AcDbEntity
  8
0
  6
Continuous
 62
     7
100
AcDbLine
 10
289.6720987868
 20
212.205363222
 30
0.0
 11
286.9143778051
 21
213.7973616581
 31
0.0
  0
LINE
  5
317
330
1F
100
AcDbEntity
  8
0
  6
Continuous
 62
     7
100
AcDbLine
 10
291.8040022883
 20
209.8183181571
 30
0.0
 11
289.6720987868
 21
212.205363222
 31
0.0
  0
LWPOLYLINE
  5
318
330
1F
100
AcDbEntity
  8
0
  6
Continuous
 62
     7
100
AcDbPolyline
 90
        9
 70
   128
 43
0.0
 10
292.0055485178
 20
209.8497837303
 10
292.0011072937
 20
209.8117510434
 10
291.9880681124
 20
209.7812309232
 10
291.9672475693
 20
209.7601367708
 10
291.9399469481
 20
209.7498040812
 10
291.9078890015
 20
209.750868763
 10
291.873080973
 20
209.763279293
 10
291.8377144987
 20
209.786238912
 10
291.8040022883
 20
209.8183181571
  0
LINE
  5
319
330
1F
100
AcDbEntity
  8
0
  6
Continuous
 62
     7
100
AcDbLine
 10
292.0055485178
 20
210.8582913655
 30
0.0
 11
292.0055485178
 21
209.8497837303
 31
0.0
  0
LINE
  5
31A
330
1F
100
AcDbEntity
  8
0
  6
Continuous
 62
     7
100
AcDbLine
 10
292.5712329818
 20
207.5105312828
 30
0.0
 11
292.5712329818
 21
210.5317286755
 31
0.0
  0
ARC
  5
31B
330
1F
100
AcDbEntity
  8
0
  6
Continuous
 62
     7
100
AcDbCircle
 10
292.4850173467
 20
207.4965454391
 30
0.0
 40
0.0873426560829135
100
AcDbArc
 50
230.800229706
 51
9.2142188031
  0
LINE
  5
31C
330
1F
100
AcDbEntity
  8
0
  6
Continuous
 62
     7
100
AcDbLine
 10
287.0558015553
 20
210.5312111454
 30
0.0
 11
292.4298145
 21
207.4288595078
 31
0.0
  0
ARC
  5
31D
330
1F
100
AcDbEntity
  8
0
  6
Continuous
 62
     7
100
AcDbCircle
 10
287.2214514077
 20
210.7901512128
 30
0.0
 40
0.307391984465067
100
AcDbArc
 50
182.6079725293
 51
237.3920276163
  0
LINE
  5
31E
330
1F
100
AcDbEntity
  8
0
  6
Continuous
 62
     7
100
AcDbLine
 10
286.9143778051
 20
213.7973616581
 30
0.0
 11
286.9143778051
 21
210.7761642654
 31
0.0
  0
LINE
  5
31F
330
1F
100
AcDbEntity
  8
0
  6
Continuous
 62
     7
100
AcDbLine
 10
289.6720987868
 20
212.205363222
 30
0.0
 11
289.938861996
 21
212.3593623448
 31
0.0
  0
LINE
  5
320
330
1F
100
AcDbEntity
  8
0
  6
Continuous
 62
     7
100
AcDbLine
 10
286.9143778051
 20
213.7973616581
 30
0.0
 11
287.0558226287
 21
213.8790160167
 31
0.0
  0
ARC
  5
321
330
1F
100
AcDbEntity
  8
0
  6
Continuous
 62
     7
100
AcDbCircle
 10
395.2557548799
 20
209.3970861699
 30
0.0
 40
1.227563131819785
100
AcDbArc
 50
262.7907630569
 51
295.6488939413
  0
LINE
  5
322
330
1F
100
AcDbEntity
  8
0
  6
Continuous
 62
     7
100
AcDbLine
 10
396.1999956385
 20
209.8556090539
 30
0.0
 11
395.7871119395
 21
208.2904828454
 31
0.0
  0
LINE
  5
323
330
1F
100
AcDbEntity
  8
0
  6
Continuous
 62
     7
100
AcDbLine
 10
397.3489529732
 20
210.0421051489
 30
0.0
 11
396.1999956385
 21
209.8556090539
 31
0.0
  0
ARC
  5
324
330
1F
100
AcDbEntity
  8
0
  6
Continuous
 62
     7
100
AcDbCircle
 10
394.3628277896
 20
211.3291714354
 30
0.0
 40
3.251689289846713
100
AcDbArc
 50
336.6832080714
 51
353.7607535179001
  0
LINE
  5
325
330
1F
100
AcDbEntity
  8
0
  6
Continuous
 62
     7
100
AcDbLine
 10
396.446299187
 20
210.7892807594
 30
0.0
 11
397.5952565217
 21
210.9757768543
 31
0.0
  0
LINE
  5
326
330
1F
100
AcDbEntity
  8
0
  6
Continuous
 62
     7
100
AcDbLine
 10
396.8591828859
 20
212.3544069679
 30
0.0
 11
396.446299187
 21
210.7892807594
 31
0.0
  0
ARC
  5
327
330
1F
100
AcDbEntity
  8
0
  6
Continuous
 62
     7
100
AcDbCircle
 10
396.7051424494
 20
211.1364845364
 30
0.0
 40
1.227625148506072
100
AcDbArc
 50
82.7916165325
 51
115.6480404658
  0
LINE
  5
328
330
1F
100
AcDbEntity
  8
0
  6
Continuous
 62
     7
100
AcDbLine
 10
395.7608913314
 20
210.6780254735
 30
0.0
 11
396.1737750303
 21
212.243151682
 31
0.0
  0
LINE
  5
329
330
1F
100
AcDbEntity
  8
0
  6
Continuous
 62
     7
100
AcDbLine
 10
394.6119339967
 20
210.4915293786
 30
0.0
 11
395.7608913314
 21
210.6780254735
 31
0.0
  0
ARC
  5
32A
330
1F
100
AcDbEntity
  8
0
  6
Continuous
 62
     7
100
AcDbCircle
 10
397.5980209168
 20
209.2044731859
 30
0.0
 40
3.251650156077893
100
AcDbArc
 50
156.6831045392
 51
173.76085705
  0
LINE
  5
32B
330
1F
100
AcDbEntity
  8
0
  6
Continuous
 62
     7
100
AcDbLine
 10
395.5145877829
 20
209.744353768
 30
0.0
 11
394.3656304482
 21
209.5578576731
 31
0.0
  0
LINE
  5
32C
330
1F
100
AcDbEntity
  8
0
  6
Continuous
 62
     7
100
AcDbLine
 10
395.101704084
 20
208.1792275595
 30
0.0
 11
395.5145877829
 21
209.744353768
 31
0.0
  0
LWPOLYLINE
  5
32D
330
1F
100
AcDbEntity
  8
0
  6
Continuous
 62
     7
100
AcDbPolyline
 90
       26
 70
   128
 43
0.0
 10
396.8771822244
 20
213.6661079479
 10
397.4695956929
 20
213.660046224
 10
397.9684378893
 20
213.4407746948
 10
398.3423699976
 20
213.0220713256
 10
398.5678898815
 20
212.4302442541
 10
398.6308335656
 20
211.7024829656
 10
398.5272418803
 20
210.8845114235
 10
398.2636265137
 20
210.0277302245
 10
397.8565511774
 20
209.1859694614
 10
397.3315911058
 20
208.4121230123
 10
396.7217341103
 20
207.7548133001
 10
396.065299579
 20
207.2553435523
 10
395.4035334713
 20
206.9450957233
 10
394.7780162874
 20
206.843562659
 10
394.2280499637
 20
206.9571255179
 10
393.788194916
 20
207.2786479154
 10
393.4860863059
 20
207.7879278429
 10
393.3407086544
 20
208.4529678034
 10
393.361194657
 20
209.2319764623
 10
393.5462562005
 20
210.0760090277
 10
393.8842686572
 20
210.9320303876
 10
394.3539900155
 20
211.7462534738
 10
394.9259069447
 20
212.4675171125
 10
395.5640866223
 20
213.0505056497
 10
396.228426322
 20
213.4585837464
 10
396.8771822244
 20
213.6661079479
  0
LWPOLYLINE
  5
32E
330
1F
100
AcDbEntity
  8
0
  6
Continuous
 62
     7
100
AcDbPolyline
 90
        3
 70
   128
 43
0.0
 10
397.0237748904
 20
213.8800186782
 10
397.1160422443
 20
213.8641482854
 10
397.5017359576
 20
213.7186005622
  0
LWPOLYLINE
  5
32F
330
1F
100
AcDbEntity
  8
0
  6
Continuous
 62
     7
100
AcDbPolyline
 90
        3
 70
   128
 43
0.0
 10
393.752041481
 20
207.2232365673
 10
393.4346414674
 20
207.4827499768
 10
393.3732387775
 20
207.5564202577
  0
LINE
  5
330
330
1F
100
AcDbEntity
  8
0
  6
Continuous
 62
     7
100
AcDbLine
 10
395.5145877829
 20
209.744353768
 30
0.0
 11
394.5399359842
 21
210.307008275
 31
0.0
  0
LINE
  5
331
330
1F
100
AcDbEntity
  8
0
  6
Continuous
 62
     7
100
AcDbLine
 10
396.4185616216
 20
212.3280791648
 30
0.0
 11
396.8591828859
 21
212.3544069679
 31
0.0
  0
LINE
  5
332
330
1F
100
AcDbEntity
  8
0
  6
Continuous
 62
     7
100
AcDbLine
 10
395.8769466301
 20
211.1179609943
 30
0.0
 11
396.446299187
 21
210.7892807594
 31
0.0
  0
LINE
  5
333
330
1F
100
AcDbEntity
  8
0
  6
Continuous
 62
     7
100
AcDbLine
 10
395.7871119395
 20
208.2904828454
 30
0.0
 11
395.3172312135
 21
208.9962307922
 31
0.0
  0
LINE
  5
334
330
1F
100
AcDbEntity
  8
0
  6
Continuous
 62
     7
100
AcDbLine
 10
397.3489529732
 20
210.0421051489
 30
0.0
 11
395.5531501737
 21
210.6443057436
 31
0.0
  0
LINE
  5
335
330
1F
100
AcDbEntity
  8
0
  6
Continuous
 62
     7
100
AcDbLine
 10
396.1999956385
 20
209.8556090539
 30
0.0
 11
394.9916593211
 21
210.553166762
 31
0.0
  0
ARC
  5
336
330
1F
100
AcDbEntity
  8
0
  6
Continuous
 62
     7
100
AcDbCircle
 10
394.2919865915
 20
169.705232431
 30
0.0
 40
3.324933110253216
100
AcDbArc
 50
335.8300884581001
 51
352.654476924
  0
LINE
  5
337
330
1F
100
AcDbEntity
  8
0
  6
Continuous
 62
     7
100
AcDbLine
 10
396.4518968153
 20
169.1347382946
 30
0.0
 11
397.5896325516
 21
169.2801309023
 31
0.0
  0
LINE
  5
338
330
1F
100
AcDbEntity
  8
0
  6
Continuous
 62
     7
100
AcDbLine
 10
396.8947653627
 20
170.7042130581
 30
0.0
 11
396.4518968153
 21
169.1347382946
 31
0.0
  0
ARC
  5
339
330
1F
100
AcDbEntity
  8
0
  6
Continuous
 62
     7
100
AcDbCircle
 10
396.698078521
 20
169.5444164984
 30
0.0
 40
1.176356142332537
100
AcDbArc
 50
80.3749344611
 51
114.1899661508
  0
LINE
  5
33A
330
1F
100
AcDbEntity
  8
0
  6
Continuous
 62
     7
100
AcDbLine
 10
395.7731824061
 20
169.048004267
 30
0.0
 11
396.2160509536
 21
170.6174790306
 31
0.0
  0
LINE
  5
33B
330
1F
100
AcDbEntity
  8
0
  6
Continuous
 62
     7
100
AcDbLine
 10
394.6354466698
 20
168.9026116593
 30
0.0
 11
395.7731824061
 21
169.048004267
 31
0.0
  0
ARC
  5
33C
330
1F
100
AcDbEntity
  8
0
  6
Continuous
 62
     7
100
AcDbCircle
 10
397.6687976531
 20
167.541264024
 30
0.0
 40
3.324828652995611
100
AcDbArc
 50
155.8297759464
 51
172.6545948249
  0
LINE
  5
33D
330
1F
100
AcDbEntity
  8
0
  6
Continuous
 62
     7
100
AcDbLine
 10
395.5089901546
 20
168.1117319361
 30
0.0
 11
394.3712544183
 21
167.9663454121
 31
0.0
  0
LINE
  5
33E
330
1F
100
AcDbEntity
  8
0
  6
Continuous
 62
     7
100
AcDbLine
 10
395.0661216071
 20
166.5422571725
 30
0.0
 11
395.5089901546
 21
168.1117319361
 31
0.0
  0
ARC
  5
33F
330
1F
100
AcDbEntity
  8
0
  6
Continuous
 62
     7
100
AcDbCircle
 10
395.2628084008
 20
167.7020582827
 30
0.0
 40
1.17636062078629
100
AcDbArc
 50
260.3749738285
 51
294.1897300839
  0
LINE
  5
340
330
1F
100
AcDbEntity
  8
0
  6
Continuous
 62
     7
100
AcDbLine
 10
396.1877045638
 20
168.1984659636
 30
0.0
 11
395.7448333821
 21
166.6289896794
 31
0.0
  0
LINE
  5
341
330
1F
100
AcDbEntity
  8
0
  6
Continuous
 62
     7
100
AcDbLine
 10
397.3254403001
 20
168.3438585713
 30
0.0
 11
396.1877045638
 21
168.1984659636
 31
0.0
  0
LWPOLYLINE
  5
342
330
1F
100
AcDbEntity
  8
0
  6
Continuous
 62
     7
100
AcDbPolyline
 90
       26
 70
   128
 43
0.0
 10
393.5093987814
 20
168.3074573872
 10
393.8262377151
 20
169.1651020407
 10
394.2784312528
 20
169.9886956745
 10
394.8375724186
 20
170.7264929752
 10
395.4685212775
 20
171.3321333386
 10
396.1316360843
 20
171.7675654003
 10
396.7852520452
 20
172.0054270524
 10
397.3882996904
 20
172.0307699272
 10
397.902886369
 20
171.8420142964
 10
398.2966775455
 20
171.4510036013
 10
398.5449303858
 20
170.8823107197
 10
398.6320479216
 20
170.17167735
 10
398.5525563312
 20
169.3637492613
 10
398.3114500159
 20
168.5092944876
 10
397.9238754995
 20
167.6619911621
 10
397.4141883921
 20
166.8750906948
 10
396.8144150302
 20
166.1980353779
 10
396.1622399647
 20
165.6733619693
 10
395.4986404691
 20
165.3340402951
 10
394.8653155816
 20
165.20138678
 10
394.3020598297
 20
165.2837490935
 10
393.8442607612
 20
165.5759375582
 10
393.5206862343
 20
166.0595964633
 10
393.3516668351
 20
166.7043449295
 10
393.3478235693
 20
167.4696584136
 10
393.5093987814
 20
168.3074573872
  0
LWPOLYLINE
  5
343
330
1F
100
AcDbEntity
  8
0
  6
Continuous
 62
     7
100
AcDbPolyline
 90
        3
 70
   128
 43
0.0
 10
397.0237748904
 20
172.2364350088
 10
397.0347462419
 20
172.2348719886
 10
397.5017359576
 20
172.0750168929
  0
LWPOLYLINE
  5
344
330
1F
100
AcDbEntity
  8
0
  6
Continuous
 62
     7
100
AcDbPolyline
 90
        3
 70
   128
 43
0.0
 10
393.752041481
 20
165.5796559399
 10
393.4907073127
 20
165.7800396196
 10
393.3732387775
 20
165.9128365884
  0
LINE
  5
345
330
1F
100
AcDbEntity
  8
0
  6
Continuous
 62
     7
100
AcDbLine
 10
394.5422435241
 20
168.6698228865
 30
0.0
 11
395.5089901546
 21
168.1117319361
 31
0.0
  0
LINE
  5
346
330
1F
100
AcDbEntity
  8
0
  6
Continuous
 62
     7
100
AcDbLine
 10
396.8947653627
 20
170.7042130581
 30
0.0
 11
396.204457936
 21
170.6537348312
 31
0.0
  0
LINE
  5
347
330
1F
100
AcDbEntity
  8
0
  6
Continuous
 62
     7
100
AcDbLine
 10
396.4518968153
 20
169.1347382946
 30
0.0
 11
395.8893019128
 21
169.4595174186
 31
0.0
  0
LINE
  5
348
330
1F
100
AcDbEntity
  8
0
  6
Continuous
 62
     7
100
AcDbLine
 10
395.7448333821
 20
166.6289896794
 30
0.0
 11
395.2876688212
 21
167.327395622
 31
0.0
  0
LINE
  5
349
330
1F
100
AcDbEntity
  8
0
  6
Continuous
 62
     7
100
AcDbLine
 10
397.3254403001
 20
168.3438585713
 30
0.0
 11
395.4291956336
 21
169.0040453786
 31
0.0
  0
LINE
  5
34A
330
1F
100
AcDbEntity
  8
0
  6
Continuous
 62
     7
100
AcDbLine
 10
396.1877045638
 20
168.1984659636
 30
0.0
 11
394.9076942378
 21
168.9374001962
 31
0.0
  0
ARC
  5
34B
330
1F
100
AcDbEntity
  8
0
  6
Continuous
 62
     7
100
AcDbCircle
 10
358.8364920481
 20
235.8996110481
 30
0.0
 40
1.392296594672539
100
AcDbArc
 50
41.6693937904
 51
98.27278301979999
  0
ARC
  5
34C
330
1F
100
AcDbEntity
  8
0
  6
Continuous
 62
     7
100
AcDbCircle
 10
358.5779275215
 20
235.8986925603
 30
0.0
 40
1.379956404624062
100
AcDbArc
 50
87.5814750411
 51
137.8215250419
  0
ARC
  5
34D
330
1F
100
AcDbEntity
  8
0
  6
Continuous
 62
     7
100
AcDbCircle
 10
358.7923999201
 20
235.5443374511
 30
0.0
 40
1.766058762702054
100
AcDbArc
 50
49.1326876868
 51
95.3872651327
  0
ARC
  5
34E
330
1F
100
AcDbEntity
  8
0
  6
Continuous
 62
     7
100
AcDbCircle
 10
358.5798824728
 20
235.6729870176
 30
0.0
 40
1.630277483179626
100
AcDbArc
 50
88.35825190989999
 51
132.2430937075
  0
LINE
  5
34F
330
1F
100
AcDbEntity
  8
0
  6
Continuous
 62
     7
100
AcDbLine
 10
358.0759360603
 20
237.1121265502
 30
0.0
 11
357.7374520857
 21
236.7174845996
 31
0.0
  0
LINE
  5
350
330
1F
100
AcDbEntity
  8
0
  6
Continuous
 62
     7
100
AcDbLine
 10
359.2282862163
 20
237.1546584102
 30
0.0
 11
359.7184435278
 21
236.7297017315
 31
0.0
  0
LINE
  5
351
330
1F
100
AcDbEntity
  8
0
  6
Continuous
 62
     7
100
AcDbLine
 10
359.2282862163
 20
237.1546584102
 30
0.0
 11
358.0759360603
 21
237.1121265502
 31
0.0
  0
LINE
  5
352
330
1F
100
AcDbEntity
  8
0
  6
Continuous
 62
     7
100
AcDbLine
 10
358.0759360603
 20
237.1121265502
 30
0.0
 11
358.0759360603
 21
236.5906604155
 31
0.0
  0
LINE
  5
353
330
1F
100
AcDbEntity
  8
0
  6
Continuous
 62
     7
100
AcDbLine
 10
359.2282862163
 20
237.1546584102
 30
0.0
 11
359.2282862163
 21
236.5599749084
 31
0.0
  0
ARC
  5
354
330
1F
100
AcDbEntity
  8
0
  6
Continuous
 62
     7
100
AcDbCircle
 10
373.0701831802
 20
244.0110965006
 30
0.0
 40
1.599551143861574
100
AcDbArc
 50
43.4822958124
 51
136.5177041876
  0
ARC
  5
355
330
1F
100
AcDbEntity
  8
0
  6
Continuous
 62
     7
100
AcDbCircle
 10
373.0701836332
 20
243.7662022799
 30
0.0
 40
1.865079078928263
100
AcDbArc
 50
48.6558923983
 51
131.3440368824
  0
LINE
  5
356
330
1F
100
AcDbEntity
  8
0
  6
Continuous
 62
     7
100
AcDbLine
 10
374.034471464
 20
244.9970732411
 30
0.0
 11
373.8661474878
 21
245.3267381155
 31
0.0
  0
LINE
  5
357
330
1F
100
AcDbEntity
  8
0
  6
Continuous
 62
     7
100
AcDbLine
 10
373.8661474878
 20
245.3267381155
 30
0.0
 11
372.7437136917
 21
245.4832189857
 31
0.0
  0
LINE
  5
358
330
1F
100
AcDbEntity
  8
0
  6
Continuous
 62
     7
100
AcDbLine
 10
372.7437136917
 20
245.4832189857
 30
0.0
 11
372.0182373541
 21
245.043069207
 31
0.0
  0
LINE
  5
359
330
1F
100
AcDbEntity
  8
0
  6
Continuous
 62
     7
100
AcDbLine
 10
373.8661474878
 20
244.9264030729
 30
0.0
 11
373.8661474878
 21
245.3267381155
 31
0.0
  0
LINE
  5
35A
330
1F
100
AcDbEntity
  8
0
  6
Continuous
 62
     7
100
AcDbLine
 10
372.7437136917
 20
244.8151903589
 30
0.0
 11
372.7437136917
 21
245.4832189857
 31
0.0
  0
ARC
  5
35B
330
1F
100
AcDbEntity
  8
0
  6
Continuous
 62
     7
100
AcDbCircle
 10
394.4098768506
 20
225.7309800329
 30
0.0
 40
1.536800684062363
100
AcDbArc
 50
2.605452413100001
 51
57.3946093517
  0
ARC
  5
35C
330
1F
100
AcDbEntity
  8
0
  6
Continuous
 62
     7
100
AcDbCircle
 10
395.4610857573
 20
226.3157084875
 30
0.0
 40
1.475037866805895
100
AcDbArc
 50
2.1997180605
 51
33.1862083193
  0
LINE
  5
35D
330
1F
100
AcDbEntity
  8
0
  6
Continuous
 62
     7
100
AcDbLine
 10
395.9450888645
 20
163.2544919274
 30
0.0
 11
395.9450888645
 21
161.2941159332
 31
0.0
  0
ARC
  5
35E
330
1F
100
AcDbEntity
  8
0
  6
Continuous
 62
     7
100
AcDbCircle
 10
395.4629762165
 20
161.2364600973
 30
0.0
 40
0.4855479387219346
100
AcDbArc
 50
304.4924771317001
 51
6.8196126552
  0
ARC
  5
35F
330
1F
100
AcDbEntity
  8
0
  6
Continuous
 62
     7
100
AcDbCircle
 10
284.6364039636
 20
290.2965306547
 30
0.0
 40
0.5029805108183537
100
AcDbArc
 50
54.38299694640001
 51
114.3068604942
  0
LINE
  5
360
330
1F
100
AcDbEntity
  8
0
  6
Continuous
 62
     7
100
AcDbLine
 10
284.9293218264
 20
290.7054175828
 30
0.0
 11
395.2379819674
 21
227.0255835467
 31
0.0
  0
LINE
  5
361
330
1F
100
AcDbEntity
  8
0
  6
Continuous
 62
     7
100
AcDbLine
 10
395.9450888645
 20
225.8008399991
 30
0.0
 11
395.9450888645
 21
221.7181352705
 31
0.0
  0
ARC
  5
362
330
1F
100
AcDbEntity
  8
0
  6
Continuous
 62
     7
100
AcDbCircle
 10
395.4693888695
 20
221.6575780862
 30
0.0
 40
0.4795390054981371
100
AcDbArc
 50
304.0572893324
 51
7.2548004545
  0
LINE
  5
363
330
1F
100
AcDbEntity
  8
0
  6
Continuous
 62
     7
100
AcDbLine
 10
396.9350366765
 20
226.3723247066
 30
0.0
 11
396.9350366765
 21
222.289619978
 31
0.0
  0
ARC
  5
364
330
1F
100
AcDbEntity
  8
0
  6
Continuous
 62
     7
100
AcDbCircle
 10
396.4593366815
 20
222.2290627937
 30
0.0
 40
0.4795390054983908
100
AcDbArc
 50
304.0572893324
 51
7.2548004545
  0
LINE
  5
365
330
1F
100
AcDbEntity
  8
0
  6
Continuous
 62
     7
100
AcDbLine
 10
396.9350366765
 20
163.8259766349
 30
0.0
 11
396.9350366765
 21
161.8656006406
 31
0.0
  0
ARC
  5
366
330
1F
100
AcDbEntity
  8
0
  6
Continuous
 62
     7
100
AcDbCircle
 10
396.4529240285
 20
161.8079448047
 30
0.0
 40
0.4855479387221247
100
AcDbArc
 50
304.4924771317001
 51
6.8196126552
  0
LINE
  5
367
330
1F
100
AcDbEntity
  8
0
  6
Continuous
 62
     7
100
AcDbLine
 10
285.4193131846
 20
291.3264086607
 30
0.0
 11
285.4516608908
 21
291.3428118387
 31
0.0
  0
LINE
  5
368
330
1F
100
AcDbEntity
  8
0
  6
Continuous
 62
     7
100
AcDbLine
 10
394.9551384183
 20
162.6830056993
 30
0.0
 11
394.9551384183
 21
160.722629705
 31
0.0
  0
ARC
  5
369
330
1F
100
AcDbEntity
  8
0
  6
Continuous
 62
     7
100
AcDbCircle
 10
394.5240624118
 20
160.6527039521
 30
0.0
 40
0.4367105841112142
100
AcDbArc
 50
230.7971210403
 51
9.2138155517
  0
LINE
  5
36A
330
1F
100
AcDbEntity
  8
0
  6
Continuous
 62
     7
100
AcDbLine
 10
394.2480315212
 20
160.3142913612
 30
0.0
 11
392.549998215
 21
161.2945451236
 31
0.0
  0
LINE
  5
36B
330
1F
100
AcDbEntity
  8
0
  6
Continuous
 62
     7
100
AcDbLine
 10
283.232263166
 20
284.6234429091
 30
0.0
 11
283.232263166
 21
289.725596813
 31
0.0
  0
ARC
  5
36C
330
1F
100
AcDbEntity
  8
0
  6
Continuous
 62
     7
100
AcDbCircle
 10
283.6633415163
 20
289.7955162464
 30
0.0
 40
0.4367118858643481
100
AcDbArc
 50
50.79743417760001
 51
189.2129479024
  0
LINE
  5
36D
330
1F
100
AcDbEntity
  8
0
  6
Continuous
 62
     7
100
AcDbLine
 10
283.9393713802
 20
290.1339313546
 30
0.0
 11
394.2480315212
 21
226.4540973186
 31
0.0
  0
ARC
  5
36E
330
1F
100
AcDbEntity
  8
0
  6
Continuous
 62
     7
100
AcDbCircle
 10
393.4199264044
 20
225.1594938048
 30
0.0
 40
1.536800684062537
100
AcDbArc
 50
2.605452413100001
 51
57.3946093517
  0
LINE
  5
36F
330
1F
100
AcDbEntity
  8
0
  6
Continuous
 62
     7
100
AcDbLine
 10
394.9551384183
 20
225.229353771
 30
0.0
 11
394.9551384183
 21
221.1466490423
 31
0.0
  0
ARC
  5
370
330
1F
100
AcDbEntity
  8
0
  6
Continuous
 62
     7
100
AcDbCircle
 10
394.5240638253
 20
221.0767221023
 30
0.0
 40
0.436709378987667
100
AcDbArc
 50
230.7967527658
 51
9.213998989
  0
LINE
  5
371
330
1F
100
AcDbEntity
  8
0
  6
Continuous
 62
     7
100
AcDbLine
 10
394.2480315212
 20
220.7383122194
 30
0.0
 11
325.3051228843
 21
260.5382062109
 31
0.0
  0
LWPOLYLINE
  5
372
330
1F
100
AcDbEntity
  8
0
  6
Continuous
 62
     7
100
AcDbPolyline
 90
        3
 70
   128
 43
0.0
 10
325.3051228843
 20
260.5382062109
 10
323.3489770095
 20
261.5740377586
 10
322.4252287256
 20
261.9978254913
  0
LWPOLYLINE
  5
373
330
1F
100
AcDbEntity
  8
0
  6
Continuous
 62
     7
100
AcDbPolyline
 90
        3
 70
   128
 43
0.0
 10
306.92034356
 20
230.3266617527
 10
306.9993214857
 20
229.0640787088
 10
307.053079791
 20
228.6753472906
  0
LWPOLYLINE
  5
374
330
1F
100
AcDbEntity
  8
0
  6
Continuous
 62
     7
100
AcDbPolyline
 90
        8
 70
   128
 43
0.0
 10
312.62663699
 20
219.0206166744
 10
313.4629885151
 20
218.4070989379
 10
314.5198312783
 20
217.7969965972
 10
315.5648729238
 20
217.3755974528
 10
316.5747640977
 20
217.1523229699
 10
317.5269456992
 20
217.1321535846
 10
318.4001493751
 20
217.3155405372
 10
318.4467321794
 20
217.3319161533
  0
ARC
  5
375
330
1F
100
AcDbEntity
  8
0
  6
Continuous
 62
     7
100
AcDbCircle
 10
312.3156266251
 20
230.7236339996
 30
0.0
 40
5.40986749537041
100
AcDbArc
 50
134.8361989463
 51
184.2081059544
  0
ARC
  5
376
330
1F
100
AcDbEntity
  8
0
  6
Continuous
 62
     7
100
AcDbCircle
 10
322.178320773
 20
227.9510437111
 30
0.0
 40
8.76118135251932
100
AcDbArc
 50
229.7346851686
 51
253.2196818124
  0
ARC
  5
377
330
1F
100
AcDbEntity
  8
0
  6
Continuous
 62
     7
100
AcDbCircle
 10
319.9079729332
 20
232.4720481377
 30
0.0
 40
9.099069778997812
100
AcDbArc
 50
167.2169049745
 51
189.8180873807
  0
LWPOLYLINE
  5
378
330
1F
100
AcDbEntity
  8
0
  6
Continuous
 62
     7
100
AcDbPolyline
 90
       31
 70
   128
 43
0.0
 10
347.8618264478
 20
195.2823603698
 10
347.1009046106
 20
196.4809138491
 10
346.4602646107
 20
197.7459096111
 10
345.9578425663
 20
199.0419284983
 10
345.6077023539
 20
200.3326901458
 10
345.4196457501
 20
201.5820628396
 10
345.3989384766
 20
202.7550612179
 10
345.5461600526
 20
203.8188515894
 10
345.8571906237
 20
204.7436507987
 10
346.3233215973
 20
205.503571872
 10
346.9315032555
 20
206.0773358331
 10
347.6647082715
 20
206.4488831497
 10
348.5024111299
 20
206.6078118055
 10
349.4211571097
 20
206.5496724125
 10
350.3952313649
 20
206.2760899486
 10
351.3973596161
 20
205.7947273204
 10
352.3994878674
 20
205.1190572979
 10
353.3735621225
 20
204.2679975655
 10
354.2923107365
 20
203.2653739084
 10
355.130013595
 20
202.1392541195
 10
355.8632159768
 20
200.9211678312
 10
356.4713976349
 20
199.6452122742
 10
356.9375286086
 20
198.3471078343
 10
357.2485591797
 20
197.0632003714
 10
357.3957807557
 20
195.8294315863
 10
357.3750734822
 20
194.6803413171
 10
357.1870195125
 20
193.6480926358
 10
356.836876666
 20
192.7615957932
 10
356.3344546216
 20
192.045661051
 10
355.6938146217
 20
191.5203324886
 10
354.9328927845
 20
191.2003206623
  0
LINE
  5
379
330
1F
100
AcDbEntity
  8
0
  6
Continuous
 62
     7
100
AcDbLine
 10
354.9328927845
 20
181.1355273764
 30
0.0
 11
354.9328927845
 21
191.2003206623
 31
0.0
  0
LWPOLYLINE
  5
37A
330
1F
100
AcDbEntity
  8
0
  6
Continuous
 62
     7
100
AcDbPolyline
 90
        9
 70
   128
 43
0.0
 10
352.4089998842
 20
178.3873502897
 10
352.9430083574
 20
178.3652024856
 10
353.4335028437
 20
178.4579641459
 10
353.8692406712
 20
178.6635231708
 10
354.2402383052
 20
178.9771667953
 10
354.5379978874
 20
179.3917124105
 10
354.7556942625
 20
179.8976490271
 10
354.8883382973
 20
180.483395848
 10
354.9328927845
 20
181.1355273764
  0
LINE
  5
37B
330
1F
100
AcDbEntity
  8
0
  6
Continuous
 62
     7
100
AcDbLine
 10
352.4089998842
 20
178.3873502897
 30
0.0
 11
350.3857219822
 21
179.5553637607
 31
0.0
  0
ARC
  5
37C
330
1F
100
AcDbEntity
  8
0
  6
Continuous
 62
     7
100
AcDbCircle
 10
356.4455316388
 20
185.6500979362
 30
0.0
 40
8.594595845297132
100
AcDbArc
 50
182.8846807568
 51
225.1646316028
  0
LINE
  5
37D
330
1F
100
AcDbEntity
  8
0
  6
Continuous
 62
     7
100
AcDbLine
 10
347.8618264478
 20
195.2823603698
 30
0.0
 11
347.8618264478
 21
185.217567084
 31
0.0
  0
LWPOLYLINE
  5
37E
330
1F
100
AcDbEntity
  8
0
  6
Continuous
 62
     7
100
AcDbPolyline
 90
       36
 70
   128
 43
0.0
 10
346.2708356001
 20
201.8136078414
 10
346.3532221522
 20
202.823090516
 10
346.5977291913
 20
203.7050085855
 10
346.9965015985
 20
204.431014298
 10
347.5367214634
 20
204.9777724075
 10
348.2010242846
 20
205.3277145917
 10
348.968060049
 20
205.4695885595
 10
349.8131781186
 20
205.3988383459
 10
350.7092095813
 20
205.1177336646
 10
351.6273602368
 20
204.6353137177
 10
352.5381193888
 20
203.9670785326
 10
353.4122134168
 20
203.1345114808
 10
354.2215461779
 20
202.1643690944
 10
354.9401104323
 20
201.0878324743
 10
355.5448044388
 20
199.9395035561
 10
356.0161985001
 20
198.7562873018
 10
356.3391381901
 20
197.5762191223
 10
356.5032474815
 20
196.4372192864
 10
356.5032474815
 20
195.3759051081
 10
356.3391381901
 20
194.4263818269
 10
356.0161985001
 20
193.6191718769
 10
355.5448044388
 20
192.9802186628
 10
354.9401104323
 20
192.5300545837
 10
354.2215461779
 20
192.2831545924
 10
353.4122134168
 20
192.24744488
 10
352.5381193888
 20
192.4240883533
 10
351.6273602368
 20
192.8073902605
 10
350.7092095813
 20
193.3850444962
 10
349.8131781186
 20
194.138475721
 10
348.968060049
 20
195.043481103
 10
348.2010242846
 20
196.0709557137
 10
347.5367214634
 20
197.1878825677
 10
346.9965015985
 20
198.3583682988
 10
346.5977291913
 20
199.5447868325
 10
346.3532221522
 20
200.7090036785
 10
346.2708356001
 20
201.8136078414
  0
LWPOLYLINE
  5
37F
330
1F
100
AcDbEntity
  8
0
  6
Continuous
 62
     7
100
AcDbPolyline
 90
        3
 70
   128
 43
0.0
 10
355.3674821104
 20
193.0633472357
 10
355.6357599721
 20
193.099562838
 10
355.6595545022
 20
193.1040715738
  0
LWPOLYLINE
  5
380
330
1F
100
AcDbEntity
  8
0
  6
Continuous
 62
     7
100
AcDbPolyline
 90
        3
 70
   128
 43
0.0
 10
348.5493785242
 20
205.4205929551
 10
348.4107153926
 20
205.2474225436
 10
348.3680522452
 20
205.1880324723
  0
LWPOLYLINE
  5
381
330
1F
100
AcDbEntity
  8
0
  6
Continuous
 62
     7
100
AcDbPolyline
 90
       32
 70
   128
 43
0.0
 10
352.3519541248
 20
193.1112753439
 10
353.1804294576
 20
192.9329393624
 10
353.9452788542
 20
192.9658996298
 10
354.6192043278
 20
193.2089839924
 10
355.1781611011
 20
193.6535087499
 10
355.6022005439
 20
194.2836194209
 10
355.8761945719
 20
195.0768216144
 10
355.9903598478
 20
196.0048221512
 10
355.9406265666
 20
197.034490323
 10
355.7287701642
 20
198.1290989805
 10
355.3623480974
 20
199.2495777706
 10
354.8544390602
 20
200.3559412607
 10
354.2231635632
 20
201.4087185642
 10
353.4910490969
 20
202.3703358026
 10
352.6842240734
 20
203.2064757373
 10
351.8314800583
 20
203.887303548
 10
350.9632418081
 20
204.388526821
 10
350.1104951589
 20
204.6922578139
 10
349.3036701353
 20
204.787658223
 10
348.5715556691
 20
204.6713223549
 10
347.9402828063
 20
204.3473987055
 10
347.4323711349
 20
203.8274560282
 10
347.0659490681
 20
203.1300391513
 10
346.8540926657
 20
202.2800346894
 10
346.8043593845
 20
201.3077873419
 10
346.9185272945
 20
200.2479728626
 10
347.1925186884
 20
199.1384254186
 10
347.6165581312
 20
198.018729228
 10
348.1755149045
 20
196.9288467169
 10
348.849440378
 20
195.9076645648
 10
349.6142897747
 20
194.991627981
 10
350.4427651075
 20
194.2134267036
  0
LINE
  5
382
330
1F
100
AcDbEntity
  8
0
  6
Continuous
 62
     7
100
AcDbLine
 10
350.4427651075
 20
194.2134267036
 30
0.0
 11
350.7963192146
 21
194.0008258993
 31
0.0
  0
ARC
  5
383
330
1F
100
AcDbEntity
  8
0
  6
Continuous
 62
     7
100
AcDbCircle
 10
349.4966994888
 20
202.9178449482
 30
0.0
 40
2.530472692950083
100
AcDbArc
 50
89.79224670899997
 51
119.4853713268
  0
LWPOLYLINE
  5
384
330
1F
100
AcDbEntity
  8
0
  6
Continuous
 62
     7
100
AcDbPolyline
 90
        3
 70
   128
 43
0.0
 10
356.1618764478
 20
193.9185240829
 10
355.721547248
 20
193.3533128284
 10
355.2506299729
 20
192.9958875842
  0
LINE
  5
385
330
1F
100
AcDbEntity
  8
0
  6
Continuous
 62
     7
100
AcDbLine
 10
351.3973596161
 20
194.3477991376
 30
0.0
 11
350.7963192146
 21
194.0008258993
 31
0.0
  0
LINE
  5
386
330
1F
100
AcDbEntity
  8
0
  6
Continuous
 62
     7
100
AcDbLine
 10
351.3973596161
 20
193.9548858887
 30
0.0
 11
352.3519541248
 21
193.4038102088
 31
0.0
  0
LINE
  5
387
330
1F
100
AcDbEntity
  8
0
  6
Continuous
 62
     7
100
AcDbLine
 10
351.3973596161
 20
194.7714222716
 30
0.0
 11
351.3973596161
 21
193.9548858887
 31
0.0
  0
LINE
  5
388
330
1F
100
AcDbEntity
  8
0
  6
Continuous
 62
     7
100
AcDbLine
 10
352.1044678303
 20
195.1797598551
 30
0.0
 11
351.3973596161
 21
194.7714222716
 31
0.0
  0
LINE
  5
389
330
1F
100
AcDbEntity
  8
0
  6
Continuous
 62
     7
100
AcDbLine
 10
352.1044678303
 20
196.8128447884
 30
0.0
 11
352.1044678303
 21
195.1797598551
 31
0.0
  0
LINE
  5
38A
330
1F
100
AcDbEntity
  8
0
  6
Continuous
 62
     7
100
AcDbLine
 10
351.3973596161
 20
198.8541285212
 30
0.0
 11
352.1044678303
 21
196.8128447884
 31
0.0
  0
LINE
  5
38B
330
1F
100
AcDbEntity
  8
0
  6
Continuous
 62
     7
100
AcDbLine
 10
352.1044678303
 20
200.8955479962
 30
0.0
 11
351.3973596161
 21
198.8541285212
 31
0.0
  0
LINE
  5
38C
330
1F
100
AcDbEntity
  8
0
  6
Continuous
 62
     7
100
AcDbLine
 10
351.3973596161
 20
201.3037528793
 30
0.0
 11
352.1044678303
 21
200.8955479962
 31
0.0
  0
LINE
  5
38D
330
1F
100
AcDbEntity
  8
0
  6
Continuous
 62
     7
100
AcDbLine
 10
350.4427651075
 20
199.4052042011
 30
0.0
 11
351.3973596161
 21
201.3037528793
 31
0.0
  0
LINE
  5
38E
330
1F
100
AcDbEntity
  8
0
  6
Continuous
 62
     7
100
AcDbLine
 10
350.4427651075
 20
198.5886617344
 30
0.0
 11
350.4427651075
 21
199.4052042011
 31
0.0
  0
LINE
  5
38F
330
1F
100
AcDbEntity
  8
0
  6
Continuous
 62
     7
100
AcDbLine
 10
351.3973596161
 20
196.404507205
 30
0.0
 11
350.4427651075
 21
198.5886617344
 31
0.0
  0
LINE
  5
390
330
1F
100
AcDbEntity
  8
0
  6
Continuous
 62
     7
100
AcDbLine
 10
350.4427651075
 20
195.3224979515
 30
0.0
 11
351.3973596161
 21
196.404507205
 31
0.0
  0
LINE
  5
391
330
1F
100
AcDbEntity
  8
0
  6
Continuous
 62
     7
100
AcDbLine
 10
350.4427651075
 20
194.2134267036
 30
0.0
 11
350.4427651075
 21
195.3224979515
 31
0.0
  0
LINE
  5
392
330
1F
100
AcDbEntity
  8
0
  6
Continuous
 62
     7
100
AcDbLine
 10
352.3519541248
 20
193.4038102088
 30
0.0
 11
352.3519541248
 21
193.1112753439
 31
0.0
  0
LINE
  5
393
330
1F
100
AcDbEntity
  8
0
  6
Continuous
 62
     7
100
AcDbLine
 10
350.4427651075
 20
199.4052042011
 30
0.0
 11
351.8569789017
 21
200.2216124467
 31
0.0
  0
LINE
  5
394
330
1F
100
AcDbEntity
  8
0
  6
Continuous
 62
     7
100
AcDbLine
 10
351.8569789017
 20
200.2216124467
 30
0.0
 11
351.902141884
 21
200.3114288729
 31
0.0
  0
LINE
  5
395
330
1F
100
AcDbEntity
  8
0
  6
Continuous
 62
     7
100
AcDbLine
 10
351.5210158355
 20
199.2111226302
 30
0.0
 11
350.4427651075
 21
198.5886617344
 31
0.0
  0
LINE
  5
396
330
1F
100
AcDbEntity
  8
0
  6
Continuous
 62
     7
100
AcDbLine
 10
351.3973596161
 20
196.404507205
 30
0.0
 11
352.1044678303
 21
196.8127120881
 31
0.0
  0
LINE
  5
397
330
1F
100
AcDbEntity
  8
0
  6
Continuous
 62
     7
100
AcDbLine
 10
351.8569789017
 20
200.1810523979
 30
0.0
 11
351.8569789017
 21
200.2216124467
 31
0.0
  0
LINE
  5
398
330
1F
100
AcDbEntity
  8
0
  6
Continuous
 62
     7
100
AcDbLine
 10
350.4427651075
 20
195.3224979515
 30
0.0
 11
351.8569789017
 21
196.1389061972
 31
0.0
  0
LINE
  5
399
330
1F
100
AcDbEntity
  8
0
  6
Continuous
 62
     7
100
AcDbLine
 10
351.8569789017
 20
196.1389061972
 30
0.0
 11
352.1044678303
 21
196.4194291991
 31
0.0
  0
LINE
  5
39A
330
1F
100
AcDbEntity
  8
0
  6
Continuous
 62
     7
100
AcDbLine
 10
351.8569789017
 20
195.0368433752
 30
0.0
 11
351.8569789017
 21
196.1389061972
 31
0.0
  0
LINE
  5
39B
330
1F
100
AcDbEntity
  8
0
  6
Continuous
 62
     7
100
AcDbLine
 10
350.4427651075
 20
193.7967234577
 30
0.0
 11
351.3973596161
 21
194.3477991376
 31
0.0
  0
LWPOLYLINE
  5
39C
330
1F
100
AcDbEntity
  8
0
  6
Continuous
 62
     7
100
AcDbPolyline
 90
       33
 70
   128
 43
0.0
 10
352.3519541248
 20
192.694572098
 10
353.2254739019
 20
192.4871237401
 10
354.0371273739
 20
192.4951391326
 10
354.7594506003
 20
192.7183510575
 10
355.3679931409
 20
193.1492103869
 10
355.8421688943
 20
193.7731249479
 10
356.1659251795
 20
194.5689858263
 10
356.3283090842
 20
195.5098624824
 10
356.3238230791
 20
196.5639107774
 10
356.1526199462
 20
197.6954680578
 10
355.8204922433
 20
198.8662333931
 10
355.338682642
 20
200.0365877217
 10
354.7234940702
 20
201.1669261449
 10
353.995744437
 20
202.218997812
 10
353.1800633069
 20
203.1571971194
 10
352.3040542314
 20
203.9497773317
 10
351.3973596161
 20
204.5699136204
 10
350.490667635
 20
204.9966231311
 10
349.6146559254
 20
205.2154629893
 10
348.7989747953
 20
205.2190290686
 10
348.0712251621
 20
205.0071992431
 10
347.4560365903
 20
204.587142426
 10
346.974226989
 20
203.9730736222
 10
346.6421019202
 20
203.1857732497
 10
346.4708987874
 20
202.2518828991
 10
346.4664127822
 20
201.2030140355
 10
346.6287940528
 20
200.0746544342
 10
346.952550338
 20
198.9049925055
 10
347.4267260914
 20
197.733606273
 10
348.0352712661
 20
196.6001371611
 10
348.7575918584
 20
195.5429501112
 10
349.5692453303
 20
194.597819567
 10
350.4427651075
 20
193.7967234577
  0
LINE
  5
39D
330
1F
100
AcDbEntity
  8
0
  6
Continuous
 62
     7
100
AcDbLine
 10
350.4427651075
 20
193.7967234577
 30
0.0
 11
350.4427651075
 21
195.3224979515
 31
0.0
  0
LINE
  5
39E
330
1F
100
AcDbEntity
  8
0
  6
Continuous
 62
     7
100
AcDbLine
 10
352.3519541248
 20
193.4038102088
 30
0.0
 11
352.3519541248
 21
192.694572098
 31
0.0
  0
ARC
  5
39F
330
1F
100
AcDbEntity
  8
0
  6
Continuous
 62
     7
100
AcDbCircle
 10
394.159556847
 20
224.1573433382
 30
0.0
 40
4.240285004997918
100
AcDbArc
 50
18.9952985281
 51
33.6672822501
  0
LINE
  5
3A0
330
1F
100
AcDbEntity
  8
0
  6
Continuous
 62
     7
100
AcDbLine
 10
398.1724734171
 20
220.3504507741
 30
0.0
 11
396.16717839
 21
221.5080829523
 31
0.0
  0
ARC
  5
3A1
330
1F
100
AcDbEntity
  8
0
  6
Continuous
 62
     7
100
AcDbCircle
 10
397.2720003061
 20
161.882119265
 30
0.0
 40
1.082060745359596
100
AcDbArc
 50
230.3459914907
 51
326.3236951709
  0
LINE
  5
3A2
330
1F
100
AcDbEntity
  8
0
  6
Continuous
 62
     7
100
AcDbLine
 10
396.3439837609
 20
161.1861331845
 30
0.0
 11
396.5814832279
 21
161.0490276606
 31
0.0
  0
ARC
  5
3A3
330
1F
100
AcDbEntity
  8
0
  6
Continuous
 62
     7
100
AcDbCircle
 10
285.5055942989
 20
290.5782380551
 30
0.0
 40
0.9492223410357782
100
AcDbArc
 50
107.9994374352
 51
163.2737306287
  0
LINE
  5
3A4
330
1F
100
AcDbEntity
  8
0
  6
Continuous
 62
     7
100
AcDbLine
 10
396.2279310965
 20
220.6566044364
 30
0.0
 11
396.9350366765
 21
221.0648077989
 31
0.0
  0
ARC
  5
3A5
330
1F
100
AcDbEntity
  8
0
  6
Continuous
 62
     7
100
AcDbCircle
 10
398.3560624298
 20
174.9436270201
 30
0.0
 40
0.4367112395487623
100
AcDbArc
 50
170.7863628307
 51
309.2028854145
  0
LINE
  5
3A6
330
1F
100
AcDbEntity
  8
0
  6
Continuous
 62
     7
100
AcDbLine
 10
397.9249855586
 20
192.9774493
 30
0.0
 11
397.9249855586
 21
175.0135515358
 31
0.0
  0
ARC
  5
3A7
330
1F
100
AcDbEntity
  8
0
  6
Continuous
 62
     7
100
AcDbCircle
 10
399.4602120369
 20
192.9075841113
 30
0.0
 40
1.536815370911941
100
AcDbArc
 50
122.6056222583
 51
177.3943775961
  0
LINE
  5
3A8
330
1F
100
AcDbEntity
  8
0
  6
Continuous
 62
     7
100
AcDbLine
 10
398.9110110795
 20
194.3632121836
 30
0.0
 11
398.6320937728
 21
194.2021966498
 31
0.0
  0
LINE
  5
3A9
330
1F
100
AcDbEntity
  8
0
  6
Continuous
 62
     7
100
AcDbLine
 10
398.9110110795
 20
194.3632121836
 30
0.0
 11
398.9110110795
 21
174.7662294862
 31
0.0
  0
LINE
  5
3AA
330
1F
100
AcDbEntity
  8
0
  6
Continuous
 62
     7
100
AcDbLine
 10
398.6320937728
 20
174.6052139523
 30
0.0
 11
398.9110110795
 21
174.7662294862
 31
0.0
  0
ELLIPSE
  5
3AB
330
1F
100
AcDbEntity
  8
0
  6
Continuous
 62
     7
100
AcDbEllipse
 10
398.9110107303
 20
193.5466703431
 30
0.0
 11
-0.02318331218674528
 21
1.167973485694062
 31
0.0
210
0.0
220
0.0
230
1.0
 40
0.0193926749
 41
5.486154631477953
 42
6.271471530812439
  0
ELLIPSE
  5
3AC
330
1F
100
AcDbEntity
  8
0
  6
Continuous
 62
     7
100
AcDbEllipse
 10
398.7941500157
 20
198.3949507333
 30
0.0
 11
-0.07534576460710696
 21
3.795913828505632
 31
0.0
210
0.0
220
0.0
230
1.0
 40
0.0193926749
 41
1.33167269105873
 42
2.869465892623551
  0
ELLIPSE
  5
3AD
330
1F
100
AcDbEntity
  8
0
  6
Continuous
 62
     7
100
AcDbEllipse
 10
398.6772893011
 20
199.5687974701
 30
0.0
 11
-0.02318331218685898
 21
1.167973485694034
 31
0.0
210
0.0
220
0.0
230
1.0
 40
0.0193926749
 41
4.473265344648686
 42
5.486154631474224
  0
LINE
  5
3AE
330
1F
100
AcDbEntity
  8
0
  6
Continuous
 62
     7
100
AcDbLine
 10
398.6772879537
 20
200.3853384605
 30
0.0
 11
398.6645032999
 21
200.7147499518
 31
0.0
  0
ELLIPSE
  5
3AF
330
1F
100
AcDbEntity
  8
0
  6
Continuous
 62
     7
100
AcDbEllipse
 10
398.6645046931
 20
199.8982090056
 30
0.0
 11
-0.0231833121867453
 21
1.167973485694034
 31
0.0
210
0.0
220
0.0
230
1.0
 40
0.0193926749
 41
5.48615463147793
 42
6.271471530814958
  0
ARC
  5
3B0
330
1F
100
AcDbEntity
  8
0
  6
Continuous
 62
     8
100
AcDbCircle
 10
382.6970519519
 20
217.3365645944
 30
0.0
 40
0.7683952447586152
100
AcDbArc
 50
2.6052554434
 51
57.39480632139999
  0
ARC
  5
3B1
330
1F
100
AcDbEntity
  8
0
  6
Continuous
 62
     8
100
AcDbCircle
 10
386.1815273371
 20
217.8441445867
 30
0.0
 40
3.073605087870817
100
AcDbArc
 50
122.6054297376
 51
177.3945701168
  0
ARC
  5
3B2
330
1F
100
AcDbEntity
  8
0
  6
Continuous
 62
     8
100
AcDbCircle
 10
382.4550431142
 20
217.1968407192
 30
0.0
 40
3.842009177589119
100
AcDbArc
 50
2.6054633527
 51
57.39454911679999
  0
ARC
  5
3B3
330
1F
100
AcDbEntity
  8
0
  6
Continuous
 62
     8
100
AcDbCircle
 10
384.8788667811
 20
220.1009128162
 30
0.0
 40
3.074042980701611
100
AcDbArc
 50
242.6096593055
 51
297.3903406945
  0
LINE
  5
3B4
330
1F
100
AcDbEntity
  8
0
  6
Continuous
 62
     8
100
AcDbLine
 10
386.2930805753
 20
217.371491707
 30
0.0
 11
391.2428275378
 21
220.2289198064
 31
0.0
  0
LINE
  5
3B5
330
1F
100
AcDbEntity
  8
0
  6
Continuous
 62
     8
100
AcDbLine
 10
384.5253133326
 20
220.4333536179
 30
0.0
 11
389.4750602951
 21
223.2907817173
 31
0.0
  0
LINE
  5
3B6
330
1F
100
AcDbEntity
  8
0
  6
Continuous
 62
     8
100
AcDbLine
 10
386.2930805753
 20
217.371491707
 30
0.0
 11
386.2930805753
 21
152.0482266953
 31
0.0
  0
ARC
  5
3B7
330
1F
100
AcDbEntity
  8
0
  6
Continuous
 62
     8
100
AcDbCircle
 10
384.8788667811
 20
154.7776478045
 30
0.0
 40
3.074042980701737
100
AcDbArc
 50
242.6096593055
 51
297.3903406945
  0
LINE
  5
3B8
330
1F
100
AcDbEntity
  8
0
  6
Continuous
 62
     8
100
AcDbLine
 10
383.4646529869
 20
152.0482266953
 30
0.0
 11
383.4646529869
 21
217.371491707
 31
0.0
  0
LINE
  5
3B9
330
1F
100
AcDbEntity
  8
0
  6
Continuous
 62
     8
100
AcDbLine
 10
383.1110995384
 20
217.9838634808
 30
0.0
 11
269.9740157603
 21
283.2965117271
 31
0.0
  0
ARC
  5
3BA
330
1F
100
AcDbEntity
  8
0
  6
Continuous
 62
     8
100
AcDbCircle
 10
273.0444435589
 20
283.156792833
 30
0.0
 40
3.073605087870486
100
AcDbArc
 50
122.6054297376
 51
177.3945701168
  0
LINE
  5
3BB
330
1F
100
AcDbEntity
  8
0
  6
Continuous
 62
     8
100
AcDbLine
 10
271.3882295545
 20
285.7460018642
 30
0.0
 11
384.5253133326
 21
220.4333536179
 31
0.0
  0
ARC
  5
3BC
330
1F
100
AcDbEntity
  8
0
  6
Continuous
 62
     8
100
AcDbCircle
 10
383.2491139258
 20
152.0132656508
 30
0.0
 40
0.2183560429781421
100
AcDbArc
 50
230.797639971
 51
9.213296620899998
  0
LINE
  5
3BD
330
1F
100
AcDbEntity
  8
0
  6
Continuous
 62
     8
100
AcDbLine
 10
269.9740157603
 20
217.1567057697
 30
0.0
 11
383.1110995384
 21
151.8440575234
 31
0.0
  0
ARC
  5
3BE
330
1F
100
AcDbEntity
  8
0
  6
Continuous
 62
     8
100
AcDbCircle
 10
270.3881079108
 20
217.8040375328
 30
0.0
 40
0.7684469536510192
100
AcDbArc
 50
182.6071649618
 51
237.3933281323
  0
LINE
  5
3BF
330
1F
100
AcDbEntity
  8
0
  6
Continuous
 62
     8
100
AcDbLine
 10
269.6204563848
 20
283.0923474977
 30
0.0
 11
269.6204563848
 21
217.769082486
 31
0.0
  0
ARC
  5
3C0
330
1F
100
AcDbEntity
  8
0
  6
Continuous
 62
     8
100
AcDbCircle
 10
269.8359982175
 20
283.1273036531
 30
0.0
 40
0.2183579960365855
100
AcDbArc
 50
50.7969895354
 51
189.2119138594
  0
LINE
  5
3C1
330
1F
100
AcDbEntity
  8
0
  6
Continuous
 62
     8
100
AcDbLine
 10
386.2930805753
 20
152.0482266953
 30
0.0
 11
391.2428275378
 21
154.9056547947
 31
0.0
  0
LINE
  5
3C2
330
1F
100
AcDbEntity
  8
0
  6
Continuous
 62
     8
100
AcDbLine
 10
271.3882295545
 20
285.7460018642
 30
0.0
 11
276.337976517
 21
288.6034299636
 31
0.0
  0
ARC
  5
3C3
330
1F
100
AcDbEntity
  8
0
  6
Continuous
 62
     8
100
AcDbCircle
 10
385.0405209389
 20
151.9252184027
 30
0.0
 40
1.258585190966136
100
AcDbArc
 50
305.8293647322
 51
5.6087780101
  0
ARC
  5
3C4
330
1F
100
AcDbEntity
  8
0
  6
Continuous
 62
     8
100
AcDbCircle
 10
384.1124255821
 20
151.7455185004
 30
0.0
 40
1.006162901778606
100
AcDbArc
 50
174.3797027713
 51
234.30012103
  0
ARC
  5
3C5
330
1F
100
AcDbEntity
  8
0
  6
Continuous
 62
     8
100
AcDbCircle
 10
270.966893575
 20
217.0543576777
 30
0.0
 40
0.998139011807547
100
AcDbArc
 50
174.1146086095
 51
234.5733016037
  0
ARC
  5
3C6
330
1F
100
AcDbEntity
  8
0
  6
Continuous
 62
     8
100
AcDbCircle
 10
269.9911128677
 20
283.976611589
 30
0.0
 40
0.958806138643255
100
AcDbArc
 50
184.0263071101
 51
247.2580581949
  0
ARC
  5
3C7
330
1F
100
AcDbEntity
  8
0
  6
Continuous
 62
     8
100
AcDbCircle
 10
270.6591164569
 20
284.7539421754
 30
0.0
 40
1.231173560194674
100
AcDbArc
 50
53.6860175029
 51
115.1295453588
  0
ARC
  5
3C8
330
1F
100
AcDbEntity
  8
0
  6
Continuous
 62
     8
100
AcDbCircle
 10
270.035598345
 20
218.6853098447
 30
0.0
 40
1.005890361851779
100
AcDbArc
 50
185.6951832714
 51
245.624753825
  0
LINE
  5
3C9
330
1F
100
AcDbEntity
  8
0
  6
Continuous
 62
     8
100
AcDbLine
 10
402.4151147997
 20
230.7609161765
 30
0.0
 11
397.4653678371
 21
227.9034880771
 31
0.0
  0
ARC
  5
3CA
330
1F
100
AcDbEntity
  8
0
  6
Continuous
 62
     8
100
AcDbCircle
 10
400.3448445812
 20
227.5244032778
 30
0.0
 40
3.842009177589596
100
AcDbArc
 50
2.6054633527
 51
57.39454911679999
  0
LINE
  5
3CB
330
1F
100
AcDbEntity
  8
0
  6
Continuous
 62
     8
100
AcDbLine
 10
404.1828820424
 20
227.6990542656
 30
0.0
 11
399.2331350798
 21
224.8416261662
 31
0.0
  0
LINE
  5
3CC
330
1F
100
AcDbEntity
  8
0
  6
Continuous
 62
     8
100
AcDbLine
 10
404.1828820424
 20
162.3757892539
 30
0.0
 11
404.1828820424
 21
227.6990542656
 31
0.0
  0
LINE
  5
3CD
330
1F
100
AcDbEntity
  8
0
  6
Continuous
 62
     8
100
AcDbLine
 10
404.1828820424
 20
162.3757892539
 30
0.0
 11
399.2331350798
 21
159.5183611545
 31
0.0
  0
LINE
  5
3CE
330
1F
100
AcDbEntity
  8
0
  6
Continuous
 62
     8
100
AcDbLine
 10
289.2780310215
 20
296.0735644228
 30
0.0
 11
284.328284059
 21
293.2161363234
 31
0.0
  0
LINE
  5
3CF
330
1F
100
AcDbEntity
  8
0
  6
Continuous
 62
     8
100
AcDbLine
 10
402.4151147997
 20
230.7609161765
 30
0.0
 11
289.2780310215
 21
296.0735644228
 31
0.0
  0
ARC
  5
3D0
330
1F
100
AcDbEntity
  8
0
  6
Continuous
 62
     8
100
AcDbCircle
 10
402.9953558759
 20
229.9993729675
 30
0.0
 40
0.9574067921327627
100
AcDbArc
 50
63.97430373220001
 51
127.304789836
  0
ARC
  5
3D1
330
1F
100
AcDbEntity
  8
0
  6
Continuous
 62
     8
100
AcDbCircle
 10
403.81309196
 20
228.5826931856
 30
0.0
 40
0.9578947990496295
100
AcDbArc
 50
292.708603543
 51
356.0119237023
  0
ARC
  5
3D2
330
1F
100
AcDbEntity
  8
0
  6
Continuous
 62
     8
100
AcDbCircle
 10
403.767753756
 20
163.292010699
 30
0.0
 40
1.005879332051724
100
AcDbArc
 50
294.3746757536
 51
354.3051578783
  0
ARC
  5
3D3
330
1F
100
AcDbEntity
  8
0
  6
Continuous
 62
     8
100
AcDbCircle
 10
289.8638698058
 20
295.2558098704
 30
0.0
 40
1.005947110489301
100
AcDbArc
 50
65.6926435379
 51
125.617784975
  0
ARC
  5
3D4
330
1F
100
AcDbEntity
  8
0
  6
Continuous
 62
     8
100
AcDbCircle
 10
402.9640910586
 20
162.2377603817
 30
0.0
 40
1.226582011846446
100
AcDbArc
 50
304.8509730491
 51
6.4612547792
  0
LINE
  5
3D5
330
1F
100
AcDbEntity
  8
0
  6
Continuous
 62
     8
100
AcDbLine
 10
398.1724734171
 20
160.1305323574
 30
0.0
 11
397.4653678371
 21
159.7223289949
 31
0.0
  0
ARC
  5
3D6
330
1F
100
AcDbEntity
  8
0
  6
Continuous
 62
     8
100
AcDbCircle
 10
288.5457335461
 20
295.0513758725
 30
0.0
 40
1.257429530840483
100
AcDbArc
 50
54.38212911029999
 51
114.3074305244
  0
LINE
  5
3D7
330
1F
100
AcDbEntity
  8
0
  6
Continuous
 62
     8
100
AcDbLine
 10
284.3283973286
 20
291.9912598751
 30
0.0
 11
283.6211758448
 21
291.5829896027
 31
0.0
  0
LINE
  5
3D8
330
1F
100
AcDbEntity
  8
0
  6
Continuous
 62
     8
100
AcDbLine
 10
292.4298145
 20
213.9611870736
 30
0.0
 11
317.7079558769
 21
228.5539474749
 31
0.0
  0
LINE
  5
3D9
330
1F
100
AcDbEntity
  8
0
  6
Continuous
 62
     8
100
AcDbLine
 10
317.8493690904
 20
228.3089973967
 30
0.0
 11
292.5712329818
 21
213.7162400369
 31
0.0
  0
LINE
  5
3DA
330
1F
100
AcDbEntity
  8
0
  6
Continuous
 62
     8
100
AcDbLine
 10
314.1974842783
 20
232.7320986325
 30
0.0
 11
287.0558015553
 21
217.0635387112
 31
0.0
  0
LINE
  5
3DB
330
1F
100
AcDbEntity
  8
0
  6
Continuous
 62
     8
100
AcDbLine
 10
292.5712329818
 20
207.5105312828
 30
0.0
 11
319.7124757971
 21
223.1788372508
 31
0.0
  0
LINE
  5
3DC
330
1F
100
AcDbEntity
  8
0
  6
Continuous
 62
     8
100
AcDbLine
 10
291.8040022883
 20
209.8183181571
 30
0.0
 11
292.0055485178
 21
209.9346683188
 31
0.0
  0
LINE
  5
3DD
330
1F
100
AcDbEntity
  8
0
  6
Continuous
 62
     8
100
AcDbLine
 10
395.9450888645
 20
225.8008399991
 30
0.0
 11
396.9350366765
 21
226.3723247066
 31
0.0
  0
LINE
  5
3DE
330
1F
100
AcDbEntity
  8
0
  6
Continuous
 62
     8
100
AcDbLine
 10
395.2379819674
 20
227.0255835467
 30
0.0
 11
396.0512106778
 21
227.4950504884
 31
0.0
  0
LINE
  5
3DF
330
1F
100
AcDbEntity
  8
0
  6
Continuous
 62
     8
100
AcDbLine
 10
395.9450888645
 20
221.7181352705
 30
0.0
 11
396.9350366765
 21
222.289619978
 31
0.0
  0
LINE
  5
3E0
330
1F
100
AcDbEntity
  8
0
  6
Continuous
 62
     8
100
AcDbLine
 10
284.9293218264
 20
290.7054175828
 30
0.0
 11
285.7425505367
 21
291.1748845244
 31
0.0
  0
LINE
  5
3E1
330
1F
100
AcDbEntity
  8
0
  6
Continuous
 62
     8
100
AcDbLine
 10
395.9450888645
 20
161.2941159332
 30
0.0
 11
396.9350366765
 21
161.8656006406
 31
0.0
  0
LINE
  5
3E2
330
1F
100
AcDbEntity
  8
0
  6
Continuous
 62
     8
100
AcDbLine
 10
394.9551384183
 20
225.229353771
 30
0.0
 11
395.9450888645
 21
225.8008399991
 31
0.0
  0
LINE
  5
3E3
330
1F
100
AcDbEntity
  8
0
  6
Continuous
 62
     8
100
AcDbLine
 10
394.2480315212
 20
226.4540973186
 30
0.0
 11
395.2379819674
 21
227.0255835467
 31
0.0
  0
LINE
  5
3E4
330
1F
100
AcDbEntity
  8
0
  6
Continuous
 62
     8
100
AcDbLine
 10
394.9551384183
 20
221.1466490423
 30
0.0
 11
395.9450888645
 21
221.7181352705
 31
0.0
  0
LINE
  5
3E5
330
1F
100
AcDbEntity
  8
0
  6
Continuous
 62
     8
100
AcDbLine
 10
283.9393713802
 20
290.1339313546
 30
0.0
 11
284.9293218264
 21
290.7054175828
 31
0.0
  0
LINE
  5
3E6
330
1F
100
AcDbEntity
  8
0
  6
Continuous
 62
     8
100
AcDbLine
 10
394.9551384183
 20
160.722629705
 30
0.0
 11
395.9450888645
 21
161.2941159332
 31
0.0
  0
LINE
  5
3E7
330
1F
100
AcDbEntity
  8
0
  6
Continuous
 62
     8
100
AcDbLine
 10
354.9328927845
 20
181.1355273764
 30
0.0
 11
358.82198006
 21
183.3806496718
 31
0.0
  0
LINE
  5
3E8
330
1F
100
AcDbEntity
  8
0
  6
Continuous
 62
     8
100
AcDbLine
 10
397.9249855586
 20
192.9774493
 30
0.0
 11
392.2681312874
 21
196.2430817598
 31
0.0
  0
LINE
  5
3E9
330
1F
100
AcDbEntity
  8
0
  6
Continuous
 62
     8
100
AcDbLine
 10
392.6216287597
 20
197.6719642458
 30
0.0
 11
398.6320937728
 21
194.2021966498
 31
0.0
  0
LINE
  5
3EA
330
1F
100
AcDbEntity
  8
0
  6
Continuous
 62
     8
100
AcDbLine
 10
392.2681312874
 20
178.2791839957
 30
0.0
 11
397.9249855586
 21
175.0135515358
 31
0.0
  0
LINE
  5
3EB
330
1F
100
AcDbEntity
  8
0
  6
Continuous
 62
     8
100
AcDbLine
 10
398.9110110795
 20
194.3632121836
 30
0.0
 11
392.9005460664
 21
197.8329797797
 31
0.0
  0
LINE
  5
3EC
330
1F
100
AcDbEntity
  8
0
  6
Continuous
 62
     8
100
AcDbLine
 10
398.7047854796
 20
199.2925973407
 30
0.0
 11
397.0668697137
 21
200.2381459858
 31
0.0
  0
LINE
  5
3ED
330
1F
100
AcDbEntity
  8
0
  6
Continuous
 62
     8
100
AcDbLine
 10
397.9995639955
 20
200.7765801738
 30
0.0
 11
398.6772879537
 21
200.3853384605
 31
0.0
  0
LINE
  5
3EE
330
1F
100
AcDbEntity
  8
0
  6
Continuous
 62
     8
100
AcDbLine
 10
398.6645032999
 20
200.7147499518
 30
0.0
 11
398.2784813022
 21
200.9375957077
 31
0.0
  0
LINE
  5
464
330
1F
100
AcDbEntity
  8
0
  6
CENTER
 62
     1
100
AcDbLine
 10
56.2927867181
 20
318.2349247413773
 30
0.0
 11
56.2927867181
 21
343.8050052009501
 31
0.0
  0
LINE
  5
465
330
1F
100
AcDbEntity
  8
0
  6
CENTER
 62
     1
100
AcDbLine
 10
56.2927867181
 20
442.8486288077309
 30
0.0
 11
77.6355588247064
 21
456.2008210312194
 31
0.0
  0
LINE
  5
466
330
1F
100
AcDbEntity
  8
0
  6
CENTER
 62
     1
100
AcDbLine
 10
77.6355588247064
 20
456.2008210312194
 30
0.0
 11
97.18028458016674
 21
445.6767379321254
 31
0.0
  0
LINE
  5
467
330
1F
100
AcDbEntity
  8
0
  6
CENTER
 62
     1
100
AcDbLine
 10
97.18028458016674
 20
445.6767379321254
 30
0.0
 11
119.7318912210824
 21
457.2031146597045
 31
0.0
  0
LINE
  5
468
330
1F
100
AcDbEntity
  8
0
  6
CENTER
 62
     1
100
AcDbLine
 10
119.7318912210824
 20
457.2031146597045
 30
0.0
 11
140.2789106050278
 21
446.177884746368
 31
0.0
  0
LINE
  5
469
330
1F
100
AcDbEntity
  8
0
  6
CENTER
 62
     1
100
AcDbLine
 10
140.2789106050278
 20
446.177884746368
 30
0.0
 11
163.3316640601861
 21
453.193940145764
 31
0.0
  0
LINE
  5
46A
330
1F
100
AcDbEntity
  8
0
  6
CENTER
 62
     1
100
AcDbLine
 10
163.3316640601861
 20
453.193940145764
 30
0.0
 11
179.869508930191
 21
442.66985704667
 31
0.0
  0
LINE
  5
46B
330
1F
100
AcDbEntity
  8
0
  6
CENTER
 62
     1
100
AcDbLine
 10
179.869508930191
 20
442.66985704667
 30
0.0
 11
235.6531066004601
 21
452.6927933315214
 31
0.0
  0
LINE
  5
46C
330
1F
100
AcDbEntity
  8
0
  6
CENTER
 62
     1
100
AcDbLine
 10
235.6531066004601
 20
452.6927933315214
 30
0.0
 11
255.1978323559204
 21
440.6652697896997
 31
0.0
  0
LINE
  5
46D
330
1F
100
AcDbEntity
  8
0
  6
CENTER
 62
     1
100
AcDbLine
 10
255.1978323559204
 20
440.6652697896997
 30
0.0
 11
247.6806301422819
 21
400.3944827266545
 31
0.0
  0
LINE
  5
46E
330
1F
100
AcDbEntity
  8
0
  6
CENTER
 62
     1
100
AcDbLine
 10
247.6806301422819
 20
400.3944827266545
 30
0.0
 11
263.2161813838015
 21
378.3440228999814
 31
0.0
  0
LINE
  5
46F
330
1F
100
AcDbEntity
  8
0
  6
CENTER
 62
     1
100
AcDbLine
 10
263.2161813838015
 20
378.3440228999814
 30
0.0
 11
252.1909514704651
 21
349.2775076739123
 31
0.0
  0
LINE
  5
470
330
1F
100
AcDbEntity
  8
0
  6
CENTER
 62
     1
100
AcDbLine
 10
252.1909514704651
 20
349.2775076739123
 30
0.0
 11
258.2047132413758
 21
310.9768233153475
 31
0.0
  0
LINE
  5
471
330
1F
100
AcDbEntity
  8
0
  6
CENTER
 62
     1
100
AcDbLine
 10
258.2047132413758
 20
310.9768233153475
 30
0.0
 11
193.9016197289831
 21
314.9859978292881
 31
0.0
  0
LINE
  5
472
330
1F
100
AcDbEntity
  8
0
  6
CENTER
 62
     1
100
AcDbLine
 10
193.9016197289831
 20
314.9859978292881
 30
0.0
 11
160.8259299889734
 21
303.9607679159516
 31
0.0
  0
LINE
  5
473
330
1F
100
AcDbEntity
  8
0
  6
CENTER
 62
     1
100
AcDbLine
 10
160.8259299889734
 20
303.9607679159516
 30
0.0
 11
146.7938191901814
 21
313.983704200803
 31
0.0
  0
LINE
  5
474
330
1F
100
AcDbEntity
  8
0
  6
CENTER
 62
     1
100
AcDbLine
 10
146.7938191901814
 20
313.983704200803
 30
0.0
 11
122.2376252922952
 21
307.9699424298922
 31
0.0
  0
LINE
  5
475
330
1F
100
AcDbEntity
  8
0
  6
CENTER
 62
     1
100
AcDbLine
 10
122.2376252922952
 20
307.9699424298922
 30
0.0
 11
91.16652280925594
 21
316.4894382720159
 31
0.0
  0
LINE
  5
476
330
1F
100
AcDbEntity
  8
0
  6
CENTER
 62
     1
100
AcDbLine
 10
91.16652280925594
 20
316.4894382720159
 30
0.0
 11
64.60574165439955
 21
308.4710892441347
 31
0.0
  0
LINE
  5
477
330
1F
100
AcDbEntity
  8
0
  6
CENTER
 62
     1
100
AcDbLine
 10
64.60574165439955
 20
308.4710892441347
 30
0.0
 11
56.2927867181
 21
318.2349247413773
 31
0.0
  0
LINE
  5
47A
330
1F
100
AcDbEntity
  8
0
  6
CENTER
 62
     1
100
AcDbLine
 10
56.2927867181
 20
413.80500520095
 30
0.0
 11
159.2927867181
 21
413.80500520095
 31
0.0
  0
LINE
  5
47B
330
1F
100
AcDbEntity
  8
0
  6
CENTER
 62
     1
100
AcDbLine
 10
56.2927867181
 20
343.8050052009501
 30
0.0
 11
159.2927867181
 21
343.8050052009501
 31
0.0
  0
ARC
  5
47D
330
1F
100
AcDbEntity
  8
0
  6
CENTER
 62
     1
100
AcDbCircle
 10
159.2927867181
 20
378.8050052009501
 30
0.0
 40
34.99999999999994
100
AcDbArc
 50
270.0
 51
90.0
  0
LINE
  5
47E
330
1F
100
AcDbEntity
  8
0
  6
CENTER
 62
     1
100
AcDbLine
 10
56.2927867181
 20
413.80500520095
 30
0.0
 11
56.2927867181
 21
442.8486288077309
 31
0.0
  0
LINE
  5
485
330
1F
100
AcDbEntity
  8
0
  6
CENTER
 62
     1
100
AcDbLine
 10
494.5264741640399
 20
452.6927933315214
 30
0.0
 11
474.9817484085797
 21
440.6652697896997
 31
0.0
  0
LINE
  5
486
330
1F
100
AcDbEntity
  8
0
  6
CENTER
 62
     1
100
AcDbLine
 10
474.9817484085797
 20
440.6652697896997
 30
0.0
 11
482.4989506222182
 21
400.3944827266545
 31
0.0
  0
LINE
  5
487
330
1F
100
AcDbEntity
  8
0
  6
CENTER
 62
     1
100
AcDbLine
 10
482.4989506222182
 20
400.3944827266545
 30
0.0
 11
466.9633993806985
 21
378.3440228999814
 31
0.0
  0
LINE
  5
488
330
1F
100
AcDbEntity
  8
0
  6
CENTER
 62
     1
100
AcDbLine
 10
466.9633993806985
 20
378.3440228999814
 30
0.0
 11
477.988629294035
 21
349.2775076739123
 31
0.0
  0
LINE
  5
489
330
1F
100
AcDbEntity
  8
0
  6
CENTER
 62
     1
100
AcDbLine
 10
477.988629294035
 20
349.2775076739123
 30
0.0
 11
471.9748675231242
 21
310.9768233153475
 31
0.0
  0
LINE
  5
48A
330
1F
100
AcDbEntity
  8
0
  6
CENTER
 62
     1
100
AcDbLine
 10
471.9748675231242
 20
310.9768233153475
 30
0.0
 11
536.277961035517
 21
314.9859978292881
 31
0.0
  0
LINE
  5
48B
330
1F
100
AcDbEntity
  8
0
  6
CENTER
 62
     1
100
AcDbLine
 10
536.277961035517
 20
314.9859978292881
 30
0.0
 11
569.3536507755267
 21
303.9607679159516
 31
0.0
  0
LINE
  5
48C
330
1F
100
AcDbEntity
  8
0
  6
CENTER
 62
     1
100
AcDbLine
 10
569.3536507755267
 20
303.9607679159516
 30
0.0
 11
583.3857615743187
 21
313.983704200803
 31
0.0
  0
LINE
  5
48D
330
1F
100
AcDbEntity
  8
0
  6
CENTER
 62
     1
100
AcDbLine
 10
583.3857615743187
 20
313.983704200803
 30
0.0
 11
607.9419554722048
 21
307.9699424298922
 31
0.0
  0
LINE
  5
48E
330
1F
100
AcDbEntity
  8
0
  6
CENTER
 62
     1
100
AcDbLine
 10
607.9419554722048
 20
307.9699424298922
 30
0.0
 11
639.0130579552441
 21
316.4894382720159
 31
0.0
  0
LINE
  5
48F
330
1F
100
AcDbEntity
  8
0
  6
CENTER
 62
     1
100
AcDbLine
 10
639.0130579552441
 20
316.4894382720159
 30
0.0
 11
665.5738391101005
 21
308.4710892441347
 31
0.0
  0
LINE
  5
490
330
1F
100
AcDbEntity
  8
0
  6
CENTER
 62
     1
100
AcDbLine
 10
665.5738391101005
 20
308.4710892441347
 30
0.0
 11
673.8867940464
 21
318.2349247413773
 31
0.0
  0
LINE
  5
491
330
1F
100
AcDbEntity
  8
0
  6
CENTER
 62
     1
100
AcDbLine
 10
673.8867940464
 20
318.2349247413773
 30
0.0
 11
673.8867940464
 21
343.8050052009501
 31
0.0
  0
ARC
  5
492
330
1F
100
AcDbEntity
  8
0
  6
CENTER
 62
     1
100
AcDbCircle
 10
570.8867940464
 20
378.8050052009501
 30
0.0
 40
34.99999999999994
100
AcDbArc
 50
90.0
 51
270.0
  0
LINE
  5
493
330
1F
100
AcDbEntity
  8
0
  6
CENTER
 62
     1
100
AcDbLine
 10
673.8867940464
 20
343.8050052009501
 30
0.0
 11
570.8867940464
 21
343.8050052009501
 31
0.0
  0
LINE
  5
494
330
1F
100
AcDbEntity
  8
0
  6
CENTER
 62
     1
100
AcDbLine
 10
673.8867940464
 20
442.8486288077309
 30
0.0
 11
652.5440219397937
 21
456.2008210312194
 31
0.0
  0
LINE
  5
495
330
1F
100
AcDbEntity
  8
0
  6
CENTER
 62
     1
100
AcDbLine
 10
652.5440219397937
 20
456.2008210312194
 30
0.0
 11
632.9992961843333
 21
445.6767379321254
 31
0.0
  0
LINE
  5
496
330
1F
100
AcDbEntity
  8
0
  6
CENTER
 62
     1
100
AcDbLine
 10
632.9992961843333
 20
445.6767379321254
 30
0.0
 11
610.4476895434176
 21
457.2031146597045
 31
0.0
  0
LINE
  5
497
330
1F
100
AcDbEntity
  8
0
  6
CENTER
 62
     1
100
AcDbLine
 10
610.4476895434176
 20
457.2031146597045
 30
0.0
 11
589.9006701594722
 21
446.177884746368
 31
0.0
  0
LINE
  5
498
330
1F
100
AcDbEntity
  8
0
  6
CENTER
 62
     1
100
AcDbLine
 10
589.9006701594722
 20
446.177884746368
 30
0.0
 11
566.8479167043139
 21
453.193940145764
 31
0.0
  0
LINE
  5
499
330
1F
100
AcDbEntity
  8
0
  6
CENTER
 62
     1
100
AcDbLine
 10
566.8479167043139
 20
453.193940145764
 30
0.0
 11
550.310071834309
 21
442.66985704667
 31
0.0
  0
LINE
  5
49A
330
1F
100
AcDbEntity
  8
0
  6
CENTER
 62
     1
100
AcDbLine
 10
550.310071834309
 20
442.66985704667
 30
0.0
 11
494.5264741640399
 21
452.6927933315214
 31
0.0
  0
LINE
  5
49B
330
1F
100
AcDbEntity
  8
0
  6
CENTER
 62
     1
100
AcDbLine
 10
673.8867940464
 20
413.80500520095
 30
0.0
 11
673.8867940464
 21
442.8486288077309
 31
0.0
  0
LINE
  5
49C
330
1F
100
AcDbEntity
  8
0
  6
CENTER
 62
     1
100
AcDbLine
 10
673.8867940464
 20
413.80500520095
 30
0.0
 11
570.8867940464
 21
413.80500520095
 31
0.0
  0
ENDSEC
  0
SECTION
  2
OBJECTS
  0
DICTIONARY
  5
C
330
0
100
AcDbDictionary
281
     1
  3
ACAD_GROUP
350
D
  3
ACAD_IMAGE_VARS
350
42C
  3
ACAD_LAYOUT
350
3EF
  3
ACAD_MLINESTYLE
350
17
  3
ACAD_PLOTSETTINGS
350
42E
  3
ACAD_PLOTSTYLENAME
350
42F
  3
ACAD_SCALELIST
350
3F2
  3
AcDbVariableDictionary
350
49D
  3
APPDATA
350
42B
  3
DWGPROPS
350
4CC
  0
DICTIONARY
  5
D
102
{ACAD_REACTORS
330
C
102
}
330
C
100
AcDbDictionary
281
     1
  0
RASTERVARIABLES
  5
42C
102
{ACAD_REACTORS
330
C
102
}
330
C
100
AcDbRasterVariables
 90
        0
 70
     1
 71
     1
 72
     0
  0
DICTIONARY
  5
3EF
102
{ACAD_REACTORS
330
C
102
}
330
C
100
AcDbDictionary
281
     1
  3
Foglio 1
350
3F1
  3
Model
350
3F0
  0
DICTIONARY
  5
17
102
{ACAD_REACTORS
330
C
102
}
330
C
100
AcDbDictionary
281
     1
  3
STANDARD
350
18
  0
DICTIONARY
  5
42E
102
{ACAD_REACTORS
330
C
102
}
330
C
100
AcDbDictionary
281
     1
  0
ACDBDICTIONARYWDFLT
  5
42F
102
{ACAD_REACTORS
330
C
102
}
330
C
100
AcDbDictionary
281
     1
  3
Normal
350
430
100
AcDbDictionaryWithDefault
340
430
  0
DICTIONARY
  5
3F2
102
{ACAD_REACTORS
330
C
102
}
330
C
100
AcDbDictionary
281
     1
  3
A0
350
3F3
  3
A1
350
3F4
  3
A2
350
3F5
  3
A3
350
3F6
  3
A4
350
3F7
  3
A5
350
3F8
  3
A6
350
3F9
  3
A7
350
3FA
  3
A8
350
3FB
  3
A9
350
3FC
  3
B0
350
3FD
  3
B1
350
3FE
  3
B2
350
3FF
  3
B3
350
400
  3
B4
350
401
  3
B5
350
402
  3
B6
350
403
  3
B7
350
404
  3
B8
350
405
  3
B9
350
406
  3
C0
350
407
  3
C1
350
408
  3
C2
350
409
  3
C3
350
40A
  3
C4
350
40B
  3
C5
350
40C
  3
C6
350
40D
  3
C7
350
40E
  3
C8
350
40F
  3
C9
350
410
  3
D0
350
411
  3
D1
350
412
  3
D2
350
413
  0
DICTIONARY
  5
49D
102
{ACAD_REACTORS
330
C
102
}
330
C
100
AcDbDictionary
281
     1
  0
DICTIONARY
  5
42B
102
{ACAD_REACTORS
330
C
102
}
330
C
100
AcDbDictionary
281
     1
  0
XRECORD
  5
4CC
102
{ACAD_REACTORS
330
C
102
}
330
C
100
AcDbXrecord
280
     1
  1
DWGPROPS COOKIE
  2

  3

  4

  6

  7

  8
emilio
  9

300
=
301
=
302
=
303
=
304
=
305
=
306
=
307
=
308
=
309
=
 40
0.0
 41
2456568.26880544
 42
2457345.428763056
  1

 90
        0
  0
LAYOUT
  5
3F1
102
{ACAD_REACTORS
330
3EF
102
}
330
3EF
100
AcDbPlotSettings
  1

  2
none_device
  4

  6

 40
0.0
 41
0.0
 42
0.0
 43
0.0
 44
0.0
 45
0.0
 46
0.0
 47
0.0
 48
0.0
 49
0.0
140
0.0
141
0.0
142
1.0
143
1.0
 70
   688
 72
     0
 73
     0
 74
     5
  7

 75
    16
147
1.0
148
0.0
149
0.0
100
AcDbLayout
  1
Foglio 1
 70
     1
 71
     1
 10
0.0
 20
0.0
 11
0.0
 21
0.0
 12
0.0
 22
0.0
 32
0.0
 14
1.000000000000000E+20
 24
1.000000000000000E+20
 34
1.000000000000000E+20
 15
-1.000000000000000E+20
 25
-1.000000000000000E+20
 35
-1.000000000000000E+20
146
0.0
 13
0.0
 23
0.0
 33
0.0
 16
1.0
 26
0.0
 36
0.0
 17
0.0
 27
1.0
 37
0.0
 76
     0
330
1B
  0
LAYOUT
  5
3F0
102
{ACAD_REACTORS
330
3EF
102
}
330
3EF
100
AcDbPlotSettings
  1

  2
none_device
  4

  6

 40
0.0
 41
0.0
 42
0.0
 43
0.0
 44
0.0
 45
0.0
 46
0.0
 47
0.0
 48
0.0
 49
0.0
140
0.0
141
0.0
142
1.0
143
1.0
 70
  1712
 72
     0
 73
     0
 74
     0
  7

 75
     0
147
1.0
148
0.0
149
0.0
100
AcDbLayout
  1
Model
 70
     1
 71
     0
 10
0.0
 20
0.0
 11
840.0
 21
594.0
 12
0.0
 22
0.0
 32
0.0
 14
47.19278668310002
 24
150.6127166883243
 34
0.0
 15
682.9867940712
 25
507.4872722959
 35
0.0
146
0.0
 13
0.0
 23
0.0
 33
0.0
 16
1.0
 26
0.0
 36
0.0
 17
0.0
 27
1.0
 37
0.0
 76
     0
330
1F
331
29
  0
MLINESTYLE
  5
18
102
{ACAD_REACTORS
330
17
102
}
330
17
100
AcDbMlineStyle
  2
Standard
 70
     0
  3

 62
   256
 51
90.0
 52
90.0
 71
     2
 49
0.5
 62
   256
  6
BYLAYER
 49
-0.5
 62
   256
  6
BYLAYER
  0
ACDBPLACEHOLDER
  5
430
102
{ACAD_REACTORS
330
42F
102
}
330
42F
  0
SCALE
  5
3F3
102
{ACAD_REACTORS
330
3F2
102
}
330
3F2
100
AcDbScale
 70
     0
300
1:1
140
1.0
141
1.0
290
     1
  0
SCALE
  5
3F4
102
{ACAD_REACTORS
330
3F2
102
}
330
3F2
100
AcDbScale
 70
     0
300
1:2
140
1.0
141
2.0
290
     0
  0
SCALE
  5
3F5
102
{ACAD_REACTORS
330
3F2
102
}
330
3F2
100
AcDbScale
 70
     0
300
1:4
140
1.0
141
4.0
290
     0
  0
SCALE
  5
3F6
102
{ACAD_REACTORS
330
3F2
102
}
330
3F2
100
AcDbScale
 70
     0
300
1:5
140
1.0
141
5.0
290
     0
  0
SCALE
  5
3F7
102
{ACAD_REACTORS
330
3F2
102
}
330
3F2
100
AcDbScale
 70
     0
300
1:8
140
1.0
141
8.0
290
     0
  0
SCALE
  5
3F8
102
{ACAD_REACTORS
330
3F2
102
}
330
3F2
100
AcDbScale
 70
     0
300
1:10
140
1.0
141
10.0
290
     0
  0
SCALE
  5
3F9
102
{ACAD_REACTORS
330
3F2
102
}
330
3F2
100
AcDbScale
 70
     0
300
1:16
140
1.0
141
16.0
290
     0
  0
SCALE
  5
3FA
102
{ACAD_REACTORS
330
3F2
102
}
330
3F2
100
AcDbScale
 70
     0
300
1:20
140
1.0
141
20.0
290
     0
  0
SCALE
  5
3FB
102
{ACAD_REACTORS
330
3F2
102
}
330
3F2
100
AcDbScale
 70
     0
300
1:30
140
1.0
141
30.0
290
     0
  0
SCALE
  5
3FC
102
{ACAD_REACTORS
330
3F2
102
}
330
3F2
100
AcDbScale
 70
     0
300
1:40
140
1.0
141
40.0
290
     0
  0
SCALE
  5
3FD
102
{ACAD_REACTORS
330
3F2
102
}
330
3F2
100
AcDbScale
 70
     0
300
1:50
140
1.0
141
50.0
290
     0
  0
SCALE
  5
3FE
102
{ACAD_REACTORS
330
3F2
102
}
330
3F2
100
AcDbScale
 70
     0
300
1:100
140
1.0
141
100.0
290
     0
  0
SCALE
  5
3FF
102
{ACAD_REACTORS
330
3F2
102
}
330
3F2
100
AcDbScale
 70
     0
300
2:1
140
2.0
141
1.0
290
     0
  0
SCALE
  5
400
102
{ACAD_REACTORS
330
3F2
102
}
330
3F2
100
AcDbScale
 70
     0
300
4:1
140
4.0
141
1.0
290
     0
  0
SCALE
  5
401
102
{ACAD_REACTORS
330
3F2
102
}
330
3F2
100
AcDbScale
 70
     0
300
8:1
140
8.0
141
1.0
290
     0
  0
SCALE
  5
402
102
{ACAD_REACTORS
330
3F2
102
}
330
3F2
100
AcDbScale
 70
     0
300
10:1
140
10.0
141
1.0
290
     0
  0
SCALE
  5
403
102
{ACAD_REACTORS
330
3F2
102
}
330
3F2
100
AcDbScale
 70
     0
300
100:1
140
100.0
141
1.0
290
     0
  0
SCALE
  5
404
102
{ACAD_REACTORS
330
3F2
102
}
330
3F2
100
AcDbScale
 70
     0
300
1/128" = 1'-0"
140
0.0078125
141
12.0
290
     0
  0
SCALE
  5
405
102
{ACAD_REACTORS
330
3F2
102
}
330
3F2
100
AcDbScale
 70
     0
300
1/64" = 1'-0"
140
0.015625
141
12.0
290
     0
  0
SCALE
  5
406
102
{ACAD_REACTORS
330
3F2
102
}
330
3F2
100
AcDbScale
 70
     0
300
1/32" = 1'-0"
140
0.03125
141
12.0
290
     0
  0
SCALE
  5
407
102
{ACAD_REACTORS
330
3F2
102
}
330
3F2
100
AcDbScale
 70
     0
300
1/16" = 1'-0"
140
0.0625
141
12.0
290
     0
  0
SCALE
  5
408
102
{ACAD_REACTORS
330
3F2
102
}
330
3F2
100
AcDbScale
 70
     0
300
3/32" = 1'-0"
140
0.09375
141
12.0
290
     0
  0
SCALE
  5
409
102
{ACAD_REACTORS
330
3F2
102
}
330
3F2
100
AcDbScale
 70
     0
300
1/8" = 1'-0"
140
0.125
141
12.0
290
     0
  0
SCALE
  5
40A
102
{ACAD_REACTORS
330
3F2
102
}
330
3F2
100
AcDbScale
 70
     0
300
3/16" = 1'-0"
140
0.1875
141
12.0
290
     0
  0
SCALE
  5
40B
102
{ACAD_REACTORS
330
3F2
102
}
330
3F2
100
AcDbScale
 70
     0
300
1/4" = 1'-0"
140
0.25
141
12.0
290
     0
  0
SCALE
  5
40C
102
{ACAD_REACTORS
330
3F2
102
}
330
3F2
100
AcDbScale
 70
     0
300
3/8" = 1'-0"
140
0.375
141
12.0
290
     0
  0
SCALE
  5
40D
102
{ACAD_REACTORS
330
3F2
102
}
330
3F2
100
AcDbScale
 70
     0
300
1/2" = 1'-0"
140
0.5
141
12.0
290
     0
  0
SCALE
  5
40E
102
{ACAD_REACTORS
330
3F2
102
}
330
3F2
100
AcDbScale
 70
     0
300
3/4" = 1'-0"
140
0.75
141
12.0
290
     0
  0
SCALE
  5
40F
102
{ACAD_REACTORS
330
3F2
102
}
330
3F2
100
AcDbScale
 70
     0
300
1" = 1'-0"
140
1.0
141
12.0
290
     0
  0
SCALE
  5
410
102
{ACAD_REACTORS
330
3F2
102
}
330
3F2
100
AcDbScale
 70
     0
300
1-1/2" = 1'-0"
140
1.5
141
12.0
290
     0
  0
SCALE
  5
411
102
{ACAD_REACTORS
330
3F2
102
}
330
3F2
100
AcDbScale
 70
     0
300
3" = 1'-0"
140
3.0
141
12.0
290
     0
  0
SCALE
  5
412
102
{ACAD_REACTORS
330
3F2
102
}
330
3F2
100
AcDbScale
 70
     0
300
6" = 1'-0"
140
6.0
141
12.0
290
     0
  0
SCALE
  5
413
102
{ACAD_REACTORS
330
3F2
102
}
330
3F2
100
AcDbScale
 70
     0
300
1'-0" = 1'-0"
140
12.0
141
12.0
290
     0
  0
ENDSEC
  0
EOF
