  0
SECTION
  2
HEADER
  9
$ACADVER
  1
AC1015
  9
$ACADMAINTVER
 70
     6
  9
$DWGCODEPAGE
  3
ANSI_1252
  9
$INSBASE
 10
0.0
 20
0.0
 30
0.0
  9
$EXTMIN
 10
-18.03797397419294
 20
-127.9781842075536
 30
-0.0000000000001846
  9
$EXTMAX
 10
106.9468919664104
 20
38.45792110414004
 30
0.0000000000041672
  9
$LIMMIN
 10
-66.34999999999982
 20
-2008.85
  9
$LIMMAX
 10
3734.350000000001
 20
346.85
  9
$ORTHOMODE
 70
     1
  9
$REGENMODE
 70
     1
  9
$FILLMODE
 70
     1
  9
$QTEXTMODE
 70
     0
  9
$MIRRTEXT
 70
     1
  9
$LTSCALE
 40
10.0
  9
$ATTMODE
 70
     1
  9
$TEXTSIZE
 40
0.0
  9
$TRACEWID
 40
0.05
  9
$TEXTSTYLE
  7
Standard
  9
$CLAYER
  8
0
  9
$CELTYPE
  6
Continuous
  9
$CECOLOR
 62
   256
  9
$CELTSCALE
 40
1.0
  9
$DISPSILH
 70
     0
  9
$DIMSCALE
 40
1.0
  9
$DIMASZ
 40
1.25
  9
$DIMEXO
 40
0.0
  9
$DIMDLI
 40
0.38
  9
$DIMRND
 40
0.0
  9
$DIMDLE
 40
0.0
  9
$DIMEXE
 40
0.75
  9
$DIMTP
 40
0.0
  9
$DIMTM
 40
0.0
  9
$DIMTXT
 40
2.5
  9
$DIMCEN
 40
0.09
  9
$DIMTSZ
 40
0.0
  9
$DIMTOL
 70
     0
  9
$DIMLIM
 70
     0
  9
$DIMTIH
 70
     0
  9
$DIMTOH
 70
     0
  9
$DIMSE1
 70
     0
  9
$DIMSE2
 70
     0
  9
$DIMTAD
 70
     1
  9
$DIMZIN
 70
     0
  9
$DIMBLK
  1

  9
$DIMASO
 70
     1
  9
$DIMSHO
 70
     1
  9
$DIMPOST
  1

  9
$DIMAPOST
  1

  9
$DIMALT
 70
     0
  9
$DIMALTD
 70
     2
  9
$DIMALTF
 40
25.4
  9
$DIMLFAC
 40
1.0
  9
$DIMTOFL
 70
     0
  9
$DIMTVP
 40
0.0
  9
$DIMTIX
 70
     0
  9
$DIMSOXD
 70
     0
  9
$DIMSAH
 70
     0
  9
$DIMBLK1
  1

  9
$DIMBLK2
  1

  9
$DIMSTYLE
  2
Standard
  9
$DIMCLRD
 70
     7
  9
$DIMCLRE
 70
     7
  9
$DIMCLRT
 70
     7
  9
$DIMTFAC
 40
0.8
  9
$DIMGAP
 40
1.25
  9
$DIMJUST
 70
     0
  9
$DIMSD1
 70
     0
  9
$DIMSD2
 70
     0
  9
$DIMTOLJ
 70
     1
  9
$DIMTZIN
 70
     0
  9
$DIMALTZ
 70
     0
  9
$DIMALTTZ
 70
     0
  9
$DIMUPT
 70
     0
  9
$DIMDEC
 70
     2
  9
$DIMTDEC
 70
     4
  9
$DIMALTU
 70
     2
  9
$DIMALTTD
 70
     2
  9
$DIMTXSTY
  7
Standard
  9
$DIMAUNIT
 70
     0
  9
$DIMADEC
 70
     0
  9
$DIMALTRND
 40
0.0
  9
$DIMAZIN
 70
     0
  9
$DIMDSEP
 70
    46
  9
$DIMATFIT
 70
     3
  9
$DIMFRAC
 70
     0
  9
$DIMLDRBLK
  1

  9
$DIMLUNIT
 70
     2
  9
$DIMLWD
 70
     0
  9
$DIMLWE
 70
     0
  9
$DIMTMOVE
 70
     0
  9
$LUNITS
 70
     2
  9
$LUPREC
 70
     4
  9
$SKETCHINC
 40
0.1
  9
$FILLETRAD
 40
9.0
  9
$AUNITS
 70
     0
  9
$AUPREC
 70
     0
  9
$MENU
  1
acad
  9
$ELEVATION
 40
0.0
  9
$PELEVATION
 40
0.0
  9
$THICKNESS
 40
0.0
  9
$LIMCHECK
 70
     0
  9
$CHAMFERA
 40
0.0
  9
$CHAMFERB
 40
0.0
  9
$CHAMFERC
 40
0.0
  9
$CHAMFERD
 40
0.0
  9
$SKPOLY
 70
     0
  9
$TDCREATE
 40
2455303.727916643
  9
$TDUCREATE
 40
2455303.64458331
  9
$TDUPDATE
 40
2456455.488928923
  9
$TDUUPDATE
 40
2456455.40559559
  9
$TDINDWG
 40
0.0060735417
  9
$TDUSRTIMER
 40
2456455.405343808
  9
$USRTIMER
 70
     1
  9
$ANGBASE
 50
0.0
  9
$ANGDIR
 70
     0
  9
$PDMODE
 70
     0
  9
$PDSIZE
 40
0.0
  9
$PLINEWID
 40
0.0
  9
$SPLFRAME
 70
     0
  9
$SPLINETYPE
 70
     6
  9
$SPLINESEGS
 70
     8
  9
$HANDSEED
  5
7A14
  9
$SURFTAB1
 70
     6
  9
$SURFTAB2
 70
     6
  9
$SURFTYPE
 70
     6
  9
$SURFU
 70
     6
  9
$SURFV
 70
     6
  9
$UCSBASE
  2

  9
$UCSNAME
  2

  9
$UCSORG
 10
0.0
 20
0.0
 30
0.0
  9
$UCSXDIR
 10
1.0
 20
0.0
 30
0.0
  9
$UCSYDIR
 10
0.0
 20
1.0
 30
0.0
  9
$UCSORTHOREF
  2

  9
$UCSORTHOVIEW
 70
     0
  9
$UCSORGTOP
 10
0.0
 20
0.0
 30
0.0
  9
$UCSORGBOTTOM
 10
0.0
 20
0.0
 30
0.0
  9
$UCSORGLEFT
 10
0.0
 20
0.0
 30
0.0
  9
$UCSORGRIGHT
 10
0.0
 20
0.0
 30
0.0
  9
$UCSORGFRONT
 10
0.0
 20
0.0
 30
0.0
  9
$UCSORGBACK
 10
0.0
 20
0.0
 30
0.0
  9
$PUCSBASE
  2

  9
$PUCSNAME
  2

  9
$PUCSORG
 10
0.0
 20
0.0
 30
0.0
  9
$PUCSXDIR
 10
1.0
 20
0.0
 30
0.0
  9
$PUCSYDIR
 10
0.0
 20
1.0
 30
0.0
  9
$PUCSORTHOREF
  2

  9
$PUCSORTHOVIEW
 70
     0
  9
$PUCSORGTOP
 10
0.0
 20
0.0
 30
0.0
  9
$PUCSORGBOTTOM
 10
0.0
 20
0.0
 30
0.0
  9
$PUCSORGLEFT
 10
0.0
 20
0.0
 30
0.0
  9
$PUCSORGRIGHT
 10
0.0
 20
0.0
 30
0.0
  9
$PUCSORGFRONT
 10
0.0
 20
0.0
 30
0.0
  9
$PUCSORGBACK
 10
0.0
 20
0.0
 30
0.0
  9
$USERI1
 70
     0
  9
$USERI2
 70
     0
  9
$USERI3
 70
     0
  9
$USERI4
 70
     0
  9
$USERI5
 70
     0
  9
$USERR1
 40
0.0
  9
$USERR2
 40
0.0
  9
$USERR3
 40
0.0
  9
$USERR4
 40
0.0
  9
$USERR5
 40
0.0
  9
$WORLDVIEW
 70
     1
  9
$SHADEDGE
 70
     3
  9
$SHADEDIF
 70
    70
  9
$TILEMODE
 70
     1
  9
$MAXACTVP
 70
    16
  9
$PINSBASE
 10
0.0
 20
0.0
 30
0.0
  9
$PLIMCHECK
 70
     0
  9
$PEXTMIN
 10
1.000000000000000E+20
 20
1.000000000000000E+20
 30
1.000000000000000E+20
  9
$PEXTMAX
 10
-1.000000000000000E+20
 20
-1.000000000000000E+20
 30
-1.000000000000000E+20
  9
$PLIMMIN
 10
0.0
 20
0.0
  9
$PLIMMAX
 10
0.0
 20
0.0
  9
$UNITMODE
 70
     0
  9
$VISRETAIN
 70
     0
  9
$PLINEGEN
 70
     1
  9
$PSLTSCALE
 70
     0
  9
$TREEDEPTH
 70
  3020
  9
$CMLSTYLE
  2
Standard
  9
$CMLJUST
 70
     0
  9
$CMLSCALE
 40
1.0
  9
$PROXYGRAPHICS
 70
     0
  9
$MEASUREMENT
 70
     1
  9
$CELWEIGHT
370
     0
  9
$ENDCAPS
280
     0
  9
$JOINSTYLE
280
     0
  9
$LWDISPLAY
290
     0
  9
$INSUNITS
 70
     0
  9
$HYPERLINKBASE
  1

  9
$STYLESHEET
  1

  9
$XEDIT
290
     1
  9
$CEPSNTYPE
380
     0
  9
$PSTYLEMODE
290
     1
  9
$FINGERPRINTGUID
  2

  9
$VERSIONGUID
  2
{7C420704-BF4F-48BA-8216-6A6AD41CC944}
  9
$EXTNAMES
290
     1
  9
$PSVPSCALE
 40
0.0
  9
$OLESTARTUP
290
     0
  0
ENDSEC
  0
SECTION
  2
CLASSES
  0
CLASS
  1
IMAGE
  2
AcDbRasterImage
  3
ISM
 90
      127
280
     0
281
     1
  0
CLASS
  1
DICTIONARYVAR
  2
AcDbDictionaryVar
  3
ObjectDBX Classes
 90
        0
280
     0
281
     0
  0
CLASS
  1
RASTERVARIABLES
  2
AcDbRasterVariables
  3
ISM
 90
        0
280
     0
281
     0
  0
CLASS
  1
IMAGEDEF
  2
AcDbRasterImageDef
  3
ISM
 90
        0
280
     0
281
     0
  0
CLASS
  1
IMAGEDEF_REACTOR
  2
AcDbRasterImageDefReactor
  3
ISM
 90
        1
280
     0
281
     0
  0
CLASS
  1
IDBUFFER
  2
AcDbIdBuffer
  3
ObjectDBX Classes
 90
        0
280
     0
281
     0
  0
CLASS
  1
SPATIAL_FILTER
  2
AcDbSpatialFilter
  3
ObjectDBX Classes
 90
        0
280
     0
281
     0
  0
CLASS
  1
SORTENTSTABLE
  2
AcDbSortentsTable
  3
ObjectDBX Classes
 90
        0
280
     0
281
     0
  0
CLASS
  1
LAYER_INDEX
  2
AcDbLayerIndex
  3
ObjectDBX Classes
 90
        0
280
     0
281
     0
  0
CLASS
  1
SPATIAL_INDEX
  2
AcDbSpatialIndex
  3
AutoCAD 2000
 90
        0
280
     0
281
     0
  0
CLASS
  1
OBJECT_PTR
  2
CAseDLPNTableRecord
  3
ASE-LPNTableRecord
 90
        1
280
     0
281
     0
  0
CLASS
  1
LAYOUT
  2
AcDbLayout
  3
ObjectDBX Classes
 90
        0
280
     0
281
     0
  0
CLASS
  1
PLOTSETTINGS
  2
AcDbPlotSettings
  3
ObjectDBX Classes
 90
        0
280
     0
281
     0
  0
CLASS
  1
ACDBDICTIONARYWDFLT
  2
AcDbDictionaryWithDefault
  3
ObjectDBX Classes
 90
        0
280
     0
281
     0
  0
CLASS
  1
ACDBPLACEHOLDER
  2
AcDbPlaceHolder
  3
ObjectDBX Classes
 90
        0
280
     0
281
     0
  0
CLASS
  1
VBA_PROJECT
  2
AcDbVbaProject
  3
ObjectDBX Classes
 90
        0
280
     0
281
     0
  0
CLASS
  1
WIPEOUT
  2
AcDbWipeout
  3
WipeOut|AutoCAD Express Tool|expresstools@autodesk.com
 90
      127
280
     0
281
     1
  0
CLASS
  1
WIPEOUTVARIABLES
  2
AcDbWipeoutVariables
  3
WipeOut|AutoCAD Express Tool|expresstools@autodesk.com
 90
        0
280
     0
281
     0
  0
CLASS
  1
RTEXT
  2
RText
  3
RText|AutoCAD Express Tool|expresstools@autodesk.com
 90
        0
280
     0
281
     1
  0
CLASS
  1
ARCALIGNEDTEXT
  2
AcDbArcAlignedText
  3
ATEXT|AutoCAD Express Tool|expresstools@autodesk.com
 90
        0
280
     0
281
     1
  0
CLASS
  1
MATERIAL
  2
AcDbMaterial
  3
ObjectDBX Classes
 90
     1153
280
     0
281
     0
  0
CLASS
  1
VISUALSTYLE
  2
AcDbVisualStyle
  3
ObjectDBX Classes
 90
     4095
280
     0
281
     0
  0
CLASS
  1
TABLESTYLE
  2
AcDbTableStyle
  3
ObjectDBX Classes
 90
     4095
280
     0
281
     0
  0
CLASS
  1
SCALE
  2
AcDbScale
  3
ObjectDBX Classes
 90
     1153
280
     0
281
     0
  0
CLASS
  1
MLEADERSTYLE
  2
AcDbMLeaderStyle
  3
ACDB_MLEADERSTYLE_CLASS
 90
     4095
280
     0
281
     0
  0
CLASS
  1
CELLSTYLEMAP
  2
AcDbCellStyleMap
  3
ObjectDBX Classes
 90
     1152
280
     0
281
     0
  0
ENDSEC
  0
SECTION
  2
TABLES
  0
TABLE
  2
VPORT
  5
7
330
0
100
AcDbSymbolTable
 70
     1
  0
VPORT
  5
15
330
7
100
AcDbSymbolTableRecord
100
AcDbViewportTableRecord
  2
*ACTIVE
 70
     0
 10
0.0
 20
0.0
 11
1.0
 21
1.0
 12
-2.367593638928554
 22
483.0575104324789
 13
0.0
 23
0.0
 14
1.0
 24
1.0
 15
0.0
 25
0.0
 16
0.0
 26
0.0
 36
1.0
 17
0.0
 27
0.0
 37
0.0
 40
1671.079179243649
 41
2.230492196878751
 42
50.0
 43
0.0
 44
0.0
 50
0.0
 51
0.0
 71
    16
 72
   100
 73
     1
 74
     1
 75
     0
 76
     0
 77
     0
 78
     0
281
     0
 65
     0
110
0.0
120
0.0
130
0.0
111
1.0
121
0.0
131
0.0
112
0.0
122
1.0
132
0.0
 79
     0
146
0.0
  0
ENDTAB
  0
TABLE
  2
LTYPE
  5
4
330
0
100
AcDbSymbolTable
 70
     3
  0
LTYPE
  5
11
330
4
100
AcDbSymbolTableRecord
100
AcDbLinetypeTableRecord
  2
ByBlock
 70
     0
  3

 72
    65
 73
     0
 40
0.0
  0
LTYPE
  5
12
330
4
100
AcDbSymbolTableRecord
100
AcDbLinetypeTableRecord
  2
ByLayer
 70
     0
  3

 72
    65
 73
     0
 40
0.0
  0
LTYPE
  5
13
330
4
100
AcDbSymbolTableRecord
100
AcDbLinetypeTableRecord
  2
Continuous
 70
     0
  3
Solid line
 72
    65
 73
     0
 40
0.0
  0
LTYPE
  5
1E4
330
4
100
AcDbSymbolTableRecord
100
AcDbLinetypeTableRecord
  2
CENTER
 70
     0
  3
____ _ ____ _ ____ _ ____ _ ____ _ ____ _ ____
 72
    65
 73
     4
 40
2.0
 49
1.25
 74
     0
 49
-0.25
 74
     0
 49
0.25
 74
     0
 49
-0.25
 74
     0
  0
LTYPE
  5
6ECA
330
4
100
AcDbSymbolTableRecord
100
AcDbLinetypeTableRecord
  2
HIDDEN
 70
     0
  3
Hidden __ __ __ __ __ __ __ __ __ __ __ __ __ __
 72
    65
 73
     2
 40
1.905
 49
1.27
 74
     0
 49
-0.635
 74
     0
  0
ENDTAB
  0
TABLE
  2
LAYER
  5
2
330
0
100
AcDbSymbolTable
 70
     2
  0
LAYER
  5
14
102
{ACAD_XDICTIONARY
360
5E41
102
}
330
2
100
AcDbSymbolTableRecord
100
AcDbLayerTableRecord
  2
0
 70
     0
 62
     7
  6
Continuous
370
    -3
390
1D
  0
LAYER
  5
6EA5
330
2
100
AcDbSymbolTableRecord
100
AcDbLayerTableRecord
  2
Defpoints
 70
     0
 62
     7
  6
Continuous
290
     0
370
    -3
390
1D
  0
ENDTAB
  0
TABLE
  2
STYLE
  5
3
330
0
100
AcDbSymbolTable
 70
     7
  0
STYLE
  5
17
330
3
100
AcDbSymbolTableRecord
100
AcDbTextStyleTableRecord
  2
Standard
 70
     0
 40
0.0
 41
1.0
 50
0.0
 71
     0
 42
0.0
  3
I011000D.TTF
  4

1001
ACAD
1000
IsonormD
1071
        0
  0
STYLE
  5
6395
330
3
100
AcDbSymbolTableRecord
100
AcDbTextStyleTableRecord
  2
SLDTEXTSTYLE0
 70
     0
 40
0.0
 41
0.605
 50
0.0
 71
     0
 42
0.2
  3
TXT
  4

  0
STYLE
  5
6396
330
3
100
AcDbSymbolTableRecord
100
AcDbTextStyleTableRecord
  2
SLDTEXTSTYLE1
 70
     0
 40
0.0
 41
0.435157749412572
 50
0.0
 71
     0
 42
0.2
  3
TXT
  4

  0
STYLE
  5
6397
330
3
100
AcDbSymbolTableRecord
100
AcDbTextStyleTableRecord
  2
SLDTEXTSTYLE2
 70
     0
 40
0.0
 41
0.609090909090909
 50
0.0
 71
     0
 42
0.2
  3
TXT
  4

  0
STYLE
  5
6398
330
3
100
AcDbSymbolTableRecord
100
AcDbTextStyleTableRecord
  2
SLDTEXTSTYLE3
 70
     0
 40
0.0
 41
0.7
 50
0.0
 71
     0
 42
0.2
  3
TXT
  4

  0
STYLE
  5
6399
330
3
100
AcDbSymbolTableRecord
100
AcDbTextStyleTableRecord
  2
SLDTEXTSTYLE4
 70
     0
 40
0.0
 41
0.57
 50
0.0
 71
     0
 42
0.2
  3
TXT
  4

  0
STYLE
  5
639A
330
3
100
AcDbSymbolTableRecord
100
AcDbTextStyleTableRecord
  2
SLDTEXTSTYLE5
 70
     0
 40
0.0
 41
0.75
 50
0.0
 71
     0
 42
0.2
  3
TXT
  4

  0
ENDTAB
  0
TABLE
  2
VIEW
  5
5
330
0
100
AcDbSymbolTable
 70
     0
  0
ENDTAB
  0
TABLE
  2
UCS
  5
6
330
0
100
AcDbSymbolTable
 70
     0
  0
ENDTAB
  0
TABLE
  2
APPID
  5
8
330
0
100
AcDbSymbolTable
 70
     6
  0
APPID
  5
16
330
8
100
AcDbSymbolTableRecord
100
AcDbRegAppTableRecord
  2
ACAD
 70
     0
  0
APPID
  5
26
330
8
100
AcDbSymbolTableRecord
100
AcDbRegAppTableRecord
  2
TopSolid'Draft
 70
     0
  0
APPID
  5
319D
330
8
100
AcDbSymbolTableRecord
100
AcDbRegAppTableRecord
  2
ACAD_MLEADERVER
 70
     0
  0
APPID
  5
5E45
330
8
100
AcDbSymbolTableRecord
100
AcDbRegAppTableRecord
  2
DCO15
 70
     0
  0
APPID
  5
6330
330
8
100
AcDbSymbolTableRecord
100
AcDbRegAppTableRecord
  2
ACAD_EXEMPT_FROM_CAD_STANDARDS
 70
     0
  0
APPID
  5
7A11
330
8
100
AcDbSymbolTableRecord
100
AcDbRegAppTableRecord
  2
ACAD_DSTYLE_DIMRADIAL_EXTENSION
 70
     0
  0
ENDTAB
  0
TABLE
  2
DIMSTYLE
  5
9
330
0
100
AcDbSymbolTable
 70
     2
100
AcDbDimStyleTable
  0
DIMSTYLE
105
18
330
9
100
AcDbSymbolTableRecord
100
AcDbDimStyleTableRecord
  2
Standard
 70
     0
 41
1.25
 42
0.0
 44
0.75
 73
     0
 74
     0
 77
     1
140
2.5
146
0.8
147
1.25
176
     7
177
     7
271
     2
178
     7
271
     2
340
17
  0
DIMSTYLE
105
6393
330
9
100
AcDbSymbolTableRecord
100
AcDbDimStyleTableRecord
  2
ISO-25
 70
     0
 41
2.5
 42
0.625
 43
3.75
 44
1.25
 73
     0
 74
     0
 77
     1
 78
     8
140
2.5
141
2.5
143
0.03937007874016
147
0.625
171
     3
172
     1
178
     0
271
     2
272
     2
274
     3
278
    44
283
     0
284
     8
340
17
  0
ENDTAB
  0
TABLE
  2
BLOCK_RECORD
  5
1
330
0
100
AcDbSymbolTable
 70
     4
  0
BLOCK_RECORD
  5
A
102
{ACAD_XDICTIONARY
360
31A7
102
}
330
1
100
AcDbSymbolTableRecord
100
AcDbBlockTableRecord
  2
*MODEL_SPACE
340
20
  0
BLOCK_RECORD
  5
B
330
1
100
AcDbSymbolTableRecord
100
AcDbBlockTableRecord
  2
*PAPER_SPACE
340
21
  0
BLOCK_RECORD
  5
641E
330
1
100
AcDbSymbolTableRecord
100
AcDbBlockTableRecord
  2
SW_NOTE_0
340
0
  0
BLOCK_RECORD
  5
642C
330
1
100
AcDbSymbolTableRecord
100
AcDbBlockTableRecord
  2
SW_NOTE_1
340
0
  0
BLOCK_RECORD
  5
644D
330
1
100
AcDbSymbolTableRecord
100
AcDbBlockTableRecord
  2
SW_NOTE_2
340
0
  0
BLOCK_RECORD
  5
6455
330
1
100
AcDbSymbolTableRecord
100
AcDbBlockTableRecord
  2
SW_NOTE_3
340
0
  0
ENDTAB
  0
ENDSEC
  0
SECTION
  2
BLOCKS
  0
BLOCK
  5
D
330
A
100
AcDbEntity
  8
0
100
AcDbBlockBegin
  2
*MODEL_SPACE
 70
     0
 10
0.0
 20
0.0
 30
0.0
  3
*MODEL_SPACE
  1

  0
ENDBLK
  5
E
330
A
100
AcDbEntity
  8
0
100
AcDbBlockEnd
  0
BLOCK
  5
F
330
B
100
AcDbEntity
 67
     1
  8
0
100
AcDbBlockBegin
  2
*PAPER_SPACE
 70
     0
 10
0.0
 20
0.0
 30
0.0
  3
*PAPER_SPACE
  1

  0
ENDBLK
  5
10
330
B
100
AcDbEntity
 67
     1
  8
0
100
AcDbBlockEnd
  0
BLOCK
  5
641F
330
641E
100
AcDbEntity
  8
0
100
AcDbBlockBegin
  2
SW_NOTE_0
 70
     0
 10
0.0
 20
0.0
 30
0.0
  3
SW_NOTE_0
  1

  0
MTEXT
  5
6420
330
641E
100
AcDbEntity
  8
0
  6
Continuous
 62
     0
370
     0
100
AcDbMText
 10
0.0
 20
2.387460876369325
 30
0.0
 40
1.852083333333333
 41
0.0
 71
     1
 72
     1
  1
FINITURA
  7
SLDTEXTSTYLE0
 73
     1
 44
1.0
  0
MTEXT
  5
6421
330
641E
100
AcDbEntity
  8
0
  6
Continuous
 62
     0
370
     0
100
AcDbMText
 10
0.0
 20
-0.0819835382314046
 30
0.0
 40
1.852083333333333
 41
0.0
 71
     1
 72
     1
  1
SPECIFICA:
  7
SLDTEXTSTYLE0
 73
     1
 44
1.0
  0
ENDBLK
  5
6422
330
641E
100
AcDbEntity
  8
0
100
AcDbBlockEnd
  0
BLOCK
  5
642D
330
642C
100
AcDbEntity
  8
0
100
AcDbBlockBegin
  2
SW_NOTE_1
 70
     0
 10
0.0
 20
0.0
 30
0.0
  3
SW_NOTE_1
  1

  0
MTEXT
  5
642E
330
642C
100
AcDbEntity
  8
0
  6
Continuous
 62
     0
370
     0
100
AcDbMText
 10
0.0
 20
2.387460876369325
 30
0.0
 40
1.852083333333333
 41
0.0
 71
     1
 72
     1
  1
CROMATURA
  7
SLDTEXTSTYLE0
 73
     1
 44
1.0
  0
MTEXT
  5
642F
330
642C
100
AcDbEntity
  8
0
  6
Continuous
 62
     0
370
     0
100
AcDbMText
 10
0.0
 20
-0.0819835382314046
 30
0.0
 40
1.852083333333333
 41
0.0
 71
     1
 72
     1
  1
A KANBAN
  7
SLDTEXTSTYLE0
 73
     1
 44
1.0
  0
ENDBLK
  5
6430
330
642C
100
AcDbEntity
  8
0
100
AcDbBlockEnd
  0
BLOCK
  5
644E
330
644D
100
AcDbEntity
  8
0
100
AcDbBlockBegin
  2
SW_NOTE_2
 70
     0
 10
0.0
 20
0.0
 30
0.0
  3
SW_NOTE_2
  1

  0
MTEXT
  5
644F
330
644D
100
AcDbEntity
  8
0
  6
Continuous
 62
     0
370
     0
100
AcDbMText
 10
0.0
 20
2.728526715850658
 30
0.0
 40
2.116666666666666
 41
0.0
 71
     1
 72
     1
  1
Approvato:
  7
SLDTEXTSTYLE0
 73
     1
 44
1.0
  0
MTEXT
  5
6450
330
644D
100
AcDbEntity
  8
0
  6
Continuous
 62
     0
370
     0
100
AcDbMText
 10
15.84560198038815
 20
2.728526715850658
 30
0.0
 40
2.116666666666666
 41
0.0
 71
     1
 72
     1
  1
A. Biasotti
  7
SLDTEXTSTYLE0
 73
     1
 44
1.0
  0
ENDBLK
  5
6451
330
644D
100
AcDbEntity
  8
0
100
AcDbBlockEnd
  0
BLOCK
  5
6456
330
6455
100
AcDbEntity
  8
0
100
AcDbBlockBegin
  2
SW_NOTE_3
 70
     0
 10
0.0
 20
0.0
 30
0.0
  3
SW_NOTE_3
  1

  0
MTEXT
  5
6457
330
6455
100
AcDbEntity
  8
0
  6
Continuous
 62
     0
370
     0
100
AcDbMText
 10
0.0
 20
2.449228705566728
 30
0.0
 40
1.9
 41
0.0
 71
     1
 72
     1
  1
Dimensioni in mm   -
  7
SLDTEXTSTYLE0
 73
     1
 44
1.0
  0
MTEXT
  5
6458
330
6455
100
AcDbEntity
  8
0
  6
Continuous
 62
     0
370
     0
100
AcDbMText
 10
25.96666663885117
 20
2.449228705566728
 30
0.0
 40
1.9
 41
0.0
 71
     1
 72
     1
  1
NB
  7
SLDTEXTSTYLE0
 73
     1
 44
1.0
  0
MTEXT
  5
6459
330
6455
100
AcDbEntity
  8
0
  6
Continuous
 62
     0
370
     0
100
AcDbMText
 10
29.73500080406666
 20
2.449228705566728
 30
0.0
 40
1.9
 41
0.0
 71
     1
 72
     1
  1
:  LE QUOTE INDICATE A DISEGNO SI RIFERISCONO ALLA LAVORAZIONE MECCANICA. - PRIMA DEI TRATTAMENTI SUPERFICIALI
  7
SLDTEXTSTYLE0
 73
     1
 44
1.0
  0
ENDBLK
  5
645A
330
6455
100
AcDbEntity
  8
0
100
AcDbBlockEnd
  0
ENDSEC
  0
SECTION
  2
ENTITIES
  0
TEXT
  5
5F7F
330
A
100
AcDbEntity
  8
0
  6
Continuous
 62
     7
370
     0
100
AcDbText
 10
157.705899999999
 20
1078.044946452069
 30
0.0
 40
50.0
  1
5H15
100
AcDbText
  0
CIRCLE
  5
7374
330
A
100
AcDbEntity
  8
0
  6
Continuous
 62
     7
370
    15
100
AcDbCircle
 10
23.53000145799604
 20
1139.328601179318
 30
0.0
 40
1.700000000028012
  0
LINE
  5
7375
330
A
100
AcDbEntity
  8
0
  6
Continuous
 62
     7
370
    15
100
AcDbLine
 10
22.280003875494
 20
1138.606913340453
 30
0.0
 11
23.53000268340111
 21
1137.885225481994
 31
0.0
  0
LINE
  5
7376
330
A
100
AcDbEntity
  8
0
  6
Continuous
 62
     7
370
    15
100
AcDbLine
 10
23.53000268340111
 20
1137.885225481994
 30
0.0
 11
24.78000149130821
 21
1138.606913340453
 31
0.0
  0
LINE
  5
7377
330
A
100
AcDbEntity
  8
0
  6
Continuous
 62
     7
370
    15
100
AcDbLine
 10
24.78000149130821
 20
1138.606913340453
 30
0.0
 11
24.78000149130821
 21
1140.050288999162
 31
0.0
  0
LINE
  5
7378
330
A
100
AcDbEntity
  8
0
  6
Continuous
 62
     7
370
    15
100
AcDbLine
 10
24.78000149130821
 20
1140.050288999162
 30
0.0
 11
23.53000268340111
 21
1140.771976799413
 31
0.0
  0
LINE
  5
7379
330
A
100
AcDbEntity
  8
0
  6
Continuous
 62
     7
370
    15
100
AcDbLine
 10
22.280003875494
 20
1140.050288999162
 30
0.0
 11
23.53000268340111
 21
1140.771976799413
 31
0.0
  0
LINE
  5
737A
330
A
100
AcDbEntity
  8
0
  6
Continuous
 62
     7
370
    15
100
AcDbLine
 10
22.280003875494
 20
1140.050288999162
 30
0.0
 11
22.280003875494
 21
1138.606913340453
 31
0.0
  0
SPLINE
  5
737B
330
A
100
AcDbEntity
  8
0
  6
Continuous
 62
     7
370
    15
100
AcDbSpline
210
0.0
220
0.0
230
1.0
 70
    11
 71
     3
 72
    26
 73
    22
 74
     0
 42
0.00000001
 43
0.00000001
 40
0.0
 40
0.0
 40
0.0
 40
0.0
 40
0.0531325099812678
 40
0.1062401536354591
 40
0.1599717048778059
 40
0.2139541332630278
 40
0.2671815716647306
 40
0.3198386342415098
 40
0.3729577896726159
 40
0.426880294486344
 40
0.4807118149730422
 40
0.5336609777392369
 40
0.5863259370411937
 40
0.6397327589991129
 40
0.6937618629699517
 40
0.7473317010075865
 40
0.8000946225932105
 40
0.8529332603730222
 40
0.9066044966280827
 40
0.9606133948116371
 40
1.0
 40
1.0
 40
1.0
 40
1.0
 10
23.42624589800835
 20
1137.23116590333
 30
0.0
 10
23.19349366588347
 20
1137.265584236842
 30
0.0
 10
22.72809813104698
 20
1137.334404795884
 30
0.0
 10
22.12203219649257
 20
1137.720598919693
 30
0.0
 10
21.6688095387459
 20
1138.270811129623
 30
0.0
 10
21.4239594007945
 20
1138.947496605963
 30
0.0
 10
21.41693755526876
 20
1139.662506533599
 30
0.0
 10
21.64275875715646
 20
1140.335213258721
 30
0.0
 10
22.07585287341317
 20
1140.898246893872
 30
0.0
 10
22.67500969155685
 20
1141.290924881549
 30
0.0
 10
23.37255972487696
 20
1141.462817137851
 30
0.0
 10
24.08244938507949
 20
1141.395029085937
 30
0.0
 10
24.72729486671778
 20
1141.101165322975
 30
0.0
 10
25.24344768524736
 20
1140.610750397822
 30
0.0
 10
25.5714591353393
 20
1139.972176501364
 30
0.0
 10
25.66861422376462
 20
1139.261328940252
 30
0.0
 10
25.5276637755336
 20
1138.56438728873
 30
0.0
 10
25.16828330087822
 20
1137.952271396911
 30
0.0
 10
24.62525904888491
 20
1137.492041412717
 30
0.0
 10
24.01161573822742
 20
1137.245019308796
 30
0.0
 10
23.59988172165856
 20
1137.235275181436
 30
0.0
 10
23.42624589800835
 20
1137.23116590333
 30
0.0
  0
LINE
  5
74C5
330
A
100
AcDbEntity
  8
0
  6
CENTER
 62
     1
100
AcDbLine
 10
30.53689480147182
 20
1139.328601179318
 30
0.0
 11
-11.39945298474898
 21
1139.328601179318
 31
0.0
  0
LINE
  5
74C6
330
A
100
AcDbEntity
  8
0
  6
CENTER
 62
     1
100
AcDbLine
 10
23.53000145799604
 20
1132.321707835843
 30
0.0
 11
23.53000145799604
 21
1146.335494522794
 31
0.0
  0
LINE
  5
760D
330
A
100
AcDbEntity
  8
0
  6
Continuous
 62
     7
370
    15
100
AcDbLine
 10
25.61939880251884
 20
889.000028371811
 30
0.0
 11
62.52999976277351
 21
889.000028371811
 31
0.0
  0
LINE
  5
760E
330
A
100
AcDbEntity
  8
0
  6
Continuous
 62
     7
370
    15
100
AcDbLine
 10
18.03000271320343
 20
889.000028371811
 30
0.0
 11
21.45932987332344
 21
889.000028371811
 31
0.0
  0
LINE
  5
760F
330
A
100
AcDbEntity
  8
0
  6
Continuous
 62
     7
370
    15
100
AcDbLine
 10
21.44060656428337
 20
911.0000133514403
 30
0.0
 11
18.03000271320343
 21
911.0000133514403
 31
0.0
  0
LINE
  5
7610
330
A
100
AcDbEntity
  8
0
  6
Continuous
 62
     7
370
    15
100
AcDbLine
 10
62.52999976277351
 20
911.0000133514403
 30
0.0
 11
25.60067549347878
 21
911.0000133514403
 31
0.0
  0
LINE
  5
7611
330
A
100
AcDbEntity
  8
0
  6
Continuous
 62
     7
370
    15
100
AcDbLine
 10
25.61939880251884
 20
-10.99997758865356
 30
0.0
 11
62.52999976277351
 21
-10.99997758865356
 31
0.0
  0
LINE
  5
7612
330
A
100
AcDbEntity
  8
0
  6
Continuous
 62
     7
370
    15
100
AcDbLine
 10
18.03000271320343
 20
-10.99997758865356
 30
0.0
 11
21.45932987332344
 21
-10.99997758865356
 31
0.0
  0
LINE
  5
7613
330
A
100
AcDbEntity
  8
0
  6
Continuous
 62
     7
370
    15
100
AcDbLine
 10
21.44060656428337
 20
11.00003719329834
 30
0.0
 11
18.03000271320343
 21
11.00003719329834
 31
0.0
  0
LINE
  5
7614
330
A
100
AcDbEntity
  8
0
  6
Continuous
 62
     7
370
    15
100
AcDbLine
 10
62.52999976277351
 20
11.00003719329834
 30
0.0
 11
25.60067549347878
 21
11.00003719329834
 31
0.0
  0
LINE
  5
7615
330
A
100
AcDbEntity
  8
0
  6
Continuous
 62
     7
370
    15
100
AcDbLine
 10
12.03000172972679
 20
4.000008106231576
 30
0.0
 11
0.0
 21
4.000008106231576
 31
0.0
  0
LINE
  5
7616
330
A
100
AcDbEntity
  8
0
  6
Continuous
 62
     7
370
    15
100
AcDbLine
 10
-1.499999314546585
 20
4.000008106231576
 30
0.0
 11
-1.529999077320099
 21
4.000008106231576
 31
0.0
  0
LINE
  5
7617
330
A
100
AcDbEntity
  8
0
  6
Continuous
 62
     7
370
    15
100
AcDbLine
 10
-1.529999077320099
 20
-3.999948501586914
 30
0.0
 11
-1.499999314546585
 21
-3.999948501586914
 31
0.0
  0
LINE
  5
7618
330
A
100
AcDbEntity
  8
0
  6
Continuous
 62
     7
370
    15
100
AcDbLine
 10
0.0
 20
-3.999948501586914
 30
0.0
 11
12.03000172972679
 21
-3.999948501586914
 31
0.0
  0
LINE
  5
7619
330
A
100
AcDbEntity
  8
0
  6
Continuous
 62
     7
370
    15
100
AcDbLine
 10
12.03000172972679
 20
904.000014066696
 30
0.0
 11
0.0
 21
904.000014066696
 31
0.0
  0
LINE
  5
761A
330
A
100
AcDbEntity
  8
0
  6
Continuous
 62
     7
370
    15
100
AcDbLine
 10
-1.499999314546585
 20
904.000014066696
 30
0.0
 11
-1.529999077320099
 21
904.000014066696
 31
0.0
  0
LINE
  5
761B
330
A
100
AcDbEntity
  8
0
  6
Continuous
 62
     7
370
    15
100
AcDbLine
 10
-1.529999077320099
 20
896.0000276565551
 30
0.0
 11
-1.499999314546585
 21
896.0000276565551
 31
0.0
  0
LINE
  5
761C
330
A
100
AcDbEntity
  8
0
  6
Continuous
 62
     7
370
    15
100
AcDbLine
 10
0.0
 20
896.0000276565551
 30
0.0
 11
12.03000172972679
 21
896.0000276565551
 31
0.0
  0
LINE
  5
761D
330
A
100
AcDbEntity
  8
0
  6
Continuous
 62
     7
370
    15
100
AcDbLine
 10
13.53000104427338
 20
13.99999856948853
 30
0.0
 11
12.03000172972679
 21
13.99999856948853
 31
0.0
  0
LINE
  5
761E
330
A
100
AcDbEntity
  8
0
  6
Continuous
 62
     7
370
    15
100
AcDbLine
 10
12.03000172972679
 20
-13.99999856948864
 30
0.0
 11
13.53000104427338
 21
-13.99999856948864
 31
0.0
  0
LINE
  5
761F
330
A
100
AcDbEntity
  8
0
  6
Continuous
 62
     7
370
    15
100
AcDbLine
 10
0.0
 20
914.0000343322753
 30
0.0
 11
-1.499999314546585
 21
914.0000343322753
 31
0.0
  0
LINE
  5
7620
330
A
100
AcDbEntity
  8
0
  6
Continuous
 62
     7
370
    15
100
AcDbLine
 10
-1.499999314546585
 20
886.0000371932982
 30
0.0
 11
0.0
 21
886.0000371932982
 31
0.0
  0
LINE
  5
7621
330
A
100
AcDbEntity
  8
0
  6
Continuous
 62
     7
370
    15
100
AcDbLine
 10
0.0
 20
13.99999856948853
 30
0.0
 11
-1.499999314546585
 21
13.99999856948853
 31
0.0
  0
LINE
  5
7622
330
A
100
AcDbEntity
  8
0
  6
Continuous
 62
     7
370
    15
100
AcDbLine
 10
-1.499999314546585
 20
-13.99999856948864
 30
0.0
 11
0.0
 21
-13.99999856948864
 31
0.0
  0
LINE
  5
7623
330
A
100
AcDbEntity
  8
0
  6
Continuous
 62
     7
370
    15
100
AcDbLine
 10
13.53000104427338
 20
914.0000343322753
 30
0.0
 11
12.03000172972679
 21
914.0000343322753
 31
0.0
  0
LINE
  5
7624
330
A
100
AcDbEntity
  8
0
  6
Continuous
 62
     7
370
    15
100
AcDbLine
 10
12.03000172972679
 20
886.0000371932982
 30
0.0
 11
13.53000104427338
 21
886.0000371932982
 31
0.0
  0
LINE
  5
7625
330
A
100
AcDbEntity
  8
0
  6
Continuous
 62
     7
370
    15
100
AcDbLine
 10
16.03000238537788
 20
14.50002193450928
 30
0.0
 11
13.53000104427338
 21
14.50002193450928
 31
0.0
  0
LINE
  5
7626
330
A
100
AcDbEntity
  8
0
  6
Continuous
 62
     7
370
    15
100
AcDbLine
 10
13.53000104427338
 20
-14.49996232986456
 30
0.0
 11
16.03000238537788
 21
-14.49996232986456
 31
0.0
  0
LINE
  5
7627
330
A
100
AcDbEntity
  8
0
  6
Continuous
 62
     7
370
    15
100
AcDbLine
 10
16.03000238537788
 20
-14.49996232986456
 30
0.0
 11
18.03000271320343
 21
-12.49998807907104
 31
0.0
  0
LINE
  5
7628
330
A
100
AcDbEntity
  8
0
  6
Continuous
 62
     7
370
    15
100
AcDbLine
 10
18.03000271320343
 20
12.50004768371582
 30
0.0
 11
16.03000238537788
 21
14.50002193450928
 31
0.0
  0
LINE
  5
7629
330
A
100
AcDbEntity
  8
0
  6
Continuous
 62
     7
370
    15
100
AcDbLine
 10
-4.029996693134308
 20
914.5000278949736
 30
0.0
 11
-6.029997020959854
 21
912.5000238418578
 31
0.0
  0
LINE
  5
762A
330
A
100
AcDbEntity
  8
0
  6
Continuous
 62
     7
370
    15
100
AcDbLine
 10
-6.029997020959854
 20
887.5000178813933
 30
0.0
 11
-4.029996693134308
 21
885.5000138282775
 31
0.0
  0
LINE
  5
762B
330
A
100
AcDbEntity
  8
0
  6
Continuous
 62
     7
370
    15
100
AcDbLine
 10
-4.029996693134308
 20
885.5000138282775
 30
0.0
 11
-1.529999077320099
 21
885.5000138282775
 31
0.0
  0
LINE
  5
762C
330
A
100
AcDbEntity
  8
0
  6
Continuous
 62
     7
370
    15
100
AcDbLine
 10
-1.529999077320099
 20
914.5000278949736
 30
0.0
 11
-4.029996693134308
 21
914.5000278949736
 31
0.0
  0
LINE
  5
762D
330
A
100
AcDbEntity
  8
0
  6
Continuous
 62
     7
370
    15
100
AcDbLine
 10
16.03000238537788
 20
914.5000278949736
 30
0.0
 11
13.53000104427338
 21
914.5000278949736
 31
0.0
  0
LINE
  5
762E
330
A
100
AcDbEntity
  8
0
  6
Continuous
 62
     7
370
    15
100
AcDbLine
 10
13.53000104427338
 20
885.5000138282775
 30
0.0
 11
16.03000238537788
 21
885.5000138282775
 31
0.0
  0
LINE
  5
762F
330
A
100
AcDbEntity
  8
0
  6
Continuous
 62
     7
370
    15
100
AcDbLine
 10
16.03000238537788
 20
885.5000138282775
 30
0.0
 11
18.03000271320343
 21
887.5000178813933
 31
0.0
  0
LINE
  5
7630
330
A
100
AcDbEntity
  8
0
  6
Continuous
 62
     7
370
    15
100
AcDbLine
 10
18.03000271320343
 20
912.5000238418578
 30
0.0
 11
16.03000238537788
 21
914.5000278949736
 31
0.0
  0
LINE
  5
7631
330
A
100
AcDbEntity
  8
0
  6
Continuous
 62
     7
370
    15
100
AcDbLine
 10
-4.029996693134308
 20
14.50002193450928
 30
0.0
 11
-6.029997020959854
 21
12.50004768371582
 31
0.0
  0
LINE
  5
7632
330
A
100
AcDbEntity
  8
0
  6
Continuous
 62
     7
370
    15
100
AcDbLine
 10
-6.029997020959854
 20
-12.49998807907104
 30
0.0
 11
-4.029996693134308
 21
-14.49996232986456
 31
0.0
  0
LINE
  5
7633
330
A
100
AcDbEntity
  8
0
  6
Continuous
 62
     7
370
    15
100
AcDbLine
 10
-4.029996693134308
 20
-14.49996232986456
 30
0.0
 11
-1.529999077320099
 21
-14.49996232986456
 31
0.0
  0
LINE
  5
7634
330
A
100
AcDbEntity
  8
0
  6
Continuous
 62
     7
370
    15
100
AcDbLine
 10
-1.529999077320099
 20
14.50002193450928
 30
0.0
 11
-4.029996693134308
 21
14.50002193450928
 31
0.0
  0
LINE
  5
7635
330
A
100
AcDbEntity
  8
0
  6
Continuous
 62
     7
370
    15
100
AcDbLine
 10
-6.029997020959854
 20
911.0000133514403
 30
0.0
 11
-50.52999872714281
 21
911.0000133514403
 31
0.0
  0
LINE
  5
7636
330
A
100
AcDbEntity
  8
0
  6
Continuous
 62
     7
370
    15
100
AcDbLine
 10
-50.52999872714281
 20
889.000028371811
 30
0.0
 11
-6.029997020959854
 21
889.000028371811
 31
0.0
  0
LINE
  5
7637
330
A
100
AcDbEntity
  8
0
  6
Continuous
 62
     7
370
    15
100
AcDbLine
 10
-6.029997020959854
 20
11.00003719329834
 30
0.0
 11
-50.52999872714281
 21
11.00003719329834
 31
0.0
  0
LINE
  5
7638
330
A
100
AcDbEntity
  8
0
  6
Continuous
 62
     7
370
    15
100
AcDbLine
 10
-50.52999872714281
 20
-10.99997758865356
 30
0.0
 11
-6.029997020959854
 21
-10.99997758865356
 31
0.0
  0
ARC
  5
7639
330
A
100
AcDbEntity
  8
0
  6
Continuous
 62
     7
370
    15
100
AcDbCircle
 10
87.03000145803139
 20
-149.4999758739209
 30
0.0
 40
0.4999999999999716
100
AcDbArc
 50
270.0
 51
0.0
  0
ARC
  5
763A
330
A
100
AcDbEntity
  8
0
  6
Continuous
 62
     7
370
    15
100
AcDbCircle
 10
63.03000145803139
 20
-149.4999758739209
 30
0.0
 40
0.4999999999999716
100
AcDbArc
 50
180.0
 51
270.0
  0
ARC
  5
763B
330
A
100
AcDbEntity
  8
0
  6
Continuous
 62
     7
370
    15
100
AcDbCircle
 10
87.0300014580348
 20
1049.500024126079
 30
0.0
 40
0.4999999999999716
100
AcDbArc
 50
0.0
 51
90.0
  0
ARC
  5
763C
330
A
100
AcDbEntity
  8
0
  6
Continuous
 62
     7
370
    15
100
AcDbCircle
 10
63.0300014580348
 20
1049.500024126079
 30
0.0
 40
0.4999999999999716
100
AcDbArc
 50
90.0
 51
180.0
  0
LINE
  5
763D
330
A
100
AcDbEntity
  8
0
  6
Continuous
 62
     7
370
    15
100
AcDbLine
 10
87.5299982726574
 20
-149.4999527931214
 30
0.0
 11
87.5299982726574
 21
1049.500018358231
 31
0.0
  0
LINE
  5
763E
330
A
100
AcDbEntity
  8
0
  6
Continuous
 62
     7
370
    15
100
AcDbLine
 10
62.52999976277351
 20
-10.99997758865356
 30
0.0
 11
62.52999976277351
 21
-149.4999527931214
 31
0.0
  0
LINE
  5
763F
330
A
100
AcDbEntity
  8
0
  6
Continuous
 62
     7
370
    15
100
AcDbLine
 10
62.52999976277351
 20
889.000028371811
 30
0.0
 11
62.52999976277351
 21
11.00003719329834
 31
0.0
  0
LINE
  5
7640
330
A
100
AcDbEntity
  8
0
  6
Continuous
 62
     7
370
    15
100
AcDbLine
 10
62.52999976277351
 20
1049.500018358231
 30
0.0
 11
62.52999976277351
 21
911.0000133514403
 31
0.0
  0
ARC
  5
7641
330
A
100
AcDbEntity
  8
0
  6
Continuous
 62
     7
370
    15
100
AcDbCircle
 10
-75.02999854195593
 20
1049.500024126023
 30
0.0
 40
0.5000000000001137
100
AcDbArc
 50
90.0
 51
180.0
  0
ARC
  5
7642
330
A
100
AcDbEntity
  8
0
  6
Continuous
 62
     7
370
    15
100
AcDbCircle
 10
-51.02999854195593
 20
1049.500024126023
 30
0.0
 40
0.5000000000001137
100
AcDbArc
 50
0.0
 51
90.0
  0
ARC
  5
7643
330
A
100
AcDbEntity
  8
0
  6
Continuous
 62
     7
370
    15
100
AcDbCircle
 10
-75.02999854195593
 20
-149.4999758739769
 30
0.0
 40
0.5000000000000426
100
AcDbArc
 50
180.0
 51
270.0
  0
ARC
  5
7644
330
A
100
AcDbEntity
  8
0
  6
Continuous
 62
     7
370
    15
100
AcDbCircle
 10
-51.02999854195593
 20
-149.4999758739769
 30
0.0
 40
0.5000000000000426
100
AcDbArc
 50
270.0
 51
0.0
  0
LINE
  5
7645
330
A
100
AcDbEntity
  8
0
  6
Continuous
 62
     7
370
    15
100
AcDbLine
 10
-75.53000003099442
 20
1049.500018358231
 30
0.0
 11
-75.53000003099442
 21
-149.4999527931214
 31
0.0
  0
LINE
  5
7646
330
A
100
AcDbEntity
  8
0
  6
Continuous
 62
     7
370
    15
100
AcDbLine
 10
-50.52999872714281
 20
911.0000133514403
 30
0.0
 11
-50.52999872714281
 21
1049.500018358231
 31
0.0
  0
LINE
  5
7647
330
A
100
AcDbEntity
  8
0
  6
Continuous
 62
     7
370
    15
100
AcDbLine
 10
-50.52999872714281
 20
11.00003719329834
 30
0.0
 11
-50.52999872714281
 21
889.000028371811
 31
0.0
  0
LINE
  5
7648
330
A
100
AcDbEntity
  8
0
  6
Continuous
 62
     7
370
    15
100
AcDbLine
 10
-50.52999872714281
 20
-149.4999527931214
 30
0.0
 11
-50.52999872714281
 21
-10.99997758865356
 31
0.0
  0
SPLINE
  5
7649
330
A
100
AcDbEntity
  8
0
  6
Continuous
 62
     7
370
    15
100
AcDbSpline
210
0.0
220
0.0
230
1.0
 70
     8
 71
     3
 72
    17
 73
    13
 74
     0
 42
0.00000001
 43
0.00000001
 40
0.0
 40
0.0
 40
0.0
 40
0.0
 40
0.0501469289213425
 40
0.1554818817384208
 40
0.2617411903670185
 40
0.3696075056680418
 40
0.4772929243814976
 40
0.5832110535497474
 40
0.6885628109544382
 40
0.7953971577842498
 40
0.9034764734465137
 40
1.0
 40
1.0
 40
1.0
 40
1.0
 10
25.60067549347878
 20
910.9944701194762
 30
0.0
 10
25.60689267432213
 20
910.9956366283869
 30
0.0
 10
25.6261692082478
 20
910.9992534201698
 30
0.0
 10
25.40922854789301
 20
910.9583545271788
 30
0.0
 10
24.98634077142879
 20
910.8915497494501
 30
0.0
 10
24.384421962224
 20
910.8246460344266
 30
0.0
 10
23.68752817207655
 20
910.7909348441659
 30
0.0
 10
22.97776621607977
 20
910.8045405658971
 30
0.0
 10
22.33176322238342
 20
910.8588452505945
 30
0.0
 10
21.82018016117263
 20
910.9294500452621
 30
0.0
 10
21.48628567444712
 20
910.9890068468427
 30
0.0
 10
21.45524861911531
 20
910.9951488459641
 30
0.0
 10
21.44060656428337
 20
910.9980463981627
 30
0.0
  0
SPLINE
  5
764A
330
A
100
AcDbEntity
  8
0
  6
Continuous
 62
     7
370
    15
100
AcDbSpline
210
0.0
220
0.0
230
1.0
 70
     8
 71
     3
 72
     9
 73
     5
 74
     0
 42
0.00000001
 43
0.00000001
 40
0.0
 40
0.0
 40
0.0
 40
0.0
 40
0.1218796734551955
 40
1.0
 40
1.0
 40
1.0
 40
1.0
 10
23.04976060986519
 20
910.8102321624755
 30
0.0
 10
23.07200105502511
 20
910.808619379617
 30
0.0
 10
23.25447976151804
 20
910.7953867969176
 30
0.0
 10
23.45642619802425
 20
910.7968963006464
 30
0.0
 10
23.63375946879387
 20
910.7982218265532
 30
0.0
  0
SPLINE
  5
764B
330
A
100
AcDbEntity
  8
0
  6
Continuous
 62
     7
370
    15
100
AcDbSpline
210
0.0
220
0.0
230
1.0
 70
     8
 71
     3
 72
    17
 73
    13
 74
     0
 42
0.00000001
 43
0.00000001
 40
0.0
 40
0.0
 40
0.0
 40
0.0
 40
0.0501469496696692
 40
0.1554819461564741
 40
0.2617412988380176
 40
0.3696076588582188
 40
0.4772920238364718
 40
0.5832113238498676
 40
0.6885620970468642
 40
0.7953964688960206
 40
0.903476433388114
 40
1.0
 40
1.0
 40
1.0
 40
1.0
 10
21.45932987332344
 20
889.0055716037749
 30
0.0
 10
21.45311269222225
 20
889.0044050944449
 30
0.0
 10
21.43383615748508
 20
889.0007883013592
 30
0.0
 10
21.65077682931155
 20
889.0416872125824
 30
0.0
 10
22.07366455669421
 20
889.1084919123808
 30
0.0
 10
22.67558149658544
 20
889.175395692998
 30
0.0
 10
23.37247417366461
 20
889.2091059628787
 30
0.0
 10
24.08223547252624
 20
889.1955051853125
 30
0.0
 10
24.72823477096063
 20
889.1411825922936
 30
0.0
 10
25.23982317605805
 20
889.0706430680792
 30
0.0
 10
25.57371970308873
 20
889.0110236430452
 30
0.0
 10
25.60475678049534
 20
889.0048892707224
 30
0.0
 10
25.61939880251884
 20
889.0019953250884
 30
0.0
  0
SPLINE
  5
764C
330
A
100
AcDbEntity
  8
0
  6
Continuous
 62
     7
370
    15
100
AcDbSpline
210
0.0
220
0.0
230
1.0
 70
     8
 71
     3
 72
     9
 73
     5
 74
     0
 42
0.00000001
 43
0.00000001
 40
0.0
 40
0.0
 40
0.0
 40
0.0
 40
0.1218767495203432
 40
1.0
 40
1.0
 40
1.0
 40
1.0
 10
24.01024475693703
 20
889.189839363098
 30
0.0
 10
23.98800426964408
 20
889.1914415212783
 30
0.0
 10
23.80552083961629
 20
889.2045872458438
 30
0.0
 10
23.60357725497079
 20
889.2031296488395
 30
0.0
 10
23.42624589800835
 20
889.2018496990205
 30
0.0
  0
SPLINE
  5
764D
330
A
100
AcDbEntity
  8
0
  6
Continuous
 62
     7
370
    15
100
AcDbSpline
210
0.0
220
0.0
230
1.0
 70
     8
 71
     3
 72
    23
 73
    19
 74
     0
 42
0.00000001
 43
0.00000001
 40
0.0
 40
0.0
 40
0.0
 40
0.0
 40
0.0459207308065182
 40
0.1206614435119541
 40
0.1701946505566246
 40
0.2211567598408835
 40
0.2850166569414531
 40
0.3507096085183929
 40
0.4287239457206302
 40
0.4829360509927351
 40
0.5375829481297204
 40
0.6047364786739996
 40
0.663800449249001
 40
0.7244269006605408
 40
0.7865350327660209
 40
0.8507042616496778
 40
0.9345778448440071
 40
1.0
 40
1.0
 40
1.0
 40
1.0
 10
62.61708959937096
 20
889.0990912914275
 30
0.0
 10
62.60577692235825
 20
889.0861734608335
 30
0.0
 10
62.57605169990688
 20
889.0522305322442
 30
0.0
 10
63.16379077836723
 20
889.7224922493293
 30
0.0
 10
63.96160885576728
 20
890.6546276027633
 30
0.0
 10
64.88006115740541
 20
891.7575781879137
 30
0.0
 10
66.00613001881948
 20
893.1766727610874
 30
0.0
 10
67.34528940538712
 20
895.0451587813951
 30
0.0
 10
68.52778831461455
 20
897.0923091595888
 30
0.0
 10
69.17789648365351
 20
899.3423560889797
 30
0.0
 10
69.01854373920378
 20
901.5857365171834
 30
0.0
 10
68.13219570557249
 20
903.6353687717886
 30
0.0
 10
66.98233435800171
 20
905.4779018973726
 30
0.0
 10
65.80906525321643
 20
907.0772302350516
 30
0.0
 10
64.65292181417658
 20
908.5219183297523
 30
0.0
 10
63.53847586323081
 20
909.8462695033805
 30
0.0
 10
62.66409673781277
 20
910.8481549976356
 30
0.0
 10
62.61860084582099
 20
910.8993695701935
 30
0.0
 10
62.59866431355476
 20
910.921812057495
 30
0.0
  0
SPLINE
  5
764E
330
A
100
AcDbEntity
  8
0
  6
Continuous
 62
     7
370
    15
100
AcDbSpline
210
0.0
220
0.0
230
1.0
 70
     8
 71
     3
 72
    17
 73
    13
 74
     0
 42
0.00000001
 43
0.00000001
 40
0.0
 40
0.0
 40
0.0
 40
0.0
 40
0.0501469273341296
 40
0.1554818228905048
 40
0.2617419129513639
 40
0.3696077980484059
 40
0.4772931710640901
 40
0.5832113372934196
 40
0.6885624066537421
 40
0.7953971361763769
 40
0.9034767445569398
 40
1.0
 40
1.0
 40
1.0
 40
1.0
 10
25.60067549347878
 20
10.99443435668945
 30
0.0
 10
25.60689271877845
 20
10.99562361875746
 30
0.0
 10
25.62616938385622
 20
10.99931095602994
 30
0.0
 10
25.40922627793475
 20
10.95839066248607
 30
0.0
 10
24.98634469987223
 20
10.89148361343973
 30
0.0
 10
24.38442026994107
 20
10.82466064100345
 30
0.0
 10
23.68752764786586
 20
10.7909071739864
 30
0.0
 10
22.97776946120166
 20
10.80459977756288
 30
0.0
 10
22.331759193979
 20
10.85877794771682
 30
0.0
 10
21.82018102293978
 20
10.92944621724314
 30
0.0
 10
21.4862860808762
 20
10.98905368613418
 30
0.0
 10
21.45524872039846
 20
10.99513956626458
 30
0.0
 10
21.44060656428337
 20
10.99801063537598
 30
0.0
  0
SPLINE
  5
764F
330
A
100
AcDbEntity
  8
0
  6
Continuous
 62
     7
370
    15
100
AcDbSpline
210
0.0
220
0.0
230
1.0
 70
     8
 71
     3
 72
     9
 73
     5
 74
     0
 42
0.00000001
 43
0.00000001
 40
0.0
 40
0.0
 40
0.0
 40
0.0
 40
0.1218768373926182
 40
0.9999999999999999
 40
0.9999999999999999
 40
0.9999999999999999
 40
0.9999999999999999
 10
23.04976060986519
 20
10.81019639968872
 30
0.0
 10
23.07200109589212
 20
10.80859415745306
 30
0.0
 10
23.25448438396165
 20
10.79544775268948
 30
0.0
 10
23.45642805431476
 20
10.7969216248265
 30
0.0
 10
23.63375946879387
 20
10.79821586608875
 30
0.0
  0
SPLINE
  5
7650
330
A
100
AcDbEntity
  8
0
  6
Continuous
 62
     7
370
    15
100
AcDbSpline
210
0.0
220
0.0
230
1.0
 70
     8
 71
     3
 72
    17
 73
    13
 74
     0
 42
0.00000001
 43
0.00000001
 40
0.0
 40
0.0
 40
0.0
 40
0.0
 40
0.0501469284022222
 40
0.1554818624613212
 40
0.2617411648379416
 40
0.3696078777172551
 40
0.4772921917159608
 40
0.5832115235934554
 40
0.6885622542235208
 40
0.7953965754955306
 40
0.9034764809732493
 40
1.0
 40
1.0
 40
1.0
 40
1.0
 10
21.45932987332344
 20
-10.99443435668957
 30
0.0
 10
21.45311269644935
 20
-10.99560093405967
 30
0.0
 10
21.43383617702079
 20
-10.99921793769261
 30
0.0
 10
21.65077661813848
 20
-10.95831608725416
 30
0.0
 10
22.07366596568795
 20
-10.89152384723332
 30
0.0
 10
22.67557980125002
 20
-10.82457268373253
 30
0.0
 10
23.37247474925175
 20
-10.79086192970146
 30
0.0
 10
24.08223508534957
 20
-10.80451082569584
 30
0.0
 10
24.72823481236992
 20
-10.85882063461418
 30
0.0
 10
25.23982314261775
 20
-10.92936363461752
 30
0.0
 10
25.57371971413818
 20
-10.98898215470194
 30
0.0
 10
25.60475678375838
 20
-10.99511663752946
 30
0.0
 10
25.61939880251884
 20
-10.99801063537609
 30
0.0
  0
SPLINE
  5
7651
330
A
100
AcDbEntity
  8
0
  6
Continuous
 62
     7
370
    15
100
AcDbSpline
210
0.0
220
0.0
230
1.0
 70
     8
 71
     3
 72
     9
 73
     5
 74
     0
 42
0.00000001
 43
0.00000001
 40
0.0
 40
0.0
 40
0.0
 40
0.0
 40
0.1218825277797863
 40
1.0
 40
1.0
 40
1.0
 40
1.0
 10
24.01024475693703
 20
-10.81019639968872
 30
0.0
 10
23.98800435290946
 20
-10.80857307617225
 30
0.0
 10
23.80553025729682
 20
-10.79525432125138
 30
0.0
 10
23.60358103692124
 20
-10.79679945367036
 30
0.0
 10
23.42624589800835
 20
-10.79815626144409
 30
0.0
  0
SPLINE
  5
7652
330
A
100
AcDbEntity
  8
0
  6
Continuous
 62
     7
370
    15
100
AcDbSpline
210
0.0
220
0.0
230
1.0
 70
     8
 71
     3
 72
    23
 73
    19
 74
     0
 42
0.00000001
 43
0.00000001
 40
0.0
 40
0.0
 40
0.0
 40
0.0
 40
0.045920750582886
 40
0.1206615013616078
 40
0.1701947317080763
 40
0.2211572910857102
 40
0.2850167158372466
 40
0.3507102762470753
 40
0.4287239811194763
 40
0.4829361118944632
 40
0.5375822386336884
 40
0.6047358007688557
 40
0.66380043491124
 40
0.7244269148431485
 40
0.7865350761660209
 40
0.8507043445942531
 40
0.9345776934868063
 40
1.0
 40
1.0
 40
1.0
 40
1.0
 10
62.61708959937096
 20
-10.90091466903709
 30
0.0
 10
62.60577699067471
 20
-10.91383265884724
 30
0.0
 10
62.57605194628195
 20
-10.94777600744874
 30
0.0
 10
63.16378933985743
 20
-10.27751016287277
 30
0.0
 10
63.96161416512655
 20
-9.345384553231497
 30
0.0
 10
64.88004884030374
 20
-8.24238848306834
 30
0.0
 10
66.0061460175666
 20
-6.823339694026799
 30
0.0
 10
67.34527188804168
 20
-4.954816836527812
 30
0.0
 10
68.52779448169531
 20
-2.907693059966959
 30
0.0
 10
69.17789415151628
 20
-0.6576587287819393
 30
0.0
 10
69.01854166355156
 20
1.58571072362065
 30
0.0
 10
68.13218735901
 20
3.635335408582819
 30
0.0
 10
66.98234263444238
 20
5.477893951702072
 30
0.0
 10
65.80906414326819
 20
7.077223925158364
 30
0.0
 10
64.65292187329806
 20
8.521910003240123
 30
0.0
 10
63.53847800593508
 20
9.846273756077494
 30
0.0
 10
62.66409519497597
 20
10.84809193420392
 30
0.0
 10
62.61860041550676
 20
10.8993668881518
 30
0.0
 10
62.59866431355476
 20
10.92183589935291
 30
0.0
  0
LINE
  5
7653
330
A
100
AcDbEntity
  8
0
  6
Continuous
 62
     7
370
    15
100
AcDbLine
 10
13.53000104427338
 20
0.0
 30
0.0
 11
13.53000104427338
 21
-13.99999856948864
 31
0.0
  0
LINE
  5
7654
330
A
100
AcDbEntity
  8
0
  6
Continuous
 62
     7
370
    15
100
AcDbLine
 10
13.53000104427338
 20
13.99999856948853
 30
0.0
 11
13.53000104427338
 21
0.0
 31
0.0
  0
LINE
  5
7655
330
A
100
AcDbEntity
  8
0
  6
Continuous
 62
     7
370
    15
100
AcDbLine
 10
12.03000172972679
 20
0.0
 30
0.0
 11
12.03000172972679
 21
-13.99999856948864
 31
0.0
  0
LINE
  5
7656
330
A
100
AcDbEntity
  8
0
  6
Continuous
 62
     7
370
    15
100
AcDbLine
 10
12.03000172972679
 20
13.99999856948853
 30
0.0
 11
12.03000172972679
 21
0.0
 31
0.0
  0
LINE
  5
7657
330
A
100
AcDbEntity
  8
0
  6
Continuous
 62
     7
370
    15
100
AcDbLine
 10
0.0
 20
900.0000357627868
 30
0.0
 11
0.0
 21
886.0000371932982
 31
0.0
  0
LINE
  5
7658
330
A
100
AcDbEntity
  8
0
  6
Continuous
 62
     7
370
    15
100
AcDbLine
 10
0.0
 20
914.0000343322753
 30
0.0
 11
0.0
 21
900.0000357627868
 31
0.0
  0
LINE
  5
7659
330
A
100
AcDbEntity
  8
0
  6
Continuous
 62
     7
370
    15
100
AcDbLine
 10
-1.499999314546585
 20
900.0000357627868
 30
0.0
 11
-1.499999314546585
 21
886.0000371932982
 31
0.0
  0
LINE
  5
765A
330
A
100
AcDbEntity
  8
0
  6
Continuous
 62
     7
370
    15
100
AcDbLine
 10
-1.499999314546585
 20
914.0000343322753
 30
0.0
 11
-1.499999314546585
 21
900.0000357627868
 31
0.0
  0
LINE
  5
765B
330
A
100
AcDbEntity
  8
0
  6
Continuous
 62
     7
370
    15
100
AcDbLine
 10
0.0
 20
0.0
 30
0.0
 11
0.0
 21
-13.99999856948864
 31
0.0
  0
LINE
  5
765C
330
A
100
AcDbEntity
  8
0
  6
Continuous
 62
     7
370
    15
100
AcDbLine
 10
0.0
 20
13.99999856948853
 30
0.0
 11
0.0
 21
0.0
 31
0.0
  0
LINE
  5
765D
330
A
100
AcDbEntity
  8
0
  6
Continuous
 62
     7
370
    15
100
AcDbLine
 10
-1.499999314546585
 20
0.0
 30
0.0
 11
-1.499999314546585
 21
-13.99999856948864
 31
0.0
  0
LINE
  5
765E
330
A
100
AcDbEntity
  8
0
  6
Continuous
 62
     7
370
    15
100
AcDbLine
 10
-1.499999314546585
 20
13.99999856948853
 30
0.0
 11
-1.499999314546585
 21
0.0
 31
0.0
  0
LINE
  5
765F
330
A
100
AcDbEntity
  8
0
  6
Continuous
 62
     7
370
    15
100
AcDbLine
 10
13.53000104427338
 20
900.0000357627868
 30
0.0
 11
13.53000104427338
 21
886.0000371932982
 31
0.0
  0
LINE
  5
7660
330
A
100
AcDbEntity
  8
0
  6
Continuous
 62
     7
370
    15
100
AcDbLine
 10
13.53000104427338
 20
914.0000343322753
 30
0.0
 11
13.53000104427338
 21
900.0000357627868
 31
0.0
  0
LINE
  5
7661
330
A
100
AcDbEntity
  8
0
  6
Continuous
 62
     7
370
    15
100
AcDbLine
 10
12.03000172972679
 20
900.0000357627868
 30
0.0
 11
12.03000172972679
 21
886.0000371932982
 31
0.0
  0
LINE
  5
7662
330
A
100
AcDbEntity
  8
0
  6
Continuous
 62
     7
370
    15
100
AcDbLine
 10
12.03000172972679
 20
914.0000343322753
 30
0.0
 11
12.03000172972679
 21
900.0000357627868
 31
0.0
  0
LINE
  5
7663
330
A
100
AcDbEntity
  8
0
  6
Continuous
 62
     7
370
    15
100
AcDbLine
 10
16.03000238537788
 20
-14.49996232986456
 30
0.0
 11
16.03000238537788
 21
14.50002193450928
 31
0.0
  0
LINE
  5
7664
330
A
100
AcDbEntity
  8
0
  6
Continuous
 62
     7
370
    15
100
AcDbLine
 10
13.53000104427338
 20
14.50002193450928
 30
0.0
 11
13.53000104427338
 21
-14.49996232986456
 31
0.0
  0
LINE
  5
7665
330
A
100
AcDbEntity
  8
0
  6
Continuous
 62
     7
370
    15
100
AcDbLine
 10
18.03000271320343
 20
0.0
 30
0.0
 11
18.03000271320343
 21
12.50004768371582
 31
0.0
  0
LINE
  5
7666
330
A
100
AcDbEntity
  8
0
  6
Continuous
 62
     7
370
    15
100
AcDbLine
 10
18.03000271320343
 20
-12.49998807907104
 30
0.0
 11
18.03000271320343
 21
0.0
 31
0.0
  0
LINE
  5
7667
330
A
100
AcDbEntity
  8
0
  6
Continuous
 62
     7
370
    15
100
AcDbLine
 10
-4.029996693134308
 20
900.0000357627868
 30
0.0
 11
-4.029996693134308
 21
885.5000138282775
 31
0.0
  0
LINE
  5
7668
330
A
100
AcDbEntity
  8
0
  6
Continuous
 62
     7
370
    15
100
AcDbLine
 10
-4.029996693134308
 20
914.5000278949736
 30
0.0
 11
-4.029996693134308
 21
900.0000357627868
 31
0.0
  0
LINE
  5
7669
330
A
100
AcDbEntity
  8
0
  6
Continuous
 62
     7
370
    15
100
AcDbLine
 10
-6.029997020959854
 20
912.5000238418578
 30
0.0
 11
-6.029997020959854
 21
887.5000178813933
 31
0.0
  0
LINE
  5
766A
330
A
100
AcDbEntity
  8
0
  6
Continuous
 62
     7
370
    15
100
AcDbLine
 10
-1.529999077320099
 20
900.0000357627868
 30
0.0
 11
-1.529999077320099
 21
914.5000278949736
 31
0.0
  0
LINE
  5
766B
330
A
100
AcDbEntity
  8
0
  6
Continuous
 62
     7
370
    15
100
AcDbLine
 10
-1.529999077320099
 20
885.5000138282775
 30
0.0
 11
-1.529999077320099
 21
900.0000357627868
 31
0.0
  0
LINE
  5
766C
330
A
100
AcDbEntity
  8
0
  6
Continuous
 62
     7
370
    15
100
AcDbLine
 10
16.03000238537788
 20
885.5000138282775
 30
0.0
 11
16.03000238537788
 21
914.5000278949736
 31
0.0
  0
LINE
  5
766D
330
A
100
AcDbEntity
  8
0
  6
Continuous
 62
     7
370
    15
100
AcDbLine
 10
13.53000104427338
 20
914.5000278949736
 30
0.0
 11
13.53000104427338
 21
885.5000138282775
 31
0.0
  0
LINE
  5
766E
330
A
100
AcDbEntity
  8
0
  6
Continuous
 62
     7
370
    15
100
AcDbLine
 10
18.03000271320343
 20
900.0000357627868
 30
0.0
 11
18.03000271320343
 21
912.5000238418578
 31
0.0
  0
LINE
  5
766F
330
A
100
AcDbEntity
  8
0
  6
Continuous
 62
     7
370
    15
100
AcDbLine
 10
18.03000271320343
 20
887.5000178813933
 30
0.0
 11
18.03000271320343
 21
900.0000357627868
 31
0.0
  0
LINE
  5
7670
330
A
100
AcDbEntity
  8
0
  6
Continuous
 62
     7
370
    15
100
AcDbLine
 10
-4.029996693134308
 20
0.0
 30
0.0
 11
-4.029996693134308
 21
-14.49996232986456
 31
0.0
  0
LINE
  5
7671
330
A
100
AcDbEntity
  8
0
  6
Continuous
 62
     7
370
    15
100
AcDbLine
 10
-4.029996693134308
 20
14.50002193450928
 30
0.0
 11
-4.029996693134308
 21
0.0
 31
0.0
  0
LINE
  5
7672
330
A
100
AcDbEntity
  8
0
  6
Continuous
 62
     7
370
    15
100
AcDbLine
 10
-6.029997020959854
 20
12.50004768371582
 30
0.0
 11
-6.029997020959854
 21
-12.49998807907104
 31
0.0
  0
LINE
  5
7673
330
A
100
AcDbEntity
  8
0
  6
Continuous
 62
     7
370
    15
100
AcDbLine
 10
-1.529999077320099
 20
0.0
 30
0.0
 11
-1.529999077320099
 21
14.50002193450928
 31
0.0
  0
LINE
  5
7674
330
A
100
AcDbEntity
  8
0
  6
Continuous
 62
     7
370
    15
100
AcDbLine
 10
-1.529999077320099
 20
-14.49996232986456
 30
0.0
 11
-1.529999077320099
 21
0.0
 31
0.0
  0
SPLINE
  5
7675
330
A
100
AcDbEntity
  8
0
  6
Continuous
 62
     7
370
    15
100
AcDbSpline
210
0.0
220
0.0
230
1.0
 70
     8
 71
     3
 72
    15
 73
    11
 74
     0
 42
0.00000001
 43
0.00000001
 40
0.0
 40
0.0
 40
0.0
 40
0.0
 40
0.1214779333474892
 40
0.213362879422631
 40
0.3075886907146464
 40
0.4397558437368703
 40
0.5757704623725655
 40
0.7694105182126397
 40
0.9311139102196253
 40
1.0
 40
1.0
 40
1.0
 40
1.0
 10
-57.08553642034531
 20
899.7056782245635
 30
0.0
 10
-56.96515255779013
 20
898.9669952093083
 30
0.0
 10
-56.75371129563655
 20
897.6695782153546
 30
0.0
 10
-55.9162737419947
 20
896.0379315091583
 30
0.0
 10
-54.96411717491355
 20
894.4937514166348
 30
0.0
 10
-53.80792138212996
 20
892.9193226556735
 30
0.0
 10
-52.40310106368213
 20
891.1683528128702
 30
0.0
 10
-51.20498944241842
 20
889.7683058189776
 30
0.0
 10
-50.52771011440552
 20
888.9973672253542
 30
0.0
 10
-50.59652521571081
 20
889.0756924775889
 30
0.0
 10
-50.61708297580481
 20
889.0990912914275
 30
0.0
  0
SPLINE
  5
7676
330
A
100
AcDbEntity
  8
0
  6
Continuous
 62
     7
370
    15
100
AcDbSpline
210
0.0
220
0.0
230
1.0
 70
     8
 71
     3
 72
    16
 73
    12
 74
     0
 42
0.00000001
 43
0.00000001
 40
0.0
 40
0.0
 40
0.0
 40
0.0
 40
0.0371627293506922
 40
0.1857395782405575
 40
0.3390664112924574
 40
0.4523922736907542
 40
0.5689621637413781
 40
0.6849627916151927
 40
0.8038991579093189
 40
0.9188915780884926
 40
1.0
 40
1.0
 40
1.0
 40
1.0
 10
-50.59866141527891
 20
910.921812057495
 30
0.0
 10
-50.57738974554377
 20
910.9460438365412
 30
0.0
 10
-50.47107379313388
 20
911.0671544357543
 30
0.0
 10
-50.96936357221011
 20
910.5010308271552
 30
0.0
 10
-51.86106043051223
 20
909.4678994153929
 30
0.0
 10
-52.97190843535395
 20
908.1307994124928
 30
0.0
 10
-54.07216600234972
 20
906.7309241725849
 30
0.0
 10
-55.22640084423574
 20
905.1195760568872
 30
0.0
 10
-56.285528445301
 20
903.3239416810296
 30
0.0
 10
-57.0312714744083
 20
901.4701595832763
 30
0.0
 10
-57.06965908613745
 20
900.2219463190391
 30
0.0
 10
-57.08553642034531
 20
899.7056782245637
 30
0.0
  0
SPLINE
  5
7677
330
A
100
AcDbEntity
  8
0
  6
Continuous
 62
     7
370
    15
100
AcDbSpline
210
0.0
220
0.0
230
1.0
 70
     8
 71
     3
 72
    15
 73
    11
 74
     0
 42
0.00000001
 43
0.00000001
 40
0.0
 40
0.0
 40
0.0
 40
0.0
 40
0.1214794979726569
 40
0.2133616099303096
 40
0.30758741603845
 40
0.4397568669333584
 40
0.5757704836021132
 40
0.7694105287889935
 40
0.9311139179059736
 40
0.9999999999999999
 40
0.9999999999999999
 40
0.9999999999999999
 40
0.9999999999999999
 10
-57.08553642034531
 20
-0.2943277359008789
 30
0.0
 10
-56.96515783589609
 20
-1.03302360181749
 30
0.0
 10
-56.75372982534395
 20
-2.330438736314591
 30
0.0
 10
-55.91625950399657
 20
-3.962055788195926
 30
0.0
 10
-54.9641070046207
 20
-5.5062287812666
 30
0.0
 10
-53.80794215662036
 20
-7.080717172886125
 30
0.0
 10
-52.4030905435975
 20
-8.831641973265732
 30
0.0
 10
-51.20499150940987
 20
-10.23170378071961
 30
0.0
 10
-50.52770994246748
 20
-11.00263842340826
 30
0.0
 10
-50.59652517720144
 20
-10.92431340999349
 30
0.0
 10
-50.61708297580481
 20
-10.90091466903698
 30
0.0
  0
SPLINE
  5
7678
330
A
100
AcDbEntity
  8
0
  6
Continuous
 62
     7
370
    15
100
AcDbSpline
210
0.0
220
0.0
230
1.0
 70
     8
 71
     3
 72
    16
 73
    12
 74
     0
 42
0.00000001
 43
0.00000001
 40
0.0
 40
0.0
 40
0.0
 40
0.0
 40
0.0371627258990346
 40
0.1857398611310501
 40
0.3390673141514629
 40
0.4523923140146604
 40
0.5689621954814876
 40
0.6849628148134241
 40
0.8038991723494948
 40
0.9188915840610314
 40
1.0
 40
1.0
 40
1.0
 40
1.0
 10
-50.59866141527891
 20
10.92183589935291
 30
0.0
 10
-50.5773897411068
 20
10.94606790584646
 30
0.0
 10
-50.47107359472193
 20
11.06717983755152
 30
0.0
 10
-50.96936643224296
 20
10.50102435641747
 30
0.0
 10
-51.86105194574316
 20
9.46785325827932
 30
0.0
 10
-52.97191390777471
 20
8.130798843008279
 30
0.0
 10
-54.072165259862
 20
6.730915827836156
 30
0.0
 10
-55.22640104869834
 20
5.119570752995401
 30
0.0
 10
-56.28552839160329
 20
3.323935548130294
 30
0.0
 10
-57.03127148320164
 20
1.470153651049259
 30
0.0
 10
-57.0696590887103
 20
0.2219403668368614
 30
0.0
 10
-57.08553642034531
 20
-0.2943277359011063
 30
0.0
  0
SPLINE
  5
7679
330
A
100
AcDbEntity
  8
0
  6
Continuous
 62
     7
370
    15
100
AcDbSpline
210
0.0
220
0.0
230
1.0
 70
    24
 71
     3
 72
    23
 73
    19
 74
     0
 42
0.00000001
 43
0.00000001
 40
0.0
 40
0.0
 40
0.0
 40
0.0
 40
0.0582580254754487
 40
0.1200056593837721
 40
0.184320387372494
 40
0.2500000437288685
 40
0.3156796184736108
 40
0.3799943692267655
 40
0.4417420168100053
 40
0.5000000350018089
 40
0.5582580531936125
 40
0.6200057007768524
 40
0.6843204515300071
 40
0.7500000262747493
 40
0.8156795578196252
 40
0.8799943768662584
 40
0.9417419560752822
 40
0.9999999999999999
 40
0.9999999999999999
 40
0.9999999999999999
 40
0.9999999999999999
 10
63.03000077605247
 20
-149.9999761581423
 30
0.0
 10
63.06893322814767
 20
-149.9999761581422
 30
0.0
 10
63.14913015461389
 20
-149.9999761581425
 30
0.0
 10
63.81676565176463
 20
-149.999976158142
 30
0.0
 10
64.92383290252337
 20
-149.9999761581425
 30
0.0
 10
66.48468940171779
 20
-149.9999761581421
 30
0.0
 10
68.4032468787857
 20
-149.9999761581422
 30
0.0
 10
70.55399275536388
 20
-149.9999761581422
 30
0.0
 10
72.79045756359938
 20
-149.9999761581421
 30
0.0
 10
75.03000275409772
 20
-149.9999761581424
 30
0.0
 10
77.26954787671593
 20
-149.999976158142
 30
0.0
 10
79.50601290391887
 20
-149.9999761581425
 30
0.0
 10
81.65675792914521
 20
-149.999976158142
 30
0.0
 10
83.57531744619837
 20
-149.9999761581425
 30
0.0
 10
85.13616187323532
 20
-149.9999761581423
 30
0.0
 10
86.24324481149074
 20
-149.9999761581421
 30
0.0
 10
86.91086318200882
 20
-149.9999761581424
 30
0.0
 10
86.99106827112587
 20
-149.9999761581421
 30
0.0
 10
87.03000470995903
 20
-149.9999761581422
 30
0.0
  0
LINE
  5
767A
330
A
100
AcDbEntity
  8
0
  6
Continuous
 62
     7
370
    15
100
AcDbLine
 10
87.03000470995903
 20
1050.000011920929
 30
0.0
 11
63.03000077605247
 21
1050.000011920929
 31
0.0
  0
SPLINE
  5
767B
330
A
100
AcDbEntity
  8
0
  6
Continuous
 62
     7
370
    15
100
AcDbSpline
210
0.0
220
0.0
230
1.0
 70
    24
 71
     3
 72
    23
 73
    19
 74
     0
 42
0.00000001
 43
0.00000001
 40
0.0
 40
0.0
 40
0.0
 40
0.0
 40
0.0582580114784373
 40
0.1200056619673949
 40
0.1843204086253367
 40
0.2500000019982097
 40
0.3156795953710828
 40
0.3799943420290245
 40
0.4417419856805105
 40
0.5000000001627609
 40
0.5582580146450112
 40
0.6200056582964972
 40
0.6843204049544389
 40
0.749999998327312
 40
0.815679607301614
 40
0.8799943311951244
 40
0.9417419885215627
 40
1.0
 40
1.0
 40
1.0
 40
1.0
 10
-51.0299988090992
 20
1050.000011920929
 30
0.0
 10
-51.06892950581596
 20
1050.000011920929
 30
0.0
 10
-51.14912283737294
 20
1050.000011920929
 30
0.0
 10
-51.81676320272516
 20
1050.000011920929
 30
0.0
 10
-52.9238327943101
 20
1050.000011920929
 30
0.0
 10
-54.48468275088521
 20
1050.000011920929
 30
0.0
 10
-56.40324357107511
 20
1050.000011920929
 30
0.0
 10
-58.5539887279906
 20
1050.000011920929
 30
0.0
 10
-60.79045378281592
 20
1050.000011920929
 30
0.0
 10
-63.02999891171567
 20
1050.000011920929
 30
0.0
 10
-65.26954405096785
 20
1050.000011920929
 30
0.0
 10
-67.50600907239777
 20
1050.000011920929
 30
0.0
 10
-69.65675435915614
 20
1050.000011920929
 30
0.0
 10
-71.57531483454966
 20
1050.000011920929
 30
0.0
 10
-73.13616654344605
 20
1050.000011920929
 30
0.0
 10
-74.24323293992711
 20
1050.000011920929
 30
0.0
 10
-74.9108753766044
 20
1050.000011920929
 30
0.0
 10
-74.99106844901985
 20
1050.000011920929
 30
0.0
 10
-75.02999901771545
 20
1050.000011920929
 30
0.0
  0
LINE
  5
767C
330
A
100
AcDbEntity
  8
0
  6
Continuous
 62
     7
370
    15
100
AcDbLine
 10
-75.02999901771545
 20
-149.9999761581422
 30
0.0
 11
-51.0299988090992
 21
-149.9999761581422
 31
0.0
  0
LINE
  5
767D
330
A
100
AcDbEntity
  8
0
  6
Continuous
 62
     7
370
     0
100
AcDbLine
 10
62.52999976277351
 20
-149.4999527931214
 30
0.0
 11
87.5299982726574
 21
-149.4999527931214
 31
0.0
  0
LINE
  5
767E
330
A
100
AcDbEntity
  8
0
  6
Continuous
 62
     7
370
     0
100
AcDbLine
 10
87.5299982726574
 20
1049.500018358231
 30
0.0
 11
62.52999976277351
 21
1049.500018358231
 31
0.0
  0
LINE
  5
767F
330
A
100
AcDbEntity
  8
0
  6
Continuous
 62
     7
370
     0
100
AcDbLine
 10
-50.52999872714281
 20
1049.500018358231
 30
0.0
 11
-75.53000003099442
 21
1049.500018358231
 31
0.0
  0
LINE
  5
7680
330
A
100
AcDbEntity
  8
0
  6
Continuous
 62
     7
370
     0
100
AcDbLine
 10
-75.53000003099442
 20
-149.4999527931214
 30
0.0
 11
-50.52999872714281
 21
-149.4999527931214
 31
0.0
  0
LINE
  5
7681
330
A
100
AcDbEntity
  8
0
  6
Continuous
 62
     7
370
    15
100
AcDbLine
 10
18.03000271320343
 20
1128.328601258516
 30
0.0
 11
69.06246021389961
 21
1128.328601258516
 31
0.0
  0
LINE
  5
7682
330
A
100
AcDbEntity
  8
0
  6
Continuous
 62
     7
370
    15
100
AcDbLine
 10
69.01821866631508
 20
1150.328601139307
 30
0.0
 11
18.03000271320343
 21
1150.328601139307
 31
0.0
  0
LINE
  5
7683
330
A
100
AcDbEntity
  8
0
  6
Continuous
 62
     7
370
    15
100
AcDbLine
 10
12.03000172972679
 20
1143.328601388901
 30
0.0
 11
0.0
 21
1143.328601388901
 31
0.0
  0
LINE
  5
7684
330
A
100
AcDbEntity
  8
0
  6
Continuous
 62
     7
370
    15
100
AcDbLine
 10
-1.499999314546585
 20
1143.328601388901
 30
0.0
 11
-1.529999077320099
 21
1143.328601388901
 31
0.0
  0
LINE
  5
7685
330
A
100
AcDbEntity
  8
0
  6
Continuous
 62
     7
370
    15
100
AcDbLine
 10
-1.529999077320099
 20
1135.328601008922
 30
0.0
 11
-1.499999314546585
 21
1135.328601008922
 31
0.0
  0
LINE
  5
7686
330
A
100
AcDbEntity
  8
0
  6
Continuous
 62
     7
370
    15
100
AcDbLine
 10
0.0
 20
1135.328601008922
 30
0.0
 11
12.03000172972679
 21
1135.328601008922
 31
0.0
  0
LINE
  5
7687
330
A
100
AcDbEntity
  8
0
  6
Continuous
 62
     7
370
    15
100
AcDbLine
 10
13.53000104427338
 20
1153.328601631045
 30
0.0
 11
12.03000172972679
 21
1153.328601631045
 31
0.0
  0
LINE
  5
7688
330
A
100
AcDbEntity
  8
0
  6
Continuous
 62
     7
370
    15
100
AcDbLine
 10
12.03000172972679
 20
1125.328600766778
 30
0.0
 11
13.53000104427338
 21
1125.328600766778
 31
0.0
  0
LINE
  5
7689
330
A
100
AcDbEntity
  8
0
  6
Continuous
 62
     7
370
    15
100
AcDbLine
 10
0.0
 20
1153.328601631045
 30
0.0
 11
-1.499999314546585
 21
1153.328601631045
 31
0.0
  0
LINE
  5
768A
330
A
100
AcDbEntity
  8
0
  6
Continuous
 62
     7
370
    15
100
AcDbLine
 10
-1.499999314546585
 20
1125.328600766778
 30
0.0
 11
0.0
 21
1125.328600766778
 31
0.0
  0
LINE
  5
768B
330
A
100
AcDbEntity
  8
0
  6
Continuous
 62
     7
370
    15
100
AcDbLine
 10
16.03000238537788
 20
1124.828601616144
 30
0.0
 11
18.03000271320343
 21
1126.828601012647
 31
0.0
  0
LINE
  5
768C
330
A
100
AcDbEntity
  8
0
  6
Continuous
 62
     7
370
    15
100
AcDbLine
 10
18.03000271320343
 20
1151.828601385176
 30
0.0
 11
16.03000238537788
 21
1153.828600781679
 31
0.0
  0
LINE
  5
768D
330
A
100
AcDbEntity
  8
0
  6
Continuous
 62
     7
370
    15
100
AcDbLine
 10
16.03000238537788
 20
1153.828600781679
 30
0.0
 11
13.53000104427338
 21
1153.828600781679
 31
0.0
  0
LINE
  5
768E
330
A
100
AcDbEntity
  8
0
  6
Continuous
 62
     7
370
    15
100
AcDbLine
 10
13.53000104427338
 20
1124.828601616144
 30
0.0
 11
16.03000238537788
 21
1124.828601616144
 31
0.0
  0
LINE
  5
768F
330
A
100
AcDbEntity
  8
0
  6
Continuous
 62
     7
370
    15
100
AcDbLine
 10
-4.029996693134308
 20
1153.828600781679
 30
0.0
 11
-6.029997020959854
 21
1151.828601385176
 31
0.0
  0
LINE
  5
7690
330
A
100
AcDbEntity
  8
0
  6
Continuous
 62
     7
370
    15
100
AcDbLine
 10
-6.029997020959854
 20
1126.828601012647
 30
0.0
 11
-4.029996693134308
 21
1124.828601616144
 31
0.0
  0
LINE
  5
7691
330
A
100
AcDbEntity
  8
0
  6
Continuous
 62
     7
370
    15
100
AcDbLine
 10
-4.029996693134308
 20
1124.828601616144
 30
0.0
 11
-1.529999077320099
 21
1124.828601616144
 31
0.0
  0
LINE
  5
7692
330
A
100
AcDbEntity
  8
0
  6
Continuous
 62
     7
370
    15
100
AcDbLine
 10
-1.529999077320099
 20
1153.828600781679
 30
0.0
 11
-4.029996693134308
 21
1153.828600781679
 31
0.0
  0
LINE
  5
7693
330
A
100
AcDbEntity
  8
0
  6
Continuous
 62
     7
370
    15
100
AcDbLine
 10
-6.029997020959854
 20
1150.328601139307
 30
0.0
 11
-57.06245638430119
 21
1150.328601139307
 31
0.0
  0
LINE
  5
7694
330
A
100
AcDbEntity
  8
0
  6
Continuous
 62
     7
370
    15
100
AcDbLine
 10
-57.0182129740715
 20
1128.328601258516
 30
0.0
 11
-6.029997020959854
 21
1128.328601258516
 31
0.0
  0
SPLINE
  5
7696
330
A
100
AcDbEntity
  8
0
  6
Continuous
 62
     7
370
    15
100
AcDbSpline
210
0.0
220
0.0
230
1.0
 70
     8
 71
     3
 72
    10
 73
     6
 74
     0
 42
0.00000001
 43
0.00000001
 40
0.0
 40
0.0
 40
0.0
 40
0.0
 40
0.4764645454942211
 40
0.8368425996539436
 40
1.0
 40
1.0
 40
1.0
 40
1.0
 10
69.08554211258888
 20
1128.332539821684
 30
0.0
 10
68.96415683371447
 20
1128.399301064187
 30
0.0
 10
68.75096075586634
 20
1128.516557746265
 30
0.0
 10
68.0657782842211
 20
1128.928080487069
 30
0.0
 10
67.66442527884851
 20
1129.238552556141
 30
0.0
 10
67.53934547305107
 20
1129.335309738934
 30
0.0
  0
LINE
  5
7697
330
A
100
AcDbEntity
  8
0
  6
Continuous
 62
     7
370
    15
100
AcDbLine
 10
62.60877475142479
 20
1138.862804229546
 30
0.0
 11
62.62745335698128
 21
1139.904838648334
 31
0.0
  0
SPLINE
  5
7698
330
A
100
AcDbEntity
  8
0
  6
Continuous
 62
     7
370
    15
100
AcDbSpline
210
0.0
220
0.0
230
1.0
 70
     8
 71
     3
 72
    10
 73
     6
 74
     0
 42
0.00000001
 43
0.00000001
 40
0.0
 40
0.0
 40
0.0
 40
0.0
 40
0.1198223554647247
 40
0.7875525450903182
 40
1.0
 40
1.0
 40
1.0
 40
1.0
 10
68.3925561606884
 20
1149.907773720741
 30
0.0
 10
68.44763786747353
 20
1149.94661094516
 30
0.0
 10
68.80967163152536
 20
1150.201875122002
 30
0.0
 10
69.12230967120126
 20
1150.342115769598
 30
0.0
 10
69.03845787652403
 20
1150.298357946837
 30
0.0
 10
69.01821866631508
 20
1150.287796172022
 30
0.0
  0
LINE
  5
7699
330
A
100
AcDbEntity
  8
0
  6
Continuous
 62
     7
370
    15
100
AcDbLine
 10
69.06246021389961
 20
1128.345181594312
 30
0.0
 11
69.08554211258888
 21
1128.332539821684
 31
0.0
  0
LINE
  5
769D
330
A
100
AcDbEntity
  8
0
  6
Continuous
 62
     7
370
    15
100
AcDbLine
 10
13.53000104427338
 20
1153.328601631045
 30
0.0
 11
13.53000104427338
 21
1125.328600766778
 31
0.0
  0
LINE
  5
769E
330
A
100
AcDbEntity
  8
0
  6
Continuous
 62
     7
370
    15
100
AcDbLine
 10
12.03000172972679
 20
1153.328601631045
 30
0.0
 11
12.03000172972679
 21
1125.328600766778
 31
0.0
  0
LINE
  5
769F
330
A
100
AcDbEntity
  8
0
  6
Continuous
 62
     7
370
    15
100
AcDbLine
 10
-1.499999314546585
 20
1153.328601631045
 30
0.0
 11
-1.499999314546585
 21
1125.328600766778
 31
0.0
  0
LINE
  5
76A0
330
A
100
AcDbEntity
  8
0
  6
Continuous
 62
     7
370
    15
100
AcDbLine
 10
0.0
 20
1153.328601631045
 30
0.0
 11
0.0
 21
1125.328600766778
 31
0.0
  0
LINE
  5
76A1
330
A
100
AcDbEntity
  8
0
  6
Continuous
 62
     7
370
    15
100
AcDbLine
 10
16.03000238537788
 20
1124.828601616144
 30
0.0
 11
16.03000238537788
 21
1153.828600781679
 31
0.0
  0
LINE
  5
76A2
330
A
100
AcDbEntity
  8
0
  6
Continuous
 62
     7
370
    15
100
AcDbLine
 10
18.03000271320343
 20
1126.828601012647
 30
0.0
 11
18.03000271320343
 21
1151.828601385176
 31
0.0
  0
LINE
  5
76A3
330
A
100
AcDbEntity
  8
0
  6
Continuous
 62
     7
370
    15
100
AcDbLine
 10
13.53000104427338
 20
1153.828600781679
 30
0.0
 11
13.53000104427338
 21
1124.828601616144
 31
0.0
  0
LINE
  5
76A4
330
A
100
AcDbEntity
  8
0
  6
Continuous
 62
     7
370
    15
100
AcDbLine
 10
-4.029996693134308
 20
1153.828600781679
 30
0.0
 11
-4.029996693134308
 21
1124.828601616144
 31
0.0
  0
LINE
  5
76A5
330
A
100
AcDbEntity
  8
0
  6
Continuous
 62
     7
370
    15
100
AcDbLine
 10
-6.029997020959854
 20
1151.828601385176
 30
0.0
 11
-6.029997020959854
 21
1126.828601012647
 31
0.0
  0
LINE
  5
76A6
330
A
100
AcDbEntity
  8
0
  6
Continuous
 62
     7
370
    15
100
AcDbLine
 10
-1.529999077320099
 20
1124.828601616144
 30
0.0
 11
-1.529999077320099
 21
1153.828600781679
 31
0.0
  0
SPLINE
  5
76A7
330
A
100
AcDbEntity
  8
0
  6
Continuous
 62
     7
370
    15
100
AcDbSpline
210
0.0
220
0.0
230
1.0
 70
     8
 71
     3
 72
    10
 73
     6
 74
     0
 42
0.00000001
 43
0.00000001
 40
0.0
 40
0.0
 40
0.0
 40
0.0
 40
0.4764641810057857
 40
0.8368421538620673
 40
1.0
 40
1.0
 40
1.0
 40
1.0
 10
-57.08553642034531
 20
1150.324662576139
 30
0.0
 10
-56.96415315706895
 20
1150.257901391414
 30
0.0
 10
-56.75096056981386
 20
1150.14064478358
 30
0.0
 10
-56.06578001289836
 20
1149.729121147234
 30
0.0
 10
-55.66442225401261
 20
1149.418649810466
 30
0.0
 10
-55.53934071213007
 20
1149.321892658889
 30
0.0
  0
LINE
  5
76A8
330
A
100
AcDbEntity
  8
0
  6
Continuous
 62
     7
370
    15
100
AcDbLine
 10
-50.60877092182636
 20
1139.794398168277
 30
0.0
 11
-50.6274476647377
 21
1138.752363691281
 31
0.0
  0
SPLINE
  5
76A9
330
A
100
AcDbEntity
  8
0
  6
Continuous
 62
     7
370
    15
100
AcDbSpline
210
0.0
220
0.0
230
1.0
 70
     8
 71
     3
 72
    10
 73
     6
 74
     0
 42
0.00000001
 43
0.00000001
 40
0.0
 40
0.0
 40
0.0
 40
0.0
 40
0.1198230064229568
 40
0.7875526077658519
 40
1.0
 40
1.0
 40
1.0
 40
1.0
 10
-56.39255046844482
 20
1128.749427745759
 30
0.0
 10
-56.44763417612876
 20
1128.710590868523
 30
0.0
 10
-56.80967915335782
 20
1128.455330340035
 30
0.0
 10
-57.12231022972492
 20
1128.315086321277
 30
0.0
 10
-57.03845340691328
 20
1128.358844387521
 30
0.0
 10
-57.0182129740715
 20
1128.3694062258
 30
0.0
  0
LINE
  5
76AA
330
A
100
AcDbEntity
  8
0
  6
Continuous
 62
     7
370
    15
100
AcDbLine
 10
-57.06245638430119
 20
1150.312020803511
 30
0.0
 11
-57.08553642034531
 21
1150.324662576139
 31
0.0
  0
CIRCLE
  5
76AB
330
A
100
AcDbEntity
  8
0
  6
Continuous
 62
     7
370
    15
100
AcDbCircle
 10
75.03000145803139
 20
1139.328601173098
 30
0.0
 40
12.5
  0
CIRCLE
  5
76AC
330
A
100
AcDbEntity
  8
0
  6
Continuous
 62
     7
370
    15
100
AcDbCircle
 10
-63.02999854195605
 20
1139.328601150137
 30
0.0
 40
12.50000000000007
  0
SPLINE
  5
76AD
330
A
100
AcDbEntity
  8
0
  6
Continuous
 62
     7
370
     0
100
AcDbSpline
210
0.0
220
0.0
230
1.0
 70
    11
 71
     3
 72
    39
 73
    35
 74
     0
 42
0.00000001
 43
0.00000001
 40
0.0
 40
0.0
 40
0.0
 40
0.0
 40
0.0291290126593391
 40
0.0600028295304203
 40
0.0921601934382468
 40
0.1250000215280631
 40
0.1578398088120633
 40
0.1899971841021062
 40
0.2208710078106456
 40
0.2500000168281621
 40
0.2791290258456787
 40
0.3100028495542181
 40
0.342160224844261
 40
0.3750000121282612
 40
0.4078397778123284
 40
0.4399971872491104
 40
0.4708709767705418
 40
0.4999999986545154
 40
0.5291290196740374
 40
0.560002815140632
 40
0.592160219084731
 40
0.6249999943717282
 40
0.6578397738550089
 40
0.6899971491450517
 40
0.7208709728535911
 40
0.7499999818711077
 40
0.7791289908886243
 40
0.8100028145971637
 40
0.8421601898872066
 40
0.8749999693704874
 40
0.9078398070632154
 40
0.939997170971042
 40
0.9708709878421231
 40
1.0
 40
1.0
 40
1.0
 40
1.0
 10
63.03000077605247
 20
1139.328601179958
 30
0.0
 10
63.06893322809287
 20
1140.060500606452
 30
0.0
 10
63.14913015444608
 20
1141.56813964094
 30
0.0
 10
63.81676565249541
 20
1143.80463848278
 30
0.0
 10
64.92383289963595
 20
1145.955249900729
 30
0.0
 10
66.48468941273586
 20
1147.874329382978
 30
0.0
 10
68.4032468380592
 20
1149.433233381096
 30
0.0
 10
70.55399290133846
 20
1150.547338090977
 30
0.0
 10
72.79045705500494
 20
1151.190309601564
 30
0.0
 10
75.0300045355898
 20
1151.395736477322
 30
0.0
 10
77.2695410459205
 20
1151.190309574298
 30
0.0
 10
79.50604058741328
 20
1150.547338209733
 30
0.0
 10
81.65664906172788
 20
1149.433232911777
 30
0.0
 10
83.57573272499121
 20
1147.87433216819
 30
0.0
 10
85.13462688448817
 20
1145.95524494866
 30
0.0
 10
86.24874658360363
 20
1143.804642365699
 30
0.0
 10
86.89169433546635
 20
1141.568137609992
 30
0.0
 10
87.09714901548637
 20
1139.328601178354
 30
0.0
 10
86.8916942388978
 20
1137.089064656116
 30
0.0
 10
86.2487468587135
 20
1134.852559733399
 30
0.0
 10
85.13462638903775
 20
1132.701957359971
 30
0.0
 10
83.57573338976954
 20
1130.782869253583
 30
0.0
 10
81.6566486845984
 20
1129.223969621836
 30
0.0
 10
79.50604063856963
 20
1128.109864130229
 30
0.0
 10
77.26954103415278
 20
1127.466892838772
 30
0.0
 10
75.0300045356762
 20
1127.261465913134
 30
0.0
 10
72.79045706641773
 20
1127.46689281136
 30
0.0
 10
70.55399285152839
 20
1128.109864249627
 30
0.0
 10
68.40324720993044
 20
1129.223969149982
 30
0.0
 10
66.48468876799097
 20
1130.782872048467
 30
0.0
 10
64.92383323278705
 20
1132.701952479883
 30
0.0
 10
63.81676559621042
 20
1134.852563864896
 30
0.0
 10
63.14913017115373
 20
1137.089062756199
 30
0.0
 10
63.0689332333211
 20
1138.596701769993
 30
0.0
 10
63.03000077605247
 20
1139.328601179958
 30
0.0
  0
SPLINE
  5
76AE
330
A
100
AcDbEntity
  8
0
  6
Continuous
 62
     7
370
     0
100
AcDbSpline
210
0.0
220
0.0
230
1.0
 70
    11
 71
     3
 72
    39
 73
    35
 74
     0
 42
0.00000001
 43
0.00000001
 40
0.0
 40
0.0
 40
0.0
 40
0.0
 40
0.0291290085742663
 40
0.0600028368221435
 40
0.092160204690528
 40
0.1250000014097478
 40
0.1578397981289676
 40
0.1899971714900405
 40
0.2208709933466042
 40
0.2500000006168082
 40
0.2791290078870123
 40
0.310002829743576
 40
0.3421602031046489
 40
0.3749999998238687
 40
0.407839804343803
 40
0.4399971608299698
 40
0.470870992496587
 40
0.5000000010708533
 40
0.5291290078563613
 40
0.5600028365504011
 40
0.5921601985292583
 40
0.6249999934462723
 40
0.6578397979662067
 40
0.6899971713272797
 40
0.7208709931838433
 40
0.7500000004540474
 40
0.7791290077242515
 40
0.8100028295808152
 40
0.8421602029418882
 40
0.8750000074618224
 40
0.9078397945781197
 40
0.9399971679391927
 40
0.9708709932144921
 40
1.0
 40
1.0
 40
1.0
 40
1.0
 10
-51.0299988090992
 20
1139.328601150105
 30
0.0
 10
-51.0689295135561
 20
1138.596701608264
 30
0.0
 10
-51.14912286105528
 20
1137.089061941527
 30
0.0
 10
-51.81676303730694
 20
1134.852563348174
 30
0.0
 10
-52.92383294801425
 20
1132.701954574212
 30
0.0
 10
-54.48468274324455
 20
1130.782869792242
 30
0.0
 10
-56.40324353524375
 20
1129.22396997317
 30
0.0
 10
-58.55398887270599
 20
1128.109864096982
 30
0.0
 10
-60.79045327458221
 20
1127.466892849281
 30
0.0
 10
-63.03000069293967
 20
1127.261465902352
 30
0.0
 10
-65.26953722091662
 20
1127.466892845272
 30
0.0
 10
-67.50603675296247
 20
1128.109864114442
 30
0.0
 10
-69.65664550322094
 20
1129.223969904172
 30
0.0
 10
-71.57573006986809
 20
1130.782870179827
 30
0.0
 10
-73.1346316280667
 20
1132.701953697808
 30
0.0
 10
-74.24873404332038
 20
1134.852564093044
 30
0.0
 10
-74.89170936334222
 20
1137.089061712168
 30
0.0
 10
-75.0971331709178
 20
1139.328601098149
 30
0.0
 10
-74.89170941104726
 20
1141.568140452346
 30
0.0
 10
-74.24873382153851
 20
1143.804637944879
 30
0.0
 10
-73.1346321182748
 20
1145.955248609285
 30
0.0
 10
-71.57572940650766
 20
1147.87433124236
 30
0.0
 10
-69.65664587997662
 20
1149.433232629334
 30
0.0
 10
-67.50603670190719
 20
1150.547338225545
 30
0.0
 10
-65.26953723263819
 20
1151.190309567803
 30
0.0
 10
-63.03000069293955
 20
1151.395736488066
 30
0.0
 10
-60.79045326286086
 20
1151.190309563794
 30
0.0
 10
-58.55398892376024
 20
1150.547338243011
 30
0.0
 10
-56.40324315848034
 20
1149.433232560312
 30
0.0
 10
-54.48468340665022
 20
1147.874331630032
 30
0.0
 10
-52.92383245825795
 20
1145.955247732561
 30
0.0
 10
-51.81676325978856
 20
1143.804638690898
 30
0.0
 10
-51.14912281659349
 20
1141.568140218983
 30
0.0
 10
-51.06892949949588
 20
1140.060500655132
 30
0.0
 10
-51.0299988090992
 20
1139.328601150105
 30
0.0
  0
ARC
  5
76AF
330
A
100
AcDbEntity
  8
0
  6
Continuous
 62
     7
370
    15
100
AcDbCircle
 10
-279.1725588160404
 20
1049.500024126079
 30
0.0
 40
0.5000000000000071
100
AcDbArc
 50
0.0000000000260551
 51
90.0
  0
ARC
  5
76B0
330
A
100
AcDbEntity
  8
0
  6
Continuous
 62
     7
370
    15
100
AcDbCircle
 10
-303.1725588160404
 20
1049.500024126079
 30
0.0
 40
0.5000000000000071
100
AcDbArc
 50
90.0
 51
179.9999999999739
  0
ARC
  5
76B1
330
A
100
AcDbEntity
  8
0
  6
Continuous
 62
     7
370
    15
100
AcDbCircle
 10
-279.1725588160411
 20
-149.4999758739209
 30
0.0
 40
0.5000000000000071
100
AcDbArc
 50
270.0
 51
0.0
  0
ARC
  5
76B2
330
A
100
AcDbEntity
  8
0
  6
Continuous
 62
     7
370
    15
100
AcDbCircle
 10
-303.1725588160411
 20
-149.4999758739209
 30
0.0
 40
0.5000000000000071
100
AcDbArc
 50
180.0
 51
270.0
  0
LINE
  5
76B3
330
A
100
AcDbEntity
  8
0
  6
Continuous
 62
     7
370
    15
100
AcDbLine
 10
-278.6725586555899
 20
-149.4999527931214
 30
0.0
 11
-278.6725586555899
 21
1049.500018358231
 31
0.0
  0
LINE
  5
76B4
330
A
100
AcDbEntity
  8
0
  6
Continuous
 62
     7
370
    15
100
AcDbLine
 10
-303.6725590281189
 20
1049.500018358231
 30
0.0
 11
-303.6725590281189
 21
-149.4999527931214
 31
0.0
  0
ARC
  5
76B5
330
A
100
AcDbEntity
  8
0
  6
Continuous
 62
     7
370
    15
100
AcDbCircle
 10
-291.1725588114871
 20
0.000024126198241
 30
0.0
 40
14.50000000000001
100
AcDbArc
 50
329.5496859431358
 51
0.0000000380359595
  0
ARC
  5
76B6
330
A
100
AcDbEntity
  8
0
  6
Continuous
 62
     7
370
    15
100
AcDbCircle
 10
-291.1725588114871
 20
0.000024126198241
 30
0.0
 40
14.50000000000006
100
AcDbArc
 50
149.5496860141537
 51
210.4503139858475
  0
ARC
  5
76B7
330
A
100
AcDbEntity
  8
0
  6
Continuous
 62
     7
370
    15
100
AcDbCircle
 10
-291.1725588114871
 20
0.000024126198241
 30
0.0
 40
14.50000000000001
100
AcDbArc
 50
0.0000000380359595
 51
30.45031405686468
  0
ARC
  5
76B8
330
A
100
AcDbEntity
  8
0
  6
Continuous
 62
     7
370
    15
100
AcDbCircle
 10
-291.1725588565021
 20
900.0000241258662
 30
0.0
 40
14.50000000000005
100
AcDbArc
 50
329.5496862941216
 51
0.0000000189025287
  0
ARC
  5
76B9
330
A
100
AcDbEntity
  8
0
  6
Continuous
 62
     7
370
    15
100
AcDbCircle
 10
-291.1725588565021
 20
900.0000241258662
 30
0.0
 40
14.50000000000003
100
AcDbArc
 50
149.549685663169
 51
210.4503143368332
  0
ARC
  5
76BA
330
A
100
AcDbEntity
  8
0
  6
Continuous
 62
     7
370
    15
100
AcDbCircle
 10
-291.1725588565021
 20
900.0000241258662
 30
0.0
 40
14.49999999999999
100
AcDbArc
 50
0.0000000189025287
 51
30.45031370587963
  0
LINE
  5
76BB
330
A
100
AcDbEntity
  8
0
  6
Continuous
 62
     7
370
    15
100
AcDbLine
 10
-279.1725587375463
 20
1050.000011920929
 30
0.0
 11
-303.1725589461626
 21
1050.000011920929
 31
0.0
  0
SPLINE
  5
76BC
330
A
100
AcDbEntity
  8
0
  6
Continuous
 62
     7
370
    15
100
AcDbSpline
210
0.0
220
0.0
230
1.0
 70
    24
 71
     3
 72
    23
 73
    19
 74
     0
 42
0.00000001
 43
0.00000001
 40
0.0
 40
0.0
 40
0.0
 40
0.0
 40
0.0582580221080908
 40
0.1200056738422016
 40
0.1843204289187961
 40
0.2500000080787259
 40
0.3156795440387865
 40
0.379994367408864
 40
0.4417419507687542
 40
0.4999999986097608
 40
0.5582580447218641
 40
0.6200056399720814
 40
0.6843204523567922
 40
0.7500000075227141
 40
0.8156795710812037
 40
0.8799943261577984
 40
0.9417419778919092
 40
1.0
 40
1.0
 40
1.0
 40
1.0
 10
-303.1725589461626
 20
-149.9999761581423
 30
0.0
 10
-303.133627780765
 20
-149.9999761581422
 30
0.0
 10
-303.0534334904694
 20
-149.9999761581422
 30
0.0
 10
-302.3857948299141
 20
-149.9999761581422
 30
0.0
 10
-301.2787253333383
 20
-149.9999761581423
 30
0.0
 10
-299.7178745997551
 20
-149.9999761581421
 30
0.0
 10
-297.7993114036688
 20
-149.9999761581422
 30
0.0
 10
-295.6485724748709
 20
-149.9999761581424
 30
0.0
 10
-293.4121015742809
 20
-149.9999761581421
 30
0.0
 10
-291.1725588212971
 20
-149.9999761581422
 30
0.0
 10
-288.9330159777123
 20
-149.9999761581422
 30
0.0
 10
-286.6965449101206
 20
-149.9999761581422
 30
0.0
 10
-284.5458061908435
 20
-149.9999761581421
 30
0.0
 10
-282.6272421080457
 20
-149.9999761581423
 30
0.0
 10
-281.0663924864122
 20
-149.9999761581422
 30
0.0
 10
-279.9593227965772
 20
-149.9999761581422
 30
0.0
 10
-279.2916842063757
 20
-149.9999761581422
 30
0.0
 10
-279.2114899072368
 20
-149.9999761581422
 30
0.0
 10
-279.1725587375463
 20
-149.9999761581422
 30
0.0
  0
SPLINE
  5
76BD
330
A
100
AcDbEntity
  8
0
  6
Continuous
 62
     7
370
    15
100
AcDbSpline
210
0.0
220
0.0
230
1.0
 70
    24
 71
     3
 72
    14
 73
    10
 74
     0
 42
0.00000001
 43
0.00000001
 40
0.0
 40
0.0
 40
0.0
 40
0.0
 40
0.1427582167823534
 40
0.2940676118441162
 40
0.4516675420973975
 40
0.6126119579975492
 40
0.7735563738977009
 40
0.9311563041509822
 40
1.0
 40
1.0
 40
1.0
 40
1.0
 10
-291.1725588699411
 20
1050.000011920929
 30
0.0
 10
-291.9044361155256
 20
1050.000011920929
 30
0.0
 10
-293.412029854247
 20
1050.000011920929
 30
0.0
 10
-295.6488926617025
 20
1050.000011920929
 30
0.0
 10
-297.7980345202207
 20
1050.000011920929
 30
0.0
 10
-299.7227581317259
 20
1050.000011920929
 30
0.0
 10
-301.2606750619753
 20
1050.000011920929
 30
0.0
 10
-302.2416611891399
 20
1050.000011920929
 30
0.0
 10
-302.5334909515058
 20
1050.000011920929
 30
0.0
 10
-302.6222134284676
 20
1050.000011920929
 30
0.0
  0
SPLINE
  5
76BE
330
A
100
AcDbEntity
  8
0
  6
Continuous
 62
     7
370
    15
100
AcDbSpline
210
0.0
220
0.0
230
1.0
 70
    24
 71
     3
 72
    15
 73
    11
 74
     0
 42
0.00000001
 43
0.00000001
 40
0.0
 40
0.0
 40
0.0
 40
0.0
 40
0.1165160294201815
 40
0.2400113172061294
 40
0.368640811025068
 40
0.5000000294874029
 40
0.6313591783351894
 40
0.759988672154128
 40
0.8834839736150191
 40
1.0
 40
1.0
 40
1.0
 40
1.0
 10
-279.1725587375463
 20
1050.000011920929
 30
0.0
 10
-279.2114899053829
 20
1050.000011920929
 30
0.0
 10
-279.291684200703
 20
1050.000011920929
 30
0.0
 10
-279.9593228212857
 20
1050.000011920929
 30
0.0
 10
-281.0663927006237
 20
1050.000011920929
 30
0.0
 10
-282.6272436226225
 20
1050.000011920929
 30
0.0
 10
-284.5458034962198
 20
1050.000011920929
 30
0.0
 10
-286.6965488836732
 20
1050.000011920929
 30
0.0
 10
-288.933013493768
 20
1050.000011920929
 30
0.0
 10
-290.4406573060246
 20
1050.000011920929
 30
0.0
 10
-291.1725588699411
 20
1050.000011920929
 30
0.0
  0
SPLINE
  5
76BF
330
A
100
AcDbEntity
  8
0
  6
Continuous
 62
     7
370
    15
100
AcDbSpline
210
0.0
220
0.0
230
1.0
 70
    24
 71
     3
 72
    15
 73
    11
 74
     0
 42
0.00000001
 43
0.00000001
 40
0.0
 40
0.0
 40
0.0
 40
0.0
 40
0.116516034009593
 40
0.2400113466964102
 40
0.3686408178525891
 40
0.5000000044053746
 40
0.6313591909581602
 40
0.7599886840850929
 40
0.883483971206656
 40
1.0
 40
1.0
 40
1.0
 40
1.0
 10
-291.1725587930475
 20
-149.9999761581422
 30
0.0
 10
-290.440657185339
 20
-149.9999761581422
 30
0.0
 10
-288.9330132631221
 20
-149.9999761581421
 30
0.0
 10
-286.6965485249219
 20
-149.9999761581423
 30
0.0
 10
-284.5458034051669
 20
-149.9999761581419
 30
0.0
 10
-282.6272426472156
 20
-149.9999761581422
 30
0.0
 10
-281.066392836534
 20
-149.9999761581422
 30
0.0
 10
-279.9593227641014
 20
-149.9999761581422
 30
0.0
 10
-279.2916842138318
 20
-149.9999761581423
 30
0.0
 10
-279.2114899096734
 20
-149.9999761581423
 30
0.0
 10
-279.1725587375463
 20
-149.9999761581423
 30
0.0
  0
SPLINE
  5
76C0
330
A
100
AcDbEntity
  8
0
  6
Continuous
 62
     7
370
    15
100
AcDbSpline
210
0.0
220
0.0
230
1.0
 70
    24
 71
     3
 72
    15
 73
    11
 74
     0
 42
0.00000001
 43
0.00000001
 40
0.0
 40
0.0
 40
0.0
 40
0.0
 40
0.1165160292924314
 40
0.2400113169429771
 40
0.3686408106208843
 40
0.5000000289391947
 40
0.631359177642957
 40
0.7599886713208642
 40
0.883483972646353
 40
1.0
 40
1.0
 40
1.0
 40
1.0
 10
-303.1725589461626
 20
-149.9999761581422
 30
0.0
 10
-303.1336277783258
 20
-149.9999761581423
 30
0.0
 10
-303.0534334830057
 20
-149.9999761581422
 30
0.0
 10
-302.3857948624232
 20
-149.9999761581424
 30
0.0
 10
-301.278724983085
 20
-149.9999761581419
 30
0.0
 10
-299.7178740610866
 20
-149.9999761581424
 30
0.0
 10
-297.7993141874877
 20
-149.9999761581421
 30
0.0
 10
-295.64856880004
 20
-149.9999761581423
 30
0.0
 10
-293.4121041832732
 20
-149.9999761581421
 30
0.0
 10
-291.904460363942
 20
-149.9999761581422
 30
0.0
 10
-291.1725587930475
 20
-149.9999761581423
 30
0.0
  0
LINE
  5
76C1
330
A
100
AcDbEntity
  8
0
  6
Continuous
 62
     7
370
     0
100
AcDbLine
 10
-278.6725586555899
 20
1049.500018358231
 30
0.0
 11
-303.6725590281189
 21
1049.500018358231
 31
0.0
  0
LINE
  5
76C2
330
A
100
AcDbEntity
  8
0
  6
Continuous
 62
     7
370
     0
100
AcDbLine
 10
-303.6725590281189
 20
-149.4999527931214
 30
0.0
 11
-278.6725586555899
 21
-149.4999527931214
 31
0.0
  0
LINE
  5
76C3
330
A
100
AcDbEntity
  8
0
  6
Continuous
 62
     7
370
    15
100
AcDbLine
 10
328.1525869697718
 20
738.1250434762819
 30
0.0
 11
362.2005892670434
 21
718.4695501290066
 31
0.0
  0
LINE
  5
76C4
330
A
100
AcDbEntity
  8
0
  6
Continuous
 62
     7
370
    15
100
AcDbLine
 10
362.200589925588
 20
743.8722762387386
 30
0.0
 11
339.1516928310527
 21
757.1781213085378
 31
0.0
  0
LINE
  5
76C5
330
A
100
AcDbEntity
  8
0
  6
Continuous
 62
     7
370
    15
100
AcDbLine
 10
328.1525869697718
 20
3.238332246957043
 30
0.0
 11
362.2005892670434
 21
-16.41716110031837
 31
0.0
  0
LINE
  5
76C6
330
A
100
AcDbEntity
  8
0
  6
Continuous
 62
     7
370
    15
100
AcDbLine
 10
362.200589925588
 20
8.985540674600998
 30
0.0
 11
339.1516928310527
 21
22.29138574440049
 31
0.0
  0
LINE
  5
76C7
330
A
100
AcDbEntity
  8
0
  6
Continuous
 62
     7
370
    15
100
AcDbLine
 10
325.4439527433158
 20
22.12199787517727
 30
0.0
 11
323.093328171454
 21
23.47898455623931
 31
0.0
  0
LINE
  5
76C8
330
A
100
AcDbEntity
  8
0
  6
Continuous
 62
     7
370
    15
100
AcDbLine
 10
319.0936531631371
 20
16.55059253083493
 30
0.0
 11
321.4442777349984
 21
15.19360584977289
 31
0.0
  0
LINE
  5
76C9
330
A
100
AcDbEntity
  8
0
  6
Continuous
 62
     7
370
    15
100
AcDbLine
 10
325.4439527433158
 20
757.0087577741269
 30
0.0
 11
323.093328171454
 21
758.3657444551893
 31
0.0
  0
LINE
  5
76CA
330
A
100
AcDbEntity
  8
0
  6
Continuous
 62
     7
370
    15
100
AcDbLine
 10
319.0936531631371
 20
751.4373524297848
 30
0.0
 11
321.4442777349984
 21
750.0803657487229
 31
0.0
  0
LINE
  5
76CB
330
A
100
AcDbEntity
  8
0
  6
Continuous
 62
     7
370
    15
100
AcDbLine
 10
328.6457989399416
 20
766.7070652888367
 30
0.0
 11
327.5851392528505
 21
767.3193710928983
 31
0.0
  0
LINE
  5
76CC
330
A
100
AcDbEntity
  8
0
  6
Continuous
 62
     7
370
    15
100
AcDbLine
 10
313.5862768883778
 20
743.0699990990256
 30
0.0
 11
314.646936575469
 21
742.4576932949637
 31
0.0
  0
LINE
  5
76CD
330
A
100
AcDbEntity
  8
0
  6
Continuous
 62
     7
370
    15
100
AcDbLine
 10
328.6457989399416
 20
31.82032972469892
 30
0.0
 11
327.5851392528505
 21
32.43263552876112
 31
0.0
  0
LINE
  5
76CE
330
A
100
AcDbEntity
  8
0
  6
Continuous
 62
     7
370
    15
100
AcDbLine
 10
313.5862768883778
 20
8.183263534888056
 30
0.0
 11
314.646936575469
 21
7.570957730825967
 31
0.0
  0
LINE
  5
76CF
330
A
100
AcDbEntity
  8
0
  6
Continuous
 62
     7
370
    15
100
AcDbLine
 10
340.2307018730423
 20
25.70983606944151
 30
0.0
 11
338.4629339717719
 21
26.73034675666418
 31
0.0
  0
LINE
  5
76D0
330
A
100
AcDbEntity
  8
0
  6
Continuous
 62
     7
370
    15
100
AcDbLine
 10
323.9641125193723
 20
1.614938093346154
 30
0.0
 11
325.7318804206427
 21
0.5944274061233727
 31
0.0
  0
LINE
  5
76D1
330
A
100
AcDbEntity
  8
0
  6
Continuous
 62
     7
370
    15
100
AcDbLine
 10
311.5473190416308
 20
743.669711620875
 30
0.0
 11
313.3150843087235
 21
742.6492024543311
 31
0.0
  0
LINE
  5
76D2
330
A
100
AcDbEntity
  8
0
  6
Continuous
 62
     7
370
    15
100
AcDbLine
 10
327.8139057611227
 20
767.7646354524616
 30
0.0
 11
326.0461404940304
 21
768.7851446190057
 31
0.0
  0
LINE
  5
76D3
330
A
100
AcDbEntity
  8
0
  6
Continuous
 62
     7
370
    15
100
AcDbLine
 10
318.7950633479638
 20
768.0663136315873
 30
0.0
 11
317.3810794031804
 21
767.2497696331561
 31
0.0
  0
LINE
  5
76D4
330
A
100
AcDbEntity
  8
0
  6
Continuous
 62
     7
370
    15
100
AcDbLine
 10
308.5436810771091
 20
751.9412977580632
 30
0.0
 11
308.5436817356538
 21
750.3084816469482
 31
0.0
  0
LINE
  5
76D5
330
A
100
AcDbEntity
  8
0
  6
Continuous
 62
     7
370
    15
100
AcDbLine
 10
340.2307018730423
 20
760.5965716335791
 30
0.0
 11
338.4629339717719
 21
761.6170823208015
 31
0.0
  0
LINE
  5
76D6
330
A
100
AcDbEntity
  8
0
  6
Continuous
 62
     7
370
    15
100
AcDbLine
 10
323.9641125193723
 20
736.501649322671
 30
0.0
 11
325.7318804206427
 21
735.4811386354484
 31
0.0
  0
LINE
  5
76D7
330
A
100
AcDbEntity
  8
0
  6
Continuous
 62
     7
370
    15
100
AcDbLine
 10
311.5473190416308
 20
8.783000391550104
 30
0.0
 11
313.3150843087235
 21
7.762491225006102
 31
0.0
  0
LINE
  5
76D8
330
A
100
AcDbEntity
  8
0
  6
Continuous
 62
     7
370
    15
100
AcDbLine
 10
327.8139057611227
 20
32.87789988832412
 30
0.0
 11
326.0461404940304
 21
33.89840905486824
 31
0.0
  0
LINE
  5
76D9
330
A
100
AcDbEntity
  8
0
  6
Continuous
 62
     7
370
    15
100
AcDbLine
 10
318.795063379637
 20
33.17957808573431
 30
0.0
 11
317.3810794348535
 21
32.36305842211596
 31
0.0
  0
LINE
  5
76DA
330
A
100
AcDbEntity
  8
0
  6
Continuous
 62
     7
370
    15
100
AcDbLine
 10
308.5436810771091
 20
17.05453785911334
 30
0.0
 11
308.5436817356538
 21
15.42172174799816
 31
0.0
  0
LINE
  5
76DB
330
A
100
AcDbEntity
  8
0
  6
Continuous
 62
     7
370
    15
100
AcDbLine
 10
319.5722861103529
 20
768.4810722183229
 30
0.0
 11
289.4965129912114
 21
785.8434464714765
 31
0.0
  0
LINE
  5
76DC
330
A
100
AcDbEntity
  8
0
  6
Continuous
 62
     7
370
    15
100
AcDbLine
 10
278.49740712993
 20
766.7903686392203
 30
0.0
 11
308.573180249072
 21
749.427994386067
 31
0.0
  0
LINE
  5
76DD
330
A
100
AcDbEntity
  8
0
  6
Continuous
 62
     7
370
    15
100
AcDbLine
 10
319.5722861103529
 20
33.59433665418567
 30
0.0
 11
289.4965129912114
 21
50.9567109073389
 31
0.0
  0
LINE
  5
76DE
330
A
100
AcDbEntity
  8
0
  6
Continuous
 62
     7
370
    15
100
AcDbLine
 10
278.49740712993
 20
31.90365740989535
 30
0.0
 11
308.573180249072
 21
14.54128315674211
 31
0.0
  0
SPLINE
  5
76DF
330
A
100
AcDbEntity
  8
0
  6
Continuous
 62
     7
370
    15
100
AcDbSpline
210
0.0
220
0.0
230
1.0
 70
     8
 71
     3
 72
    15
 73
    11
 74
     0
 42
0.00000001
 43
0.00000001
 40
0.0
 40
0.0
 40
0.0
 40
0.0
 40
0.0176992170838634
 40
0.191044574524632
 40
0.3592207205873507
 40
0.5155639363633214
 40
0.6542572626773623
 40
0.7668387002872086
 40
0.899070466660701
 40
1.0
 40
1.0
 40
1.0
 40
1.0
 10
383.6127487317892
 20
851.2454307458136
 30
0.0
 10
383.574237042071
 20
851.2717288147212
 30
0.0
 10
383.1585435488748
 20
851.5555890194696
 30
0.0
 10
382.2170703735358
 20
851.9941677432987
 30
0.0
 10
380.8447706580143
 20
852.5319958731282
 30
0.0
 10
379.4560793706985
 20
852.9204839365059
 30
0.0
 10
378.1785357565402
 20
853.1782632276193
 30
0.0
 10
376.9417243445253
 20
853.3472121553002
 30
0.0
 10
375.8059441182024
 20
853.4398266211167
 30
0.0
 10
375.0345217297252
 20
853.4504926246727
 30
0.0
 10
374.7005928068186
 20
853.455109663447
 30
0.0
  0
SPLINE
  5
76E0
330
A
100
AcDbEntity
  8
0
  6
Continuous
 62
     7
370
    15
100
AcDbSpline
210
0.0
220
0.0
230
1.0
 70
     8
 71
     3
 72
     9
 73
     5
 74
     0
 42
0.00000001
 43
0.00000001
 40
0.0
 40
0.0
 40
0.0
 40
0.0
 40
0.657616201048229
 40
1.0
 40
1.0
 40
1.0
 40
1.0
 10
366.1389287466861
 20
851.4384908834425
 30
0.0
 10
365.9754164418794
 20
851.3563853863357
 30
0.0
 10
365.7267724690789
 20
851.2315321710776
 30
0.0
 10
365.5213147919169
 20
851.0807815292133
 30
0.0
 10
365.4509694118863
 20
851.0291669517576
 30
0.0
  0
SPLINE
  5
76E1
330
A
100
AcDbEntity
  8
0
  6
Continuous
 62
     7
370
    15
100
AcDbSpline
210
0.0
220
0.0
230
1.0
 70
     8
 71
     3
 72
    14
 73
    10
 74
     0
 42
0.00000001
 43
0.00000001
 40
0.0
 40
0.0
 40
0.0
 40
0.0
 40
0.2149353526021263
 40
0.3014173918911979
 40
0.4439762731499846
 40
0.5901589198660497
 40
0.745145209985451
 40
0.9048628070019251
 40
1.0
 40
1.0
 40
1.0
 40
1.0
 10
374.7005928068186
 20
853.455109663447
 30
0.0
 10
374.0230156923938
 20
853.437437101032
 30
0.0
 10
373.0728065985302
 20
853.4126537528912
 30
0.0
 10
371.7011101569231
 20
853.2493726913663
 30
0.0
 10
370.564416782034
 20
853.0570216262975
 30
0.0
 10
369.2694084284997
 20
852.7437650586446
 30
0.0
 10
368.0006120382934
 20
852.3271204889957
 30
0.0
 10
366.9358285926098
 20
851.8910114387916
 30
0.0
 10
366.3555474640327
 20
851.5614980878913
 30
0.0
 10
366.1389287466861
 20
851.4384908834425
 30
0.0
  0
LINE
  5
76E2
330
A
100
AcDbEntity
  8
0
  6
Continuous
 62
     7
370
    15
100
AcDbLine
 10
387.2005900904212
 20
-133.0047437318527
 30
0.0
 11
387.2005900904212
 21
846.027666163063
 31
0.0
  0
LINE
  5
76E3
330
A
100
AcDbEntity
  8
0
  6
Continuous
 62
     7
370
    15
100
AcDbLine
 10
362.2005928890383
 20
846.0276638820449
 30
0.0
 11
362.2005928890383
 21
728.5184314475059
 31
0.0
  0
LINE
  5
76E4
330
A
100
AcDbEntity
  8
0
  6
Continuous
 62
     7
370
    15
100
AcDbLine
 10
362.2005928890383
 20
718.6082007233972
 30
0.0
 11
362.2005928890383
 21
-6.368328451444199
 31
0.0
  0
LINE
  5
76E5
330
A
100
AcDbEntity
  8
0
  6
Continuous
 62
     7
370
    15
100
AcDbLine
 10
362.2005928890383
 20
-16.27853484074024
 30
0.0
 11
362.2005928890383
 21
-133.0047460128707
 31
0.0
  0
SPLINE
  5
76E6
330
A
100
AcDbEntity
  8
0
  6
Continuous
 62
     7
370
    15
100
AcDbSpline
210
0.0
220
0.0
230
1.0
 70
     8
 71
     3
 72
    14
 73
    10
 74
     0
 42
0.00000001
 43
0.00000001
 40
0.0
 40
0.0
 40
0.0
 40
0.0
 40
0.2044223537913868
 40
0.2866749627970623
 40
0.4222609087259305
 40
0.5612937714999873
 40
0.7086996608176712
 40
0.8606054085970002
 40
1.0
 40
1.0
 40
1.0
 40
1.0
 10
374.7005901726409
 20
-140.4322138480675
 30
0.0
 10
375.3781682446509
 20
-140.4145292224238
 30
0.0
 10
376.328380709105
 20
-140.3897289043349
 30
0.0
 10
377.7000573379803
 20
-140.226447964403
 30
0.0
 10
378.8368577264421
 20
-140.0341533454576
 30
0.0
 10
380.1313951779505
 20
-139.7206194161493
 30
0.0
 10
381.4020745003002
 20
-139.3052526704106
 30
0.0
 10
382.5933476324778
 20
-138.8094017732292
 30
0.0
 10
383.287517181155
 20
-138.4111155186489
 30
0.0
 10
383.6196948946233
 20
-138.2205254566036
 30
0.0
  0
SPLINE
  5
76E7
330
A
100
AcDbEntity
  8
0
  6
Continuous
 62
     7
370
    15
100
AcDbSpline
210
0.0
220
0.0
230
1.0
 70
     8
 71
     3
 72
    15
 73
    11
 74
     0
 42
0.00000001
 43
0.00000001
 40
0.0
 40
0.0
 40
0.0
 40
0.0
 40
0.0145274067498631
 40
0.1884331300017857
 40
0.3571514663940735
 40
0.5140001502705986
 40
0.6531404933222903
 40
0.7660860283675979
 40
0.8987440785894044
 40
1.0
 40
1.0
 40
1.0
 40
1.0
 10
365.8095715507432
 20
-138.2367864213763
 30
0.0
 10
365.8411129392869
 20
-138.2582871966147
 30
0.0
 10
366.2502322453145
 20
-138.5371709950384
 30
0.0
 10
367.1844645345716
 20
-138.9710383664643
 30
0.0
 10
368.5563247191369
 20
-139.5091502217215
 30
0.0
 10
369.9451189097279
 20
-139.8975898655224
 30
0.0
 10
371.2226431421452
 20
-140.155320747103
 30
0.0
 10
372.4594550354861
 20
-140.3243393419949
 30
0.0
 10
373.5952375067402
 20
-140.4168843822357
 30
0.0
 10
374.3666595154052
 20
-140.4275827662793
 30
0.0
 10
374.7005901726409
 20
-140.4322138480674
 30
0.0
  0
SPLINE
  5
76E8
330
A
100
AcDbEntity
  8
0
  6
Continuous
 62
     7
370
    15
100
AcDbSpline
210
0.0
220
0.0
230
1.0
 70
     8
 71
     3
 72
    14
 73
    10
 74
     0
 42
0.00000001
 43
0.00000001
 40
0.0
 40
0.0
 40
0.0
 40
0.0
 40
0.2054402207244347
 40
0.288101868199221
 40
0.4243631322013854
 40
0.5640882682359233
 40
0.7122278262396756
 40
0.864889737525207
 40
1.0
 40
1.0
 40
1.0
 40
1.0
 10
277.0774281078541
 20
909.8117630590626
 30
0.0
 10
276.3998488840787
 20
909.794091908706
 30
0.0
 10
275.4496365082621
 20
909.769310532338
 30
0.0
 10
274.0779608398345
 20
909.6060155680847
 30
0.0
 10
272.9411662801692
 20
909.4137356556549
 30
0.0
 10
271.6465864673066
 20
909.1001751071805
 30
0.0
 10
270.3760683492981
 20
908.6847568558122
 30
0.0
 10
269.1976545622522
 20
908.1948737255176
 30
0.0
 10
268.5150243334158
 20
907.8035540497009
 30
0.0
 10
268.194526530636
 20
907.6198277935438
 30
0.0
  0
SPLINE
  5
76E9
330
A
100
AcDbEntity
  8
0
  6
Continuous
 62
     7
370
    15
100
AcDbSpline
210
0.0
220
0.0
230
1.0
 70
     8
 71
     3
 72
    15
 73
    11
 74
     0
 42
0.00000001
 43
0.00000001
 40
0.0
 40
0.0
 40
0.0
 40
0.0
 40
0.0390373301002036
 40
0.2086172852066182
 40
0.3731397776228497
 40
0.5260871228009212
 40
0.6617674053227749
 40
0.7719037017121909
 40
0.9012625565322753
 40
1.0
 40
1.0
 40
1.0
 40
1.0
 10
286.135450324254
 20
907.5036234930095
 30
0.0
 10
286.0491661700491
 20
907.5632469236017
 30
0.0
 10
285.5880596865798
 20
907.8818772754452
 30
0.0
 10
284.5960390137082
 20
908.3520739146801
 30
0.0
 10
283.2210872207213
 20
908.8883392496417
 30
0.0
 10
281.8330379863417
 20
909.2772057305016
 30
0.0
 10
280.5553485742137
 20
909.5348996355314
 30
0.0
 10
279.3185701033078
 20
909.7038708498591
 30
0.0
 10
278.1827789436204
 20
909.7964756397497
 30
0.0
 10
277.4113578761587
 20
909.8071446843131
 30
0.0
 10
277.0774281078541
 20
909.8117630590626
 30
0.0
  0
LINE
  5
76EA
330
A
100
AcDbEntity
  8
0
  6
Continuous
 62
     7
370
    15
100
AcDbLine
 10
264.5774281900738
 20
902.3843172776604
 30
0.0
 11
264.5774281900738
 21
-76.64809261725509
 31
0.0
  0
LINE
  5
76EB
330
A
100
AcDbEntity
  8
0
  6
Continuous
 62
     7
370
    15
100
AcDbLine
 10
289.5774286841795
 20
-76.64809223708545
 30
0.0
 11
289.5774286841795
 21
25.5072605825751
 31
0.0
  0
LINE
  5
76EC
330
A
100
AcDbEntity
  8
0
  6
Continuous
 62
     7
370
    15
100
AcDbLine
 10
289.5774286841795
 20
50.90998201366779
 30
0.0
 11
289.5774286841795
 21
760.3940204815251
 31
0.0
  0
LINE
  5
76ED
330
A
100
AcDbEntity
  8
0
  6
Continuous
 62
     7
370
    15
100
AcDbLine
 10
289.5774286841795
 20
785.796741912618
 30
0.0
 11
289.5774286841795
 21
902.3843176578299
 31
0.0
  0
SPLINE
  5
76EE
330
A
100
AcDbEntity
  8
0
  6
Continuous
 62
     7
370
    15
100
AcDbSpline
210
0.0
220
0.0
230
1.0
 70
     8
 71
     3
 72
    15
 73
    11
 74
     0
 42
0.00000001
 43
0.00000001
 40
0.0
 40
0.0
 40
0.0
 40
0.0
 40
0.0686296844674456
 40
0.2329875269396462
 40
0.39244364824073
 40
0.5406810719948767
 40
0.6721831502701073
 40
0.7789277221971264
 40
0.9043031153528537
 40
1.0
 40
1.0
 40
1.0
 40
1.0
 10
267.8060598613813
 20
-81.62340351091592
 30
0.0
 10
267.961485006045
 20
-81.73221199278498
 30
0.0
 10
268.4891301549389
 20
-82.1016005350383
 30
0.0
 10
269.5564712556795
 20
-82.61726849034073
 30
0.0
 10
270.9343453865056
 20
-83.15179296078782
 30
0.0
 10
272.3216879373206
 20
-83.5410983835011
 30
0.0
 10
273.5995348205931
 20
-83.79863865516808
 30
0.0
 10
274.8362791675029
 20
-83.9676961963637
 30
0.0
 10
275.9720791956981
 20
-84.06023237296563
 30
0.0
 10
276.7434994484563
 20
-84.07093112168553
 30
0.0
 10
277.0774287663987
 20
-84.07556235330014
 30
0.0
  0
SPLINE
  5
76EF
330
A
100
AcDbEntity
  8
0
  6
Continuous
 62
     7
370
    15
100
AcDbSpline
210
0.0
220
0.0
230
1.0
 70
     8
 71
     3
 72
     9
 73
     5
 74
     0
 42
0.00000001
 43
0.00000001
 40
0.0
 40
0.0
 40
0.0
 40
0.0
 40
0.8087994700369336
 40
0.9999999999999999
 40
0.9999999999999999
 40
0.9999999999999999
 40
0.9999999999999999
 10
285.6390902438022
 20
-82.05894202291614
 30
0.0
 10
285.8040342700685
 20
-81.97770753267025
 30
0.0
 10
286.0079711325127
 20
-81.87726917525924
 30
0.0
 10
286.1767908089867
 20
-81.75571512147172
 30
0.0
 10
286.2090692205963
 20
-81.73247392196834
 30
0.0
  0
SPLINE
  5
76F0
330
A
100
AcDbEntity
  8
0
  6
Continuous
 62
     7
370
    15
100
AcDbSpline
210
0.0
220
0.0
230
1.0
 70
     8
 71
     3
 72
    14
 73
    10
 74
     0
 42
0.00000001
 43
0.00000001
 40
0.0
 40
0.0
 40
0.0
 40
0.0
 40
0.2149352900512141
 40
0.301417244627821
 40
0.4439761195481617
 40
0.590158951933231
 40
0.7451452034726975
 40
0.904862771726828
 40
1.0
 40
1.0
 40
1.0
 40
1.0
 10
277.0774287663987
 20
-84.07556235330014
 30
0.0
 10
277.7550055063273
 20
-84.05787822823197
 30
0.0
 10
278.7052138872989
 20
-84.03307866995374
 30
0.0
 10
280.0769089246721
 20
-83.86980154635921
 30
0.0
 10
281.2136015602625
 20
-83.67743571169518
 30
0.0
 10
282.5086122913024
 20
-83.36423803495313
 30
0.0
 10
283.77740633595
 20
-82.94752550341235
 30
0.0
 10
284.842187683362
 20
-82.51146695099209
 30
0.0
 10
285.4224707341225
 20
-82.1819504469114
 30
0.0
 10
285.6390902438022
 20
-82.05894202291614
 30
0.0
  0
LINE
  5
76F1
330
A
100
AcDbEntity
  8
0
  6
Continuous
 62
     7
370
    15
100
AcDbLine
 10
339.8411950224474
 20
753.774849775383
 30
0.0
 11
340.1997619703318
 21
753.4753058561137
 31
0.0
  0
SPLINE
  5
76F2
330
A
100
AcDbEntity
  8
0
  6
Continuous
 62
     7
370
    15
100
AcDbSpline
210
0.0
220
0.0
230
1.0
 70
     8
 71
     3
 72
    14
 73
    10
 74
     0
 42
0.00000001
 43
0.00000001
 40
0.0
 40
0.0
 40
0.0
 40
0.0
 40
0.0803032859368875
 40
0.2407000798846751
 40
0.3981652213201138
 40
0.5558334438670646
 40
0.7164794342723639
 40
0.8784437019706797
 40
1.0
 40
1.0
 40
1.0
 40
1.0
 10
336.3116967559556
 20
753.4628110956387
 30
0.0
 10
336.3416571463752
 20
753.5375373570203
 30
0.0
 10
336.4314600514892
 20
753.7615209322146
 30
0.0
 10
336.8181956529977
 20
754.0429352828553
 30
0.0
 10
337.3978602039549
 20
754.2502207839282
 30
0.0
 10
338.0840976041047
 20
754.3000546121475
 30
0.0
 10
338.7921173767033
 20
754.2063479187416
 30
0.0
 10
339.4083230319677
 20
754.0149781660627
 30
0.0
 10
339.7112979056503
 20
753.8469079965118
 30
0.0
 10
339.8411950224474
 20
753.774849775383
 30
0.0
  0
LINE
  5
76F3
330
A
100
AcDbEntity
  8
0
  6
Continuous
 62
     7
370
    15
100
AcDbLine
 10
339.8411951870837
 20
18.88813864110034
 30
0.0
 11
340.1997619703318
 21
18.58859462678845
 31
0.0
  0
SPLINE
  5
76F4
330
A
100
AcDbEntity
  8
0
  6
Continuous
 62
     7
370
    15
100
AcDbSpline
210
0.0
220
0.0
230
1.0
 70
     8
 71
     3
 72
    14
 73
    10
 74
     0
 42
0.00000001
 43
0.00000001
 40
0.0
 40
0.0
 40
0.0
 40
0.0
 40
0.0803038074531311
 40
0.2407006644815669
 40
0.3981662095836446
 40
0.5558336839419787
 40
0.7164802436072408
 40
0.878443912606119
 40
1.0
 40
1.0
 40
1.0
 40
1.0
 10
336.3116967559556
 20
18.57605119668858
 30
0.0
 10
336.341657044047
 20
18.65078544544906
 30
0.0
 10
336.431459277346
 20
18.87479205119644
 30
0.0
 10
336.8181970254589
 20
19.15625113010151
 30
0.0
 10
337.3978567561373
 20
19.36342954745965
 30
0.0
 10
338.0841019353045
 20
19.41334368803643
 30
0.0
 10
338.7921135603121
 20
19.31956931645254
 30
0.0
 10
339.4083242080967
 20
19.12824176987601
 30
0.0
 10
339.7112982718293
 20
18.9601893381556
 30
0.0
 10
339.8411951870837
 20
18.88813864110034
 30
0.0
  0
SPLINE
  5
76F5
330
A
100
AcDbEntity
  8
0
  6
Continuous
 62
     7
370
    15
100
AcDbSpline
210
0.0
220
0.0
230
1.0
 70
     8
 71
     3
 72
    14
 73
    10
 74
     0
 42
0.00000001
 43
0.00000001
 40
0.0
 40
0.0
 40
0.0
 40
0.0
 40
0.1349147223821639
 40
0.3256756595454421
 40
0.4582352938148783
 40
0.5918580827119125
 40
0.7560621364775857
 40
0.9004855691892388
 40
1.0
 40
1.0
 40
1.0
 40
1.0
 10
362.2159942694464
 20
718.6334582907123
 30
0.0
 10
362.2276373693724
 20
718.7475327288603
 30
0.0
 10
362.2557430807481
 20
719.0229012522145
 30
0.0
 10
362.5448451043828
 20
719.8744416631059
 30
0.0
 10
362.7518256105188
 20
721.2967893080536
 30
0.0
 10
362.696292697244
 20
723.2286802323404
 30
0.0
 10
362.4376559664418
 20
725.4709666957006
 30
0.0
 10
362.2266794366217
 20
727.5485667365567
 30
0.0
 10
362.2242301864469
 20
728.769462548951
 30
0.0
 10
362.2232310150446
 20
729.2675268924493
 30
0.0
  0
SPLINE
  5
76F6
330
A
100
AcDbEntity
  8
0
  6
Continuous
 62
     7
370
    15
100
AcDbSpline
210
0.0
220
0.0
230
1.0
 70
    11
 71
     3
 72
    26
 73
    22
 74
     0
 42
0.00000001
 43
0.00000001
 40
0.0
 40
0.0
 40
0.0
 40
0.0
 40
0.0531325026258679
 40
0.1062396582540795
 40
0.1599715587466679
 40
0.2139538856351957
 40
0.2671813194481683
 40
0.3198383810143187
 40
0.3729575290918736
 40
0.4268800216151613
 40
0.480712083730556
 40
0.5336606758115667
 40
0.5863261380099938
 40
0.6397327483320783
 40
0.6937617199758811
 40
0.7473315904832865
 40
0.8000945074719393
 40
0.8529332807322088
 40
0.9066045095572908
 40
0.9606134002641225
 40
1.0
 40
1.0
 40
1.0
 40
1.0
 10
339.8410700636271
 20
754.6083240303744
 30
0.0
 10
339.9813140304188
 20
754.5048080240038
 30
0.0
 10
340.2617350602566
 20
754.2978253938411
 30
0.0
 10
340.4171981270558
 20
753.9473471054148
 30
0.0
 10
340.3486294839815
 20
753.5945350724107
 30
0.0
 10
340.0432656950118
 20
753.2560676899038
 30
0.0
 10
339.5426495440231
 20
752.962388032392
 30
0.0
 10
338.9072925520275
 20
752.7452013030274
 30
0.0
 10
338.2029243295467
 20
752.6360386372382
 30
0.0
 10
337.5015887338498
 20
752.6661267372046
 30
0.0
 10
336.8868007743197
 20
752.8530483452976
 30
0.0
 10
336.4327672399429
 20
753.1816913841078
 30
0.0
 10
336.1845802410696
 20
753.60901991385
 30
0.0
 10
336.1663844118768
 20
754.0782758344405
 30
0.0
 10
336.3859902996276
 20
754.5204264130582
 30
0.0
 10
336.8199301855241
 20
754.8659006253324
 30
0.0
 10
337.4124112920456
 20
755.0704632612335
 30
0.0
 10
338.0993646117156
 20
755.1229732743391
 30
0.0
 10
338.8087728309149
 20
755.0317216647247
 30
0.0
 10
339.4173552537729
 20
754.8438698447533
 30
0.0
 10
339.7153853000007
 20
754.6781930066641
 30
0.0
 10
339.8410700636271
 20
754.6083240303744
 30
0.0
  0
SPLINE
  5
76F7
330
A
100
AcDbEntity
  8
0
  6
Continuous
 62
     7
370
    15
100
AcDbSpline
210
0.0
220
0.0
230
1.0
 70
     8
 71
     3
 72
    13
 73
     9
 74
     0
 42
0.00000001
 43
0.00000001
 40
0.0
 40
0.0
 40
0.0
 40
0.0
 40
0.1677867907766573
 40
0.3354771476310743
 40
0.5055595603809967
 40
0.676608924956197
 40
0.8447748275844215
 40
1.0
 40
1.0
 40
1.0
 40
1.0
 10
339.6942474009363
 20
753.8596838729586
 30
0.0
 10
339.5056601532881
 20
753.9466346239819
 30
0.0
 10
339.1285940467858
 20
754.1204861518797
 30
0.0
 10
338.4287521402582
 20
754.2703390660774
 30
0.0
 10
337.7186866336499
 20
754.2943504754601
 30
0.0
 10
337.0705729425019
 20
754.1589697646737
 30
0.0
 10
336.5563909998975
 20
753.8824976959004
 30
0.0
 10
336.3818005695987
 20
753.6147375071969
 30
0.0
 10
336.2979985362811
 20
753.4862147226643
 30
0.0
  0
SPLINE
  5
76F8
330
A
100
AcDbEntity
  8
0
  6
Continuous
 62
     7
370
    15
100
AcDbSpline
210
0.0
220
0.0
230
1.0
 70
     8
 71
     3
 72
     9
 73
     5
 74
     0
 42
0.00000001
 43
0.00000001
 40
0.0
 40
0.0
 40
0.0
 40
0.0
 40
0.4060123242643562
 40
1.0
 40
1.0
 40
1.0
 40
1.0
 10
340.186740981366
 20
753.4607885383639
 30
0.0
 10
340.1445900741776
 20
753.5190688033213
 30
0.0
 10
340.0407732571277
 20
753.6626118966574
 30
0.0
 10
339.8233776891027
 20
753.7862464637881
 30
0.0
 10
339.6942474009363
 20
753.8596838729586
 30
0.0
  0
SPLINE
  5
76F9
330
A
100
AcDbEntity
  8
0
  6
Continuous
 62
     7
370
    15
100
AcDbSpline
210
0.0
220
0.0
230
1.0
 70
    11
 71
     3
 72
    26
 73
    22
 74
     0
 42
0.00000001
 43
0.00000001
 40
0.0
 40
0.0
 40
0.0
 40
0.0
 40
0.0531324816864899
 40
0.1062396163853128
 40
0.1599717051360001
 40
0.2139538702039571
 40
0.267181289439848
 40
0.3198383239750404
 40
0.3729578642991933
 40
0.4268801433950523
 40
0.4807121842953744
 40
0.5336607965058177
 40
0.5863259163440667
 40
0.6397327195911491
 40
0.6937618392004191
 40
0.7473316309748692
 40
0.8000944450899495
 40
0.8529331937263501
 40
0.9066044013997436
 40
0.9606134157862767
 40
1.0
 40
1.0
 40
1.0
 40
1.0
 10
339.8410700636271
 20
19.72158846623688
 30
0.0
 10
339.9813140546323
 20
19.61807347093531
 30
0.0
 10
340.2617351328843
 20
19.41109286242818
 30
0.0
 10
340.4171980388139
 20
19.06059889884068
 30
0.0
 10
340.3486303280954
 20
18.70784527846854
 30
0.0
 10
340.0432648893591
 20
18.36931268964611
 30
0.0
 10
339.5426502830821
 20
18.075683275404
 30
0.0
 10
338.9072887144355
 20
17.8585063664907
 30
0.0
 10
338.2029299543763
 20
17.74925215255348
 30
0.0
 10
337.5015865593252
 20
17.77940858972647
 30
0.0
 10
336.8868007918666
 20
17.96629534373096
 30
0.0
 10
336.4327686408462
 20
18.29500730103746
 30
0.0
 10
336.1845792551755
 20
18.72223670699168
 30
0.0
 10
336.1663848570417
 20
19.19154261480378
 30
0.0
 10
336.3859894416285
 20
19.63373075710331
 30
0.0
 10
336.8199300572317
 20
19.97914583888507
 30
0.0
 10
337.4124119693881
 20
20.18376435812922
 30
0.0
 10
338.0993643961958
 20
20.23625653886893
 30
0.0
 10
338.8087741179891
 20
20.1450200456843
 30
0.0
 10
339.4173543466284
 20
19.95712871324326
 30
0.0
 10
339.7153851681344
 20
19.79145571482263
 30
0.0
 10
339.8410700636271
 20
19.72158846623688
 30
0.0
  0
SPLINE
  5
76FA
330
A
100
AcDbEntity
  8
0
  6
Continuous
 62
     7
370
    15
100
AcDbSpline
210
0.0
220
0.0
230
1.0
 70
     8
 71
     3
 72
    14
 73
    10
 74
     0
 42
0.00000001
 43
0.00000001
 40
0.0
 40
0.0
 40
0.0
 40
0.0
 40
0.1349149959811648
 40
0.3256746840792517
 40
0.4582345871717107
 40
0.5918557004055078
 40
0.756060087167197
 40
0.9004853673799155
 40
1.0
 40
1.0
 40
1.0
 40
1.0
 10
362.2159942694464
 20
-16.25325293861277
 30
0.0
 10
362.22763716739
 20
-16.13917758241547
 30
0.0
 10
362.2557422500156
 20
-15.86380822617292
 30
0.0
 10
362.5448462700272
 20
-15.01229264911979
 30
0.0
 10
362.7518250863789
 20
-13.58995245939593
 30
0.0
 10
362.6962918604711
 20
-11.65807012814594
 30
0.0
 10
362.4376542483099
 20
-9.415785521418229
 30
0.0
 10
362.2266800408436
 20
-7.338176495935613
 30
0.0
 10
362.2242303569949
 20
-6.117272982615077
 30
0.0
 10
362.2232310150446
 20
-5.61920867168817
 30
0.0
  0
SPLINE
  5
76FB
330
A
100
AcDbEntity
  8
0
  6
Continuous
 62
     7
370
    15
100
AcDbSpline
210
0.0
220
0.0
230
1.0
 70
     8
 71
     3
 72
    13
 73
     9
 74
     0
 42
0.00000001
 43
0.00000001
 40
0.0
 40
0.0
 40
0.0
 40
0.0
 40
0.1677868964820641
 40
0.3354766968208283
 40
0.5055592443238008
 40
0.6766087096576197
 40
0.8447747242427978
 40
1.0
 40
1.0
 40
1.0
 40
1.0
 10
339.6942474009363
 20
18.97297264363374
 30
0.0
 10
339.5056605041661
 20
19.0599261154249
 30
0.0
 10
339.1285958434653
 20
19.23378274013896
 30
0.0
 10
338.428750286713
 20
19.3835949983328
 30
0.0
 10
337.7186869481714
 20
19.40761722779609
 30
0.0
 10
337.0705728961468
 20
19.27223361418078
 30
0.0
 10
336.5563910577559
 20
18.99576229178581
 30
0.0
 10
336.3818006161735
 20
18.72800201101256
 30
0.0
 10
336.2979985774402
 20
18.59947918228738
 30
0.0
  0
SPLINE
  5
76FC
330
A
100
AcDbEntity
  8
0
  6
Continuous
 62
     7
370
    15
100
AcDbSpline
210
0.0
220
0.0
230
1.0
 70
     8
 71
     3
 72
     9
 73
     5
 74
     0
 42
0.00000001
 43
0.00000001
 40
0.0
 40
0.0
 40
0.0
 40
0.0
 40
0.4060139604633257
 40
1.0
 40
1.0
 40
1.0
 40
1.0
 10
340.186740981366
 20
18.5740773090389
 30
0.0
 10
340.1445902083217
 20
18.63234662315131
 30
0.0
 10
340.0407741400361
 20
18.77586216642476
 30
0.0
 10
339.8233777949588
 20
18.89952101431913
 30
0.0
 10
339.6942474009363
 20
18.97297264363374
 30
0.0
  0
ARC
  5
76FD
330
A
100
AcDbEntity
  8
0
  6
Continuous
 62
     7
370
    15
100
AcDbCircle
 10
328.1349507332573
 20
8.580198783320384
 30
0.0
 40
7.896791259830894
100
AcDbArc
 50
176.4434402033604
 51
220.1513309409652
  0
LWPOLYLINE
  5
76FE
330
A
100
AcDbEntity
  8
0
  6
Continuous
 62
     7
370
    15
100
AcDbPolyline
 90
       15
 70
   128
 43
0.0
 10
335.9079992590307
 20
27.40859372602449
 10
335.1026111795693
 20
27.54238681149695
 10
333.6632729245923
 20
27.50016579708961
 10
332.1330170026597
 20
27.12862630352663
 10
330.5514760628282
 20
26.43736096447071
 10
328.9596112853817
 20
25.44432181984257
 10
327.3986511373548
 20
24.17520767242627
 10
325.9090236249342
 20
22.66289635992439
 10
324.5293096604375
 20
20.94654852882741
 10
323.2952420335043
 20
19.07059172615539
 10
322.2387838603743
 20
17.08365303367646
 10
321.3872963482647
 20
15.03720257525742
 10
320.7628321771147
 20
12.98422087195104
 10
320.3815645414954
 20
10.97784717278205
 10
320.2533683163044
 20
9.070066935097202
  0
LWPOLYLINE
  5
76FF
330
A
100
AcDbEntity
  8
0
  6
Continuous
 62
     7
370
    15
100
AcDbPolyline
 90
       10
 70
   128
 43
0.0
 10
311.7468725155288
 20
748.8675223327423
 10
311.8750687407198
 20
747.1077543061344
 10
312.2563357177944
 20
745.5416068037259
 10
312.8808005474891
 20
744.209592131062
 10
313.7322880595987
 20
743.1462482281131
 10
314.7887462327287
 20
742.3790701789949
 10
316.0228138596619
 20
741.9279618649578
 10
317.4025278241581
 20
741.8045978696539
 10
318.8921553365792
 20
742.012173874162
 10
320.340136411997
 20
742.4966808635656
  0
LWPOLYLINE
  5
7700
330
A
100
AcDbEntity
  8
0
  6
Continuous
 62
     7
370
    15
100
AcDbPolyline
 90
       20
 70
   128
 43
0.0
 10
331.4590938340541
 20
761.7573639427374
 10
331.2582015391715
 20
762.8669167826947
 10
330.7536998112289
 20
764.3207235401314
 10
330.0133225870511
 20
765.5222852162956
 10
329.0562460241651
 20
766.4405240760113
 10
327.9072577378518
 20
767.0516657234004
 10
326.5961153787932
 20
767.3398178743294
 10
325.1567771238163
 20
767.2975968599219
 10
323.6265210372478
 20
766.926032936504
 10
322.0449802208939
 20
766.2347920035429
 10
320.4531154846061
 20
765.2417528826752
 10
318.8921553365792
 20
763.9726387352587
 10
317.4025278241581
 20
762.4603030879443
 10
316.0228138596619
 20
760.7439552568476
 10
314.7887462327287
 20
758.8680227889879
 10
313.7322880595987
 20
756.8811084313213
 10
312.8808005474891
 20
754.8346336380898
 10
312.2563357177944
 20
752.7816272198015
 10
311.8750687407198
 20
750.7752782356145
 10
311.7468725155288
 20
748.8675223327423
  0
ARC
  5
7701
330
A
100
AcDbEntity
  8
0
  6
Continuous
 62
     7
370
    15
100
AcDbCircle
 10
320.4766285672461
 20
752.5705764837512
 30
0.0
 40
1.793132796144943
100
AcDbArc
 50
169.7928721073654
 51
261.1063560477257
  0
LWPOLYLINE
  5
7702
330
A
100
AcDbEntity
  8
0
  6
Continuous
 62
     7
370
    15
100
AcDbPolyline
 90
       10
 70
   128
 43
0.0
 10
324.1990836693624
 20
757.7273944135427
 10
323.7975033930309
 20
758.1290508940826
 10
323.1136143057499
 20
758.3640350755456
 10
322.2993539030865
 20
758.2630099824935
 10
321.4270728069785
 20
757.8349394126583
 10
320.5742770550444
 20
757.1178745757272
 10
319.8167411244387
 20
756.1754893577029
 10
319.2217757959791
 20
755.0915635091526
 10
318.8422460593167
 20
753.9624166720505
 10
318.7118746616159
 20
752.8883324863275
  0
ARC
  5
7703
330
A
100
AcDbEntity
  8
0
  6
Continuous
 62
     7
370
    15
100
AcDbCircle
 10
317.5969564931404
 20
748.7455588504547
 30
0.0
 40
6.949642392533514
100
AcDbArc
 50
173.9350548291344
 51
234.7527567829194
  0
LWPOLYLINE
  5
7704
330
A
100
AcDbEntity
  8
0
  6
Continuous
 62
     7
370
    15
100
AcDbPolyline
 90
       16
 70
   128
 43
0.0
 10
327.5851392528505
 20
767.3193710928983
 10
326.8465980507606
 20
767.6639715274625
 10
325.5354556917025
 20
767.9521236783919
 10
324.0961174367255
 20
767.9099026639844
 10
322.5658613501571
 20
767.5383387405666
 10
320.9843205338027
 20
766.847097807605
 10
319.3924557975149
 20
765.8540586867373
 10
317.831495649488
 20
764.584944539321
 10
316.3418681370674
 20
763.0726088920067
 10
314.9621541725708
 20
761.3562610609094
 10
313.7280865456376
 20
759.48032859305
 10
312.6716283725075
 20
757.4934142353836
 10
311.8201408603979
 20
755.4469394421521
 10
311.1956760307032
 20
753.3939330238636
 10
310.8144090536291
 20
751.387584039677
 10
310.6862128284376
 20
749.4798281368046
  0
LWPOLYLINE
  5
7705
330
A
100
AcDbEntity
  8
0
  6
Continuous
 62
     7
370
    15
100
AcDbPolyline
 90
       10
 70
   128
 43
0.0
 10
311.7468725155288
 20
13.98076243379228
 10
311.8750687407198
 20
12.22104307680956
 10
312.256336376339
 20
10.6548716197583
 10
312.8808005474891
 20
9.322880901737108
 10
313.7322880595987
 20
8.259488329163219
 10
314.7887462327287
 20
7.492358949670006
 10
316.0228138596619
 20
7.041226300820199
 10
317.4025278241581
 20
6.917862305516451
 10
318.8921553365792
 20
7.125438310024606
 10
320.340136411997
 20
7.609945299428318
  0
LWPOLYLINE
  5
7706
330
A
100
AcDbEntity
  8
0
  6
Continuous
 62
     7
370
    15
100
AcDbPolyline
 90
       20
 70
   128
 43
0.0
 10
331.4590938340541
 20
26.8706527134126
 10
331.2582015391715
 20
27.98018121855739
 10
330.7536998112289
 20
29.43398797599389
 10
330.0133225870511
 20
30.63554965215826
 10
329.0562460241651
 20
31.55378851187402
 10
327.9072577378518
 20
32.16490582445056
 10
326.5961153787932
 20
32.45308231019214
 10
325.1567771238163
 20
32.41086129578468
 10
323.6265212018841
 20
32.03932180222171
 10
322.0449802620526
 20
31.34805646316579
 10
320.4531154846061
 20
30.35501731853776
 10
318.8921553365792
 20
29.08590317112134
 10
317.4025278241581
 20
27.57359185861947
 10
316.0228138596619
 20
25.85724402752248
 10
314.7887462327287
 20
23.98128722485046
 10
313.7322880595987
 20
21.99434853237153
 10
312.8808005474891
 20
19.94789807395239
 10
312.256336376339
 20
17.894916370646
 10
311.8750687407198
 20
15.88854267147701
 10
311.7468725155288
 20
13.98076243379228
  0
ARC
  5
7707
330
A
100
AcDbEntity
  8
0
  6
Continuous
 62
     7
370
    15
100
AcDbCircle
 10
320.4765557812409
 20
17.68380603044886
 30
0.0
 40
1.793063032540688
100
AcDbArc
 50
169.792128038782
 51
261.1083613239899
  0
LWPOLYLINE
  5
7708
330
A
100
AcDbEntity
  8
0
  6
Continuous
 62
     7
370
    15
100
AcDbPolyline
 90
       10
 70
   128
 43
0.0
 10
324.1990838339987
 20
22.84068327926013
 10
323.7975033930309
 20
23.24233966475776
 10
323.1136143057499
 20
23.47732384622077
 10
322.2993539442457
 20
23.37627444211682
 10
321.427072827558
 20
22.94820386040124
 10
320.5742770550444
 20
22.23113901158979
 10
319.8167412890746
 20
21.28877822342054
 10
319.2217757959791
 20
20.20485227982761
 10
318.8422460593167
 20
19.0756811079134
 10
318.7118746616159
 20
18.00157258737772
  0
ARC
  5
7709
330
A
100
AcDbEntity
  8
0
  6
Continuous
 62
     7
370
    15
100
AcDbCircle
 10
317.5969367740993
 20
13.8588115769918
 30
0.0
 40
6.949621449918268
100
AcDbArc
 50
173.9351411599496
 51
234.7528338389374
  0
LWPOLYLINE
  5
770A
330
A
100
AcDbEntity
  8
0
  6
Continuous
 62
     7
370
    15
100
AcDbPolyline
 90
       16
 70
   128
 43
0.0
 10
327.5851392528505
 20
32.43263552876112
 10
326.8465980507606
 20
32.77721162851276
 10
325.5354556917025
 20
33.06538811425423
 10
324.0961174367255
 20
33.02316709984689
 10
322.5658615147929
 20
32.65162760628391
 10
320.9843205749619
 20
31.96036226722799
 10
319.3924557975149
 20
30.96732312259985
 10
317.831495649488
 20
29.69820897518343
 10
316.3418681370674
 20
28.18589766268167
 10
314.9621541725708
 20
26.46954983158457
 10
313.7280865456376
 20
24.59359302891266
 10
312.6716283725075
 20
22.60665433643373
 10
311.8201408603979
 20
20.56020387801459
 10
311.1956766892479
 20
18.5072221747082
 10
310.8144090536291
 20
16.5008484755391
 10
310.6862128284376
 20
14.59306823785448
  0
ARC
  5
770B
330
A
100
AcDbEntity
  8
0
  6
Continuous
 62
     7
370
    15
100
AcDbCircle
 10
328.1350100064822
 20
743.4669328248096
 30
0.0
 40
7.896852022966517
100
AcDbArc
 50
176.4432796334783
 51
220.1511791728548
  0
LWPOLYLINE
  5
770C
330
A
100
AcDbEntity
  8
0
  6
Continuous
 62
     7
370
    15
100
AcDbPolyline
 90
       15
 70
   128
 43
0.0
 10
335.9079992590307
 20
762.295329290162
 10
335.1026111795693
 20
762.4291223756343
 10
333.6632729245923
 20
762.3869013612273
 10
332.1330168380234
 20
762.0153374378094
 10
330.5514760216695
 20
761.3240965048476
 10
328.9596112853817
 20
760.3310573839801
 10
327.3986511373548
 20
759.0619432365638
 10
325.9090236249342
 20
757.5496075892493
 10
324.5293096604375
 20
755.8332597581523
 10
323.2952420335043
 20
753.957327290293
 10
322.2387838603743
 20
751.9704129326265
 10
321.3872963482647
 20
749.9239381393947
 10
320.76283151857
 20
747.8709317211062
 10
320.3815645414954
 20
745.8645827369194
 10
320.2533683163044
 20
743.956826834047
  0
LWPOLYLINE
  5
770D
330
A
100
AcDbEntity
  8
0
  6
Continuous
 62
     7
370
    15
100
AcDbPolyline
 90
       31
 70
   128
 43
0.0
 10
332.2057329110046
 20
0.8984988789245563
 10
331.3773610519877
 20
0.5321327820117858
 10
329.8129248590938
 20
0.0626980202174536
 10
328.3265046230629
 20
-0.0843795648719379
 10
326.9547007659241
 20
0.0944105963742459
 10
325.7312910233084
 20
0.5947685290352638
 10
324.6864008430055
 20
1.404299473418178
 10
323.845758241853
 20
2.503105785223624
 10
323.2300625908267
 20
3.864152587308695
 10
322.8544749015889
 20
5.453898241251636
 10
322.7282431146657
 20
7.233148762571318
 10
322.8544749015889
 20
9.158192072447264
 10
323.2300625908267
 20
11.18158204200552
 10
323.845758241853
 20
13.2534959115344
 10
324.6864008430055
 20
15.3228875111414
 10
325.7312910233084
 20
17.33882297865978
 10
326.9547007659241
 20
19.25169973383652
 10
328.3265046230629
 20
21.01434091531848
 10
329.8129248590938
 20
22.58344760474074
 10
331.3773610519877
 20
23.92027242394568
 10
332.9812911683155
 20
24.99196709813157
 10
334.5852212416969
 20
25.77213069355321
 10
336.1496574345908
 20
26.24156545534754
 10
337.6360776706217
 20
26.38864304043705
 10
339.0078815277609
 20
26.20985287919075
 10
340.2312912703767
 20
25.70949494652973
 10
341.2761814506796
 20
24.8999640021467
 10
342.1168240518316
 20
23.80115769034126
 10
342.7325197028579
 20
22.4401108882563
 10
343.1081073920957
 20
20.85036523431336
 10
343.2048390192397
 20
19.95155251893175
  0
LWPOLYLINE
  5
770E
330
A
100
AcDbEntity
  8
0
  6
Continuous
 62
     7
370
    15
100
AcDbPolyline
 90
       18
 70
   128
 43
0.0
 10
325.5566700444826
 20
7.233148382401737
 10
325.6838086471937
 20
9.031492786042008
 10
326.0615668991297
 20
10.9249224856743
 10
326.6790774988201
 20
12.85888365365929
 10
327.518575549617
 20
14.77785808217152
 10
328.5559102487798
 20
16.62653462826984
 10
329.7612396519291
 20
18.35176772088209
 10
331.0998880979971
 20
19.90394839494286
 10
332.5333457151539
 20
21.23840867750891
 10
334.0203741993557
 20
22.31674131487739
 10
335.5181944993644
 20
23.10792343517858
 10
336.9837170602052
 20
23.5892214313086
 10
338.3747815332051
 20
23.74680929104875
 10
339.6513694033854
 20
23.57607927495974
 10
340.7767557838049
 20
23.08201481535355
 10
341.7185646508176
 20
22.27877762851267
 10
342.4497031540934
 20
21.18946836638554
 10
342.8638848442213
 20
20.14841321931749
  0
LWPOLYLINE
  5
770F
330
A
100
AcDbEntity
  8
0
  6
Continuous
 62
     7
370
    15
100
AcDbPolyline
 90
        9
 70
   128
 43
0.0
 10
331.8647786536678
 20
1.095310862164183
 10
331.0998880979971
 20
0.9624603748950449
 10
329.7612396519291
 20
0.9690704515211337
 10
328.5559102487798
 20
1.302659837226429
 10
327.518575549617
 20
1.953655233031668
 10
326.6790774988201
 20
2.903317173828668
 10
326.0615668991297
 20
4.124364448871006
 10
325.6838086471937
 20
5.581595084915079
 10
325.5566700444826
 20
7.233148382401737
  0
LWPOLYLINE
  5
7710
330
A
100
AcDbEntity
  8
0
  6
Continuous
 62
     7
370
    15
100
AcDbPolyline
 90
       22
 70
   128
 43
0.0
 10
338.4629339717719
 20
26.73034675666418
 10
337.2401136264905
 20
27.23036356641342
 10
335.8683097693518
 20
27.40915372765971
 10
334.3818895333209
 20
27.26207614257021
 10
332.8174533404265
 20
26.79264138077588
 10
331.2135232668104
 20
26.01247778521872
 10
329.6095931507173
 20
24.94078311116834
 10
328.0451569578233
 20
23.60395829196341
 10
326.5587367217925
 20
22.03485160254115
 10
325.1869328646537
 20
20.2722104210593
 10
323.9635231220379
 20
18.35933366588256
 10
322.9186329417346
 20
16.34339819836407
 10
322.0779903405826
 20
14.27400659875707
 10
321.4622946895563
 20
12.20209272922818
 10
321.0867070003189
 20
10.17870275967005
 10
320.9604752133953
 20
8.2536594497941
 10
321.0867070003189
 20
6.474408928474418
 10
321.4622946895563
 20
4.884663274531363
 10
322.0779903405826
 20
3.523616472446292
 10
322.9186329417346
 20
2.424810160640732
 10
323.9635231220379
 20
1.615279216257818
 10
323.9641125193723
 20
1.614938093346154
  0
LWPOLYLINE
  5
7711
330
A
100
AcDbEntity
  8
0
  6
Continuous
 62
     7
370
    15
100
AcDbPolyline
 90
       15
 70
   128
 43
0.0
 10
326.546619832118
 20
7.804634230385318
 10
326.6727548129991
 20
9.495861446269373
 10
327.0471050971062
 20
11.27830380786804
 10
327.6576390762791
 20
13.09473989296976
 10
328.4847334412682
 20
14.88677787886434
 10
329.5018050551928
 20
16.59687508237403
 10
330.6761640979482
 20
18.16994987101486
 10
331.9700660910601
 20
19.55554641201763
 10
333.3419234549399
 20
20.70906945531999
 10
334.7476438771243
 20
21.59348167998007
 10
336.1420463064403
 20
22.18031580871025
 10
337.4803134552378
 20
22.45075646769158
 10
338.7194321185473
 20
22.39613097774964
 10
339.8195764879754
 20
22.01807521934438
 10
340.638421924458
 20
21.43314500624251
  0
LWPOLYLINE
  5
7712
330
A
100
AcDbEntity
  8
0
  6
Continuous
 62
     7
370
    15
100
AcDbPolyline
 90
        7
 70
   128
 43
0.0
 10
329.6393157339046
 20
2.380042649089091
 10
329.5018050551928
 20
2.424426280457396
 10
328.4847334412682
 20
2.960188924282875
 10
327.6576390762791
 20
3.797332752515445
 10
327.0471050971062
 20
4.908861309643044
 10
326.6727548129991
 20
6.259088033179751
 10
326.546619832118
 20
7.804634230385318
  0
LWPOLYLINE
  5
7713
330
A
100
AcDbEntity
  8
0
  6
Continuous
 62
     7
370
    15
100
AcDbPolyline
 90
       18
 70
   128
 43
0.0
 10
310.311447002746
 20
749.287972480404
 10
310.4376787896697
 20
751.2129914554673
 10
310.8132664789075
 20
753.2363814250255
 10
311.4289621299338
 20
755.3082709597422
 10
312.2696047310858
 20
757.3776625593489
 10
313.3144949113887
 20
759.3936223616802
 10
314.5379046540045
 20
761.3064747820442
 10
315.9097085111437
 20
763.0691402983384
 10
317.3961287471741
 20
764.6382226529481
 10
318.9605649400685
 20
765.9750718069656
 10
320.5644950237127
 20
767.0467664622838
 10
322.1684251297777
 20
767.8269300765735
 10
323.7328613226716
 20
768.296340503555
 10
325.2192815587025
 20
768.4434424234571
 10
326.5910854158412
 20
768.2646279273981
 10
327.8144951584575
 20
767.76429432955
 10
328.8593853387604
 20
766.9547390503544
 10
329.663710527386
 20
765.9164887644995
  0
LWPOLYLINE
  5
7714
330
A
100
AcDbEntity
  8
0
  6
Continuous
 62
     7
370
    15
100
AcDbPolyline
 90
        8
 70
   128
 43
0.0
 10
315.8405873503136
 20
741.9715455152618
 10
314.5379046540045
 20
742.1492099793943
 10
313.3144949113887
 20
742.6495435772429
 10
312.2696047310858
 20
743.4590988564385
 10
311.4289621299338
 20
744.5579051682437
 10
310.8132664789075
 20
745.9189519703289
 10
310.4376787896697
 20
747.5086732894592
 10
310.311447002746
 20
749.287972480404
  0
LWPOLYLINE
  5
7715
330
A
100
AcDbEntity
  8
0
  6
Continuous
 62
     7
370
    15
100
AcDbPolyline
 90
        7
 70
   128
 43
0.0
 10
308.5436817356538
 20
750.3084816469482
 10
308.6699135225774
 20
748.5291824560034
 10
309.0455012118152
 20
746.9394611368728
 10
309.6611968628415
 20
745.578414334788
 10
310.5018394639935
 20
744.4796080229823
 10
311.5467296442964
 20
743.670052743787
 10
311.5473190416308
 20
743.669711620875
  0
LWPOLYLINE
  5
7716
330
A
100
AcDbEntity
  8
0
  6
Continuous
 62
     7
370
    15
100
AcDbPolyline
 90
       16
 70
   128
 43
0.0
 10
326.0461404940304
 20
768.7851446190057
 10
324.823320148749
 20
769.2851370939425
 10
323.4515162916102
 20
769.4639515900012
 10
321.9650960555794
 20
769.3168496700994
 10
320.4006598626854
 20
768.8474392431174
 10
318.7967297566195
 20
768.0672756288277
 10
317.1927996729762
 20
766.99558097351
 10
315.6283634800818
 20
765.6587318194925
 10
314.1419432440514
 20
764.0896494648828
 10
312.7701393869122
 20
762.3269839485881
 10
311.5467296442964
 20
760.4141315282238
 10
310.5018394639935
 20
758.398171725893
 10
309.6611968628415
 20
756.3287801262861
 10
309.0455012118152
 20
754.2568905915698
 10
308.6699135225774
 20
752.2335006220114
 10
308.5436817356538
 20
750.3084816469482
  0
ARC
  5
7717
330
A
100
AcDbEntity
  8
0
  6
Continuous
 62
     7
370
    15
100
AcDbCircle
 10
327.5210743994251
 20
751.1909731070157
 30
0.0
 40
18.9922206282428
100
AcDbArc
 50
122.2695155324636
 51
177.7358294371971
  0
LWPOLYLINE
  5
7718
330
A
100
AcDbEntity
  8
0
  6
Continuous
 62
     7
370
    15
100
AcDbPolyline
 90
       31
 70
   128
 43
0.0
 10
332.2057328286867
 20
735.7852100607283
 10
331.3773610519877
 20
735.4188440113369
 10
329.8129248590938
 20
734.9494335843549
 10
328.3265046230629
 20
734.802331664453
 10
326.9547007659241
 20
734.9811461605118
 10
325.7312910233084
 20
735.4814797583599
 10
324.6864008430055
 20
736.2910350375557
 10
323.845758241853
 20
737.3898413493612
 10
323.2300625908267
 20
738.7508881514461
 10
322.8544749015889
 20
740.3406094705767
 10
322.7282431146657
 20
742.1199086615211
 10
322.8544749015889
 20
744.0449276365848
 10
323.2300625908267
 20
746.0683176061432
 10
323.845758241853
 20
748.1402071408597
 10
324.6864008430055
 20
750.2095987404664
 10
325.7312910233084
 20
752.2255585427972
 10
326.9547007659241
 20
754.1384109631615
 10
328.3265046230629
 20
755.9010764794562
 10
329.8129248590938
 20
757.4701588340656
 10
331.3773610519877
 20
758.8070079880833
 10
332.9812911364854
 20
759.8787026438938
 10
334.5852212416969
 20
760.6588662576908
 10
336.1496574345908
 20
761.1282766846723
 10
337.6360776706217
 20
761.2753786045744
 10
339.0078815277609
 20
761.0965641085158
 10
340.2312912703767
 20
760.596230510667
 10
341.2761814506796
 20
759.7866752314717
 10
342.1168240518316
 20
758.6878689196662
 10
342.7325197028579
 20
757.3268464523937
 10
343.1081073920957
 20
755.7371007984509
 10
343.2048390192397
 20
754.8382880830693
  0
LWPOLYLINE
  5
7719
330
A
100
AcDbEntity
  8
0
  6
Continuous
 62
     7
370
    15
100
AcDbPolyline
 90
       18
 70
   128
 43
0.0
 10
325.5566700444826
 20
742.1199082813516
 10
325.6838086471937
 20
743.918252684992
 10
326.0615668991297
 20
745.8116580498115
 10
326.6790774988201
 20
747.7456435526094
 10
327.518575549617
 20
749.6645693114965
 10
328.5559102487798
 20
751.5132458575947
 10
329.761239322657
 20
753.2385030949347
 10
331.0998880979971
 20
754.7906596242681
 10
332.5333457151539
 20
756.125119906834
 10
334.020374158197
 20
757.2034525204417
 10
335.5181944170465
 20
757.9946589517951
 10
336.9837170602052
 20
758.475956995446
 10
338.3747815332051
 20
758.6335205203734
 10
339.6513694033854
 20
758.4627905042846
 10
340.7767557838049
 20
757.9687260446785
 10
341.7185646508176
 20
757.1654888578375
 10
342.4497031540934
 20
756.0762282653354
 10
342.8638848442213
 20
755.0351244486424
  0
LWPOLYLINE
  5
771A
330
A
100
AcDbEntity
  8
0
  6
Continuous
 62
     7
370
    15
100
AcDbPolyline
 90
        9
 70
   128
 43
0.0
 10
331.8647786536678
 20
735.9820464263016
 10
331.0998880979971
 20
735.8491959390326
 10
329.761239322657
 20
735.8557814907613
 10
328.5559102487798
 20
736.189395401364
 10
327.518575549617
 20
736.840390797169
 10
326.6790774988201
 20
737.7900770727788
 10
326.0615668991297
 20
739.0111000130087
 10
325.6838086471937
 20
740.4683549838649
 10
325.5566700444826
 20
742.1199082813516
  0
LWPOLYLINE
  5
771B
330
A
100
AcDbEntity
  8
0
  6
Continuous
 62
     7
370
    15
100
AcDbPolyline
 90
       22
 70
   128
 43
0.0
 10
338.4629339717719
 20
761.6170823208015
 10
337.2401136264905
 20
762.1170747957383
 10
335.8683097693518
 20
762.2958892917973
 10
334.3818895333209
 20
762.148787371895
 10
332.8174533404265
 20
761.6793769449134
 10
331.2135232350977
 20
760.8992133310492
 10
329.6095931507173
 20
759.827518675306
 10
328.0451569578233
 20
758.4906695212885
 10
326.5587367217925
 20
756.9215871666786
 10
325.1869328646537
 20
755.1589216503842
 10
323.9635231220379
 20
753.2460692300199
 10
322.9186329417346
 20
751.2301094276891
 10
322.0779903405826
 20
749.1607178280819
 10
321.4622946895563
 20
747.0888282933656
 10
321.0867070003189
 20
745.0654383238075
 10
320.9604752133953
 20
743.1404193487442
 10
321.0867070003189
 20
741.3611201577994
 10
321.4622946895563
 20
739.7713988386688
 10
322.0779903405826
 20
738.4103520365838
 10
322.9186329417346
 20
737.3115457247784
 10
323.9635231220379
 20
736.501990445583
 10
323.9641125193723
 20
736.501649322671
  0
LWPOLYLINE
  5
771C
330
A
100
AcDbEntity
  8
0
  6
Continuous
 62
     7
370
    15
100
AcDbPolyline
 90
       15
 70
   128
 43
0.0
 10
326.546619832118
 20
742.6913941293353
 10
326.6727541544544
 20
744.3825722954246
 10
327.0471050971062
 20
746.1650393720054
 10
327.6576390762791
 20
747.9814754571073
 10
328.4847334412682
 20
749.7735377778145
 10
329.5018050551928
 20
751.4835863116989
 10
330.6761640979482
 20
753.0566854351525
 10
331.9700659264238
 20
754.4422818811124
 10
333.3419234549399
 20
755.5958050194574
 10
334.7476438359652
 20
756.4802172203567
 10
336.142046141804
 20
757.0670756126178
 10
337.4803134552378
 20
757.3375163666415
 10
338.7194321185473
 20
757.2828422070745
 10
339.8195764879754
 20
756.9048351182944
 10
340.638421924458
 20
756.3198562355674
  0
LWPOLYLINE
  5
771D
330
A
100
AcDbEntity
  8
0
  6
Continuous
 62
     7
370
    15
100
AcDbPolyline
 90
        7
 70
   128
 43
0.0
 10
329.6393157339046
 20
737.2667782132266
 10
329.5018050551928
 20
737.3111618445948
 10
328.4847334412682
 20
737.8469488232327
 10
327.6576390762791
 20
738.6840439818404
 10
327.0471050971062
 20
739.7955968737804
 10
326.6727541544544
 20
741.1458232171478
 10
326.546619832118
 20
742.6913941293353
  0
LWPOLYLINE
  5
771E
330
A
100
AcDbEntity
  8
0
  6
Continuous
 62
     7
370
    15
100
AcDbPolyline
 90
        7
 70
   128
 43
0.0
 10
308.5436817356538
 20
15.42172174799816
 10
308.6699135225774
 20
13.64247122667848
 10
309.0455012118152
 20
12.05272557273543
 10
309.6611968628415
 20
10.69167877065047
 10
310.5018394639935
 20
9.592872458844909
 10
311.5467296442964
 20
8.783341514461881
 10
311.5473190416308
 20
8.783000391550104
  0
LWPOLYLINE
  5
771F
330
A
100
AcDbEntity
  8
0
  6
Continuous
 62
     7
370
    15
100
AcDbPolyline
 90
       16
 70
   128
 43
0.0
 10
326.0461404940304
 20
33.89840905486824
 10
324.823320148749
 20
34.39842586461737
 10
323.4515162916102
 20
34.57721602586366
 10
321.9650960555794
 20
34.43013844077427
 10
320.4006598626854
 20
33.96070367897983
 10
318.7967297883363
 20
33.18054008299987
 10
317.1927996729762
 20
32.10884540937229
 10
315.6283634800818
 20
30.77202059016747
 10
314.1419432440514
 20
29.20291390074522
 10
312.7701393869122
 20
27.44027271926325
 10
311.5467296442964
 20
25.52739596408651
 10
310.5018394639935
 20
23.51146049656802
 10
309.6611968628415
 20
21.44206889696113
 10
309.0455012118152
 20
19.37015502743213
 10
308.6699135225774
 20
17.34676505787411
 10
308.5436817356538
 20
15.42172174799816
  0
LWPOLYLINE
  5
7720
330
A
100
AcDbEntity
  8
0
  6
Continuous
 62
     7
370
    15
100
AcDbPolyline
 90
       18
 70
   128
 43
0.0
 10
310.311447002746
 20
14.40121258145405
 10
310.4376787896697
 20
16.32625589132999
 10
310.8132664789075
 20
18.34964586088813
 10
311.4289621299338
 20
20.42155973041713
 10
312.2696047310858
 20
22.49095133002402
 10
313.3144949113887
 20
24.50688679754239
 10
314.5379046540045
 20
26.41976355271913
 10
315.9097085111437
 20
28.1824047342011
 10
317.3961287471741
 20
29.75151142362336
 10
318.9605649400685
 20
31.08833624282829
 10
320.5644950554299
 20
32.16003091645632
 10
322.1684251297777
 20
32.94019451243582
 10
323.7328613226716
 20
33.40962927423016
 10
325.2192815587025
 20
33.55670685931966
 10
326.5910854158412
 20
33.37791669807336
 10
327.8144951584575
 20
32.87755876541246
 10
328.8593853387604
 20
32.06802782102955
 10
329.663710527386
 20
31.02977753517496
  0
LWPOLYLINE
  5
7721
330
A
100
AcDbEntity
  8
0
  6
Continuous
 62
     7
370
    15
100
AcDbPolyline
 90
        8
 70
   128
 43
0.0
 10
315.8405873503136
 20
7.084809951124612
 10
314.5379046540045
 20
7.262474415256975
 10
313.3144949113887
 20
7.762832347917879
 10
312.2696047310858
 20
8.572363292300906
 10
311.4289621299338
 20
9.671169604106353
 10
310.8132664789075
 20
11.03221640619131
 10
310.4376787896697
 20
12.62196206013436
 10
310.311447002746
 20
14.40121258145405
  0
ARC
  5
7722
330
A
100
AcDbEntity
  8
0
  6
Continuous
 62
     7
370
    15
100
AcDbCircle
 10
327.5211627156348
 20
16.30421327755198
 30
0.0
 40
18.99230887275872
100
AcDbArc
 50
122.2696624233304
 51
177.7358401725469
  0
SPLINE
  5
7723
330
A
100
AcDbEntity
  8
0
  6
Continuous
 62
     7
370
    15
100
AcDbSpline
210
0.0
220
0.0
230
1.0
 70
     8
 71
     3
 72
    12
 73
     8
 74
     0
 42
0.00000001
 43
0.00000001
 40
0.0
 40
0.0
 40
0.0
 40
0.0
 40
0.2415122535222465
 40
0.4241902081092659
 40
0.6115220748772061
 40
0.8742857397537672
 40
1.0
 40
1.0
 40
1.0
 40
1.0
 10
273.5054082810268
 20
773.1559349960803
 30
0.0
 10
273.6360051611471
 20
772.5300877381667
 30
0.0
 10
273.865384486415
 20
771.4308545741872
 30
0.0
 10
274.8273591779414
 20
769.9679458140511
 30
0.0
 10
276.0095607234477
 20
768.621485894942
 30
0.0
 10
277.2521511814323
 20
767.5173687805591
 30
0.0
 10
278.2027882653249
 20
767.0095362714505
 30
0.0
 10
278.5104212864969
 20
766.8451980064347
 30
0.0
  0
SPLINE
  5
7724
330
A
100
AcDbEntity
  8
0
  6
Continuous
 62
     7
370
    15
100
AcDbSpline
210
0.0
220
0.0
230
1.0
 70
     8
 71
     3
 72
    19
 73
    15
 74
     0
 42
0.00000001
 43
0.00000001
 40
0.0
 40
0.0
 40
0.0
 40
0.0
 40
0.0413417719163343
 40
0.1265990688871798
 40
0.2380363608225376
 40
0.3500448239056618
 40
0.45034037220598
 40
0.5538423572392662
 40
0.6303420245210033
 40
0.7090315452995842
 40
0.7873367904485746
 40
0.8676237810493732
 40
0.9452484441003443
 40
1.0
 40
1.0
 40
1.0
 40
1.0
 10
289.4615732537957
 20
785.8098031659849
 30
0.0
 10
289.4337789593931
 20
785.8362819861104
 30
0.0
 10
289.3486657281826
 20
785.9173668989661
 30
0.0
 10
288.8043965161457
 20
785.7360910040695
 30
0.0
 10
287.5905006284058
 20
785.1468521433201
 30
0.0
 10
285.5568295446672
 20
783.9947724796434
 30
0.0
 10
283.1382861807922
 20
782.5428005912561
 30
0.0
 10
280.8891254716898
 20
781.12356468542
 30
0.0
 10
278.895539959555
 20
779.7888516971841
 30
0.0
 10
277.2105713373705
 20
778.5710851374824
 30
0.0
 10
275.6659144422622
 20
777.3060389499003
 30
0.0
 10
274.3894751844948
 20
775.9676187628452
 30
0.0
 10
273.5633982043635
 20
774.5858812160498
 30
0.0
 10
273.5223755031918
 20
773.5743217398913
 30
0.0
 10
273.5054082810268
 20
773.1559349960803
 30
0.0
  0
SPLINE
  5
7725
330
A
100
AcDbEntity
  8
0
  6
Continuous
 62
     7
370
    15
100
AcDbSpline
210
0.0
220
0.0
230
1.0
 70
     8
 71
     3
 72
    12
 73
     8
 74
     0
 42
0.00000001
 43
0.00000001
 40
0.0
 40
0.0
 40
0.0
 40
0.0
 40
0.241515829571246
 40
0.4241885016068633
 40
0.6115207190510705
 40
0.8742894587115255
 40
1.0
 40
1.0
 40
1.0
 40
1.0
 10
273.5054082810268
 20
38.26919943194298
 30
0.0
 10
273.6359991579818
 20
37.64334258312749
 30
0.0
 10
273.8653636204169
 20
36.54411327219327
 30
0.0
 10
274.8273749389562
 20
35.08122257502828
 30
0.0
 10
276.009578835434
 20
33.73477563582162
 30
0.0
 10
277.2521095139739
 20
32.63059863584135
 30
0.0
 10
278.2027857651535
 20
32.12280653202049
 30
0.0
 10
278.5104212864969
 20
31.9584867771099
 30
0.0
  0
SPLINE
  5
7726
330
A
100
AcDbEntity
  8
0
  6
Continuous
 62
     7
370
    15
100
AcDbSpline
210
0.0
220
0.0
230
1.0
 70
     8
 71
     3
 72
    19
 73
    15
 74
     0
 42
0.00000001
 43
0.00000001
 40
0.0
 40
0.0
 40
0.0
 40
0.0
 40
0.0413417777633721
 40
0.1265990867923036
 40
0.2380360381867589
 40
0.3500446817909491
 40
0.4503404449545462
 40
0.5538428707524234
 40
0.6303419722396406
 40
0.7090315041474157
 40
0.7873367603712514
 40
0.867623762327177
 40
0.9452484363567374
 40
0.9999999999999999
 40
0.9999999999999999
 40
0.9999999999999999
 40
0.9999999999999999
 10
289.4615732537957
 20
50.92306760184738
 30
0.0
 10
289.4337789218505
 20
50.94954614950359
 30
0.0
 10
289.3486655756753
 20
51.03063022798835
 30
0.0
 10
288.8043989479809
 20
50.84936744793947
 30
0.0
 10
287.5904951460159
 20
50.26006000826339
 30
0.0
 10
285.5568306125544
 20
49.10808629703376
 30
0.0
 10
283.1382801896741
 20
47.65605965419741
 30
0.0
 10
280.8891424473693
 20
46.23679992503708
 30
0.0
 10
278.8955303179453
 20
44.90211925600181
 30
0.0
 10
277.2105728142376
 20
43.68434792141738
 30
0.0
 10
275.6659140355698
 20
42.41930384066268
 30
0.0
 10
274.3894752913036
 20
41.08088307923833
 30
0.0
 10
273.5633981868725
 20
39.69914567147623
 30
0.0
 10
273.5223754980741
 20
38.68758618147763
 30
0.0
 10
273.5054082810268
 20
38.26919943194287
 30
0.0
  0
LWPOLYLINE
  5
7727
330
A
100
AcDbEntity
  8
0
  6
Continuous
 62
     7
370
    15
100
AcDbPolyline
 90
       11
 70
   128
 43
0.0
 10
383.7172406474153
 20
851.0254573885957
 10
384.5905220314723
 20
850.4407739511316
 10
385.7402031066079
 20
849.4124116200796
 10
386.5722892389674
 20
848.2866787169967
 10
387.0628541894878
 20
847.0959550515106
 10
387.1977734955606
 20
845.8745015126881
 10
386.9731785374745
 20
844.657450908694
 10
386.3955128439673
 20
843.4798246579846
 10
385.4814183286646
 20
842.3754877979768
 10
384.257166719213
 20
841.3762246500587
 10
383.6901435062557
 20
841.0136337038732
  0
LWPOLYLINE
  5
7728
330
A
100
AcDbEntity
  8
0
  6
Continuous
 62
     7
370
    15
100
AcDbPolyline
 90
       11
 70
   128
 43
0.0
 10
365.5154438415091
 20
841.1331963051286
 10
365.4945877369412
 20
841.1462718601508
 10
364.1979840649858
 20
842.1146411390489
 10
363.2035133693028
 20
843.1955851148828
 10
362.5397986283881
 20
844.3579998273788
 10
362.2259297304383
 20
845.5684470745971
 10
362.2709261010352
 20
846.7921093990994
 10
362.6735072003833
 20
847.9937768182822
 10
363.4220852793194
 20
849.1388827866774
 10
364.4951256031602
 20
850.1944846534877
 10
365.3320907271439
 20
850.8049168864613
  0
ARC
  5
7729
330
A
100
AcDbEntity
  8
0
  6
Continuous
 62
     7
370
    15
100
AcDbCircle
 10
368.4906579738733
 20
-132.3350762929693
 30
0.0
 40
6.325612721722072
100
AcDbArc
 50
186.0770847014506
 51
243.7897720896594
  0
ARC
  5
772A
330
A
100
AcDbEntity
  8
0
  6
Continuous
 62
     7
370
    15
100
AcDbCircle
 10
381.0294715991974
 20
-132.414700152425
 30
0.0
 40
6.199262444706636
100
AcDbArc
 50
295.8260748182881
 51
354.5383406140872
  0
LWPOLYLINE
  5
772B
330
A
100
AcDbEntity
  8
0
  6
Continuous
 62
     7
370
    15
100
AcDbPolyline
 90
       11
 70
   128
 43
0.0
 10
268.0607776330796
 20
897.3865260521278
 10
267.1874949319338
 20
897.971210249931
 10
266.0378164909764
 20
898.9995710603044
 10
265.2057277244382
 20
900.125305484066
 10
264.7151667251853
 20
901.3160268685341
 10
264.5802447849344
 20
902.5374819280354
 10
264.8048450113768
 20
903.7545294906726
 10
265.3825028023496
 20
904.9321603034176
 10
266.2966052201866
 20
906.0364926013896
 10
267.5208489271038
 20
907.0357603113436
 10
268.0878747742393
 20
907.39834973685
  0
LWPOLYLINE
  5
772C
330
A
100
AcDbEntity
  8
0
  6
Continuous
 62
     7
370
    15
100
AcDbPolyline
 90
       11
 70
   128
 43
0.0
 10
286.2625783902529
 20
907.2787848545769
 10
286.2834292264649
 20
907.2657123409118
 10
287.5800368496873
 20
906.297340780996
 10
288.5745035941034
 20
905.2163990861799
 10
289.2382196521069
 20
904.0539836133445
 10
289.5520911842348
 20
902.8435348454478
 10
289.5070908623704
 20
901.6198748019634
 10
289.1045104215675
 20
900.418207002611
 10
288.3559336597202
 20
899.2731002738764
 10
287.2828946529683
 20
898.2174976467264
 10
286.4459275533511
 20
897.6070665542626
  0
ARC
  5
772D
330
A
100
AcDbEntity
  8
0
  6
Continuous
 62
     7
370
    15
100
AcDbCircle
 10
283.6071914591819
 20
-76.1653505871596
 30
0.0
 40
5.989722199177409
100
AcDbArc
 50
297.0056695195524
 51
355.3772329393545
  0
ARC
  5
772E
330
A
100
AcDbEntity
  8
0
  6
Continuous
 62
     7
370
    15
100
AcDbCircle
 10
270.7464951152845
 20
-76.01542657856737
 30
0.0
 40
6.201423469191357
100
AcDbArc
 50
185.8554733969637
 51
240.27552153546
  0
SPLINE
  5
772F
330
A
100
AcDbEntity
  8
0
  6
Continuous
 62
     7
370
     0
100
AcDbSpline
210
0.0
220
0.0
230
1.0
 70
    11
 71
     3
 72
    39
 73
    35
 74
     0
 42
0.00000001
 43
0.00000001
 40
0.0
 40
0.0
 40
0.0
 40
0.0
 40
0.0291290121578663
 40
0.0600028290289475
 40
0.092160192936774
 40
0.125000030629502
 40
0.1578398101127828
 40
0.1899971854028257
 40
0.2208710091113651
 40
0.2500000181288816
 40
0.2791290271463982
 40
0.3100028508549376
 40
0.3421602261449805
 40
0.3750000056282612
 40
0.4078397809152584
 40
0.4399971848593575
 40
0.470870980325952
 40
0.5000000013454634
 40
0.5291290232294475
 40
0.560002812750879
 40
0.5921602221876611
 40
0.6249999878717283
 40
0.6578397751557286
 40
0.6899971504457715
 40
0.7208709741543109
 40
0.7499999831718274
 40
0.779128992189344
 40
0.8100028158978834
 40
0.8421601911879264
 40
0.8749999784719266
 40
0.9078398065617428
 40
0.9399971704695693
 40
0.9708709873406505
 40
1.0
 40
1.0
 40
1.0
 40
1.0
 10
366.2153087380477
 20
851.334379653769
 30
0.0
 10
366.7603691785228
 20
851.6172515744722
 30
0.0
 10
367.8831387473299
 20
852.1999392194577
 30
0.0
 10
369.9366718159042
 20
852.8403556495509
 30
0.0
 10
372.2401987429992
 20
853.2663344401833
 30
0.0
 10
374.7008850630916
 20
853.4125632957459
 30
0.0
 10
377.1598215582196
 20
853.2657504441763
 30
0.0
 10
379.468419515995
 20
852.8425894890781
 30
0.0
 10
381.5044879923319
 20
852.1921192745956
 30
0.0
 10
383.2333459474073
 20
851.3617830072874
 30
0.0
 10
384.6716786200384
 20
850.3637390210088
 30
0.0
 10
385.7984732961447
 20
849.1883273224341
 30
0.0
 10
386.5313912810936
 20
847.8556580149827
 30
0.0
 10
386.7860805889943
 20
846.4359307022567
 30
0.0
 10
386.5313841861996
 20
845.016204708545
 30
0.0
 10
385.7984808034792
 20
843.6835316025633
 30
0.0
 10
384.6716654589434
 20
842.5081274937156
 30
0.0
 10
383.2333524631074
 20
841.510072128867
 30
0.0
 10
381.5044826681135
 20
840.6797517078012
 30
0.0
 10
379.4684022739054
 20
840.0292552755059
 30
0.0
 10
377.1598950095588
 20
839.6061587584375
 30
0.0
 10
374.700590791608
 20
839.4591264904207
 30
0.0
 10
372.241284432663
 20
839.6061546191027
 30
0.0
 10
369.9327831856569
 20
840.0292594196571
 30
0.0
 10
367.8966897817543
 20
840.6797440846881
 30
0.0
 10
366.1678395724186
 20
841.5100758765591
 30
0.0
 10
364.7294990989947
 20
842.5081243254174
 30
0.0
 10
363.6027296453019
 20
843.6835216423017
 30
0.0
 10
362.8697135146551
 20
845.0162469698512
 30
0.0
 10
362.6154001374014
 20
846.4357608271748
 30
0.0
 10
362.8687020280634
 20
847.8562848147883
 30
0.0
 10
363.6065991877097
 20
849.1860824587334
 30
0.0
 10
364.7159530968595
 20
850.371561875188
 30
0.0
 10
365.7253070912732
 20
851.0197229545254
 30
0.0
 10
366.2153087380477
 20
851.334379653769
 30
0.0
  0
ARC
  5
7730
330
A
100
AcDbEntity
  8
0
  6
Continuous
 62
     7
370
     0
100
AcDbCircle
 10
374.7114490019956
 20
857.5901011144872
 30
0.0
 40
18.85195551702744
100
AcDbArc
 50
240.8038417424374
 51
298.4423264202704
  0
ARC
  5
7731
330
A
100
AcDbEntity
  8
0
  6
Continuous
 62
     7
370
     0
100
AcDbCircle
 10
374.6992135726066
 20
-121.3996837290307
 30
0.0
 40
18.89324434033257
100
AcDbArc
 50
241.5438616476771
 51
298.5546487310012
  0
ARC
  5
7732
330
A
100
AcDbEntity
  8
0
  6
Continuous
 62
     7
370
     0
100
AcDbCircle
 10
277.0569073121694
 20
913.8732709561376
 30
0.0
 40
18.7814564593084
100
AcDbArc
 50
241.3805424417513
 51
299.9939836304504
  0
SPLINE
  5
7733
330
A
100
AcDbEntity
  8
0
  6
Continuous
 62
     7
370
     0
100
AcDbSpline
210
0.0
220
0.0
230
1.0
 70
    11
 71
     3
 72
    39
 73
    35
 74
     0
 42
0.00000001
 43
0.00000001
 40
0.0
 40
0.0
 40
0.0
 40
0.0
 40
0.0291290058009198
 40
0.0600028311107955
 40
0.0921602045078821
 40
0.12500000126388
 40
0.1578397980198778
 40
0.1899971714169644
 40
0.2208709933081044
 40
0.2500000006109306
 40
0.2791290079137569
 40
0.3100028298048969
 40
0.3421602032019835
 40
0.3749999999579813
 40
0.4078398045146936
 40
0.4399971665295646
 40
0.4708709952581807
 40
0.5000000010591005
 40
0.5291290076031266
 40
0.5600028363317426
 40
0.5921601983466136
 40
0.6249999933004057
 40
0.657839797857118
 40
0.6899971712542047
 40
0.7208709931453446
 40
0.750000000448171
 40
0.7791290077509971
 40
0.8100028296421371
 40
0.8421602030392239
 40
0.8750000075959361
 40
0.9078397947490114
 40
0.9399971681460981
 40
0.9708709934559738
 40
1.0
 40
1.0
 40
1.0
 40
1.0
 10
285.5627095359898
 20
897.8941340824732
 30
0.0
 10
285.0176502942038
 20
897.6112614163854
 30
0.0
 10
283.8948829105946
 20
897.0285720886021
 30
0.0
 10
281.8413466185223
 20
896.3881578316544
 30
0.0
 10
279.5378199918653
 20
895.9621808075921
 30
0.0
 10
277.0771344845982
 20
895.8159478781769
 30
0.0
 10
274.6181985136639
 20
895.9627629317412
 30
0.0
 10
272.3096000787302
 20
896.3859233680845
 30
0.0
 10
270.2735316054493
 20
897.0363937357478
 30
0.0
 10
268.5446736518982
 20
897.8667299626114
 30
0.0
 10
267.1063409702563
 20
898.8647739680042
 30
0.0
 10
265.9795463311914
 20
900.0401856276354
 30
0.0
 10
265.2466280526048
 20
901.3728553455181
 30
0.0
 10
264.9919393228381
 20
902.7925828596623
 30
0.0
 10
265.2466263508188
 20
904.2123105720342
 30
0.0
 10
265.9795485662278
 20
905.5449795471824
 30
0.0
 10
267.1063387927295
 20
906.7203921235729
 30
0.0
 10
268.5446756402414
 20
907.7184359467648
 30
0.0
 10
270.2735255768482
 20
908.5487701506951
 30
0.0
 10
272.3096205140507
 20
909.199252253403
 30
0.0
 10
274.6181207676539
 20
909.622359415146
 30
0.0
 10
277.0774277899143
 20
909.7693863199323
 30
0.0
 10
279.5367345071033
 20
909.6223585096847
 30
0.0
 10
281.8452364626412
 20
909.1992535436069
 30
0.0
 10
283.8813297996996
 20
908.5487688989518
 30
0.0
 10
285.6101800419917
 20
907.7184371021295
 30
0.0
 10
287.0485204453973
 20
906.7203886540843
 30
0.0
 10
288.1752901644238
 20
905.544991338984
 30
0.0
 10
288.9083053964666
 20
904.2122657359713
 30
0.0
 10
289.1626225880998
 20
902.7927521812607
 30
0.0
 10
288.9093136405565
 20
901.3722286628764
 30
0.0
 10
288.1714195410148
 20
900.0424311923847
 30
0.0
 10
287.0620693934209
 20
898.8569499118877
 30
0.0
 10
286.0527124786415
 20
898.2087900920407
 30
0.0
 10
285.5627095359898
 20
897.8941340824732
 30
0.0
  0
LINE
  5
7734
330
A
100
AcDbEntity
  8
0
  6
Continuous
 62
     7
370
     0
100
AcDbLine
 10
285.9162630388839
 20
-81.75064299210135
 30
0.0
 11
286.3269965143202
 21
-81.50196304126962
 31
0.0
  0
ARC
  5
7735
330
A
100
AcDbEntity
  8
0
  6
Continuous
 62
     7
370
     0
100
AcDbCircle
 10
277.1089363664944
 20
-65.14608432253692
 30
0.0
 40
18.79575408769734
100
AcDbArc
 50
239.8611676667688
 51
297.9422028539418
  0
LINE
  5
7736
330
A
100
AcDbEntity
  8
0
  6
CENTER
 62
     1
100
AcDbLine
 10
28.30120071642841
 20
0.0
 30
0.0
 11
-16.19720058032215
 21
0.0
 31
0.0
  0
LINE
  5
7737
330
A
100
AcDbEntity
  8
0
  6
CENTER
 62
     1
100
AcDbLine
 10
28.30120071642841
 20
900.0000357627868
 30
0.0
 11
-16.19720058032215
 21
900.0000357627868
 31
0.0
  0
LINE
  5
7738
330
A
100
AcDbEntity
  8
0
  6
CENTER
 62
     1
100
AcDbLine
 10
-291.1725588114871
 20
-21.32173520424666
 30
0.0
 11
-291.1725588114871
 21
21.3217834566432
 31
0.0
  0
LINE
  5
7739
330
A
100
AcDbEntity
  8
0
  6
CENTER
 62
     1
100
AcDbLine
 10
-269.8507994810421
 20
0.0000241261982694
 30
0.0
 11
-312.494318141932
 21
0.0000241261982694
 31
0.0
  0
LINE
  5
773A
330
A
100
AcDbEntity
  8
0
  6
CENTER
 62
     1
100
AcDbLine
 10
-291.1725588565021
 20
878.6782647954212
 30
0.0
 11
-291.1725588565021
 21
921.3217834563111
 31
0.0
  0
LINE
  5
773B
330
A
100
AcDbEntity
  8
0
  6
CENTER
 62
     1
100
AcDbLine
 10
-269.8507995260571
 20
900.0000241258662
 30
0.0
 11
-312.494318186947
 21
900.0000241258662
 31
0.0
  0
LINE
  5
773C
330
A
100
AcDbEntity
  8
0
  6
CENTER
 62
     1
100
AcDbLine
 10
-63.02999854195605
 20
1118.006841819692
 30
0.0
 11
-63.02999854195605
 21
1160.650360480582
 31
0.0
  0
LINE
  5
773D
330
A
100
AcDbEntity
  8
0
  6
CENTER
 62
     1
100
AcDbLine
 10
-41.70823921151111
 20
1139.328601150137
 30
0.0
 11
-84.35175787240098
 21
1139.328601150137
 31
0.0
  0
LINE
  5
773E
330
A
100
AcDbEntity
  8
0
  6
CENTER
 62
     1
100
AcDbLine
 10
75.03000145803139
 20
1118.006841842653
 30
0.0
 11
75.03000145803139
 21
1160.650360503543
 31
0.0
  0
LINE
  5
773F
330
A
100
AcDbEntity
  8
0
  6
CENTER
 62
     1
100
AcDbLine
 10
96.35176078847633
 20
1139.328601173098
 30
0.0
 11
53.70824212758646
 21
1139.328601173098
 31
0.0
  0
LINE
  5
7A07
330
A
100
AcDbEntity
  8
0
  6
CENTER
 62
     1
100
AcDbLine
 10
12.03000172972679
 20
7.99452010450409
 30
0.0
 11
0.0
 21
7.99452010450409
 31
0.0
  0
LINE
  5
7A08
330
A
100
AcDbEntity
  8
0
  6
CENTER
 62
     1
100
AcDbLine
 10
12.03000172972679
 20
-8.00547989549591
 30
0.0
 11
0.0
 21
-8.00547989549591
 31
0.0
  0
CIRCLE
  5
7A0B
330
A
100
AcDbEntity
  8
0
  6
CENTER
 62
     1
100
AcDbCircle
 10
-291.1725588565021
 20
900.0000241258662
 30
0.0
 40
8.0
  0
CIRCLE
  5
7A0C
330
A
100
AcDbEntity
  8
0
  6
CENTER
 62
     1
100
AcDbCircle
 10
-291.1725588114871
 20
0.000024126198241
 30
0.0
 40
8.0
  0
LINE
  5
7A0D
330
A
100
AcDbEntity
  8
0
  6
CENTER
 62
     1
100
AcDbLine
 10
12.03000172972679
 20
907.9945558672908
 30
0.0
 11
0.0
 21
907.9945558672908
 31
0.0
  0
LINE
  5
7A0E
330
A
100
AcDbEntity
  8
0
  6
CENTER
 62
     1
100
AcDbLine
 10
12.03000172972679
 20
891.9945558672908
 30
0.0
 11
0.0
 21
891.9945558672908
 31
0.0
  0
LINE
  5
7A0F
330
A
100
AcDbEntity
  8
0
  6
CENTER
 62
     1
100
AcDbLine
 10
12.03000172972679
 20
1147.323121303415
 30
0.0
 11
-0.0000000000000036
 21
1147.323121303415
 31
0.0
  0
LINE
  5
7A10
330
A
100
AcDbEntity
  8
0
  6
CENTER
 62
     1
100
AcDbLine
 10
12.03000172972679
 20
1131.323121303415
 30
0.0
 11
-0.0000000000000036
 21
1131.323121303415
 31
0.0
  0
ENDSEC
  0
SECTION
  2
OBJECTS
  0
DICTIONARY
  5
19
330
0
100
AcDbDictionary
281
     1
  3
ACAD_GROUP
350
1A
  3
ACAD_IMAGE_VARS
350
6390
  3
ACAD_LAYOUT
350
1E
  3
ACAD_MLINESTYLE
350
1B
  3
ACAD_PLOTSETTINGS
350
22
  3
ACAD_PLOTSTYLENAME
350
1F
  3
ACAD_SCALELIST
350
3179
  3
ACAD_WIPEOUT_VARS
350
23
  3
AcDbVariableDictionary
350
630B
  3
APPDATA
350
638F
  3
ASE_INDEX_DICTIONARY
350
5E44
  3
DWGPROPS
350
7A12
  0
DICTIONARY
  5
5E41
330
14
100
AcDbDictionary
280
     1
281
     1
  3
ADSK_XREC_LAYER_RECONCILED
360
5E42
  0
DICTIONARY
  5
31A7
330
A
100
AcDbDictionary
280
     1
281
     1
  3
ACAD_SORTENTS
360
31A8
  0
DICTIONARY
  5
1A
102
{ACAD_REACTORS
330
19
102
}
330
19
100
AcDbDictionary
281
     1
  0
RASTERVARIABLES
  5
6390
102
{ACAD_REACTORS
330
19
102
}
330
19
100
AcDbRasterVariables
 90
        0
 70
     1
 71
     1
 72
     0
  0
DICTIONARY
  5
1E
102
{ACAD_REACTORS
330
19
102
}
330
19
100
AcDbDictionary
281
     1
  3
Layout1
350
21
  3
Model
350
20
  0
DICTIONARY
  5
1B
102
{ACAD_REACTORS
330
19
102
}
330
19
100
AcDbDictionary
281
     1
  3
Standard
350
1C
  0
DICTIONARY
  5
22
102
{ACAD_REACTORS
330
19
102
}
330
19
100
AcDbDictionary
281
     1
  0
ACDBDICTIONARYWDFLT
  5
1F
102
{ACAD_REACTORS
330
19
102
}
330
19
100
AcDbDictionary
281
     1
  3
Normal
350
1D
100
AcDbDictionaryWithDefault
340
1D
  0
DICTIONARY
  5
3179
102
{ACAD_REACTORS
330
19
102
}
330
19
100
AcDbDictionary
281
     1
  3
A0
350
317A
  3
A1
350
317B
  3
A2
350
317C
  3
A3
350
317D
  3
A4
350
317E
  3
A5
350
317F
  3
A6
350
3180
  3
A7
350
3181
  3
A8
350
3182
  3
A9
350
3183
  3
B0
350
3184
  3
B1
350
3185
  3
B2
350
3186
  3
B3
350
3187
  3
B4
350
3188
  3
B5
350
3189
  3
B6
350
318A
  3
B7
350
318B
  3
B8
350
318C
  3
B9
350
318D
  3
C0
350
318E
  3
C1
350
318F
  3
C2
350
3190
  3
C3
350
3191
  3
C4
350
3192
  3
C5
350
3193
  3
C6
350
3194
  3
C7
350
3195
  3
C8
350
3196
  3
C9
350
3197
  3
D0
350
3198
  3
D1
350
3199
  3
D2
350
319A
  0
WIPEOUTVARIABLES
  5
23
330
19
100
AcDbWipeoutVariables
 70
     1
  0
DICTIONARY
  5
630B
102
{ACAD_REACTORS
330
19
102
}
330
19
100
AcDbDictionary
281
     1
  3
CANNOSCALE
350
7A13
  3
DIMASSOC
350
6318
  3
INDEXCTL
350
6317
  3
SORTENTS
350
6316
  0
DICTIONARY
  5
638F
102
{ACAD_REACTORS
330
19
102
}
330
19
100
AcDbDictionary
281
     1
  0
DICTIONARY
  5
5E44
102
{ACAD_REACTORS
330
19
102
}
330
19
100
AcDbDictionary
281
     1
  3
ASEBlockHierarchyIndexRecord
350
5E46
1001
DCO15
1040
1685075681.336
  0
XRECORD
  5
7A12
102
{ACAD_REACTORS
330
19
102
}
330
19
100
AcDbXrecord
280
     1
  1
DWGPROPS COOKIE
  2

  3

  4

  6

  7

  8
renzo.ceresoli
  9

300
=
301
=
302
=
303
=
304
=
305
=
306
=
307
=
308
=
309
=
 40
0.0
 41
2455303.64458331
 42
2456455.40559559
  1

 90
        0
  0
XRECORD
  5
5E42
102
{ACAD_REACTORS
330
5E41
102
}
330
5E41
100
AcDbXrecord
280
     1
290
     1
  0
SORTENTSTABLE
  5
31A8
102
{ACAD_REACTORS
330
31A7
102
}
330
31A7
100
AcDbSortentsTable
330
A
331
0
  5
4BC9
  0
LAYOUT
  5
21
102
{ACAD_REACTORS
330
1E
102
}
330
1E
100
AcDbPlotSettings
  1

  2

  4

  6

 40
0.0
 41
0.0
 42
0.0
 43
0.0
 44
0.0
 45
0.0
 46
0.0
 47
0.0
 48
0.0
 49
0.0
140
0.0
141
0.0
142
1.0
143
1.0
 70
     0
 72
     0
 73
     0
 74
     0
  7

 75
     0
147
1.0
148
0.0
149
0.0
100
AcDbLayout
  1
Layout1
 70
     0
 71
     1
 10
0.0
 20
0.0
 11
12.0
 21
9.0
 12
0.0
 22
0.0
 32
0.0
 14
1.000000000000000E+20
 24
1.000000000000000E+20
 34
1.000000000000000E+20
 15
-1.000000000000000E+20
 25
-1.000000000000000E+20
 35
-1.000000000000000E+20
146
0.0
 13
0.0
 23
0.0
 33
0.0
 16
1.0
 26
0.0
 36
0.0
 17
0.0
 27
1.0
 37
0.0
 76
     0
330
B
  0
LAYOUT
  5
20
102
{ACAD_REACTORS
330
1E
102
}
330
1E
100
AcDbPlotSettings
  1

  2

  4

  6

 40
0.0
 41
0.0
 42
0.0
 43
0.0
 44
0.0
 45
0.0
 46
0.0
 47
0.0
 48
0.0
 49
0.0
140
0.0
141
0.0
142
1.0
143
1.0
 70
  1024
 72
     0
 73
     0
 74
     0
  7

 75
     0
147
1.0
148
0.0
149
0.0
100
AcDbLayout
  1
Model
 70
     0
 71
     0
 10
0.0
 20
0.0
 11
0.0
 21
0.0
 12
0.0
 22
0.0
 32
0.0
 14
0.0
 24
0.0
 34
0.0
 15
0.0
 25
0.0
 35
0.0
146
0.0
 13
0.0
 23
0.0
 33
0.0
 16
0.0
 26
0.0
 36
0.0
 17
0.0
 27
0.0
 37
0.0
 76
     0
330
A
331
15
  0
MLINESTYLE
  5
1C
102
{ACAD_REACTORS
330
1B
102
}
330
1B
100
AcDbMlineStyle
  2
STANDARD
 70
     0
  3

 62
     0
 51
90.0
 52
90.0
 71
     2
 49
0.5
 62
   256
  6
BYLAYER
 49
-0.5
 62
   256
  6
BYLAYER
  0
ACDBPLACEHOLDER
  5
1D
102
{ACAD_REACTORS
330
1F
102
}
330
1F
  0
SCALE
  5
317A
102
{ACAD_REACTORS
330
3179
102
}
330
3179
100
AcDbScale
 70
     0
300
1:1
140
1.0
141
1.0
290
     1
  0
SCALE
  5
317B
102
{ACAD_REACTORS
330
3179
102
}
330
3179
100
AcDbScale
 70
     0
300
1:2
140
1.0
141
2.0
290
     0
  0
SCALE
  5
317C
102
{ACAD_REACTORS
330
3179
102
}
330
3179
100
AcDbScale
 70
     0
300
1:4
140
1.0
141
4.0
290
     0
  0
SCALE
  5
317D
102
{ACAD_REACTORS
330
3179
102
}
330
3179
100
AcDbScale
 70
     0
300
1:5
140
1.0
141
5.0
290
     0
  0
SCALE
  5
317E
102
{ACAD_REACTORS
330
3179
102
}
330
3179
100
AcDbScale
 70
     0
300
1:8
140
1.0
141
8.0
290
     0
  0
SCALE
  5
317F
102
{ACAD_REACTORS
330
3179
102
}
330
3179
100
AcDbScale
 70
     0
300
1:10
140
1.0
141
10.0
290
     0
  0
SCALE
  5
3180
102
{ACAD_REACTORS
330
3179
102
}
330
3179
100
AcDbScale
 70
     0
300
1:16
140
1.0
141
16.0
290
     0
  0
SCALE
  5
3181
102
{ACAD_REACTORS
330
3179
102
}
330
3179
100
AcDbScale
 70
     0
300
1:20
140
1.0
141
20.0
290
     0
  0
SCALE
  5
3182
102
{ACAD_REACTORS
330
3179
102
}
330
3179
100
AcDbScale
 70
     0
300
1:30
140
1.0
141
30.0
290
     0
  0
SCALE
  5
3183
102
{ACAD_REACTORS
330
3179
102
}
330
3179
100
AcDbScale
 70
     0
300
1:40
140
1.0
141
40.0
290
     0
  0
SCALE
  5
3184
102
{ACAD_REACTORS
330
3179
102
}
330
3179
100
AcDbScale
 70
     0
300
1:50
140
1.0
141
50.0
290
     0
  0
SCALE
  5
3185
102
{ACAD_REACTORS
330
3179
102
}
330
3179
100
AcDbScale
 70
     0
300
1:100
140
1.0
141
100.0
290
     0
  0
SCALE
  5
3186
102
{ACAD_REACTORS
330
3179
102
}
330
3179
100
AcDbScale
 70
     0
300
2:1
140
2.0
141
1.0
290
     0
  0
SCALE
  5
3187
102
{ACAD_REACTORS
330
3179
102
}
330
3179
100
AcDbScale
 70
     0
300
4:1
140
4.0
141
1.0
290
     0
  0
SCALE
  5
3188
102
{ACAD_REACTORS
330
3179
102
}
330
3179
100
AcDbScale
 70
     0
300
8:1
140
8.0
141
1.0
290
     0
  0
SCALE
  5
3189
102
{ACAD_REACTORS
330
3179
102
}
330
3179
100
AcDbScale
 70
     0
300
10:1
140
10.0
141
1.0
290
     0
  0
SCALE
  5
318A
102
{ACAD_REACTORS
330
3179
102
}
330
3179
100
AcDbScale
 70
     0
300
100:1
140
100.0
141
1.0
290
     0
  0
SCALE
  5
318B
102
{ACAD_REACTORS
330
3179
102
}
330
3179
100
AcDbScale
 70
     0
300
1/128" = 1'-0"
140
0.0078125
141
12.0
290
     0
  0
SCALE
  5
318C
102
{ACAD_REACTORS
330
3179
102
}
330
3179
100
AcDbScale
 70
     0
300
1/64" = 1'-0"
140
0.015625
141
12.0
290
     0
  0
SCALE
  5
318D
102
{ACAD_REACTORS
330
3179
102
}
330
3179
100
AcDbScale
 70
     0
300
1/32" = 1'-0"
140
0.03125
141
12.0
290
     0
  0
SCALE
  5
318E
102
{ACAD_REACTORS
330
3179
102
}
330
3179
100
AcDbScale
 70
     0
300
1/16" = 1'-0"
140
0.0625
141
12.0
290
     0
  0
SCALE
  5
318F
102
{ACAD_REACTORS
330
3179
102
}
330
3179
100
AcDbScale
 70
     0
300
3/32" = 1'-0"
140
0.09375
141
12.0
290
     0
  0
SCALE
  5
3190
102
{ACAD_REACTORS
330
3179
102
}
330
3179
100
AcDbScale
 70
     0
300
1/8" = 1'-0"
140
0.125
141
12.0
290
     0
  0
SCALE
  5
3191
102
{ACAD_REACTORS
330
3179
102
}
330
3179
100
AcDbScale
 70
     0
300
3/16" = 1'-0"
140
0.1875
141
12.0
290
     0
  0
SCALE
  5
3192
102
{ACAD_REACTORS
330
3179
102
}
330
3179
100
AcDbScale
 70
     0
300
1/4" = 1'-0"
140
0.25
141
12.0
290
     0
  0
SCALE
  5
3193
102
{ACAD_REACTORS
330
3179
102
}
330
3179
100
AcDbScale
 70
     0
300
3/8" = 1'-0"
140
0.375
141
12.0
290
     0
  0
SCALE
  5
3194
102
{ACAD_REACTORS
330
3179
102
}
330
3179
100
AcDbScale
 70
     0
300
1/2" = 1'-0"
140
0.5
141
12.0
290
     0
  0
SCALE
  5
3195
102
{ACAD_REACTORS
330
3179
102
}
330
3179
100
AcDbScale
 70
     0
300
3/4" = 1'-0"
140
0.75
141
12.0
290
     0
  0
SCALE
  5
3196
102
{ACAD_REACTORS
330
3179
102
}
330
3179
100
AcDbScale
 70
     0
300
1" = 1'-0"
140
1.0
141
12.0
290
     0
  0
SCALE
  5
3197
102
{ACAD_REACTORS
330
3179
102
}
330
3179
100
AcDbScale
 70
     0
300
1-1/2" = 1'-0"
140
1.5
141
12.0
290
     0
  0
SCALE
  5
3198
102
{ACAD_REACTORS
330
3179
102
}
330
3179
100
AcDbScale
 70
     0
300
3" = 1'-0"
140
3.0
141
12.0
290
     0
  0
SCALE
  5
3199
102
{ACAD_REACTORS
330
3179
102
}
330
3179
100
AcDbScale
 70
     0
300
6" = 1'-0"
140
6.0
141
12.0
290
     0
  0
SCALE
  5
319A
102
{ACAD_REACTORS
330
3179
102
}
330
3179
100
AcDbScale
 70
     0
300
1'-0" = 1'-0"
140
12.0
141
12.0
290
     0
  0
DICTIONARYVAR
  5
7A13
102
{ACAD_REACTORS
330
630B
102
}
330
630B
100
DictionaryVariables
280
     0
  1
1:1
  0
DICTIONARYVAR
  5
6318
102
{ACAD_REACTORS
330
630B
102
}
330
630B
100
DictionaryVariables
280
     0
  1
1
  0
DICTIONARYVAR
  5
6317
102
{ACAD_REACTORS
330
630B
102
}
330
630B
100
DictionaryVariables
280
     0
  1
0
  0
DICTIONARYVAR
  5
6316
102
{ACAD_REACTORS
330
630B
102
}
330
630B
100
DictionaryVariables
280
     0
  1
127
  0
XRECORD
  5
5E46
102
{ACAD_REACTORS
330
5E44
102
}
330
5E44
100
AcDbXrecord
280
     1
  0
ENDSEC
  0
EOF
