  0
SECTION
  2
HEADER
  9
$ACADVER
  1
AC1015
  9
$ACADMAINTVER
 70
    20
  9
$DWGCODEPAGE
  3
ANSI_1252
  9
$INSBASE
 10
0.0
 20
0.0
 30
0.0
  9
$EXTMIN
 10
-11.07825961509479
 20
-325.1492539003393
 30
-0.0000000000001846
  9
$EXTMAX
 10
171.9042259846592
 20
129.0451764598047
 30
0.0000000000041672
  9
$LIMMIN
 10
-66.34999999999982
 20
-2008.85
  9
$LIMMAX
 10
3734.350000000001
 20
346.85
  9
$ORTHOMODE
 70
     1
  9
$REGENMODE
 70
     1
  9
$FILLMODE
 70
     1
  9
$QTEXTMODE
 70
     0
  9
$MIRRTEXT
 70
     1
  9
$LTSCALE
 40
10.0
  9
$ATTMODE
 70
     1
  9
$TEXTSIZE
 40
0.0
  9
$TRACEWID
 40
0.05
  9
$TEXTSTYLE
  7
Standard
  9
$CLAYER
  8
0
  9
$CELTYPE
  6
Continuous
  9
$CECOLOR
 62
   256
  9
$CELTSCALE
 40
1.0
  9
$DISPSILH
 70
     0
  9
$DIMSCALE
 40
1.0
  9
$DIMASZ
 40
1.25
  9
$DIMEXO
 40
0.0
  9
$DIMDLI
 40
0.38
  9
$DIMRND
 40
0.0
  9
$DIMDLE
 40
0.0
  9
$DIMEXE
 40
0.75
  9
$DIMTP
 40
0.0
  9
$DIMTM
 40
0.0
  9
$DIMTXT
 40
2.5
  9
$DIMCEN
 40
0.09
  9
$DIMTSZ
 40
0.0
  9
$DIMTOL
 70
     0
  9
$DIMLIM
 70
     0
  9
$DIMTIH
 70
     0
  9
$DIMTOH
 70
     0
  9
$DIMSE1
 70
     0
  9
$DIMSE2
 70
     0
  9
$DIMTAD
 70
     1
  9
$DIMZIN
 70
     0
  9
$DIMBLK
  1

  9
$DIMASO
 70
     1
  9
$DIMSHO
 70
     1
  9
$DIMPOST
  1

  9
$DIMAPOST
  1

  9
$DIMALT
 70
     0
  9
$DIMALTD
 70
     2
  9
$DIMALTF
 40
25.4
  9
$DIMLFAC
 40
1.0
  9
$DIMTOFL
 70
     0
  9
$DIMTVP
 40
0.0
  9
$DIMTIX
 70
     0
  9
$DIMSOXD
 70
     0
  9
$DIMSAH
 70
     0
  9
$DIMBLK1
  1

  9
$DIMBLK2
  1

  9
$DIMSTYLE
  2
Standard
  9
$DIMCLRD
 70
     7
  9
$DIMCLRE
 70
     7
  9
$DIMCLRT
 70
     7
  9
$DIMTFAC
 40
0.8
  9
$DIMGAP
 40
1.25
  9
$DIMJUST
 70
     0
  9
$DIMSD1
 70
     0
  9
$DIMSD2
 70
     0
  9
$DIMTOLJ
 70
     1
  9
$DIMTZIN
 70
     0
  9
$DIMALTZ
 70
     0
  9
$DIMALTTZ
 70
     0
  9
$DIMUPT
 70
     0
  9
$DIMDEC
 70
     2
  9
$DIMTDEC
 70
     4
  9
$DIMALTU
 70
     2
  9
$DIMALTTD
 70
     2
  9
$DIMTXSTY
  7
Standard
  9
$DIMAUNIT
 70
     0
  9
$DIMADEC
 70
     0
  9
$DIMALTRND
 40
0.0
  9
$DIMAZIN
 70
     0
  9
$DIMDSEP
 70
     0
  9
$DIMATFIT
 70
     3
  9
$DIMFRAC
 70
     0
  9
$DIMLDRBLK
  1

  9
$DIMLUNIT
 70
     2
  9
$DIMLWD
 70
     0
  9
$DIMLWE
 70
     0
  9
$DIMTMOVE
 70
     0
  9
$LUNITS
 70
     2
  9
$LUPREC
 70
     4
  9
$SKETCHINC
 40
0.1
  9
$FILLETRAD
 40
0.0
  9
$AUNITS
 70
     0
  9
$AUPREC
 70
     0
  9
$MENU
  1
acad
  9
$ELEVATION
 40
0.0
  9
$PELEVATION
 40
0.0
  9
$THICKNESS
 40
0.0
  9
$LIMCHECK
 70
     0
  9
$CHAMFERA
 40
0.0
  9
$CHAMFERB
 40
0.0
  9
$CHAMFERC
 40
0.0
  9
$CHAMFERD
 40
0.0
  9
$SKPOLY
 70
     0
  9
$TDCREATE
 40
2455303.727916667
  9
$TDUCREATE
 40
2455303.644583334
  9
$TDUPDATE
 40
2455306.469387928
  9
$TDUUPDATE
 40
2455306.386054595
  9
$TDINDWG
 40
0.0040364005
  9
$TDUSRTIMER
 40
0.0040362153
  9
$USRTIMER
 70
     1
  9
$ANGBASE
 50
0.0
  9
$ANGDIR
 70
     0
  9
$PDMODE
 70
     0
  9
$PDSIZE
 40
0.0
  9
$PLINEWID
 40
0.0
  9
$SPLFRAME
 70
     0
  9
$SPLINETYPE
 70
     6
  9
$SPLINESEGS
 70
     8
  9
$HANDSEED
  5
66CD
  9
$SURFTAB1
 70
     6
  9
$SURFTAB2
 70
     6
  9
$SURFTYPE
 70
     6
  9
$SURFU
 70
     6
  9
$SURFV
 70
     6
  9
$UCSBASE
  2

  9
$UCSNAME
  2

  9
$UCSORG
 10
0.0
 20
0.0
 30
0.0
  9
$UCSXDIR
 10
1.0
 20
0.0
 30
0.0
  9
$UCSYDIR
 10
0.0
 20
1.0
 30
0.0
  9
$UCSORTHOREF
  2

  9
$UCSORTHOVIEW
 70
     0
  9
$UCSORGTOP
 10
0.0
 20
0.0
 30
0.0
  9
$UCSORGBOTTOM
 10
0.0
 20
0.0
 30
0.0
  9
$UCSORGLEFT
 10
0.0
 20
0.0
 30
0.0
  9
$UCSORGRIGHT
 10
0.0
 20
0.0
 30
0.0
  9
$UCSORGFRONT
 10
0.0
 20
0.0
 30
0.0
  9
$UCSORGBACK
 10
0.0
 20
0.0
 30
0.0
  9
$PUCSBASE
  2

  9
$PUCSNAME
  2

  9
$PUCSORG
 10
0.0
 20
0.0
 30
0.0
  9
$PUCSXDIR
 10
1.0
 20
0.0
 30
0.0
  9
$PUCSYDIR
 10
0.0
 20
1.0
 30
0.0
  9
$PUCSORTHOREF
  2

  9
$PUCSORTHOVIEW
 70
     0
  9
$PUCSORGTOP
 10
0.0
 20
0.0
 30
0.0
  9
$PUCSORGBOTTOM
 10
0.0
 20
0.0
 30
0.0
  9
$PUCSORGLEFT
 10
0.0
 20
0.0
 30
0.0
  9
$PUCSORGRIGHT
 10
0.0
 20
0.0
 30
0.0
  9
$PUCSORGFRONT
 10
0.0
 20
0.0
 30
0.0
  9
$PUCSORGBACK
 10
0.0
 20
0.0
 30
0.0
  9
$USERI1
 70
     0
  9
$USERI2
 70
     0
  9
$USERI3
 70
     0
  9
$USERI4
 70
     0
  9
$USERI5
 70
     0
  9
$USERR1
 40
0.0
  9
$USERR2
 40
0.0
  9
$USERR3
 40
0.0
  9
$USERR4
 40
0.0
  9
$USERR5
 40
0.0
  9
$WORLDVIEW
 70
     1
  9
$SHADEDGE
 70
     3
  9
$SHADEDIF
 70
    70
  9
$TILEMODE
 70
     1
  9
$MAXACTVP
 70
    16
  9
$PINSBASE
 10
0.0
 20
0.0
 30
0.0
  9
$PLIMCHECK
 70
     0
  9
$PEXTMIN
 10
1.000000000000000E+20
 20
1.000000000000000E+20
 30
1.000000000000000E+20
  9
$PEXTMAX
 10
-1.000000000000000E+20
 20
-1.000000000000000E+20
 30
-1.000000000000000E+20
  9
$PLIMMIN
 10
0.0
 20
0.0
  9
$PLIMMAX
 10
12.0
 20
9.0
  9
$UNITMODE
 70
     0
  9
$VISRETAIN
 70
     0
  9
$PLINEGEN
 70
     1
  9
$PSLTSCALE
 70
     0
  9
$TREEDEPTH
 70
  3020
  9
$CMLSTYLE
  2
Standard
  9
$CMLJUST
 70
     0
  9
$CMLSCALE
 40
1.0
  9
$PROXYGRAPHICS
 70
     0
  9
$MEASUREMENT
 70
     1
  9
$CELWEIGHT
370
     0
  9
$ENDCAPS
280
     0
  9
$JOINSTYLE
280
     0
  9
$LWDISPLAY
290
     0
  9
$INSUNITS
 70
     0
  9
$HYPERLINKBASE
  1

  9
$STYLESHEET
  1

  9
$XEDIT
290
     1
  9
$CEPSNTYPE
380
     0
  9
$PSTYLEMODE
290
     1
  9
$FINGERPRINTGUID
  2

  9
$VERSIONGUID
  2
{BA364E88-DAF5-4F87-85EC-B7BAF02FCF8A}
  9
$EXTNAMES
290
     1
  9
$PSVPSCALE
 40
0.0
  9
$OLESTARTUP
290
     0
  0
ENDSEC
  0
SECTION
  2
CLASSES
  0
CLASS
  1
IMAGE
  2
AcDbRasterImage
  3
ISM
 90
    34943
280
     0
281
     1
  0
CLASS
  1
DICTIONARYVAR
  2
AcDbDictionaryVar
  3
ObjectDBX Classes
 90
        0
280
     0
281
     0
  0
CLASS
  1
RASTERVARIABLES
  2
AcDbRasterVariables
  3
ISM
 90
    32768
280
     0
281
     0
  0
CLASS
  1
IMAGEDEF
  2
AcDbRasterImageDef
  3
ISM
 90
    32768
280
     0
281
     0
  0
CLASS
  1
IMAGEDEF_REACTOR
  2
AcDbRasterImageDefReactor
  3
ISM
 90
    32769
280
     0
281
     0
  0
CLASS
  1
IDBUFFER
  2
AcDbIdBuffer
  3
ObjectDBX Classes
 90
    32768
280
     0
281
     0
  0
CLASS
  1
SPATIAL_FILTER
  2
AcDbSpatialFilter
  3
ObjectDBX Classes
 90
    32768
280
     0
281
     0
  0
CLASS
  1
SORTENTSTABLE
  2
AcDbSortentsTable
  3
ObjectDBX Classes
 90
        0
280
     0
281
     0
  0
CLASS
  1
LAYER_INDEX
  2
AcDbLayerIndex
  3
ObjectDBX Classes
 90
    32768
280
     0
281
     0
  0
CLASS
  1
SPATIAL_INDEX
  2
AcDbSpatialIndex
  3
ObjectDBX Classes
 90
    32768
280
     0
281
     0
  0
CLASS
  1
OBJECT_PTR
  2
CAseDLPNTableRecord
  3
ASE-LPNTableRecord
 90
    32769
280
     0
281
     0
  0
CLASS
  1
LAYOUT
  2
AcDbLayout
  3
ObjectDBX Classes
 90
        0
280
     0
281
     0
  0
CLASS
  1
PLOTSETTINGS
  2
AcDbPlotSettings
  3
ObjectDBX Classes
 90
    32768
280
     0
281
     0
  0
CLASS
  1
ACDBDICTIONARYWDFLT
  2
AcDbDictionaryWithDefault
  3
ObjectDBX Classes
 90
        0
280
     0
281
     0
  0
CLASS
  1
ACDBPLACEHOLDER
  2
AcDbPlaceHolder
  3
ObjectDBX Classes
 90
        0
280
     0
281
     0
  0
CLASS
  1
VBA_PROJECT
  2
AcDbVbaProject
  3
acad
 90
    32768
280
     0
281
     0
  0
CLASS
  1
WIPEOUT
  2
AcDbWipeout
  3
"WipeOut|Product Desc: Object Enabler for WipeOut entity                        |Company: Autodesk, Inc.                        |WEB Address: www.autodesk.com"
 90
    34943
280
     0
281
     1
  0
CLASS
  1
WIPEOUTVARIABLES
  2
AcDbWipeoutVariables
  3
"WipeOut|Product Desc:     WipeOut Dbx Application|Company:          Autodesk, Inc.|WEB Address:      www.autodesk.com"
 90
        0
280
     0
281
     0
  0
CLASS
  1
RTEXT
  2
RText
  3
RText|AutoCAD Express Tool|expresstools@autodesk.com
 90
    35839
280
     0
281
     1
  0
CLASS
  1
ARCALIGNEDTEXT
  2
AcDbArcAlignedText
  3
ATEXT|AutoCAD Express Tool|expresstools@autodesk.com
 90
    32768
280
     0
281
     1
  0
CLASS
  1
MATERIAL
  2
AcDbMaterial
  3
ObjectDBX Classes
 90
     1153
280
     0
281
     0
  0
CLASS
  1
VISUALSTYLE
  2
AcDbVisualStyle
  3
ObjectDBX Classes
 90
     4095
280
     0
281
     0
  0
CLASS
  1
TABLESTYLE
  2
AcDbTableStyle
  3
ObjectDBX Classes
 90
     4095
280
     0
281
     0
  0
CLASS
  1
SCALE
  2
AcDbScale
  3
ObjectDBX Classes
 90
     1153
280
     0
281
     0
  0
CLASS
  1
MLEADERSTYLE
  2
AcDbMLeaderStyle
  3
ACDB_MLEADERSTYLE_CLASS
 90
     4095
280
     0
281
     0
  0
CLASS
  1
CELLSTYLEMAP
  2
AcDbCellStyleMap
  3
ObjectDBX Classes
 90
     1152
280
     0
281
     0
  0
ENDSEC
  0
SECTION
  2
TABLES
  0
TABLE
  2
VPORT
  5
7
330
0
100
AcDbSymbolTable
 70
     1
  0
VPORT
  5
15
330
7
100
AcDbSymbolTableRecord
100
AcDbViewportTableRecord
  2
*ACTIVE
 70
     0
 10
0.0
 20
0.0
 11
1.0
 21
1.0
 12
76.94107079870178
 22
-102.7992439923255
 13
0.0
 23
0.0
 14
1.0
 24
1.0
 15
0.0
 25
0.0
 16
0.0
 26
0.0
 36
1.0
 17
0.0
 27
0.0
 37
0.0
 40
513.8811835337946
 41
1.611330698287219
 42
50.0
 43
0.0
 44
0.0
 50
0.0
 51
0.0
 71
     0
 72
   100
 73
     1
 74
     1
 75
     0
 76
     0
 77
     0
 78
     0
281
     0
 65
     0
110
0.0
120
0.0
130
0.0
111
1.0
121
0.0
131
0.0
112
0.0
122
1.0
132
0.0
 79
     0
146
0.0
  0
ENDTAB
  0
TABLE
  2
LTYPE
  5
4
330
0
100
AcDbSymbolTable
 70
     5
  0
LTYPE
  5
11
330
4
100
AcDbSymbolTableRecord
100
AcDbLinetypeTableRecord
  2
ByBlock
 70
     0
  3

 72
    65
 73
     0
 40
0.0
  0
LTYPE
  5
12
330
4
100
AcDbSymbolTableRecord
100
AcDbLinetypeTableRecord
  2
ByLayer
 70
     0
  3

 72
    65
 73
     0
 40
0.0
  0
LTYPE
  5
13
330
4
100
AcDbSymbolTableRecord
100
AcDbLinetypeTableRecord
  2
Continuous
 70
     0
  3
Solid line
 72
    65
 73
     0
 40
0.0
  0
LTYPE
  5
633D
330
4
100
AcDbSymbolTableRecord
100
AcDbLinetypeTableRecord
  2
CENTER
 70
     0
  3
____ _ ____ _ ____ _ ____ _ ____ _ ____ _ ____
 72
    65
 73
     4
 40
2.0
 49
1.25
 74
     0
 49
-0.25
 74
     0
 49
0.25
 74
     0
 49
-0.25
 74
     0
  0
ENDTAB
  0
TABLE
  2
LAYER
  5
2
330
0
100
AcDbSymbolTable
 70
     1
  0
LAYER
  5
14
102
{ACAD_XDICTIONARY
360
5E41
102
}
330
2
100
AcDbSymbolTableRecord
100
AcDbLayerTableRecord
  2
0
 70
     0
 62
     7
  6
Continuous
370
    -3
390
1D
  0
ENDTAB
  0
TABLE
  2
STYLE
  5
3
330
0
100
AcDbSymbolTable
 70
     1
  0
STYLE
  5
17
330
3
100
AcDbSymbolTableRecord
100
AcDbTextStyleTableRecord
  2
Standard
 70
     0
 40
0.0
 41
1.0
 50
0.0
 71
     0
 42
0.0
  3
I011000D.TTF
  4

1001
ACAD
1000
IsonormD
1071
        0
  0
ENDTAB
  0
TABLE
  2
VIEW
  5
5
330
0
100
AcDbSymbolTable
 70
     0
  0
ENDTAB
  0
TABLE
  2
UCS
  5
6
330
0
100
AcDbSymbolTable
 70
     0
  0
ENDTAB
  0
TABLE
  2
APPID
  5
8
330
0
100
AcDbSymbolTable
 70
     5
  0
APPID
  5
16
330
8
100
AcDbSymbolTableRecord
100
AcDbRegAppTableRecord
  2
ACAD
 70
     0
  0
APPID
  5
26
330
8
100
AcDbSymbolTableRecord
100
AcDbRegAppTableRecord
  2
TopSolid'Draft
 70
     0
  0
APPID
  5
319D
330
8
100
AcDbSymbolTableRecord
100
AcDbRegAppTableRecord
  2
ACAD_MLEADERVER
 70
     0
  0
APPID
  5
5E45
330
8
100
AcDbSymbolTableRecord
100
AcDbRegAppTableRecord
  2
DCO15
 70
     0
  0
APPID
  5
632F
330
8
100
AcDbSymbolTableRecord
100
AcDbRegAppTableRecord
  2
ACAD_EXEMPT_FROM_CAD_STANDARDS
 70
     0
  0
ENDTAB
  0
TABLE
  2
DIMSTYLE
  5
9
330
0
100
AcDbSymbolTable
 70
     2
100
AcDbDimStyleTable
 71
     1
340
18
  0
DIMSTYLE
105
18
330
9
100
AcDbSymbolTableRecord
100
AcDbDimStyleTableRecord
  2
Standard
 70
     0
 41
1.25
 42
0.0
 44
0.75
 73
     0
 74
     0
 77
     1
140
2.5
146
0.8
147
1.25
176
     7
177
     7
178
     7
271
     2
340
17
  0
ENDTAB
  0
TABLE
  2
BLOCK_RECORD
  5
1
330
0
100
AcDbSymbolTable
 70
     2
  0
BLOCK_RECORD
  5
A
102
{ACAD_XDICTIONARY
360
31A7
102
}
330
1
100
AcDbSymbolTableRecord
100
AcDbBlockTableRecord
  2
*MODEL_SPACE
340
20
  0
BLOCK_RECORD
  5
B
330
1
100
AcDbSymbolTableRecord
100
AcDbBlockTableRecord
  2
*PAPER_SPACE
340
21
  0
ENDTAB
  0
ENDSEC
  0
SECTION
  2
BLOCKS
  0
BLOCK
  5
D
330
A
100
AcDbEntity
  8
0
100
AcDbBlockBegin
  2
*MODEL_SPACE
 70
     0
 10
0.0
 20
0.0
 30
0.0
  3
*MODEL_SPACE
  1

  0
ENDBLK
  5
E
330
A
100
AcDbEntity
  8
0
100
AcDbBlockEnd
  0
BLOCK
  5
F
330
B
100
AcDbEntity
 67
     1
  8
0
100
AcDbBlockBegin
  2
*PAPER_SPACE
 70
     0
 10
0.0
 20
0.0
 30
0.0
  3
*PAPER_SPACE
  1

  0
ENDBLK
  5
10
330
B
100
AcDbEntity
 67
     1
  8
0
100
AcDbBlockEnd
  0
ENDSEC
  0
SECTION
  2
ENTITIES
  0
LINE
  5
3F84
330
A
100
AcDbEntity
  8
0
  6
Continuous
 62
     7
370
     0
100
AcDbLine
 10
110.9999999910568
 20
123.8500050209363
 30
0.0
 11
110.9999999910568
 21
119.8999655628873
 31
0.0
  0
LINE
  5
3F85
330
A
100
AcDbEntity
  8
0
  6
Continuous
 62
     7
370
     0
100
AcDbLine
 10
110.9999999910568
 20
119.8999655628873
 30
0.0
 11
110.9999999910568
 21
116.1499950009363
 31
0.0
  0
ELLIPSE
  5
3F86
330
A
100
AcDbEntity
  8
0
  6
Continuous
 62
     7
370
     0
100
AcDbEllipse
 10
97.49999999105682
 20
115.3744255263618
 30
0.0
 11
-2.0
 21
0.0
 31
0.0
210
0.0
220
0.0
230
1.0
 40
0.7071067810711022
 41
0.0000000000000278
 42
1.23266968744136
  0
ELLIPSE
  5
3F87
330
A
100
AcDbEntity
  8
0
  6
Continuous
 62
     7
370
     0
100
AcDbEllipse
 10
97.49999999105682
 20
115.1092604833736
 30
0.0
 11
-1.300000000000077
 21
0.0
 31
0.0
210
0.0
220
0.0
230
1.0
 40
0.7071067810711119
 41
0.0
 42
6.283185307179585
  0
ELLIPSE
  5
3F88
330
A
100
AcDbEntity
  8
0
  6
Continuous
 62
     7
370
     0
100
AcDbEllipse
 10
97.49999999105682
 20
115.3744255263618
 30
0.0
 11
-2.0
 21
0.0
 31
0.0
210
0.0
220
0.0
230
1.0
 40
0.7071067810711116
 41
1.232669687441332
 42
3.141592653589792
  0
ELLIPSE
  5
3F89
330
A
100
AcDbEntity
  8
0
  6
Continuous
 62
     7
370
     0
100
AcDbEllipse
 10
97.49999999105682
 20
115.3744255263618
 30
0.0
 11
-2.0
 21
0.0
 31
0.0
210
0.0
220
0.0
230
1.0
 40
0.7071067810711116
 41
3.141592653589792
 42
6.283185307179585
  0
LINE
  5
3F8A
330
A
100
AcDbEntity
  8
0
  6
Continuous
 62
     7
370
     0
100
AcDbLine
 10
96.62362020322053
 20
114.5776159589869
 30
0.0
 11
96.41068119238639
 21
115.3801090463646
 31
0.0
  0
LINE
  5
3F8B
330
A
100
AcDbEntity
  8
0
  6
Continuous
 62
     7
370
     0
100
AcDbLine
 10
97.71293900189096
 20
114.3067673959959
 30
0.0
 11
96.62362020322053
 21
114.5776159589869
 31
0.0
  0
LINE
  5
3F8C
330
A
100
AcDbEntity
  8
0
  6
Continuous
 62
     7
370
     0
100
AcDbLine
 10
98.58931878972738
 20
114.8384119203825
 30
0.0
 11
97.71293900189096
 21
114.3067673959959
 31
0.0
  0
LINE
  5
3F8D
330
A
100
AcDbEntity
  8
0
  6
Continuous
 62
     7
370
     0
100
AcDbLine
 10
98.37637977889347
 20
115.6409050077602
 30
0.0
 11
98.58931878972738
 21
114.8384119203825
 31
0.0
  0
LINE
  5
3F8E
330
A
100
AcDbEntity
  8
0
  6
Continuous
 62
     7
370
     0
100
AcDbLine
 10
97.28706098022293
 20
115.9117535707512
 30
0.0
 11
98.37637977889347
 21
115.6409050077602
 31
0.0
  0
LINE
  5
3F8F
330
A
100
AcDbEntity
  8
0
  6
Continuous
 62
     7
370
     0
100
AcDbLine
 10
96.41068119238639
 20
115.3801090463646
 30
0.0
 11
97.28706098022293
 21
115.9117535707512
 31
0.0
  0
LINE
  5
3F90
330
A
100
AcDbEntity
  8
0
  6
Continuous
 62
     7
370
     0
100
AcDbLine
 10
96.62362020322053
 20
114.5776159589869
 30
0.0
 11
96.62362020322053
 21
115.5092857580021
 31
0.0
  0
LINE
  5
3F91
330
A
100
AcDbEntity
  8
0
  6
Continuous
 62
     7
370
     0
100
AcDbLine
 10
97.71293900189096
 20
114.3067673959959
 30
0.0
 11
97.71293900189096
 21
115.8058631277339
 31
0.0
  0
ELLIPSE
  5
3F92
330
A
100
AcDbEntity
  8
0
  6
Continuous
 62
     7
370
     0
100
AcDbEllipse
 10
97.49999999105682
 20
115.3566016462506
 30
0.0
 11
-2.0
 21
0.0
 31
0.0
210
0.0
220
0.0
230
1.0
 40
0.7071067811865487
 41
1.28437907114027
 42
1.857213582449466
  0
LINE
  5
3F93
330
A
100
AcDbEntity
  8
0
  6
Continuous
 62
     9
370
     0
100
AcDbLine
 10
110.9999999910568
 20
120.1000198629593
 30
0.0
 11
110.9999999910568
 21
119.8999690177716
 31
0.0
  0
ELLIPSE
  5
3F94
330
A
100
AcDbEntity
  8
0
  6
Continuous
 62
     7
370
     0
100
AcDbEllipse
 10
97.49999999105682
 20
124.4649818820589
 30
0.0
 11
2.0
 21
0.0
 31
0.0
210
0.0
220
0.0
230
1.0
 40
0.7071067813019858
 41
0.0
 42
2.358862611557625
  0
ELLIPSE
  5
3F95
330
A
100
AcDbEntity
  8
0
  6
Continuous
 62
     7
370
     0
100
AcDbEllipse
 10
97.49999999105682
 20
124.7301469249604
 30
0.0
 11
1.299999999999966
 21
0.0
 31
0.0
210
0.0
220
0.0
230
1.0
 40
0.7071067813019854
 41
0.0
 42
6.283185307179585
  0
ELLIPSE
  5
3F96
330
A
100
AcDbEntity
  8
0
  6
Continuous
 62
     7
370
     0
100
AcDbEllipse
 10
97.49999999105682
 20
124.4649818820589
 30
0.0
 11
2.0
 21
0.0
 31
0.0
210
0.0
220
0.0
230
1.0
 40
0.7071067813019854
 41
2.358862611557625
 42
3.141592653589792
  0
ELLIPSE
  5
3F97
330
A
100
AcDbEntity
  8
0
  6
Continuous
 62
     7
370
     0
100
AcDbEllipse
 10
97.49999999105682
 20
124.4649818820589
 30
0.0
 11
2.0
 21
0.0
 31
0.0
210
0.0
220
0.0
230
1.0
 40
0.7071067813019854
 41
3.141592653589792
 42
6.283185307179585
  0
LINE
  5
3F98
330
A
100
AcDbEntity
  8
0
  6
Continuous
 62
     7
370
     0
100
AcDbLine
 10
97.19816666493535
 20
125.5182554127276
 30
0.0
 11
98.31431515633187
 21
125.3090355779654
 31
0.0
  0
LINE
  5
3F99
330
A
100
AcDbEntity
  8
0
  6
Continuous
 62
     7
370
     0
100
AcDbLine
 10
96.38385149966087
 20
124.9393667597229
 30
0.0
 11
97.19816666493535
 21
125.5182554127276
 31
0.0
  0
LINE
  5
3F9A
330
A
100
AcDbEntity
  8
0
  6
Continuous
 62
     7
370
     0
100
AcDbLine
 10
96.68568482578201
 20
124.1512582719557
 30
0.0
 11
96.38385149966087
 21
124.9393667597229
 31
0.0
  0
LINE
  5
3F9B
330
A
100
AcDbEntity
  8
0
  6
Continuous
 62
     7
370
     0
100
AcDbLine
 10
97.8018333171782
 20
123.9420384371932
 30
0.0
 11
96.68568482578201
 21
124.1512582719557
 31
0.0
  0
LINE
  5
3F9C
330
A
100
AcDbEntity
  8
0
  6
Continuous
 62
     7
370
     0
100
AcDbLine
 10
98.6161484824529
 20
124.5209270901981
 30
0.0
 11
97.8018333171782
 21
123.9420384371932
 31
0.0
  0
LINE
  5
3F9D
330
A
100
AcDbEntity
  8
0
  6
Continuous
 62
     7
370
     0
100
AcDbLine
 10
98.31431515633187
 20
125.3090355779654
 30
0.0
 11
98.6161484824529
 21
124.5209270901981
 31
0.0
  0
LINE
  5
3F9E
330
A
100
AcDbEntity
  8
0
  6
Continuous
 62
     7
370
     0
100
AcDbLine
 10
98.31431515633187
 20
125.3090355779654
 30
0.0
 11
98.31431515633187
 21
124.3063567431859
 31
0.0
  0
LINE
  5
3F9F
330
A
100
AcDbEntity
  8
0
  6
Continuous
 62
     7
370
     0
100
AcDbLine
 10
97.19816666493535
 20
125.5182554127276
 30
0.0
 11
97.19816666493535
 21
124.0551945613177
 31
0.0
  0
LINE
  5
3FA0
330
A
100
AcDbEntity
  8
0
  6
Continuous
 62
     7
370
     0
100
AcDbLine
 10
158.9999999895242
 20
113.9999999974631
 30
0.0
 11
158.9999999895722
 21
114.1870833457296
 31
0.0
  0
LINE
  5
3FA1
330
A
100
AcDbEntity
  8
0
  6
Continuous
 62
     7
370
     0
100
AcDbLine
 10
158.9999999925409
 20
125.8129166491965
 30
0.0
 11
158.9999999925885
 21
125.999999997463
 31
0.0
  0
LINE
  5
3FA2
330
A
100
AcDbEntity
  8
0
  6
Continuous
 62
     7
370
     0
100
AcDbLine
 10
119.499999993355
 20
129.0000000077404
 30
0.0
 11
119.4999999887602
 21
111.0000000077406
 31
0.0
  0
LINE
  5
3FA3
330
A
100
AcDbEntity
  8
0
  6
Continuous
 62
     7
370
     0
100
AcDbLine
 10
121.4999999928443
 20
127.0000000072299
 30
0.0
 11
121.4999999892708
 21
113.0000000072301
 31
0.0
  0
LINE
  5
3FA4
330
A
100
AcDbEntity
  8
0
  6
Continuous
 62
     7
370
     0
100
AcDbLine
 10
117.499999993355
 20
129.000000008251
 30
0.0
 11
117.4999999887601
 21
111.000000008251
 31
0.0
  0
LINE
  5
3FA5
330
A
100
AcDbEntity
  8
0
  6
Continuous
 62
     7
370
     0
100
AcDbLine
 10
115.999999989414
 20
111.5000000085411
 30
0.0
 11
115.9999999927004
 21
128.500000008541
 31
0.0
  0
LINE
  5
3FA6
330
A
100
AcDbEntity
  8
0
  6
Continuous
 62
     7
370
     0
100
AcDbLine
 10
117.4999999894139
 20
111.500000008251
 30
0.0
 11
117.4999999927004
 21
128.500000008251
 31
0.0
  0
LINE
  5
3FA7
330
A
100
AcDbEntity
  8
0
  6
Continuous
 62
     7
370
     0
100
AcDbLine
 10
108.4999999905133
 20
111.5000000090851
 30
0.0
 11
108.4999999916015
 21
128.5000000090851
 31
0.0
  0
LINE
  5
3FA8
330
A
100
AcDbEntity
  8
0
  6
Continuous
 62
     7
370
     0
100
AcDbLine
 10
109.9999999905133
 20
111.500000008989
 30
0.0
 11
109.9999999916015
 21
128.500000008989
 31
0.0
  0
LINE
  5
3FA9
330
A
100
AcDbEntity
  8
0
  6
Continuous
 62
     7
370
     0
100
AcDbLine
 10
106.4999999910568
 20
111.0000000090851
 30
0.0
 11
106.4999999910568
 21
129.0000000090851
 31
0.0
  0
LINE
  5
3FAA
330
A
100
AcDbEntity
  8
0
  6
Continuous
 62
     7
370
     0
100
AcDbLine
 10
104.4999999910568
 20
113.0000000090851
 30
0.0
 11
104.4999999910568
 21
127.0000000090851
 31
0.0
  0
LINE
  5
3FAB
330
A
100
AcDbEntity
  8
0
  6
Continuous
 62
     7
370
     0
100
AcDbLine
 10
108.4999999910568
 20
111.0000000090851
 30
0.0
 11
108.4999999910568
 21
129.0000000090851
 31
0.0
  0
LINE
  5
3FAC
330
A
100
AcDbEntity
  8
0
  6
Continuous
 62
     7
370
     0
100
AcDbLine
 10
65.99999999105683
 20
126.0000000090851
 30
0.0
 11
65.99999999105683
 21
125.8129166605758
 31
0.0
  0
LINE
  5
3FAD
330
A
100
AcDbEntity
  8
0
  6
Continuous
 62
     7
370
     0
100
AcDbLine
 10
65.99999999105683
 20
114.1870833571089
 30
0.0
 11
65.99999999105683
 21
114.0000000090851
 31
0.0
  0
CIRCLE
  5
3FAE
330
A
100
AcDbEntity
  8
0
  6
Continuous
 62
     7
370
     0
100
AcDbCircle
 10
162.8999999910562
 20
120.0000000010756
 30
0.0
 40
6.000000000000004
  0
CIRCLE
  5
3FAF
330
A
100
AcDbEntity
  8
0
  6
Continuous
 62
     7
370
     0
100
AcDbCircle
 10
162.8999999910562
 20
120.0000000010114
 30
0.0
 40
7.000000000000006
  0
CIRCLE
  5
3FB0
330
A
100
AcDbEntity
  8
0
  6
Continuous
 62
     7
370
     0
100
AcDbCircle
 10
62.09999999105685
 20
120.0000000126945
 30
0.0
 40
6.000000000000004
  0
CIRCLE
  5
3FB1
330
A
100
AcDbEntity
  8
0
  6
Continuous
 62
     7
370
     0
100
AcDbCircle
 10
62.09999999105685
 20
120.0000000126305
 30
0.0
 40
7.000000000000006
  0
LINE
  5
3FB2
330
A
100
AcDbEntity
  8
0
  6
Continuous
 62
     7
370
     0
100
AcDbLine
 10
115.9999999899556
 20
111.4999999913926
 30
0.0
 11
115.9999999905582
 21
116.1500000109364
 31
0.0
  0
LINE
  5
3FB3
330
A
100
AcDbEntity
  8
0
  6
Continuous
 62
     7
370
     0
100
AcDbLine
 10
115.9999999915557
 20
123.8500000109364
 30
0.0
 11
115.9999999921581
 21
128.4999999913926
 31
0.0
  0
LINE
  5
3FB4
330
A
100
AcDbEntity
  8
0
  6
Continuous
 62
     9
370
     0
100
AcDbLine
 10
115.9999999915103
 20
123.5000000109364
 30
0.0
 11
110.9999999910568
 21
123.5000000109364
 31
0.0
  0
LINE
  5
3FB5
330
A
100
AcDbEntity
  8
0
  6
Continuous
 62
     9
370
     0
100
AcDbLine
 10
110.9999999910568
 20
116.5000000109364
 30
0.0
 11
115.9999999906035
 21
116.5000000109364
 31
0.0
  0
LINE
  5
3FB6
330
A
100
AcDbEntity
  8
0
  6
Continuous
 62
     7
370
     0
100
AcDbLine
 10
115.9999999915557
 20
123.8500000109364
 30
0.0
 11
110.9999999910568
 21
123.8500000109364
 31
0.0
  0
LINE
  5
3FB7
330
A
100
AcDbEntity
  8
0
  6
Continuous
 62
     7
370
     0
100
AcDbLine
 10
110.9999999910568
 20
123.8500000109364
 30
0.0
 11
110.9949999910568
 21
123.8500000109364
 31
0.0
  0
LINE
  5
3FB8
330
A
100
AcDbEntity
  8
0
  6
Continuous
 62
     7
370
     0
100
AcDbLine
 10
110.9949999910568
 20
116.1500000109364
 30
0.0
 11
110.9999999910568
 21
116.1500000109364
 31
0.0
  0
LINE
  5
3FB9
330
A
100
AcDbEntity
  8
0
  6
Continuous
 62
     7
370
     0
100
AcDbLine
 10
110.9999999910568
 20
116.1500000109364
 30
0.0
 11
115.9999999905582
 21
116.1500000109364
 31
0.0
  0
LINE
  5
3FBA
330
A
100
AcDbEntity
  8
0
  6
Continuous
 62
     7
370
     0
100
AcDbLine
 10
111.0049999910568
 20
123.8500000109364
 30
0.0
 11
110.9999999910568
 21
123.8500000109364
 31
0.0
  0
LINE
  5
3FBB
330
A
100
AcDbEntity
  8
0
  6
Continuous
 62
     7
370
     0
100
AcDbLine
 10
110.9999999910568
 20
123.8500000109364
 30
0.0
 11
109.9999999913038
 21
123.8500000109364
 31
0.0
  0
LINE
  5
3FBC
330
A
100
AcDbEntity
  8
0
  6
Continuous
 62
     7
370
     0
100
AcDbLine
 10
109.9999999908109
 20
116.1500000109364
 30
0.0
 11
110.9999999910568
 21
116.1500000109364
 31
0.0
  0
LINE
  5
3FBD
330
A
100
AcDbEntity
  8
0
  6
Continuous
 62
     7
370
     0
100
AcDbLine
 10
110.9999999910568
 20
116.1500000109364
 30
0.0
 11
111.0049999910568
 21
116.1500000109364
 31
0.0
  0
LINE
  5
3FBE
330
A
100
AcDbEntity
  8
0
  6
Continuous
 62
     7
370
     0
100
AcDbLine
 10
121.4999999908582
 20
114.000000007039
 30
0.0
 11
158.9999999895242
 21
113.9999999974631
 31
0.0
  0
LINE
  5
3FBF
330
A
100
AcDbEntity
  8
0
  6
Continuous
 62
     7
370
     0
100
AcDbLine
 10
158.9999999925885
 20
125.999999997463
 30
0.0
 11
121.499999990855
 21
126.000000007039
 31
0.0
  0
LINE
  5
3FC0
330
A
100
AcDbEntity
  8
0
  6
Continuous
 62
     7
370
     0
100
AcDbLine
 10
119.4999999887602
 20
111.0000000077406
 30
0.0
 11
121.4999999892708
 21
113.0000000072301
 31
0.0
  0
LINE
  5
3FC1
330
A
100
AcDbEntity
  8
0
  6
Continuous
 62
     7
370
     0
100
AcDbLine
 10
121.4999999928443
 20
127.0000000072299
 30
0.0
 11
119.499999993355
 21
129.0000000077404
 31
0.0
  0
LINE
  5
3FC2
330
A
100
AcDbEntity
  8
0
  6
Continuous
 62
     7
370
     0
100
AcDbLine
 10
119.499999993355
 20
129.0000000077404
 30
0.0
 11
117.499999993355
 21
129.000000008251
 31
0.0
  0
LINE
  5
3FC3
330
A
100
AcDbEntity
  8
0
  6
Continuous
 62
     7
370
     0
100
AcDbLine
 10
117.4999999887601
 20
111.000000008251
 30
0.0
 11
119.4999999887602
 21
111.0000000077406
 31
0.0
  0
LINE
  5
3FC4
330
A
100
AcDbEntity
  8
0
  6
Continuous
 62
     7
370
     0
100
AcDbLine
 10
115.999999989414
 20
111.5000000085411
 30
0.0
 11
117.4999999894139
 21
111.500000008251
 31
0.0
  0
LINE
  5
3FC5
330
A
100
AcDbEntity
  8
0
  6
Continuous
 62
     7
370
     0
100
AcDbLine
 10
117.4999999927004
 20
128.500000008251
 30
0.0
 11
115.9999999927004
 21
128.500000008541
 31
0.0
  0
LINE
  5
3FC6
330
A
100
AcDbEntity
  8
0
  6
Continuous
 62
     7
370
     0
100
AcDbLine
 10
108.4999999905133
 20
111.5000000090851
 30
0.0
 11
109.9999999905133
 21
111.500000008989
 31
0.0
  0
LINE
  5
3FC7
330
A
100
AcDbEntity
  8
0
  6
Continuous
 62
     7
370
     0
100
AcDbLine
 10
109.9999999916015
 20
128.500000008989
 30
0.0
 11
108.4999999916015
 21
128.5000000090851
 31
0.0
  0
LINE
  5
3FC8
330
A
100
AcDbEntity
  8
0
  6
Continuous
 62
     7
370
     0
100
AcDbLine
 10
106.4999999910568
 20
129.0000000090851
 30
0.0
 11
104.4999999910568
 21
127.0000000090851
 31
0.0
  0
LINE
  5
3FC9
330
A
100
AcDbEntity
  8
0
  6
Continuous
 62
     7
370
     0
100
AcDbLine
 10
104.4999999910568
 20
113.0000000090851
 30
0.0
 11
106.4999999910568
 21
111.0000000090851
 31
0.0
  0
LINE
  5
3FCA
330
A
100
AcDbEntity
  8
0
  6
Continuous
 62
     7
370
     0
100
AcDbLine
 10
106.4999999910568
 20
111.0000000090851
 30
0.0
 11
108.4999999910568
 21
111.0000000090851
 31
0.0
  0
LINE
  5
3FCB
330
A
100
AcDbEntity
  8
0
  6
Continuous
 62
     7
370
     0
100
AcDbLine
 10
108.4999999910568
 20
129.0000000090851
 30
0.0
 11
106.4999999910568
 21
129.0000000090851
 31
0.0
  0
LINE
  5
3FCC
330
A
100
AcDbEntity
  8
0
  6
Continuous
 62
     7
370
     0
100
AcDbLine
 10
104.4999999910568
 20
126.0000000090851
 30
0.0
 11
65.99999999105683
 21
126.0000000090851
 31
0.0
  0
LINE
  5
3FCD
330
A
100
AcDbEntity
  8
0
  6
Continuous
 62
     7
370
     0
100
AcDbLine
 10
65.99999999105683
 20
114.0000000090851
 30
0.0
 11
97.02892781645573
 21
114.0000000090851
 31
0.0
  0
LINE
  5
3FCE
330
A
100
AcDbEntity
  8
0
  6
Continuous
 62
     7
370
     0
100
AcDbLine
 10
97.97107216565803
 20
114.0000000090851
 30
0.0
 11
104.4999999910568
 21
114.0000000090851
 31
0.0
  0
ARC
  5
3FCF
330
A
100
AcDbEntity
  8
0
  6
Continuous
 62
     7
370
     0
100
AcDbCircle
 10
-0.0000000165415486
 20
-249.9999999997663
 30
0.0
 40
9.000000000000008
100
AcDbArc
 50
0.0
 51
38.94244114912513
  0
ARC
  5
3FD0
330
A
100
AcDbEntity
  8
0
  6
Continuous
 62
     7
370
     0
100
AcDbCircle
 10
-0.0000000165415486
 20
-249.9999999997663
 30
0.0
 40
8.999999999999925
100
AcDbArc
 50
141.05755861117
 51
218.9424413814932
  0
ARC
  5
3FD1
330
A
100
AcDbEntity
  8
0
  6
Continuous
 62
     7
370
     0
100
AcDbCircle
 10
-0.0000000165415486
 20
-249.9999999997663
 30
0.0
 40
9.000000000000026
100
AcDbArc
 50
321.057558843529
 51
0.0
  0
LINE
  5
3FD2
330
A
100
AcDbEntity
  8
0
  6
Continuous
 62
     7
370
     0
100
AcDbLine
 10
7.00000001568992
 20
73.99999999966258
 30
0.0
 11
-6.999999984310079
 21
74.00000000055957
 31
0.0
  0
LINE
  5
3FD3
330
A
100
AcDbEntity
  8
0
  6
Continuous
 62
     7
370
     0
100
AcDbLine
 10
-5.999999984246073
 20
75.00000000049556
 30
0.0
 11
6.000000015753926
 21
74.99999999972658
 31
0.0
  0
LINE
  5
3FD4
330
A
100
AcDbEntity
  8
0
  6
Continuous
 62
     7
370
     0
100
AcDbLine
 10
-7.000000009812424
 20
-323.9999999994404
 30
0.0
 11
6.999999990187461
 21
-324.0000000003375
 31
0.0
  0
LINE
  5
3FD5
330
A
100
AcDbEntity
  8
0
  6
Continuous
 62
     7
370
     0
100
AcDbLine
 10
5.999999990123455
 20
-325.0000000002734
 30
0.0
 11
-6.000000009876544
 21
-324.9999999995046
 31
0.0
  0
ARC
  5
3FD6
330
A
100
AcDbEntity
  8
0
  6
Continuous
 62
     7
370
     0
100
AcDbCircle
 10
0.0
 20
0.0
 30
0.0
 40
8.999999999999975
100
AcDbArc
 50
179.3815875100175
 51
218.9424412585188
  0
ARC
  5
3FD7
330
A
100
AcDbEntity
  8
0
  6
Continuous
 62
     7
370
     0
100
AcDbCircle
 10
0.0
 20
0.0
 30
0.0
 40
9.000000000000001
100
AcDbArc
 50
321.0575587205545
 51
38.9424412720996
  0
ARC
  5
3FD8
330
A
100
AcDbEntity
  8
0
  6
Continuous
 62
     7
370
     0
100
AcDbCircle
 10
0.0
 20
0.0
 30
0.0
 40
9.000000000000021
100
AcDbArc
 50
141.0575587341353
 51
179.3815875100175
  0
LINE
  5
3FD9
330
A
100
AcDbEntity
  8
0
  6
Continuous
 62
     7
370
     0
100
AcDbLine
 10
7.00000001568992
 20
73.99999999966258
 30
0.0
 11
6.000000015753926
 21
74.99999999972658
 31
0.0
  0
LINE
  5
3FDA
330
A
100
AcDbEntity
  8
0
  6
Continuous
 62
     7
370
     0
100
AcDbLine
 10
-5.999999984246073
 20
75.00000000049556
 30
0.0
 11
-6.999999984310079
 21
74.00000000055957
 31
0.0
  0
LINE
  5
3FDB
330
A
100
AcDbEntity
  8
0
  6
Continuous
 62
     7
370
     0
100
AcDbLine
 10
-6.999999984310079
 20
74.00000000055957
 30
0.0
 11
-7.000000009812424
 21
-323.9999999994404
 31
0.0
  0
LINE
  5
3FDC
330
A
100
AcDbEntity
  8
0
  6
Continuous
 62
     7
370
     0
100
AcDbLine
 10
6.999999990187575
 20
-324.0000000003375
 30
0.0
 11
7.00000001568992
 21
73.99999999966258
 31
0.0
  0
LINE
  5
3FDD
330
A
100
AcDbEntity
  8
0
  6
Continuous
 62
     7
370
     0
100
AcDbLine
 10
-7.000000009812424
 20
-323.9999999994404
 30
0.0
 11
-6.000000009876544
 21
-324.9999999995046
 31
0.0
  0
LINE
  5
3FDE
330
A
100
AcDbEntity
  8
0
  6
Continuous
 62
     7
370
     0
100
AcDbLine
 10
5.999999990123455
 20
-325.0000000002734
 30
0.0
 11
6.999999990187575
 21
-324.0000000003375
 31
0.0
  0
LINE
  5
3FDF
330
A
100
AcDbEntity
  8
0
  6
Continuous
 62
     7
370
     0
100
AcDbLine
 10
110.9999999910568
 20
-246.1499949897762
 30
0.0
 11
110.9999999910568
 21
-253.8500050097764
 31
0.0
  0
LINE
  5
3FE0
330
A
100
AcDbEntity
  8
0
  6
Continuous
 62
     7
370
     0
100
AcDbLine
 10
110.9999999910568
 20
3.850005010110976
 30
0.0
 11
110.9999999910568
 21
-3.850005009888946
 31
0.0
  0
ELLIPSE
  5
3FE1
330
A
100
AcDbEntity
  8
0
  6
Continuous
 62
     7
370
     0
100
AcDbEllipse
 10
97.49999999105682
 20
-254.6255744809791
 30
0.0
 11
-2.0
 21
0.0
 31
0.0
210
0.0
220
0.0
230
1.0
 40
0.7071067813019841
 41
1.333026192311032
 42
1.80856646127876
  0
ELLIPSE
  5
3FE2
330
A
100
AcDbEntity
  8
0
  6
Continuous
 62
     7
370
     0
100
AcDbEllipse
 10
97.49999999105682
 20
-4.643398345510377
 30
0.0
 11
-2.0
 21
0.0
 31
0.0
210
0.0
220
0.0
230
1.0
 40
0.707106781186547
 41
1.284379114222438
 42
1.857213539367355
  0
LINE
  5
3FE3
330
A
100
AcDbEntity
  8
0
  6
Continuous
 62
     9
370
     0
100
AcDbLine
 10
110.9999999910568
 20
-246.3993060139853
 30
0.0
 11
110.9999999910568
 21
-253.6007365864535
 31
0.0
  0
ELLIPSE
  5
3FE4
330
A
100
AcDbEntity
  8
0
  6
Continuous
 62
     7
370
     0
100
AcDbEllipse
 10
97.49999999105682
 20
-254.4649818741979
 30
0.0
 11
-2.0
 21
0.0
 31
0.0
210
0.0
220
0.0
230
1.0
 40
0.7071067810711093
 41
3.141592653589792
 42
5.500455265147396
  0
ELLIPSE
  5
3FE5
330
A
100
AcDbEntity
  8
0
  6
Continuous
 62
     7
370
     0
100
AcDbEllipse
 10
97.49999999105682
 20
-254.730146917186
 30
0.0
 11
-1.299999999999966
 21
0.0
 31
0.0
210
0.0
220
0.0
230
1.0
 40
0.7071067810711098
 41
0.0
 42
6.283185307179585
  0
ELLIPSE
  5
3FE6
330
A
100
AcDbEntity
  8
0
  6
Continuous
 62
     7
370
     0
100
AcDbEllipse
 10
97.49999999105682
 20
-254.4649818741979
 30
0.0
 11
-2.0
 21
0.0
 31
0.0
210
0.0
220
0.0
230
1.0
 40
0.7071067810711098
 41
5.500455265147396
 42
6.283185307179585
  0
ELLIPSE
  5
3FE7
330
A
100
AcDbEntity
  8
0
  6
Continuous
 62
     7
370
     0
100
AcDbEllipse
 10
97.49999999105682
 20
-254.4649818741979
 30
0.0
 11
-2.0
 21
0.0
 31
0.0
210
0.0
220
0.0
230
1.0
 40
0.7071067810711098
 41
0.0
 42
3.141592653589792
  0
LINE
  5
3FE8
330
A
100
AcDbEntity
  8
0
  6
Continuous
 62
     7
370
     0
100
AcDbLine
 10
97.19816666493535
 20
-253.9420384296763
 30
0.0
 11
98.31431515633187
 21
-254.1512582643704
 31
0.0
  0
LINE
  5
3FE9
330
A
100
AcDbEntity
  8
0
  6
Continuous
 62
     7
370
     0
100
AcDbLine
 10
96.38385149966063
 20
-254.5209270824921
 30
0.0
 11
97.19816666493535
 21
-253.9420384296763
 31
0.0
  0
LINE
  5
3FEA
330
A
100
AcDbEntity
  8
0
  6
Continuous
 62
     7
370
     0
100
AcDbLine
 10
96.68568482578201
 20
-255.3090355700019
 30
0.0
 11
96.38385149966087
 21
-254.5209270824921
 31
0.0
  0
LINE
  5
3FEB
330
A
100
AcDbEntity
  8
0
  6
Continuous
 62
     7
370
     0
100
AcDbLine
 10
97.8018333171782
 20
-255.518255404696
 30
0.0
 11
96.68568482578201
 21
-255.3090355700021
 31
0.0
  0
LINE
  5
3FEC
330
A
100
AcDbEntity
  8
0
  6
Continuous
 62
     7
370
     0
100
AcDbLine
 10
98.6161484824529
 20
-254.9393667518801
 30
0.0
 11
97.8018333171782
 21
-255.518255404696
 31
0.0
  0
LINE
  5
3FED
330
A
100
AcDbEntity
  8
0
  6
Continuous
 62
     7
370
     0
100
AcDbLine
 10
98.31431515633187
 20
-254.1512582643704
 30
0.0
 11
98.6161484824529
 21
-254.9393667518801
 31
0.0
  0
LINE
  5
3FEE
330
A
100
AcDbEntity
  8
0
  6
Continuous
 62
     7
370
     0
100
AcDbLine
 10
96.68568482578201
 20
-255.3090355700019
 30
0.0
 11
96.68568482578201
 21
-254.3063567355499
 31
0.0
  0
LINE
  5
3FEF
330
A
100
AcDbEntity
  8
0
  6
Continuous
 62
     7
370
     0
100
AcDbLine
 10
97.8018333171782
 20
-255.518255404696
 30
0.0
 11
97.8018333171782
 21
-254.0551945537639
 31
0.0
  0
ARC
  5
3FF0
330
A
100
AcDbEntity
  8
0
  6
Continuous
 62
     7
370
     0
100
AcDbCircle
 10
140.6258449702183
 20
-242.187722271443
 30
0.0
 40
20.59317429745734
100
AcDbArc
 50
317.8772513908762
 51
333.1567114980306
  0
ARC
  5
3FF1
330
A
100
AcDbEntity
  8
0
  6
Continuous
 62
     7
370
     0
100
AcDbCircle
 10
140.6494375969902
 20
-257.7960732582706
 30
0.0
 40
20.56480709096985
100
AcDbArc
 50
26.832687184169
 51
42.1333499272463
  0
LINE
  5
3FF2
330
A
100
AcDbEntity
  8
0
  6
Continuous
 62
     7
370
     0
100
AcDbLine
 10
158.9999999910585
 20
-251.4866068745034
 30
0.0
 11
158.9999999910545
 21
-248.5133931250398
 31
0.0
  0
LINE
  5
3FF3
330
A
100
AcDbEntity
  8
0
  6
Continuous
 62
     7
370
     0
100
AcDbLine
 10
117.4999999910575
 20
-240.9999999997662
 30
0.0
 11
117.4999999910575
 21
-258.9999999997663
 31
0.0
  0
LINE
  5
3FF4
330
A
100
AcDbEntity
  8
0
  6
Continuous
 62
     7
370
     0
100
AcDbLine
 10
119.4999999910575
 20
-240.9999999997662
 30
0.0
 11
119.4999999910575
 21
-258.9999999997663
 31
0.0
  0
LINE
  5
3FF5
330
A
100
AcDbEntity
  8
0
  6
Continuous
 62
     7
370
     0
100
AcDbLine
 10
121.4999999910575
 20
-242.9999999997662
 30
0.0
 11
121.4999999910575
 21
-256.9999999997663
 31
0.0
  0
LINE
  5
3FF6
330
A
100
AcDbEntity
  8
0
  6
Continuous
 62
     7
370
     0
100
AcDbLine
 10
115.9999999910573
 20
-258.4999999997664
 30
0.0
 11
115.9999999910573
 21
-249.9999999997663
 31
0.0
  0
LINE
  5
3FF7
330
A
100
AcDbEntity
  8
0
  6
Continuous
 62
     7
370
     0
100
AcDbLine
 10
115.9999999910573
 20
-249.9999999997663
 30
0.0
 11
115.9999999910573
 21
-241.4999999997664
 31
0.0
  0
LINE
  5
3FF8
330
A
100
AcDbEntity
  8
0
  6
Continuous
 62
     7
370
     0
100
AcDbLine
 10
108.4999999910575
 20
-258.4999999997664
 30
0.0
 11
108.4999999910575
 21
-249.9999999997663
 31
0.0
  0
LINE
  5
3FF9
330
A
100
AcDbEntity
  8
0
  6
Continuous
 62
     7
370
     0
100
AcDbLine
 10
109.9999999910575
 20
-258.4999999997664
 30
0.0
 11
109.9999999910575
 21
-249.9999999997663
 31
0.0
  0
LINE
  5
3FFA
330
A
100
AcDbEntity
  8
0
  6
Continuous
 62
     7
370
     0
100
AcDbLine
 10
108.4999999910575
 20
-249.9999999997663
 30
0.0
 11
108.4999999910575
 21
-241.4999999997664
 31
0.0
  0
LINE
  5
3FFB
330
A
100
AcDbEntity
  8
0
  6
Continuous
 62
     7
370
     0
100
AcDbLine
 10
109.9999999910575
 20
-249.9999999997663
 30
0.0
 11
109.9999999910575
 21
-241.4999999997664
 31
0.0
  0
LINE
  5
3FFC
330
A
100
AcDbEntity
  8
0
  6
Continuous
 62
     7
370
     0
100
AcDbLine
 10
106.4999999910568
 20
-258.9999999997663
 30
0.0
 11
106.4999999910568
 21
-249.9999999997663
 31
0.0
  0
LINE
  5
3FFD
330
A
100
AcDbEntity
  8
0
  6
Continuous
 62
     7
370
     0
100
AcDbLine
 10
104.4999999910568
 20
-256.9999999997663
 30
0.0
 11
104.4999999910568
 21
-249.9999999997663
 31
0.0
  0
LINE
  5
3FFE
330
A
100
AcDbEntity
  8
0
  6
Continuous
 62
     7
370
     0
100
AcDbLine
 10
106.4999999910568
 20
-249.9999999997663
 30
0.0
 11
106.4999999910568
 21
-240.9999999997662
 31
0.0
  0
LINE
  5
3FFF
330
A
100
AcDbEntity
  8
0
  6
Continuous
 62
     7
370
     0
100
AcDbLine
 10
104.4999999910568
 20
-249.9999999997663
 30
0.0
 11
104.4999999910568
 21
-242.9999999997662
 31
0.0
  0
LINE
  5
4000
330
A
100
AcDbEntity
  8
0
  6
Continuous
 62
     7
370
     0
100
AcDbLine
 10
108.4999999910568
 20
-258.9999999997663
 30
0.0
 11
108.4999999910568
 21
-249.9999999997663
 31
0.0
  0
LINE
  5
4001
330
A
100
AcDbEntity
  8
0
  6
Continuous
 62
     7
370
     0
100
AcDbLine
 10
108.4999999910568
 20
-249.9999999997663
 30
0.0
 11
108.4999999910568
 21
-240.9999999997662
 31
0.0
  0
ARC
  5
4002
330
A
100
AcDbEntity
  8
0
  6
Continuous
 62
     7
370
     0
100
AcDbCircle
 10
84.37415507504523
 20
-257.812277763504
 30
0.0
 40
20.59317436803676
100
AcDbArc
 50
137.8772514356427
 51
153.1567114899555
  0
ARC
  5
4003
330
A
100
AcDbEntity
  8
0
  6
Continuous
 62
     7
370
     0
100
AcDbCircle
 10
84.35056239806659
 20
-242.2039267364938
 30
0.0
 40
20.56480710378004
100
AcDbArc
 50
206.8326871839854
 51
222.1333499129087
  0
LINE
  5
4004
330
A
100
AcDbEntity
  8
0
  6
Continuous
 62
     7
370
     0
100
AcDbLine
 10
65.99999999105683
 20
-248.5133931259834
 30
0.0
 11
65.99999999105683
 21
-251.486606875447
 31
0.0
  0
LINE
  5
4005
330
A
100
AcDbEntity
  8
0
  6
Continuous
 62
     7
370
     0
100
AcDbLine
 10
168.8999999910563
 20
-324.9999999998891
 30
0.0
 11
156.8999999910562
 21
-324.9999999998891
 31
0.0
  0
LINE
  5
4006
330
A
100
AcDbEntity
  8
0
  6
Continuous
 62
     7
370
     0
100
AcDbLine
 10
155.8999999910563
 20
-323.999999999889
 30
0.0
 11
169.8999999910563
 21
-323.999999999889
 31
0.0
  0
LINE
  5
4007
330
A
100
AcDbEntity
  8
0
  6
Continuous
 62
     7
370
     0
100
AcDbLine
 10
169.8999999910575
 20
74.00000000011107
 30
0.0
 11
155.8999999910574
 21
74.00000000011107
 31
0.0
  0
LINE
  5
4008
330
A
100
AcDbEntity
  8
0
  6
Continuous
 62
     7
370
     0
100
AcDbLine
 10
156.8999999910575
 20
75.00000000011107
 30
0.0
 11
168.8999999910575
 21
75.00000000011096
 31
0.0
  0
LINE
  5
4009
330
A
100
AcDbEntity
  8
0
  6
Continuous
 62
     7
370
     0
100
AcDbLine
 10
55.09999999105673
 20
-323.9999999998279
 30
0.0
 11
69.09999999105685
 21
-323.9999999998279
 31
0.0
  0
LINE
  5
400A
330
A
100
AcDbEntity
  8
0
  6
Continuous
 62
     7
370
     0
100
AcDbLine
 10
68.09999999105684
 20
-324.9999999998276
 30
0.0
 11
56.09999999105696
 21
-324.9999999998276
 31
0.0
  0
LINE
  5
400B
330
A
100
AcDbEntity
  8
0
  6
Continuous
 62
     7
370
     0
100
AcDbLine
 10
69.09999999105685
 20
74.00000000017247
 30
0.0
 11
55.09999999105673
 21
74.00000000017247
 31
0.0
  0
LINE
  5
400C
330
A
100
AcDbEntity
  8
0
  6
Continuous
 62
     7
370
     0
100
AcDbLine
 10
56.09999999105696
 20
75.00000000017235
 30
0.0
 11
68.09999999105684
 21
75.00000000017235
 31
0.0
  0
ELLIPSE
  5
400D
330
A
100
AcDbEntity
  8
0
  6
Continuous
 62
     7
370
     0
100
AcDbEllipse
 10
97.49999999105682
 20
-4.399362588873714
 30
0.0
 11
-2.0
 21
0.0
 31
0.0
210
0.0
220
0.0
230
1.0
 40
0.7071067811865481
 41
6.283185307179578
 42
7.08385389802137
  0
ELLIPSE
  5
400E
330
A
100
AcDbEntity
  8
0
  6
Continuous
 62
     7
370
     0
100
AcDbEllipse
 10
97.49999999105682
 20
-4.6645276318186
 30
0.0
 11
-1.299999999999966
 21
0.0
 31
0.0
210
0.0
220
0.0
230
1.0
 40
0.7071067811865479
 41
0.0
 42
6.283185307179585
  0
ELLIPSE
  5
400F
330
A
100
AcDbEntity
  8
0
  6
Continuous
 62
     7
370
     0
100
AcDbEllipse
 10
97.49999999105682
 20
-4.399362588873714
 30
0.0
 11
-2.0
 21
0.0
 31
0.0
210
0.0
220
0.0
230
1.0
 40
0.7071067811865479
 41
0.8006685908417912
 42
3.141592653589786
  0
ELLIPSE
  5
4010
330
A
100
AcDbEntity
  8
0
  6
Continuous
 62
     7
370
     0
100
AcDbEllipse
 10
97.49999999105682
 20
-4.399362588873714
 30
0.0
 11
-2.0
 21
0.0
 31
0.0
210
0.0
220
0.0
230
1.0
 40
0.7071067811865479
 41
3.141592653589786
 42
6.283185307179585
  0
LINE
  5
4011
330
A
100
AcDbEntity
  8
0
  6
Continuous
 62
     7
370
     0
100
AcDbLine
 10
96.38933847898364
 20
-4.887870797074015
 30
0.0
 11
96.67113083881339
 21
-4.096060719064439
 31
0.0
  0
LINE
  5
4012
330
A
100
AcDbEntity
  8
0
  6
Continuous
 62
     7
370
     0
100
AcDbLine
 10
97.21820763122719
 20
-5.456337709828289
 30
0.0
 11
96.38933847898364
 21
-4.887870797074015
 31
0.0
  0
LINE
  5
4013
330
A
100
AcDbEntity
  8
0
  6
Continuous
 62
     7
370
     0
100
AcDbLine
 10
98.32886914330039
 20
-5.232994544572989
 30
0.0
 11
97.2182076312273
 21
-5.456337709828289
 31
0.0
  0
LINE
  5
4014
330
A
100
AcDbEntity
  8
0
  6
Continuous
 62
     7
370
     0
100
AcDbLine
 10
98.61066150313002
 20
-4.441184466563299
 30
0.0
 11
98.32886914330039
 21
-5.232994544572989
 31
0.0
  0
LINE
  5
4015
330
A
100
AcDbEntity
  8
0
  6
Continuous
 62
     7
370
     0
100
AcDbLine
 10
97.7817923508867
 20
-3.872717553809252
 30
0.0
 11
98.61066150313002
 21
-4.441184466563299
 31
0.0
  0
LINE
  5
4016
330
A
100
AcDbEntity
  8
0
  6
Continuous
 62
     7
370
     0
100
AcDbLine
 10
96.67113083881339
 20
-4.096060719064666
 30
0.0
 11
97.7817923508867
 21
-3.872717553809366
 31
0.0
  0
LINE
  5
4017
330
A
100
AcDbEntity
  8
0
  6
Continuous
 62
     7
370
     0
100
AcDbLine
 10
98.32886914330039
 20
-5.232994544572989
 30
0.0
 11
98.32886914330039
 21
-4.247921594617423
 31
0.0
  0
LINE
  5
4018
330
A
100
AcDbEntity
  8
0
  6
Continuous
 62
     7
370
     0
100
AcDbLine
 10
97.21820763122719
 20
-5.456337709828289
 30
0.0
 11
97.21820763122719
 21
-3.986048927778711
 31
0.0
  0
ARC
  5
4019
330
A
100
AcDbEntity
  8
0
  6
Continuous
 62
     7
370
     0
100
AcDbCircle
 10
84.37415504997591
 20
-7.812277748363385
 30
0.0
 40
20.59317433920535
100
AcDbArc
 50
137.8772514203546
 51
153.156711493993
  0
ARC
  5
401A
330
A
100
AcDbEntity
  8
0
  6
Continuous
 62
     7
370
     0
100
AcDbCircle
 10
84.35056242299902
 20
7.796073278556264
 30
0.0
 40
20.56480713244823
100
AcDbArc
 50
206.8326871879881
 51
222.1333498976574
  0
LINE
  5
401B
330
A
100
AcDbEntity
  8
0
  6
Continuous
 62
     7
370
     0
100
AcDbLine
 10
65.99999999105683
 20
1.486606874842891
 30
0.0
 11
65.99999999105683
 21
-1.486606874620861
 31
0.0
  0
ARC
  5
401C
330
A
100
AcDbEntity
  8
0
  6
Continuous
 62
     7
370
     0
100
AcDbCircle
 10
140.6258449514635
 20
7.81227773837736
 30
0.0
 40
20.59317431802438
100
AcDbArc
 50
317.877251405362
 51
333.1567114960031
  0
ARC
  5
401D
330
A
100
AcDbEntity
  8
0
  6
Continuous
 62
     7
370
     0
100
AcDbCircle
 10
140.6494375783252
 20
-7.796073268201325
 30
0.0
 40
20.56480711140426
100
AcDbArc
 50
26.83268718601008
 51
42.13334991262253
  0
LINE
  5
401E
330
A
100
AcDbEntity
  8
0
  6
Continuous
 62
     7
370
     0
100
AcDbLine
 10
158.9999999910568
 20
-1.486606874620861
 30
0.0
 11
158.9999999910568
 21
1.486606874842891
 31
0.0
  0
LINE
  5
401F
330
A
100
AcDbEntity
  8
0
  6
Continuous
 62
     9
370
     0
100
AcDbLine
 10
110.9999999910568
 20
3.600693985902466
 30
0.0
 11
110.9999999910568
 21
-3.600736586566199
 31
0.0
  0
LINE
  5
4020
330
A
100
AcDbEntity
  8
0
  6
Continuous
 62
     7
370
     0
100
AcDbLine
 10
115.9999999910568
 20
-8.499999999888927
 30
0.0
 11
115.9999999910568
 21
0.000000000111072
 31
0.0
  0
LINE
  5
4021
330
A
100
AcDbEntity
  8
0
  6
Continuous
 62
     7
370
     0
100
AcDbLine
 10
115.9999999910568
 20
0.0000000001111857
 30
0.0
 11
115.9999999910568
 21
8.500000000111072
 31
0.0
  0
LINE
  5
4022
330
A
100
AcDbEntity
  8
0
  6
Continuous
 62
     7
370
     0
100
AcDbLine
 10
108.4999999910568
 20
-8.499999999888927
 30
0.0
 11
108.4999999910568
 21
0.000000000111072
 31
0.0
  0
LINE
  5
4023
330
A
100
AcDbEntity
  8
0
  6
Continuous
 62
     7
370
     0
100
AcDbLine
 10
109.9999999910568
 20
-8.499999999888927
 30
0.0
 11
109.9999999910568
 21
0.000000000111072
 31
0.0
  0
LINE
  5
4024
330
A
100
AcDbEntity
  8
0
  6
Continuous
 62
     7
370
     0
100
AcDbLine
 10
108.4999999910568
 20
0.0000000001111857
 30
0.0
 11
108.4999999910568
 21
8.500000000111072
 31
0.0
  0
LINE
  5
4025
330
A
100
AcDbEntity
  8
0
  6
Continuous
 62
     7
370
     0
100
AcDbLine
 10
109.9999999910568
 20
0.0000000001111857
 30
0.0
 11
109.9999999910568
 21
8.500000000111072
 31
0.0
  0
LINE
  5
4026
330
A
100
AcDbEntity
  8
0
  6
Continuous
 62
     7
370
     0
100
AcDbLine
 10
119.4999999915569
 20
8.999999999999886
 30
0.0
 11
119.4999999910622
 21
0.0971381207104969
 31
0.0
  0
LINE
  5
4027
330
A
100
AcDbEntity
  8
0
  6
Continuous
 62
     7
370
     0
100
AcDbLine
 10
121.4999999914456
 20
6.999999999888927
 30
0.0
 11
121.499999991061
 21
0.0755518715526478
 31
0.0
  0
LINE
  5
4028
330
A
100
AcDbEntity
  8
0
  6
Continuous
 62
     7
370
     0
100
AcDbLine
 10
119.4999999910622
 20
0.0971381207104969
 30
0.0
 11
119.4999999905569
 21
-9.0
 31
0.0
  0
LINE
  5
4029
330
A
100
AcDbEntity
  8
0
  6
Continuous
 62
     7
370
     0
100
AcDbLine
 10
121.499999991061
 20
0.0755518715525341
 30
0.0
 11
121.499999990668
 21
-7.000000000111072
 31
0.0
  0
LINE
  5
402A
330
A
100
AcDbEntity
  8
0
  6
Continuous
 62
     7
370
     0
100
AcDbLine
 10
117.4999999915569
 20
9.000000000111072
 30
0.0
 11
117.4999999910624
 21
0.0971381208215689
 31
0.0
  0
LINE
  5
402B
330
A
100
AcDbEntity
  8
0
  6
Continuous
 62
     7
370
     0
100
AcDbLine
 10
117.4999999910624
 20
0.0971381208215689
 30
0.0
 11
117.4999999905569
 21
-8.999999999888814
 31
0.0
  0
LINE
  5
402C
330
A
100
AcDbEntity
  8
0
  6
Continuous
 62
     7
370
     0
100
AcDbLine
 10
108.4999999910568
 20
-8.999999999888814
 30
0.0
 11
108.4999999910568
 21
0.0000000001111857
 31
0.0
  0
LINE
  5
402D
330
A
100
AcDbEntity
  8
0
  6
Continuous
 62
     7
370
     0
100
AcDbLine
 10
108.4999999910568
 20
0.0000000001111857
 30
0.0
 11
108.4999999910568
 21
9.000000000111072
 31
0.0
  0
LINE
  5
402E
330
A
100
AcDbEntity
  8
0
  6
Continuous
 62
     7
370
     0
100
AcDbLine
 10
106.4999999910568
 20
-8.999999999888814
 30
0.0
 11
106.4999999910568
 21
0.0000000001111857
 31
0.0
  0
LINE
  5
402F
330
A
100
AcDbEntity
  8
0
  6
Continuous
 62
     7
370
     0
100
AcDbLine
 10
104.4999999910568
 20
-6.999999999888927
 30
0.0
 11
104.4999999910568
 21
0.0000000001111857
 31
0.0
  0
LINE
  5
4030
330
A
100
AcDbEntity
  8
0
  6
Continuous
 62
     7
370
     0
100
AcDbLine
 10
106.4999999910568
 20
0.0000000001111857
 30
0.0
 11
106.4999999910568
 21
9.000000000111072
 31
0.0
  0
LINE
  5
4031
330
A
100
AcDbEntity
  8
0
  6
Continuous
 62
     7
370
     0
100
AcDbLine
 10
104.4999999910568
 20
0.0000000001111857
 30
0.0
 11
104.4999999910568
 21
7.000000000111185
 31
0.0
  0
LINE
  5
4032
330
A
100
AcDbEntity
  8
0
  6
Continuous
 62
     9
370
     0
100
AcDbLine
 10
115.9999999925545
 20
-246.4999999997762
 30
0.0
 11
110.9999999910568
 21
-246.4999999997762
 31
0.0
  0
LINE
  5
4033
330
A
100
AcDbEntity
  8
0
  6
Continuous
 62
     9
370
     0
100
AcDbLine
 10
110.9999999910568
 20
-253.4999999997763
 30
0.0
 11
115.9999999925545
 21
-253.4999999997763
 31
0.0
  0
LINE
  5
4034
330
A
100
AcDbEntity
  8
0
  6
Continuous
 62
     9
370
     0
100
AcDbLine
 10
115.9999999920604
 20
3.500000000111072
 30
0.0
 11
110.9999999910568
 21
3.500000000111072
 31
0.0
  0
LINE
  5
4035
330
A
100
AcDbEntity
  8
0
  6
Continuous
 62
     9
370
     0
100
AcDbLine
 10
110.9999999910568
 20
-3.499999999888927
 30
0.0
 11
115.9999999920604
 21
-3.499999999888927
 31
0.0
  0
LINE
  5
4036
330
A
100
AcDbEntity
  8
0
  6
Continuous
 62
     7
370
     0
100
AcDbLine
 10
111.0049999910568
 20
-246.1499999997765
 30
0.0
 11
110.9999999910568
 21
-246.1499999997765
 31
0.0
  0
LINE
  5
4037
330
A
100
AcDbEntity
  8
0
  6
Continuous
 62
     7
370
     0
100
AcDbLine
 10
110.9999999910568
 20
-246.1499999997765
 30
0.0
 11
109.9999999915423
 21
-246.1499999997765
 31
0.0
  0
LINE
  5
4038
330
A
100
AcDbEntity
  8
0
  6
Continuous
 62
     7
370
     0
100
AcDbLine
 10
109.9999999915423
 20
-253.8499999997764
 30
0.0
 11
110.9999999910568
 21
-253.8499999997764
 31
0.0
  0
LINE
  5
4039
330
A
100
AcDbEntity
  8
0
  6
Continuous
 62
     7
370
     0
100
AcDbLine
 10
110.9999999910568
 20
-253.8499999997764
 30
0.0
 11
111.0049999910568
 21
-253.8499999997764
 31
0.0
  0
LINE
  5
403A
330
A
100
AcDbEntity
  8
0
  6
Continuous
 62
     7
370
     0
100
AcDbLine
 10
115.999999992522
 20
-246.1499999997765
 30
0.0
 11
110.9999999910568
 21
-246.1499999997765
 31
0.0
  0
LINE
  5
403B
330
A
100
AcDbEntity
  8
0
  6
Continuous
 62
     7
370
     0
100
AcDbLine
 10
110.9999999910568
 20
-246.1499999997765
 30
0.0
 11
110.9949999910568
 21
-246.1499999997765
 31
0.0
  0
LINE
  5
403C
330
A
100
AcDbEntity
  8
0
  6
Continuous
 62
     7
370
     0
100
AcDbLine
 10
110.9949999910568
 20
-253.8499999997764
 30
0.0
 11
110.9999999910568
 21
-253.8499999997764
 31
0.0
  0
LINE
  5
403D
330
A
100
AcDbEntity
  8
0
  6
Continuous
 62
     7
370
     0
100
AcDbLine
 10
110.9999999910568
 20
-253.8499999997764
 30
0.0
 11
115.999999992522
 21
-253.8499999997764
 31
0.0
  0
LINE
  5
403E
330
A
100
AcDbEntity
  8
0
  6
Continuous
 62
     7
370
     0
100
AcDbLine
 10
121.4999999919779
 20
-255.9999999998244
 30
0.0
 11
155.8999999910563
 21
-255.999999999776
 31
0.0
  0
LINE
  5
403F
330
A
100
AcDbEntity
  8
0
  6
Continuous
 62
     7
370
     0
100
AcDbLine
 10
155.8999999910563
 20
-243.999999999776
 30
0.0
 11
121.4999999919779
 21
-243.9999999998242
 31
0.0
  0
LINE
  5
4040
330
A
100
AcDbEntity
  8
0
  6
Continuous
 62
     7
370
     0
100
AcDbLine
 10
119.4999999910575
 20
-240.9999999997662
 30
0.0
 11
117.4999999910575
 21
-240.9999999997662
 31
0.0
  0
LINE
  5
4041
330
A
100
AcDbEntity
  8
0
  6
Continuous
 62
     7
370
     0
100
AcDbLine
 10
117.4999999910575
 20
-258.9999999997663
 30
0.0
 11
119.4999999910575
 21
-258.9999999997663
 31
0.0
  0
LINE
  5
4042
330
A
100
AcDbEntity
  8
0
  6
Continuous
 62
     7
370
     0
100
AcDbLine
 10
119.4999999910575
 20
-258.9999999997663
 30
0.0
 11
121.4999999910575
 21
-256.9999999997663
 31
0.0
  0
LINE
  5
4043
330
A
100
AcDbEntity
  8
0
  6
Continuous
 62
     7
370
     0
100
AcDbLine
 10
121.4999999910575
 20
-242.9999999997662
 30
0.0
 11
119.4999999910575
 21
-240.9999999997662
 31
0.0
  0
LINE
  5
4044
330
A
100
AcDbEntity
  8
0
  6
Continuous
 62
     7
370
     0
100
AcDbLine
 10
115.9999999910573
 20
-258.4999999997664
 30
0.0
 11
117.499999991057
 21
-258.4999999997664
 31
0.0
  0
LINE
  5
4045
330
A
100
AcDbEntity
  8
0
  6
Continuous
 62
     7
370
     0
100
AcDbLine
 10
117.499999991057
 20
-241.4999999997664
 30
0.0
 11
115.9999999910573
 21
-241.4999999997664
 31
0.0
  0
LINE
  5
4046
330
A
100
AcDbEntity
  8
0
  6
Continuous
 62
     7
370
     0
100
AcDbLine
 10
108.4999999910575
 20
-258.4999999997664
 30
0.0
 11
109.9999999910575
 21
-258.4999999997664
 31
0.0
  0
LINE
  5
4047
330
A
100
AcDbEntity
  8
0
  6
Continuous
 62
     7
370
     0
100
AcDbLine
 10
109.9999999910575
 20
-241.4999999997664
 30
0.0
 11
108.4999999910575
 21
-241.4999999997664
 31
0.0
  0
LINE
  5
4048
330
A
100
AcDbEntity
  8
0
  6
Continuous
 62
     7
370
     0
100
AcDbLine
 10
106.4999999910568
 20
-240.9999999997662
 30
0.0
 11
104.4999999910568
 21
-242.9999999997662
 31
0.0
  0
LINE
  5
4049
330
A
100
AcDbEntity
  8
0
  6
Continuous
 62
     7
370
     0
100
AcDbLine
 10
104.4999999910568
 20
-256.9999999997663
 30
0.0
 11
106.4999999910568
 21
-258.9999999997663
 31
0.0
  0
LINE
  5
404A
330
A
100
AcDbEntity
  8
0
  6
Continuous
 62
     7
370
     0
100
AcDbLine
 10
106.4999999910568
 20
-258.9999999997663
 30
0.0
 11
108.4999999910568
 21
-258.9999999997663
 31
0.0
  0
LINE
  5
404B
330
A
100
AcDbEntity
  8
0
  6
Continuous
 62
     7
370
     0
100
AcDbLine
 10
108.4999999910568
 20
-240.9999999997662
 30
0.0
 11
106.4999999910568
 21
-240.9999999997662
 31
0.0
  0
LINE
  5
404C
330
A
100
AcDbEntity
  8
0
  6
Continuous
 62
     7
370
     0
100
AcDbLine
 10
104.4999999910568
 20
-243.999999999766
 30
0.0
 11
69.09999999105685
 21
-243.999999999766
 31
0.0
  0
LINE
  5
404D
330
A
100
AcDbEntity
  8
0
  6
Continuous
 62
     7
370
     0
100
AcDbLine
 10
69.09999999105685
 20
-255.9999999997663
 30
0.0
 11
104.4999999910568
 21
-255.9999999997663
 31
0.0
  0
LINE
  5
404E
330
A
100
AcDbEntity
  8
0
  6
Continuous
 62
     7
370
     0
100
AcDbLine
 10
155.8999999910563
 20
-323.999999999889
 30
0.0
 11
156.8999999910562
 21
-324.9999999998891
 31
0.0
  0
LINE
  5
404F
330
A
100
AcDbEntity
  8
0
  6
Continuous
 62
     7
370
     0
100
AcDbLine
 10
168.8999999910563
 20
-324.9999999998891
 30
0.0
 11
169.8999999910562
 21
-323.999999999889
 31
0.0
  0
LINE
  5
4050
330
A
100
AcDbEntity
  8
0
  6
Continuous
 62
     7
370
     0
100
AcDbLine
 10
155.8999999910563
 20
-255.9984641001959
 30
0.0
 11
155.8999999910563
 21
-255.9993314246644
 31
0.0
  0
LINE
  5
4051
330
A
100
AcDbEntity
  8
0
  6
Continuous
 62
     7
370
     0
100
AcDbLine
 10
155.8999999910563
 20
-255.999999999776
 30
0.0
 11
155.8999999910563
 21
-323.999999999889
 31
0.0
  0
LINE
  5
4052
330
A
100
AcDbEntity
  8
0
  6
Continuous
 62
     7
370
     0
100
AcDbLine
 10
155.8999999910573
 20
-5.998464100302498
 30
0.0
 11
155.8999999910573
 21
-5.999331424779256
 31
0.0
  0
LINE
  5
4053
330
A
100
AcDbEntity
  8
0
  6
Continuous
 62
     7
370
     0
100
AcDbLine
 10
155.8999999910573
 20
-5.999999999888927
 30
0.0
 11
155.8999999910566
 21
-243.999999999776
 31
0.0
  0
LINE
  5
4054
330
A
100
AcDbEntity
  8
0
  6
Continuous
 62
     7
370
     0
100
AcDbLine
 10
155.8999999910566
 20
-244.0006685748867
 30
0.0
 11
155.8999999910566
 21
-244.0015358993884
 31
0.0
  0
LINE
  5
4055
330
A
100
AcDbEntity
  8
0
  6
Continuous
 62
     7
370
     0
100
AcDbLine
 10
155.8999999910574
 20
74.00000000011107
 30
0.0
 11
155.8999999910573
 21
6.000000000111072
 31
0.0
  0
LINE
  5
4056
330
A
100
AcDbEntity
  8
0
  6
Continuous
 62
     7
370
     0
100
AcDbLine
 10
155.8999999910573
 20
5.999331424998445
 30
0.0
 11
155.8999999910573
 21
5.998464100504975
 31
0.0
  0
LINE
  5
4057
330
A
100
AcDbEntity
  8
0
  6
Continuous
 62
     7
370
     0
100
AcDbLine
 10
169.8999999910562
 20
-323.999999999889
 30
0.0
 11
169.8999999910575
 21
74.00000000011107
 31
0.0
  0
LINE
  5
4058
330
A
100
AcDbEntity
  8
0
  6
Continuous
 62
     7
370
     0
100
AcDbLine
 10
169.8999999910575
 20
74.00000000011107
 30
0.0
 11
168.8999999910575
 21
75.00000000011107
 31
0.0
  0
LINE
  5
4059
330
A
100
AcDbEntity
  8
0
  6
Continuous
 62
     7
370
     0
100
AcDbLine
 10
156.8999999910575
 20
75.00000000011107
 30
0.0
 11
155.8999999910574
 21
74.00000000011107
 31
0.0
  0
LINE
  5
405A
330
A
100
AcDbEntity
  8
0
  6
Continuous
 62
     7
370
     0
100
AcDbLine
 10
55.09999999105673
 20
-323.9999999998279
 30
0.0
 11
56.09999999105696
 21
-324.9999999998276
 31
0.0
  0
LINE
  5
405B
330
A
100
AcDbEntity
  8
0
  6
Continuous
 62
     7
370
     0
100
AcDbLine
 10
68.09999999105684
 20
-324.9999999998276
 30
0.0
 11
69.09999999105685
 21
-323.9999999998279
 31
0.0
  0
LINE
  5
405C
330
A
100
AcDbEntity
  8
0
  6
Continuous
 62
     7
370
     0
100
AcDbLine
 10
55.09999999105673
 20
74.00000000017247
 30
0.0
 11
55.09999999105673
 21
-323.9999999998279
 31
0.0
  0
LINE
  5
405D
330
A
100
AcDbEntity
  8
0
  6
Continuous
 62
     7
370
     0
100
AcDbLine
 10
69.09999999105685
 20
5.998464095134522
 30
0.0
 11
69.09999999105685
 21
5.999331419619579
 31
0.0
  0
LINE
  5
405E
330
A
100
AcDbEntity
  8
0
  6
Continuous
 62
     7
370
     0
100
AcDbLine
 10
69.09999999105685
 20
6.000000000111072
 30
0.0
 11
69.09999999105685
 21
74.00000000017257
 31
0.0
  0
LINE
  5
405F
330
A
100
AcDbEntity
  8
0
  6
Continuous
 62
     7
370
     0
100
AcDbLine
 10
69.09999999105685
 20
-244.0015359047381
 30
0.0
 11
69.09999999105685
 21
-244.0006685802655
 31
0.0
  0
LINE
  5
4060
330
A
100
AcDbEntity
  8
0
  6
Continuous
 62
     7
370
     0
100
AcDbLine
 10
69.09999999105685
 20
-243.999999999766
 30
0.0
 11
69.09999999105685
 21
-5.999999999888927
 31
0.0
  0
LINE
  5
4061
330
A
100
AcDbEntity
  8
0
  6
Continuous
 62
     7
370
     0
100
AcDbLine
 10
69.09999999105685
 20
-5.999331419397549
 30
0.0
 11
69.09999999105685
 21
-5.998464094912492
 31
0.0
  0
LINE
  5
4062
330
A
100
AcDbEntity
  8
0
  6
Continuous
 62
     7
370
     0
100
AcDbLine
 10
69.09999999105685
 20
-323.9999999998279
 30
0.0
 11
69.09999999105685
 21
-255.9999999997663
 31
0.0
  0
LINE
  5
4063
330
A
100
AcDbEntity
  8
0
  6
Continuous
 62
     7
370
     0
100
AcDbLine
 10
69.09999999105685
 20
-255.9993314192669
 30
0.0
 11
69.09999999105685
 21
-255.9984640947941
 31
0.0
  0
LINE
  5
4064
330
A
100
AcDbEntity
  8
0
  6
Continuous
 62
     7
370
     0
100
AcDbLine
 10
69.09999999105685
 20
74.00000000017247
 30
0.0
 11
68.09999999105684
 21
75.00000000017235
 31
0.0
  0
LINE
  5
4065
330
A
100
AcDbEntity
  8
0
  6
Continuous
 62
     7
370
     0
100
AcDbLine
 10
56.09999999105696
 20
75.00000000017235
 30
0.0
 11
55.09999999105696
 21
74.00000000017247
 31
0.0
  0
LINE
  5
4066
330
A
100
AcDbEntity
  8
0
  6
Continuous
 62
     7
370
     0
100
AcDbLine
 10
104.4999999910568
 20
6.000000000111072
 30
0.0
 11
69.09999999105685
 21
6.000000000111072
 31
0.0
  0
LINE
  5
4067
330
A
100
AcDbEntity
  8
0
  6
Continuous
 62
     7
370
     0
100
AcDbLine
 10
69.09999999105685
 20
-5.999999999888927
 30
0.0
 11
104.4999999910568
 21
-5.999999999888927
 31
0.0
  0
LINE
  5
4068
330
A
100
AcDbEntity
  8
0
  6
Continuous
 62
     7
370
     0
100
AcDbLine
 10
121.4999999907226
 20
-5.999999999888927
 30
0.0
 11
155.8999999910569
 21
-5.999999999888927
 31
0.0
  0
LINE
  5
4069
330
A
100
AcDbEntity
  8
0
  6
Continuous
 62
     7
370
     0
100
AcDbLine
 10
155.8999999910569
 20
6.000000000111072
 30
0.0
 11
121.4999999913892
 21
6.000000000111072
 31
0.0
  0
LINE
  5
406A
330
A
100
AcDbEntity
  8
0
  6
Continuous
 62
     7
370
     0
100
AcDbLine
 10
115.9999999920386
 20
3.850000000110981
 30
0.0
 11
110.9999999910568
 21
3.850000000110981
 31
0.0
  0
LINE
  5
406B
330
A
100
AcDbEntity
  8
0
  6
Continuous
 62
     7
370
     0
100
AcDbLine
 10
110.9999999910568
 20
3.850000000110981
 30
0.0
 11
110.9949999910568
 21
3.850000000110981
 31
0.0
  0
LINE
  5
406C
330
A
100
AcDbEntity
  8
0
  6
Continuous
 62
     7
370
     0
100
AcDbLine
 10
110.9949999910568
 20
-3.849999999888837
 30
0.0
 11
110.9999999910568
 21
-3.849999999888837
 31
0.0
  0
LINE
  5
406D
330
A
100
AcDbEntity
  8
0
  6
Continuous
 62
     7
370
     0
100
AcDbLine
 10
110.9999999910568
 20
-3.849999999888837
 30
0.0
 11
115.9999999920386
 21
-3.849999999888837
 31
0.0
  0
LINE
  5
406E
330
A
100
AcDbEntity
  8
0
  6
Continuous
 62
     7
370
     0
100
AcDbLine
 10
111.0049999910568
 20
3.850000000110981
 30
0.0
 11
110.9999999910568
 21
3.850000000110981
 31
0.0
  0
LINE
  5
406F
330
A
100
AcDbEntity
  8
0
  6
Continuous
 62
     7
370
     0
100
AcDbLine
 10
110.9999999910568
 20
3.850000000110981
 30
0.0
 11
109.9999999915414
 21
3.850000000110981
 31
0.0
  0
LINE
  5
4070
330
A
100
AcDbEntity
  8
0
  6
Continuous
 62
     7
370
     0
100
AcDbLine
 10
109.9999999915414
 20
-3.849999999888837
 30
0.0
 11
110.9999999910568
 21
-3.849999999888837
 31
0.0
  0
LINE
  5
4071
330
A
100
AcDbEntity
  8
0
  6
Continuous
 62
     7
370
     0
100
AcDbLine
 10
110.9999999910568
 20
-3.849999999888837
 30
0.0
 11
111.0049999910568
 21
-3.849999999888837
 31
0.0
  0
LINE
  5
4072
330
A
100
AcDbEntity
  8
0
  6
Continuous
 62
     7
370
     0
100
AcDbLine
 10
115.9999999910568
 20
-8.499999999888927
 30
0.0
 11
117.4999999910568
 21
-8.499999999888927
 31
0.0
  0
LINE
  5
4073
330
A
100
AcDbEntity
  8
0
  6
Continuous
 62
     7
370
     0
100
AcDbLine
 10
117.4999999910568
 20
8.500000000111072
 30
0.0
 11
115.9999999910568
 21
8.500000000111072
 31
0.0
  0
LINE
  5
4074
330
A
100
AcDbEntity
  8
0
  6
Continuous
 62
     7
370
     0
100
AcDbLine
 10
108.4999999910568
 20
-8.499999999888927
 30
0.0
 11
109.9999999910568
 21
-8.499999999888927
 31
0.0
  0
LINE
  5
4075
330
A
100
AcDbEntity
  8
0
  6
Continuous
 62
     7
370
     0
100
AcDbLine
 10
109.9999999910568
 20
8.500000000111072
 30
0.0
 11
108.4999999910568
 21
8.500000000111072
 31
0.0
  0
LINE
  5
4076
330
A
100
AcDbEntity
  8
0
  6
Continuous
 62
     7
370
     0
100
AcDbLine
 10
119.4999999905569
 20
-9.0
 30
0.0
 11
121.499999990668
 21
-7.000000000111072
 31
0.0
  0
LINE
  5
4077
330
A
100
AcDbEntity
  8
0
  6
Continuous
 62
     7
370
     0
100
AcDbLine
 10
121.4999999914456
 20
6.999999999888927
 30
0.0
 11
119.4999999915569
 21
8.999999999999886
 31
0.0
  0
LINE
  5
4078
330
A
100
AcDbEntity
  8
0
  6
Continuous
 62
     7
370
     0
100
AcDbLine
 10
119.4999999915569
 20
8.999999999999886
 30
0.0
 11
117.4999999915569
 21
9.000000000111072
 31
0.0
  0
LINE
  5
4079
330
A
100
AcDbEntity
  8
0
  6
Continuous
 62
     7
370
     0
100
AcDbLine
 10
117.4999999905569
 20
-8.999999999888814
 30
0.0
 11
119.4999999905569
 21
-9.0
 31
0.0
  0
LINE
  5
407A
330
A
100
AcDbEntity
  8
0
  6
Continuous
 62
     7
370
     0
100
AcDbLine
 10
106.4999999910568
 20
-8.999999999888814
 30
0.0
 11
108.4999999910568
 21
-8.999999999888814
 31
0.0
  0
LINE
  5
407B
330
A
100
AcDbEntity
  8
0
  6
Continuous
 62
     7
370
     0
100
AcDbLine
 10
108.4999999910568
 20
9.000000000111072
 30
0.0
 11
106.4999999910568
 21
9.000000000111072
 31
0.0
  0
LINE
  5
407C
330
A
100
AcDbEntity
  8
0
  6
Continuous
 62
     7
370
     0
100
AcDbLine
 10
106.4999999910568
 20
9.000000000111072
 30
0.0
 11
104.4999999910568
 21
7.000000000111072
 31
0.0
  0
LINE
  5
407D
330
A
100
AcDbEntity
  8
0
  6
Continuous
 62
     7
370
     0
100
AcDbLine
 10
104.4999999910568
 20
-6.999999999888927
 30
0.0
 11
106.4999999910568
 21
-8.999999999888814
 31
0.0
  0
TEXT
  5
5F7E
330
A
100
AcDbEntity
  8
0
  6
Continuous
 62
     7
370
     0
100
AcDbText
 10
4.184051176572666
 20
115.0073206443586
 30
0.0
 40
10.0
  1
5H03
100
AcDbText
  0
LINE
  5
66AC
330
A
100
AcDbEntity
  8
0
  6
CENTER
 62
     1
100
AcDbLine
 10
-10.99999999999994
 20
0.0
 30
0.0
 11
11.0
 21
0.0
 31
0.0
  0
CIRCLE
  5
66AE
330
A
100
AcDbEntity
  8
0
  6
CENTER
 62
     1
100
AcDbCircle
 10
0.0000000000000568
 20
0.0000000000000568
 30
0.0
 40
6.0
  0
LINE
  5
66AF
330
A
100
AcDbEntity
  8
0
  6
CENTER
 62
     1
100
AcDbLine
 10
-11.00000001654149
 20
-249.9999999997663
 30
0.0
 11
10.99999998345845
 21
-249.9999999997663
 31
0.0
  0
CIRCLE
  5
66B1
330
A
100
AcDbEntity
  8
0
  6
CENTER
 62
     1
100
AcDbCircle
 10
-0.0000000165414917
 20
-249.9999999997662
 30
0.0
 40
6.0
  0
LINE
  5
66B2
330
A
100
AcDbEntity
  8
0
  6
CENTER
 62
     1
100
AcDbLine
 10
62.09999999105668
 20
111.0000000126303
 30
0.0
 11
62.09999999105668
 21
129.0000000126303
 31
0.0
  0
LINE
  5
66B3
330
A
100
AcDbEntity
  8
0
  6
CENTER
 62
     1
100
AcDbLine
 10
162.8999999910562
 20
111.0000000010114
 30
0.0
 11
162.8999999910562
 21
129.0000000010114
 31
0.0
  0
LINE
  5
66B4
330
A
100
AcDbEntity
  8
0
  6
CENTER
 62
     1
100
AcDbLine
 10
53.09999999105674
 20
120.0000000126303
 30
0.0
 11
171.8999999910562
 21
120.0000000126303
 31
0.0
  0
LINE
  5
66B5
330
A
100
AcDbEntity
  8
0
  6
CENTER
 62
     1
100
AcDbLine
 10
160.9999999910566
 20
0.0000000001110152
 30
0.0
 11
63.99999999105665
 21
0.0000000001110152
 31
0.0
  0
LINE
  5
66B6
330
A
100
AcDbEntity
  8
0
  6
CENTER
 62
     1
100
AcDbLine
 10
160.9999999910362
 20
-250.0000000005864
 30
0.0
 11
63.99999999105665
 21
-250.0000000007223
 31
0.0
  0
LINE
  5
66BD
330
A
100
AcDbEntity
  8
0
  6
CENTER
 62
     1
100
AcDbLine
 10
0.0000000000001137
 20
-10.99999999999983
 30
0.0
 11
0.0000000000001137
 21
11.00000000000005
 31
0.0
  0
LINE
  5
66BE
330
A
100
AcDbEntity
  8
0
  6
CENTER
 62
     1
100
AcDbLine
 10
-0.0000000165414349
 20
-260.9999999997661
 30
0.0
 11
-0.0000000165414349
 21
-238.9999999997662
 31
0.0
  0
ENDSEC
  0
SECTION
  2
OBJECTS
  0
DICTIONARY
  5
19
330
0
100
AcDbDictionary
281
     1
  3
ACAD_COLOR
350
3176
  3
ACAD_GROUP
350
1A
  3
ACAD_LAYOUT
350
1E
  3
ACAD_MATERIAL
350
314C
  3
ACAD_MLEADERSTYLE
350
319B
  3
ACAD_MLINESTYLE
350
1B
  3
ACAD_PLOTSETTINGS
350
22
  3
ACAD_PLOTSTYLENAME
350
1F
  3
ACAD_SCALELIST
350
3179
  3
ACAD_TABLESTYLE
350
3177
  3
ACAD_VISUALSTYLE
350
3165
  3
ACAD_WIPEOUT_VARS
350
23
  3
ACDB_RECOMPOSE_DATA
350
630A
  3
AcDbVariableDictionary
350
630B
  3
ASE_INDEX_DICTIONARY
350
5E44
  3
DWGPROPS
350
66C7
  0
DICTIONARY
  5
5E41
330
14
100
AcDbDictionary
280
     1
281
     1
  3
ADSK_XREC_LAYER_RECONCILED
360
5E42
  0
DICTIONARY
  5
31A7
330
A
100
AcDbDictionary
280
     1
281
     1
  3
ACAD_SORTENTS
360
31A8
  0
DICTIONARY
  5
3176
102
{ACAD_REACTORS
330
19
102
}
330
19
100
AcDbDictionary
281
     1
  0
DICTIONARY
  5
1A
102
{ACAD_REACTORS
330
19
102
}
330
19
100
AcDbDictionary
281
     1
  0
DICTIONARY
  5
1E
102
{ACAD_REACTORS
330
19
102
}
330
19
100
AcDbDictionary
281
     1
  3
Layout1
350
21
  3
Model
350
20
  0
DICTIONARY
  5
314C
102
{ACAD_REACTORS
330
19
102
}
330
19
100
AcDbDictionary
281
     1
  3
ByBlock
350
3155
  3
ByLayer
350
314D
  3
Global
350
315D
  0
DICTIONARY
  5
319B
102
{ACAD_REACTORS
330
19
102
}
330
19
100
AcDbDictionary
281
     1
  3
Standard
350
319C
  0
DICTIONARY
  5
1B
102
{ACAD_REACTORS
330
19
102
}
330
19
100
AcDbDictionary
281
     1
  3
Standard
350
1C
  0
DICTIONARY
  5
22
102
{ACAD_REACTORS
330
19
102
}
330
19
100
AcDbDictionary
281
     1
  0
ACDBDICTIONARYWDFLT
  5
1F
102
{ACAD_REACTORS
330
19
102
}
330
19
100
AcDbDictionary
281
     1
  3
Normal
350
1D
100
AcDbDictionaryWithDefault
340
1D
  0
DICTIONARY
  5
3179
102
{ACAD_REACTORS
330
19
102
}
330
19
100
AcDbDictionary
281
     1
  3
A0
350
317A
  3
A1
350
317B
  3
A2
350
317C
  3
A3
350
317D
  3
A4
350
317E
  3
A5
350
317F
  3
A6
350
3180
  3
A7
350
3181
  3
A8
350
3182
  3
A9
350
3183
  3
B0
350
3184
  3
B1
350
3185
  3
B2
350
3186
  3
B3
350
3187
  3
B4
350
3188
  3
B5
350
3189
  3
B6
350
318A
  3
B7
350
318B
  3
B8
350
318C
  3
B9
350
318D
  3
C0
350
318E
  3
C1
350
318F
  3
C2
350
3190
  3
C3
350
3191
  3
C4
350
3192
  3
C5
350
3193
  3
C6
350
3194
  3
C7
350
3195
  3
C8
350
3196
  3
C9
350
3197
  3
D0
350
3198
  3
D1
350
3199
  3
D2
350
319A
  0
DICTIONARY
  5
3177
102
{ACAD_REACTORS
330
19
102
}
330
19
100
AcDbDictionary
281
     1
  3
Standard
350
3178
  0
DICTIONARY
  5
3165
102
{ACAD_REACTORS
330
19
102
}
330
19
100
AcDbDictionary
281
     1
  3
2dWireframe
350
316B
  3
3D Hidden
350
316D
  3
3dWireframe
350
316C
  3
Basic
350
316A
  3
Brighten
350
3171
  3
ColorChange
350
3175
  3
Conceptual
350
316E
  3
Dim
350
3170
  3
Facepattern
350
3174
  3
Flat
350
3166
  3
FlatWithEdges
350
3167
  3
Gouraud
350
3168
  3
GouraudWithEdges
350
3169
  3
Linepattern
350
3173
  3
Realistic
350
316F
  3
Thicken
350
3172
  0
WIPEOUTVARIABLES
  5
23
330
19
100
AcDbWipeoutVariables
 70
     1
  0
XRECORD
  5
630A
102
{ACAD_REACTORS
330
19
102
}
330
19
100
AcDbXrecord
280
     1
 90
        1
330
3178
  0
DICTIONARY
  5
630B
102
{ACAD_REACTORS
330
19
102
}
330
19
100
AcDbDictionary
281
     1
  3
CANNOSCALE
350
630F
  3
CMLEADERSTYLE
350
630D
  3
CTABLESTYLE
350
630C
  3
DIMASSOC
350
6318
  3
INDEXCTL
350
6317
  3
LIGHTINGUNITS
350
6310
  3
MSLTSCALE
350
630E
  3
SORTENTS
350
6316
  0
DICTIONARY
  5
5E44
102
{ACAD_REACTORS
330
19
102
}
330
19
100
AcDbDictionary
281
     1
  3
ASEBlockHierarchyIndexRecord
350
5E46
1001
DCO15
1040
1685075681.336
  0
XRECORD
  5
66C7
102
{ACAD_REACTORS
330
19
102
}
330
19
100
AcDbXrecord
280
     1
  1
DWGPROPS COOKIE
  2

  3

  4

  6

  7

  8
renzo.ceresoli
  9

300
=
301
=
302
=
303
=
304
=
305
=
306
=
307
=
308
=
309
=
 40
0.004036400462963
 41
2455303.727916667
 42
2455306.469387928
  1

 90
        0
  0
XRECORD
  5
5E42
102
{ACAD_REACTORS
330
5E41
102
}
330
5E41
100
AcDbXrecord
280
     1
290
     1
  0
SORTENTSTABLE
  5
31A8
102
{ACAD_REACTORS
330
31A7
102
}
330
31A7
100
AcDbSortentsTable
330
A
331
3FC4
  5
501E
331
3FA9
  5
5003
331
3F96
  5
4FF0
331
4041
  5
4F91
331
405C
  5
4FAC
331
4013
  5
4F63
331
3FF8
  5
4F48
331
3FDD
  5
4FDC
331
4026
  5
4F76
331
4075
  5
4FC5
331
3FC2
  5
501C
331
3FA7
  5
5001
331
3F94
  5
4FEE
331
403F
  5
4F8F
331
405A
  5
4FAA
331
4011
  5
4F61
331
3FF6
  5
4F46
331
4024
  5
4F74
331
3FDB
  5
4FDA
331
4073
  5
4FC3
331
3FC0
  5
501A
331
3FA5
  5
4FFF
331
3F92
  5
4FEC
331
403D
  5
4F8D
331
4058
  5
4FA8
331
400F
  5
4F5F
331
3FF4
  5
4F44
331
4022
  5
4F72
331
3FBE
  5
5018
331
3FD9
  5
4FD8
331
4056
  5
4FA6
331
4071
  5
4FC1
331
3FA3
  5
4FFD
331
3F90
  5
4FEA
331
403B
  5
4F8B
331
400D
  5
4F5D
331
3FF2
  5
4F42
331
4020
  5
4F70
331
3FD7
  5
4FD6
331
3FBC
  5
5016
331
4054
  5
4FA4
331
406F
  5
4FBF
331
3FA1
  5
4FFB
331
3F8E
  5
4FE8
331
400B
  5
4F5B
331
3FF0
  5
4F40
331
401E
  5
4F6E
331
3FD5
  5
4FD4
331
3FBA
  5
5014
331
4039
  5
4F89
331
4052
  5
4FA2
331
406D
  5
4FBD
331
4037
  5
4F87
331
3F8C
  5
4FE6
331
4009
  5
4F59
331
3FEE
  5
4F3E
331
401C
  5
4F6C
331
3FD3
  5
4FD2
331
3FB8
  5
5012
331
4050
  5
4FA0
331
406B
  5
4FBB
331
4035
  5
4F85
331
3F8A
  5
4FE4
331
4007
  5
4F57
331
401A
  5
4F6A
331
3FD1
  5
4FD0
331
3FB6
  5
5010
331
3FEC
  5
4F3C
331
404E
  5
4F9E
331
4069
  5
4FB9
331
4033
  5
4F83
331
3F88
  5
4FE2
331
4005
  5
4F55
331
4018
  5
4F68
331
3FCF
  5
4FCE
331
3FB4
  5
500E
331
3F86
  5
4FE0
331
3FEA
  5
4F3A
331
404C
  5
4F9C
331
4067
  5
4FB7
331
4031
  5
4F81
331
4003
  5
4F53
331
3FE8
  5
4F38
331
3FCD
  5
5027
331
3FB2
  5
500C
331
3F84
  5
4FDE
331
3F9F
  5
4FF9
331
4065
  5
4FB5
331
402F
  5
4F7F
331
404A
  5
4F9A
331
4001
  5
4F51
331
3FE6
  5
4F36
331
3FCB
  5
5025
331
3FB0
  5
500A
331
3F9D
  5
4FF7
331
4063
  5
4FB3
331
3FFF
  5
4F4F
331
402D
  5
4F7D
331
4048
  5
4F98
331
3FE4
  5
4F34
331
3FC9
  5
5023
331
3FAE
  5
5008
331
3F9B
  5
4FF5
331
4061
  5
4FB1
331
407C
  5
4FCC
331
402B
  5
4F7B
331
4046
  5
4F96
331
3FFD
  5
4F4D
331
3FE2
  5
4F32
331
3FC7
  5
5021
331
3FAC
  5
5006
331
3F99
  5
4FF3
331
405F
  5
4FAF
331
407A
  5
4FCA
331
4016
  5
4F66
331
4029
  5
4F79
331
4044
  5
4F94
331
3FFB
  5
4F4B
331
3FE0
  5
4F30
331
3FC5
  5
501F
331
3FAA
  5
5004
331
3F97
  5
4FF1
331
405D
  5
4FAD
331
4078
  5
4FC8
331
4014
  5
4F64
331
4027
  5
4F77
331
4042
  5
4F92
331
3FF9
  5
4F49
331
3FDE
  5
4FDD
331
4076
  5
4FC6
331
3FC3
  5
501D
331
3F95
  5
4FEF
331
3FA8
  5
5002
331
4012
  5
4F62
331
4025
  5
4F75
331
4040
  5
4F90
331
3FF7
  5
4F47
331
3FDC
  5
4FDB
331
405B
  5
4FAB
331
4074
  5
4FC4
331
3FC1
  5
501B
331
3F93
  5
4FED
331
3FA6
  5
5000
331
4010
  5
4F60
331
4023
  5
4F73
331
403E
  5
4F8E
331
3FF5
  5
4F45
331
3FDA
  5
4FD9
331
3FBF
  5
5019
331
4059
  5
4FA9
331
4072
  5
4FC2
331
4057
  5
4FA7
331
3FA4
  5
4FFE
331
3F91
  5
4FEB
331
4021
  5
4F71
331
403C
  5
4F8C
331
3FF3
  5
4F43
331
3FD8
  5
4FD7
331
3FBD
  5
5017
331
400E
  5
4F5E
331
4070
  5
4FC0
331
4055
  5
4FA5
331
3FA2
  5
4FFC
331
3F8F
  5
4FE9
331
401F
  5
4F6F
331
403A
  5
4F8A
331
3FF1
  5
4F41
331
3FD6
  5
4FD5
331
3FBB
  5
5015
331
400C
  5
4F5C
331
406E
  5
4FBE
331
4053
  5
4FA3
331
3FA0
  5
4FFA
331
3F8D
  5
4FE7
331
401D
  5
4F6D
331
4038
  5
4F88
331
400A
  5
4F5A
331
3FEF
  5
4F3F
331
3FD4
  5
4FD3
331
3FB9
  5
5013
331
4036
  5
4F86
331
4051
  5
4FA1
331
406C
  5
4FBC
331
3F8B
  5
4FE5
331
401B
  5
4F6B
331
4008
  5
4F58
331
3FED
  5
4F3D
331
3FD2
  5
4FD1
331
3FB7
  5
5011
331
4034
  5
4F84
331
404F
  5
4F9F
331
406A
  5
4FBA
331
3F89
  5
4FE3
331
4019
  5
4F69
331
4006
  5
4F56
331
3FEB
  5
4F3B
331
3FD0
  5
4FCF
331
3FB5
  5
500F
331
3F87
  5
4FE1
331
4032
  5
4F82
331
404D
  5
4F9D
331
4068
  5
4FB8
331
4004
  5
4F54
331
3FE9
  5
4F39
331
3FCE
  5
5028
331
3FB3
  5
500D
331
3F85
  5
4FDF
331
4030
  5
4F80
331
404B
  5
4F9B
331
4066
  5
4FB6
331
4002
  5
4F52
331
3FE7
  5
4F37
331
3FCC
  5
5026
331
3FB1
  5
500B
331
3F9E
  5
4FF8
331
402E
  5
4F7E
331
4049
  5
4F99
331
4064
  5
4FB4
331
4000
  5
4F50
331
3FE5
  5
4F35
331
3FAF
  5
5009
331
3F9C
  5
4FF6
331
3FCA
  5
5024
331
402C
  5
4F7C
331
4047
  5
4F97
331
3FFE
  5
4F4E
331
4062
  5
4FB2
331
407D
  5
4FCD
331
3FE3
  5
4F33
331
3FAD
  5
5007
331
3F9A
  5
4FF4
331
3FC8
  5
5022
331
402A
  5
4F7A
331
4045
  5
4F95
331
4060
  5
4FB0
331
4017
  5
4F67
331
3FFC
  5
4F4C
331
407B
  5
4FCB
331
3FE1
  5
4F31
331
3FC6
  5
5020
331
3FAB
  5
5005
331
3F98
  5
4FF2
331
4043
  5
4F93
331
405E
  5
4FAE
331
4079
  5
4FC9
331
4015
  5
4F65
331
3FFA
  5
4F4A
331
3FDF
  5
4F2F
331
4028
  5
4F78
331
4077
  5
4FC7
  0
LAYOUT
  5
21
102
{ACAD_XDICTIONARY
360
66CA
102
}
102
{ACAD_REACTORS
330
1E
102
}
330
1E
100
AcDbPlotSettings
  1

  2

  4

  6

 40
0.0
 41
0.0
 42
0.0
 43
0.0
 44
0.0
 45
0.0
 46
0.0
 47
0.0
 48
0.0
 49
0.0
140
0.0
141
0.0
142
1.0
143
1.0
 70
     0
 72
     0
 73
     0
 74
     0
  7

 75
     0
147
1.0
148
0.0
149
0.0
100
AcDbLayout
  1
Layout1
 70
     0
 71
     1
 10
0.0
 20
0.0
 11
12.0
 21
9.0
 12
0.0
 22
0.0
 32
0.0
 14
1.000000000000000E+20
 24
1.000000000000000E+20
 34
1.000000000000000E+20
 15
-1.000000000000000E+20
 25
-1.000000000000000E+20
 35
-1.000000000000000E+20
146
0.0
 13
0.0
 23
0.0
 33
0.0
 16
1.0
 26
0.0
 36
0.0
 17
0.0
 27
1.0
 37
0.0
 76
     0
330
B
  0
LAYOUT
  5
20
102
{ACAD_XDICTIONARY
360
66C8
102
}
102
{ACAD_REACTORS
330
1E
102
}
330
1E
100
AcDbPlotSettings
  1

  2

  4

  6

 40
0.0
 41
0.0
 42
0.0
 43
0.0
 44
0.0
 45
0.0
 46
0.0
 47
0.0
 48
0.0
 49
0.0
140
0.0
141
0.0
142
1.0
143
1.0
 70
  1024
 72
     0
 73
     0
 74
     0
  7

 75
     0
147
1.0
148
0.0
149
0.0
100
AcDbLayout
  1
Model
 70
     0
 71
     0
 10
0.0
 20
0.0
 11
0.0
 21
0.0
 12
0.0
 22
0.0
 32
0.0
 14
0.0
 24
0.0
 34
0.0
 15
0.0
 25
0.0
 35
0.0
146
0.0
 13
0.0
 23
0.0
 33
0.0
 16
0.0
 26
0.0
 36
0.0
 17
0.0
 27
0.0
 37
0.0
 76
     0
330
A
331
15
  0
MATERIAL
  5
3155
102
{ACAD_XDICTIONARY
360
3156
102
}
102
{ACAD_REACTORS
330
314C
102
}
330
314C
100
AcDbMaterial
  1
ByBlock
 72
     0
 43
0.0208333333333333
 43
0.0
 43
0.0
 43
0.0
 43
0.0
 43
0.0208333333333333
 43
0.0
 43
0.0
 43
0.0
 43
0.0
 43
1.0
 43
0.0
 43
0.0
 43
0.0
 43
0.0
 43
1.0
 77
     0
 47
0.0208333333333333
 47
0.0
 47
0.0
 47
0.0
 47
0.0
 47
0.0208333333333333
 47
0.0
 47
0.0
 47
0.0
 47
0.0
 47
1.0
 47
0.0
 47
0.0
 47
0.0
 47
0.0
 47
1.0
171
     0
 49
0.0208333333333333
 49
0.0
 49
0.0
 49
0.0
 49
0.0
 49
0.0208333333333333
 49
0.0
 49
0.0
 49
0.0
 49
0.0
 49
1.0
 49
0.0
 49
0.0
 49
0.0
 49
0.0
 49
1.0
175
     0
142
0.0208333333333333
142
0.0
142
0.0
142
0.0
142
0.0
142
0.0208333333333333
142
0.0
142
0.0
142
0.0
142
0.0
142
1.0
142
0.0
142
0.0
142
0.0
142
0.0
142
1.0
179
     0
144
0.0208333333333333
144
0.0
144
0.0
144
0.0
144
0.0
144
0.0208333333333333
144
0.0
144
0.0
144
0.0
144
0.0
144
1.0
144
0.0
144
0.0
144
0.0
144
0.0
144
1.0
147
0.0208333333333333
147
0.0
147
0.0
147
0.0
147
0.0
147
0.0208333333333333
147
0.0
147
0.0
147
0.0
147
0.0
147
1.0
147
0.0
147
0.0
147
0.0
147
0.0
147
1.0
  0
MATERIAL
  5
314D
102
{ACAD_XDICTIONARY
360
314E
102
}
102
{ACAD_REACTORS
330
314C
102
}
330
314C
100
AcDbMaterial
  1
ByLayer
 72
     0
 43
0.0208333333333333
 43
0.0
 43
0.0
 43
0.0
 43
0.0
 43
0.0208333333333333
 43
0.0
 43
0.0
 43
0.0
 43
0.0
 43
1.0
 43
0.0
 43
0.0
 43
0.0
 43
0.0
 43
1.0
 77
     0
 47
0.0208333333333333
 47
0.0
 47
0.0
 47
0.0
 47
0.0
 47
0.0208333333333333
 47
0.0
 47
0.0
 47
0.0
 47
0.0
 47
1.0
 47
0.0
 47
0.0
 47
0.0
 47
0.0
 47
1.0
171
     0
 49
0.0208333333333333
 49
0.0
 49
0.0
 49
0.0
 49
0.0
 49
0.0208333333333333
 49
0.0
 49
0.0
 49
0.0
 49
0.0
 49
1.0
 49
0.0
 49
0.0
 49
0.0
 49
0.0
 49
1.0
175
     0
142
0.0208333333333333
142
0.0
142
0.0
142
0.0
142
0.0
142
0.0208333333333333
142
0.0
142
0.0
142
0.0
142
0.0
142
1.0
142
0.0
142
0.0
142
0.0
142
0.0
142
1.0
179
     0
144
0.0208333333333333
144
0.0
144
0.0
144
0.0
144
0.0
144
0.0208333333333333
144
0.0
144
0.0
144
0.0
144
0.0
144
1.0
144
0.0
144
0.0
144
0.0
144
0.0
144
1.0
147
0.0208333333333333
147
0.0
147
0.0
147
0.0
147
0.0
147
0.0208333333333333
147
0.0
147
0.0
147
0.0
147
0.0
147
1.0
147
0.0
147
0.0
147
0.0
147
0.0
147
1.0
  0
MATERIAL
  5
315D
102
{ACAD_XDICTIONARY
360
315E
102
}
102
{ACAD_REACTORS
330
314C
102
}
330
314C
100
AcDbMaterial
  1
Global
 72
     0
 43
0.0208333333333333
 43
0.0
 43
0.0
 43
0.0
 43
0.0
 43
0.0208333333333333
 43
0.0
 43
0.0
 43
0.0
 43
0.0
 43
1.0
 43
0.0
 43
0.0
 43
0.0
 43
0.0
 43
1.0
 77
     0
 47
0.0208333333333333
 47
0.0
 47
0.0
 47
0.0
 47
0.0
 47
0.0208333333333333
 47
0.0
 47
0.0
 47
0.0
 47
0.0
 47
1.0
 47
0.0
 47
0.0
 47
0.0
 47
0.0
 47
1.0
171
     0
 49
0.0208333333333333
 49
0.0
 49
0.0
 49
0.0
 49
0.0
 49
0.0208333333333333
 49
0.0
 49
0.0
 49
0.0
 49
0.0
 49
1.0
 49
0.0
 49
0.0
 49
0.0
 49
0.0
 49
1.0
175
     0
142
0.0208333333333333
142
0.0
142
0.0
142
0.0
142
0.0
142
0.0208333333333333
142
0.0
142
0.0
142
0.0
142
0.0
142
1.0
142
0.0
142
0.0
142
0.0
142
0.0
142
1.0
179
     0
144
0.0208333333333333
144
0.0
144
0.0
144
0.0
144
0.0
144
0.0208333333333333
144
0.0
144
0.0
144
0.0
144
0.0
144
1.0
144
0.0
144
0.0
144
0.0
144
0.0
144
1.0
147
0.0208333333333333
147
0.0
147
0.0
147
0.0
147
0.0
147
0.0208333333333333
147
0.0
147
0.0
147
0.0
147
0.0
147
1.0
147
0.0
147
0.0
147
0.0
147
0.0
147
1.0
  0
MLEADERSTYLE
  5
319C
102
{ACAD_REACTORS
330
319B
102
}
330
319B
100
AcDbMLeaderStyle
170
     2
171
     1
172
     0
 90
        2
 40
0.0
 41
0.0
173
     1
 91
-1056964608
340
11
 92
       -2
290
     1
 42
2.0
291
     1
 43
0.36
  3
Standard
 44
4.0
300

342
17
174
     1
178
     6
175
     1
176
     0
 93
-1056964608
 45
4.0
292
     0
297
     0
 46
4.0
 94
-1056964608
 47
1.0
 49
1.0
140
1.0
293
     1
141
0.0
294
     1
177
     0
142
1.0
295
     0
296
     0
143
0.125
1001
ACAD_MLEADERVER
1070
     2
  0
MLINESTYLE
  5
1C
102
{ACAD_REACTORS
330
1B
102
}
330
1B
100
AcDbMlineStyle
  2
STANDARD
 70
     0
  3

 62
     0
 51
90.0
 52
90.0
 71
     2
 49
0.5
 62
   256
  6
BYLAYER
 49
-0.5
 62
   256
  6
BYLAYER
  0
ACDBPLACEHOLDER
  5
1D
102
{ACAD_REACTORS
330
1F
102
}
330
1F
  0
SCALE
  5
317A
102
{ACAD_REACTORS
330
3179
102
}
330
3179
100
AcDbScale
 70
     0
300
1:1
140
1.0
141
1.0
290
     1
  0
SCALE
  5
317B
102
{ACAD_REACTORS
330
3179
102
}
330
3179
100
AcDbScale
 70
     0
300
1:2
140
1.0
141
2.0
290
     0
  0
SCALE
  5
317C
102
{ACAD_REACTORS
330
3179
102
}
330
3179
100
AcDbScale
 70
     0
300
1:4
140
1.0
141
4.0
290
     0
  0
SCALE
  5
317D
102
{ACAD_REACTORS
330
3179
102
}
330
3179
100
AcDbScale
 70
     0
300
1:5
140
1.0
141
5.0
290
     0
  0
SCALE
  5
317E
102
{ACAD_REACTORS
330
3179
102
}
330
3179
100
AcDbScale
 70
     0
300
1:8
140
1.0
141
8.0
290
     0
  0
SCALE
  5
317F
102
{ACAD_REACTORS
330
3179
102
}
330
3179
100
AcDbScale
 70
     0
300
1:10
140
1.0
141
10.0
290
     0
  0
SCALE
  5
3180
102
{ACAD_REACTORS
330
3179
102
}
330
3179
100
AcDbScale
 70
     0
300
1:16
140
1.0
141
16.0
290
     0
  0
SCALE
  5
3181
102
{ACAD_REACTORS
330
3179
102
}
330
3179
100
AcDbScale
 70
     0
300
1:20
140
1.0
141
20.0
290
     0
  0
SCALE
  5
3182
102
{ACAD_REACTORS
330
3179
102
}
330
3179
100
AcDbScale
 70
     0
300
1:30
140
1.0
141
30.0
290
     0
  0
SCALE
  5
3183
102
{ACAD_REACTORS
330
3179
102
}
330
3179
100
AcDbScale
 70
     0
300
1:40
140
1.0
141
40.0
290
     0
  0
SCALE
  5
3184
102
{ACAD_REACTORS
330
3179
102
}
330
3179
100
AcDbScale
 70
     0
300
1:50
140
1.0
141
50.0
290
     0
  0
SCALE
  5
3185
102
{ACAD_REACTORS
330
3179
102
}
330
3179
100
AcDbScale
 70
     0
300
1:100
140
1.0
141
100.0
290
     0
  0
SCALE
  5
3186
102
{ACAD_REACTORS
330
3179
102
}
330
3179
100
AcDbScale
 70
     0
300
2:1
140
2.0
141
1.0
290
     0
  0
SCALE
  5
3187
102
{ACAD_REACTORS
330
3179
102
}
330
3179
100
AcDbScale
 70
     0
300
4:1
140
4.0
141
1.0
290
     0
  0
SCALE
  5
3188
102
{ACAD_REACTORS
330
3179
102
}
330
3179
100
AcDbScale
 70
     0
300
8:1
140
8.0
141
1.0
290
     0
  0
SCALE
  5
3189
102
{ACAD_REACTORS
330
3179
102
}
330
3179
100
AcDbScale
 70
     0
300
10:1
140
10.0
141
1.0
290
     0
  0
SCALE
  5
318A
102
{ACAD_REACTORS
330
3179
102
}
330
3179
100
AcDbScale
 70
     0
300
100:1
140
100.0
141
1.0
290
     0
  0
SCALE
  5
318B
102
{ACAD_REACTORS
330
3179
102
}
330
3179
100
AcDbScale
 70
     0
300
1/128" = 1'-0"
140
0.0078125
141
12.0
290
     0
  0
SCALE
  5
318C
102
{ACAD_REACTORS
330
3179
102
}
330
3179
100
AcDbScale
 70
     0
300
1/64" = 1'-0"
140
0.015625
141
12.0
290
     0
  0
SCALE
  5
318D
102
{ACAD_REACTORS
330
3179
102
}
330
3179
100
AcDbScale
 70
     0
300
1/32" = 1'-0"
140
0.03125
141
12.0
290
     0
  0
SCALE
  5
318E
102
{ACAD_REACTORS
330
3179
102
}
330
3179
100
AcDbScale
 70
     0
300
1/16" = 1'-0"
140
0.0625
141
12.0
290
     0
  0
SCALE
  5
318F
102
{ACAD_REACTORS
330
3179
102
}
330
3179
100
AcDbScale
 70
     0
300
3/32" = 1'-0"
140
0.09375
141
12.0
290
     0
  0
SCALE
  5
3190
102
{ACAD_REACTORS
330
3179
102
}
330
3179
100
AcDbScale
 70
     0
300
1/8" = 1'-0"
140
0.125
141
12.0
290
     0
  0
SCALE
  5
3191
102
{ACAD_REACTORS
330
3179
102
}
330
3179
100
AcDbScale
 70
     0
300
3/16" = 1'-0"
140
0.1875
141
12.0
290
     0
  0
SCALE
  5
3192
102
{ACAD_REACTORS
330
3179
102
}
330
3179
100
AcDbScale
 70
     0
300
1/4" = 1'-0"
140
0.25
141
12.0
290
     0
  0
SCALE
  5
3193
102
{ACAD_REACTORS
330
3179
102
}
330
3179
100
AcDbScale
 70
     0
300
3/8" = 1'-0"
140
0.375
141
12.0
290
     0
  0
SCALE
  5
3194
102
{ACAD_REACTORS
330
3179
102
}
330
3179
100
AcDbScale
 70
     0
300
1/2" = 1'-0"
140
0.5
141
12.0
290
     0
  0
SCALE
  5
3195
102
{ACAD_REACTORS
330
3179
102
}
330
3179
100
AcDbScale
 70
     0
300
3/4" = 1'-0"
140
0.75
141
12.0
290
     0
  0
SCALE
  5
3196
102
{ACAD_REACTORS
330
3179
102
}
330
3179
100
AcDbScale
 70
     0
300
1" = 1'-0"
140
1.0
141
12.0
290
     0
  0
SCALE
  5
3197
102
{ACAD_REACTORS
330
3179
102
}
330
3179
100
AcDbScale
 70
     0
300
1-1/2" = 1'-0"
140
1.5
141
12.0
290
     0
  0
SCALE
  5
3198
102
{ACAD_REACTORS
330
3179
102
}
330
3179
100
AcDbScale
 70
     0
300
3" = 1'-0"
140
3.0
141
12.0
290
     0
  0
SCALE
  5
3199
102
{ACAD_REACTORS
330
3179
102
}
330
3179
100
AcDbScale
 70
     0
300
6" = 1'-0"
140
6.0
141
12.0
290
     0
  0
SCALE
  5
319A
102
{ACAD_REACTORS
330
3179
102
}
330
3179
100
AcDbScale
 70
     0
300
1'-0" = 1'-0"
140
12.0
141
12.0
290
     0
  0
TABLESTYLE
  5
3178
102
{ACAD_XDICTIONARY
360
6308
102
}
102
{ACAD_REACTORS
330
3177
102
}
330
3177
100
AcDbTableStyle
  3
Standard
 70
     0
 71
     0
 40
1.5
 41
1.5
280
     0
281
     0
  7
Standard
140
4.5
170
     2
 62
     0
 63
     7
283
     0
274
    -2
284
     1
 64
     0
275
    -2
285
     1
 65
     0
276
    -2
286
     1
 66
     0
277
    -2
287
     1
 67
     0
278
    -2
288
     1
 68
     0
279
    -2
289
     1
 69
     0
  7
Standard
140
6.0
170
     5
 62
     0
 63
     7
283
     0
274
    -2
284
     1
 64
     0
275
    -2
285
     1
 65
     0
276
    -2
286
     1
 66
     0
277
    -2
287
     1
 67
     0
278
    -2
288
     1
 68
     0
279
    -2
289
     1
 69
     0
  7
Standard
140
4.5
170
     5
 62
     0
 63
     7
283
     0
274
    -2
284
     1
 64
     0
275
    -2
285
     1
 65
     0
276
    -2
286
     1
 66
     0
277
    -2
287
     1
 67
     0
278
    -2
288
     1
 68
     0
279
    -2
289
     1
 69
     0
  0
VISUALSTYLE
  5
316B
102
{ACAD_REACTORS
330
3165
102
}
330
3165
100
AcDbVisualStyle
  2
2dWireframe
 70
     4
 71
     0
 72
     2
 73
     0
 90
        0
 40
-0.6
 41
-30.0
 62
     5
 63
     7
 74
     1
 91
        4
 64
     7
 65
   257
 75
     1
175
     1
 42
1.0
 92
        0
 66
   257
 43
1.0
 76
     1
 77
     6
 78
     2
 67
     7
 79
     5
170
     0
171
     0
290
     0
174
     0
 93
        1
 44
0.0
173
     0
291
     0
 45
0.0
1001
ACAD
1000
AcDbSavedByObjectVersion
1070
     0
1000
AcDbSavedByObjectVersion
1070
     0
  0
VISUALSTYLE
  5
316D
102
{ACAD_REACTORS
330
3165
102
}
330
3165
100
AcDbVisualStyle
  2
3D Hidden
 70
     6
 71
     1
 72
     2
 73
     2
 90
        0
 40
-0.6
 41
-30.0
 62
     5
 63
     7
 74
     2
 91
        2
 64
     7
 65
   257
 75
     2
175
     1
 42
40.0
 92
        0
 66
   257
 43
1.0
 76
     1
 77
     6
 78
     2
 67
     7
 79
     3
170
     0
171
     0
290
     0
174
     0
 93
        1
 44
0.0
173
     0
291
     0
 45
0.0
1001
ACAD
1000
AcDbSavedByObjectVersion
1070
     0
1000
AcDbSavedByObjectVersion
1070
     0
  0
VISUALSTYLE
  5
316C
102
{ACAD_REACTORS
330
3165
102
}
330
3165
100
AcDbVisualStyle
  2
3dWireframe
 70
     5
 71
     0
 72
     2
 73
     0
 90
        0
 40
-0.6
 41
-30.0
 62
     5
 63
     7
 74
     1
 91
        4
 64
     7
 65
   257
 75
     1
175
     1
 42
1.0
 92
        0
 66
   257
 43
1.0
 76
     1
 77
     6
 78
     2
 67
     7
 79
     5
170
     0
171
     0
290
     0
174
     0
 93
        1
 44
0.0
173
     0
291
     0
 45
0.0
1001
ACAD
1000
AcDbSavedByObjectVersion
1070
     0
1000
AcDbSavedByObjectVersion
1070
     0
  0
VISUALSTYLE
  5
316A
102
{ACAD_REACTORS
330
3165
102
}
330
3165
100
AcDbVisualStyle
  2
Basic
 70
     7
 71
     1
 72
     0
 73
     1
 90
        0
 40
-0.6
 41
-30.0
 62
     5
 63
     7
 74
     0
 91
        4
 64
     7
 65
   257
 75
     1
175
     1
 42
1.0
 92
        8
 66
     7
 43
1.0
 76
     1
 77
     6
 78
     2
 67
     7
 79
     5
170
     0
171
     0
290
     0
174
     0
 93
        1
 44
0.0
173
     0
291
     1
 45
0.0
1001
ACAD
1000
AcDbSavedByObjectVersion
1070
     0
1000
AcDbSavedByObjectVersion
1070
     0
  0
VISUALSTYLE
  5
3171
102
{ACAD_REACTORS
330
3165
102
}
330
3165
100
AcDbVisualStyle
  2
Brighten
 70
    12
 71
     2
 72
     2
 73
     0
 90
        0
 40
-0.6
 41
-30.0
 62
     5
 63
     7
 74
     1
 91
        4
 64
     7
 65
   257
 75
     1
175
     1
 42
1.0
 92
        8
 66
     7
 43
1.0
 76
     1
 77
     6
 78
     2
 67
     7
 79
     5
170
     0
171
     0
290
     0
174
     0
 93
        1
 44
50.0
173
     0
291
     1
 45
0.0
1001
ACAD
1000
AcDbSavedByObjectVersion
1070
     0
1000
AcDbSavedByObjectVersion
1070
     0
  0
VISUALSTYLE
  5
3175
102
{ACAD_REACTORS
330
3165
102
}
330
3165
100
AcDbVisualStyle
  2
ColorChange
 70
    16
 71
     2
 72
     2
 73
     3
 90
        0
 40
-0.6
 41
-30.0
 62
     5
 63
     8
 74
     1
 91
        4
 64
     7
 65
   257
 75
     1
175
     1
 42
1.0
 92
        8
 66
     8
 43
1.0
 76
     1
 77
     6
 78
     2
 67
     7
 79
     5
170
     0
171
     0
290
     0
174
     0
 93
        1
 44
0.0
173
     0
291
     1
 45
0.0
1001
ACAD
1000
AcDbSavedByObjectVersion
1070
     0
1000
AcDbSavedByObjectVersion
1070
     0
  0
VISUALSTYLE
  5
316E
102
{ACAD_REACTORS
330
3165
102
}
330
3165
100
AcDbVisualStyle
  2
Conceptual
 70
     9
 71
     3
 72
     2
 73
     0
 90
        0
 40
-0.6
 41
-30.0
 62
     5
 63
     7
 74
     2
 91
        2
 64
     7
 65
   257
 75
     1
175
     1
 42
40.0
 92
        8
 66
     7
 43
1.0
 76
     1
 77
     6
 78
     2
 67
     7
 79
     3
170
     0
171
     0
290
     0
174
     0
 93
        1
 44
0.0
173
     0
291
     0
 45
0.0
1001
ACAD
1000
AcDbSavedByObjectVersion
1070
     0
1000
AcDbSavedByObjectVersion
1070
     0
  0
VISUALSTYLE
  5
3170
102
{ACAD_REACTORS
330
3165
102
}
330
3165
100
AcDbVisualStyle
  2
Dim
 70
    11
 71
     2
 72
     2
 73
     0
 90
        0
 40
-0.6
 41
-30.0
 62
     5
 63
     7
 74
     1
 91
        4
 64
     7
 65
   257
 75
     1
175
     1
 42
1.0
 92
        8
 66
     7
 43
1.0
 76
     1
 77
     6
 78
     2
 67
     7
 79
     5
170
     0
171
     0
290
     0
174
     0
 93
        1
 44
-50.0
173
     0
291
     1
 45
0.0
1001
ACAD
1000
AcDbSavedByObjectVersion
1070
     0
1000
AcDbSavedByObjectVersion
1070
     0
  0
VISUALSTYLE
  5
3174
102
{ACAD_REACTORS
330
3165
102
}
330
3165
100
AcDbVisualStyle
  2
Facepattern
 70
    15
 71
     2
 72
     2
 73
     0
 90
        0
 40
-0.6
 41
-30.0
 62
     5
 63
     7
 74
     1
 91
        4
 64
     7
 65
   257
 75
     1
175
     1
 42
1.0
 92
        8
 66
     7
 43
1.0
 76
     1
 77
     6
 78
     2
 67
     7
 79
     5
170
     0
171
     0
290
     0
174
     0
 93
        1
 44
0.0
173
     0
291
     1
 45
0.0
1001
ACAD
1000
AcDbSavedByObjectVersion
1070
     0
1000
AcDbSavedByObjectVersion
1070
     0
  0
VISUALSTYLE
  5
3166
102
{ACAD_REACTORS
330
3165
102
}
330
3165
100
AcDbVisualStyle
  2
Flat
 70
     0
 71
     2
 72
     1
 73
     1
 90
        2
 40
-0.6
 41
30.0
 62
     5
 63
     7
 74
     0
 91
        4
 64
     7
 65
   257
 75
     1
175
     1
 42
1.0
 92
        8
 66
     7
 43
1.0
 76
     1
 77
     6
 78
     2
 67
     7
 79
     5
170
     0
171
     0
290
     0
174
     0
 93
       13
 44
0.0
173
     0
291
     1
 45
0.0
1001
ACAD
1000
AcDbSavedByObjectVersion
1070
     0
1000
AcDbSavedByObjectVersion
1070
     0
  0
VISUALSTYLE
  5
3167
102
{ACAD_REACTORS
330
3165
102
}
330
3165
100
AcDbVisualStyle
  2
FlatWithEdges
 70
     1
 71
     2
 72
     1
 73
     1
 90
        2
 40
-0.6
 41
30.0
 62
     5
 63
     7
 74
     1
 91
        4
 64
     7
 65
   257
 75
     1
175
     1
 42
1.0
 92
        0
 66
   257
 43
1.0
 76
     1
 77
     6
 78
     2
 67
     7
 79
     5
170
     0
171
     0
290
     0
174
     0
 93
       13
 44
0.0
173
     0
291
     1
 45
0.0
1001
ACAD
1000
AcDbSavedByObjectVersion
1070
     0
1000
AcDbSavedByObjectVersion
1070
     0
  0
VISUALSTYLE
  5
3168
102
{ACAD_REACTORS
330
3165
102
}
330
3165
100
AcDbVisualStyle
  2
Gouraud
 70
     2
 71
     2
 72
     2
 73
     1
 90
        2
 40
-0.6
 41
30.0
 62
     5
 63
     7
 74
     0
 91
        4
 64
     7
 65
   257
 75
     1
175
     1
 42
1.0
 92
        0
 66
     7
 43
1.0
 76
     1
 77
     6
 78
     2
 67
     7
 79
     5
170
     0
171
     0
290
     0
174
     0
 93
       13
 44
0.0
173
     0
291
     1
 45
0.0
1001
ACAD
1000
AcDbSavedByObjectVersion
1070
     0
1000
AcDbSavedByObjectVersion
1070
     0
  0
VISUALSTYLE
  5
3169
102
{ACAD_REACTORS
330
3165
102
}
330
3165
100
AcDbVisualStyle
  2
GouraudWithEdges
 70
     3
 71
     2
 72
     2
 73
     1
 90
        2
 40
-0.6
 41
30.0
 62
     5
 63
     7
 74
     1
 91
        4
 64
     7
 65
   257
 75
     1
175
     1
 42
1.0
 92
        0
 66
   257
 43
1.0
 76
     1
 77
     6
 78
     2
 67
     7
 79
     5
170
     0
171
     0
290
     0
174
     0
 93
       13
 44
0.0
173
     0
291
     1
 45
0.0
1001
ACAD
1000
AcDbSavedByObjectVersion
1070
     0
1000
AcDbSavedByObjectVersion
1070
     0
  0
VISUALSTYLE
  5
3173
102
{ACAD_REACTORS
330
3165
102
}
330
3165
100
AcDbVisualStyle
  2
Linepattern
 70
    14
 71
     2
 72
     2
 73
     0
 90
        0
 40
-0.6
 41
-30.0
 62
     5
 63
     7
 74
     1
 91
        4
 64
     7
 65
   257
 75
     7
175
     7
 42
1.0
 92
        8
 66
     7
 43
1.0
 76
     1
 77
     6
 78
     2
 67
     7
 79
     5
170
     0
171
     0
290
     0
174
     0
 93
        1
 44
0.0
173
     0
291
     1
 45
0.0
1001
ACAD
1000
AcDbSavedByObjectVersion
1070
     0
1000
AcDbSavedByObjectVersion
1070
     0
  0
VISUALSTYLE
  5
316F
102
{ACAD_REACTORS
330
3165
102
}
330
3165
100
AcDbVisualStyle
  2
Realistic
 70
     8
 71
     2
 72
     2
 73
     0
 90
        0
 40
-0.6
 41
-30.0
 62
     5
 63
     7
 74
     1
 91
        0
 64
     7
 65
   257
 75
     1
175
     1
 42
1.0
 92
        8
 66
     8
 43
1.0
 76
     1
 77
     6
 78
     2
 67
     7
 79
     5
170
     0
171
     0
290
     0
174
     0
 93
       13
 44
0.0
173
     0
291
     0
 45
0.0
1001
ACAD
1000
AcDbSavedByObjectVersion
1070
     0
1000
AcDbSavedByObjectVersion
1070
     0
  0
VISUALSTYLE
  5
3172
102
{ACAD_REACTORS
330
3165
102
}
330
3165
100
AcDbVisualStyle
  2
Thicken
 70
    13
 71
     2
 72
     2
 73
     0
 90
        0
 40
-0.6
 41
-30.0
 62
     5
 63
     7
 74
     1
 91
        4
 64
     7
 65
   257
 75
     1
175
     1
 42
1.0
 92
       12
 66
     7
 43
1.0
 76
     1
 77
     6
 78
     2
 67
     7
 79
     5
170
     0
171
     0
290
     0
174
     0
 93
        1
 44
0.0
173
     0
291
     1
 45
0.0
1001
ACAD
1000
AcDbSavedByObjectVersion
1070
     0
1000
AcDbSavedByObjectVersion
1070
     0
  0
DICTIONARYVAR
  5
630F
102
{ACAD_REACTORS
330
630B
102
}
330
630B
100
DictionaryVariables
280
     0
  1
1:1
  0
DICTIONARYVAR
  5
630D
102
{ACAD_REACTORS
330
630B
102
}
330
630B
100
DictionaryVariables
280
     0
  1
STANDARD
  0
DICTIONARYVAR
  5
630C
102
{ACAD_REACTORS
330
630B
102
}
330
630B
100
DictionaryVariables
280
     0
  1
STANDARD
  0
DICTIONARYVAR
  5
6318
102
{ACAD_REACTORS
330
630B
102
}
330
630B
100
DictionaryVariables
280
     0
  1
1
  0
DICTIONARYVAR
  5
6317
102
{ACAD_REACTORS
330
630B
102
}
330
630B
100
DictionaryVariables
280
     0
  1
0
  0
DICTIONARYVAR
  5
6310
102
{ACAD_REACTORS
330
630B
102
}
330
630B
100
DictionaryVariables
280
     0
  1
0
  0
DICTIONARYVAR
  5
630E
102
{ACAD_REACTORS
330
630B
102
}
330
630B
100
DictionaryVariables
280
     0
  1
0
  0
DICTIONARYVAR
  5
6316
102
{ACAD_REACTORS
330
630B
102
}
330
630B
100
DictionaryVariables
280
     0
  1
127
  0
XRECORD
  5
5E46
102
{ACAD_REACTORS
330
5E44
102
}
330
5E44
100
AcDbXrecord
280
     1
  0
DICTIONARY
  5
66CA
330
21
100
AcDbDictionary
280
     1
281
     1
  3
ACAD_XREC_ROUNDTRIP
360
66CB
  0
DICTIONARY
  5
66C8
330
20
100
AcDbDictionary
280
     1
281
     1
  3
ACAD_XREC_ROUNDTRIP
360
66C9
  0
DICTIONARY
  5
3156
330
3155
100
AcDbDictionary
280
     1
281
     1
  3
ACAD_XREC_ROUNDTRIP
360
6320
  3
BUMPTILE
360
3158
  3
DIFFUSETILE
360
3157
  3
OPACITYTILE
360
315B
  3
REFLECTIONTILE
360
315A
  3
REFRACTIONTILE
360
315C
  3
SPECULARTILE
360
3159
  0
DICTIONARY
  5
314E
330
314D
100
AcDbDictionary
280
     1
281
     1
  3
ACAD_XREC_ROUNDTRIP
360
631F
  3
BUMPTILE
360
3150
  3
DIFFUSETILE
360
314F
  3
OPACITYTILE
360
3153
  3
REFLECTIONTILE
360
3152
  3
REFRACTIONTILE
360
3154
  3
SPECULARTILE
360
3151
  0
DICTIONARY
  5
315E
330
315D
100
AcDbDictionary
280
     1
281
     1
  3
ACAD_XREC_ROUNDTRIP
360
6321
  3
BUMPTILE
360
3160
  3
DIFFUSETILE
360
315F
  3
OPACITYTILE
360
3163
  3
REFLECTIONTILE
360
3162
  3
REFRACTIONTILE
360
3164
  3
SPECULARTILE
360
3161
  0
DICTIONARY
  5
6308
330
3178
100
AcDbDictionary
280
     1
281
     1
  3
ACAD_ROUNDTRIP_2008_TABLESTYLE_CELLSTYLEMAP
360
66C6
  3
ACAD_XREC_ROUNDTRIP
360
66CC
  0
XRECORD
  5
66CB
102
{ACAD_REACTORS
330
66CA
102
}
330
66CA
100
AcDbXrecord
280
     1
102
SHADEPLOT
 70
     0
102
SHADEPLOTRESLEVEL
 70
     2
102
SHADEPLOTCUSTOMDPI
 70
   300
  0
XRECORD
  5
66C9
102
{ACAD_REACTORS
330
66C8
102
}
330
66C8
100
AcDbXrecord
280
     1
102
SHADEPLOT
 70
     0
102
SHADEPLOTRESLEVEL
 70
     2
102
SHADEPLOTCUSTOMDPI
 70
   300
  0
XRECORD
  5
6320
102
{ACAD_REACTORS
330
3156
102
}
330
3156
100
AcDbXrecord
280
     1
102
MATERIAL
148
0.0
149
0.0
149
0.0
 93
        0
 94
      127
282
     0
 72
     0
 77
     0
171
     0
175
     0
179
     0
273
     0
  0
XRECORD
  5
3158
102
{ACAD_REACTORS
330
3156
102
}
330
3156
100
AcDbXrecord
280
     1
270
     1
271
     1
  0
XRECORD
  5
3157
102
{ACAD_REACTORS
330
3156
102
}
330
3156
100
AcDbXrecord
280
     1
270
     1
271
     1
  0
XRECORD
  5
315B
102
{ACAD_REACTORS
330
3156
102
}
330
3156
100
AcDbXrecord
280
     1
270
     1
271
     1
  0
XRECORD
  5
315A
102
{ACAD_REACTORS
330
3156
102
}
330
3156
100
AcDbXrecord
280
     1
270
     1
271
     1
  0
XRECORD
  5
315C
102
{ACAD_REACTORS
330
3156
102
}
330
3156
100
AcDbXrecord
280
     1
270
     1
271
     1
  0
XRECORD
  5
3159
102
{ACAD_REACTORS
330
3156
102
}
330
3156
100
AcDbXrecord
280
     1
270
     1
271
     1
  0
XRECORD
  5
631F
102
{ACAD_REACTORS
330
314E
102
}
330
314E
100
AcDbXrecord
280
     1
102
MATERIAL
148
0.0
149
0.0
149
0.0
 93
        0
 94
      127
282
     0
 72
     0
 77
     0
171
     0
175
     0
179
     0
273
     0
  0
XRECORD
  5
3150
102
{ACAD_REACTORS
330
314E
102
}
330
314E
100
AcDbXrecord
280
     1
270
     1
271
     1
  0
XRECORD
  5
314F
102
{ACAD_REACTORS
330
314E
102
}
330
314E
100
AcDbXrecord
280
     1
270
     1
271
     1
  0
XRECORD
  5
3153
102
{ACAD_REACTORS
330
314E
102
}
330
314E
100
AcDbXrecord
280
     1
270
     1
271
     1
  0
XRECORD
  5
3152
102
{ACAD_REACTORS
330
314E
102
}
330
314E
100
AcDbXrecord
280
     1
270
     1
271
     1
  0
XRECORD
  5
3154
102
{ACAD_REACTORS
330
314E
102
}
330
314E
100
AcDbXrecord
280
     1
270
     1
271
     1
  0
XRECORD
  5
3151
102
{ACAD_REACTORS
330
314E
102
}
330
314E
100
AcDbXrecord
280
     1
270
     1
271
     1
  0
XRECORD
  5
6321
102
{ACAD_REACTORS
330
315E
102
}
330
315E
100
AcDbXrecord
280
     1
102
MATERIAL
148
0.0
149
0.0
149
0.0
 93
        0
 94
      127
282
     0
 72
     0
 77
     0
171
     0
175
     0
179
     0
273
     0
  0
XRECORD
  5
3160
102
{ACAD_REACTORS
330
315E
102
}
330
315E
100
AcDbXrecord
280
     1
270
     1
271
     1
  0
XRECORD
  5
315F
102
{ACAD_REACTORS
330
315E
102
}
330
315E
100
AcDbXrecord
280
     1
270
     1
271
     1
  0
XRECORD
  5
3163
102
{ACAD_REACTORS
330
315E
102
}
330
315E
100
AcDbXrecord
280
     1
270
     1
271
     1
  0
XRECORD
  5
3162
102
{ACAD_REACTORS
330
315E
102
}
330
315E
100
AcDbXrecord
280
     1
270
     1
271
     1
  0
XRECORD
  5
3164
102
{ACAD_REACTORS
330
315E
102
}
330
315E
100
AcDbXrecord
280
     1
270
     1
271
     1
  0
XRECORD
  5
3161
102
{ACAD_REACTORS
330
315E
102
}
330
315E
100
AcDbXrecord
280
     1
270
     1
271
     1
  0
CELLSTYLEMAP
  5
66C6
102
{ACAD_REACTORS
330
6308
102
}
330
6308
100
AcDbCellStyleMap
 90
        3
300
CELLSTYLE
  1
TABLEFORMAT_BEGIN
 90
        5
170
     1
 91
        0
 92
    32768
 62
   257
 93
        1
300
CONTENTFORMAT
  1
CONTENTFORMAT_BEGIN
 90
        0
 91
        0
 92
      512
 93
        0
300

 40
0.0
140
1.0
 94
        5
 62
     0
340
17
144
6.0
309
CONTENTFORMAT_END
171
     1
301
MARGIN
  1
CELLMARGIN_BEGIN
 40
1.5
 40
1.5
 40
1.5
 40
1.5
 40
0.18
 40
0.18
309
CELLMARGIN_END
 94
        6
 95
        1
302
GRIDFORMAT
  1
GRIDFORMAT_BEGIN
 90
        0
 91
        1
 62
     0
 92
       -2
340
0
 93
        0
 40
1.125
309
GRIDFORMAT_END
 95
        2
302
GRIDFORMAT
  1
GRIDFORMAT_BEGIN
 90
        0
 91
        1
 62
     0
 92
       -2
340
0
 93
        0
 40
1.125
309
GRIDFORMAT_END
 95
        4
302
GRIDFORMAT
  1
GRIDFORMAT_BEGIN
 90
        0
 91
        1
 62
     0
 92
       -2
340
0
 93
        0
 40
1.125
309
GRIDFORMAT_END
 95
        8
302
GRIDFORMAT
  1
GRIDFORMAT_BEGIN
 90
        0
 91
        1
 62
     0
 92
       -2
340
0
 93
        0
 40
1.125
309
GRIDFORMAT_END
 95
       16
302
GRIDFORMAT
  1
GRIDFORMAT_BEGIN
 90
        0
 91
        1
 62
     0
 92
       -2
340
0
 93
        0
 40
1.125
309
GRIDFORMAT_END
 95
       32
302
GRIDFORMAT
  1
GRIDFORMAT_BEGIN
 90
        0
 91
        1
 62
     0
 92
       -2
340
0
 93
        0
 40
1.125
309
GRIDFORMAT_END
309
TABLEFORMAT_END
  1
CELLSTYLE_BEGIN
 90
        1
 91
        1
300
_TITLE
309
CELLSTYLE_END
300
CELLSTYLE
  1
TABLEFORMAT_BEGIN
 90
        5
170
     1
 91
        0
 92
        0
 62
   257
 93
        1
300
CONTENTFORMAT
  1
CONTENTFORMAT_BEGIN
 90
        0
 91
        0
 92
      512
 93
        0
300

 40
0.0
140
1.0
 94
        5
 62
     0
340
17
144
4.5
309
CONTENTFORMAT_END
171
     1
301
MARGIN
  1
CELLMARGIN_BEGIN
 40
1.5
 40
1.5
 40
1.5
 40
1.5
 40
0.18
 40
0.18
309
CELLMARGIN_END
 94
        6
 95
        1
302
GRIDFORMAT
  1
GRIDFORMAT_BEGIN
 90
        0
 91
        1
 62
     0
 92
       -2
340
0
 93
        0
 40
1.125
309
GRIDFORMAT_END
 95
        2
302
GRIDFORMAT
  1
GRIDFORMAT_BEGIN
 90
        0
 91
        1
 62
     0
 92
       -2
340
0
 93
        0
 40
1.125
309
GRIDFORMAT_END
 95
        4
302
GRIDFORMAT
  1
GRIDFORMAT_BEGIN
 90
        0
 91
        1
 62
     0
 92
       -2
340
0
 93
        0
 40
1.125
309
GRIDFORMAT_END
 95
        8
302
GRIDFORMAT
  1
GRIDFORMAT_BEGIN
 90
        0
 91
        1
 62
     0
 92
       -2
340
0
 93
        0
 40
1.125
309
GRIDFORMAT_END
 95
       16
302
GRIDFORMAT
  1
GRIDFORMAT_BEGIN
 90
        0
 91
        1
 62
     0
 92
       -2
340
0
 93
        0
 40
1.125
309
GRIDFORMAT_END
 95
       32
302
GRIDFORMAT
  1
GRIDFORMAT_BEGIN
 90
        0
 91
        1
 62
     0
 92
       -2
340
0
 93
        0
 40
1.125
309
GRIDFORMAT_END
309
TABLEFORMAT_END
  1
CELLSTYLE_BEGIN
 90
        2
 91
        1
300
_HEADER
309
CELLSTYLE_END
300
CELLSTYLE
  1
TABLEFORMAT_BEGIN
 90
        5
170
     1
 91
        0
 92
        0
 62
   257
 93
        1
300
CONTENTFORMAT
  1
CONTENTFORMAT_BEGIN
 90
        0
 91
        0
 92
      512
 93
        0
300

 40
0.0
140
1.0
 94
        2
 62
     0
340
17
144
4.5
309
CONTENTFORMAT_END
171
     1
301
MARGIN
  1
CELLMARGIN_BEGIN
 40
1.5
 40
1.5
 40
1.5
 40
1.5
 40
0.18
 40
0.18
309
CELLMARGIN_END
 94
        6
 95
        1
302
GRIDFORMAT
  1
GRIDFORMAT_BEGIN
 90
        0
 91
        1
 62
     0
 92
       -2
340
0
 93
        0
 40
1.125
309
GRIDFORMAT_END
 95
        2
302
GRIDFORMAT
  1
GRIDFORMAT_BEGIN
 90
        0
 91
        1
 62
     0
 92
       -2
340
0
 93
        0
 40
1.125
309
GRIDFORMAT_END
 95
        4
302
GRIDFORMAT
  1
GRIDFORMAT_BEGIN
 90
        0
 91
        1
 62
     0
 92
       -2
340
0
 93
        0
 40
1.125
309
GRIDFORMAT_END
 95
        8
302
GRIDFORMAT
  1
GRIDFORMAT_BEGIN
 90
        0
 91
        1
 62
     0
 92
       -2
340
0
 93
        0
 40
1.125
309
GRIDFORMAT_END
 95
       16
302
GRIDFORMAT
  1
GRIDFORMAT_BEGIN
 90
        0
 91
        1
 62
     0
 92
       -2
340
0
 93
        0
 40
1.125
309
GRIDFORMAT_END
 95
       32
302
GRIDFORMAT
  1
GRIDFORMAT_BEGIN
 90
        0
 91
        1
 62
     0
 92
       -2
340
0
 93
        0
 40
1.125
309
GRIDFORMAT_END
309
TABLEFORMAT_END
  1
CELLSTYLE_BEGIN
 90
        3
 91
        2
300
_DATA
309
CELLSTYLE_END
  0
XRECORD
  5
66CC
102
{ACAD_REACTORS
330
6308
102
}
330
6308
100
AcDbXrecord
280
     1
102
ACAD_ROUNDTRIP_PRE2007_TABLESTYLE
 90
      512
 91
        0
  1

 92
      512
 93
        0
  2

 94
      512
 95
        0
  3

  0
ENDSEC
  0
EOF
