  0
SECTION
  2
HEADER
  9
$ACADVER
  1
AC1015
  9
$ACADMAINTVER
 70
    20
  9
$DWGCODEPAGE
  3
ANSI_1252
  9
$INSBASE
 10
0.0
 20
0.0
 30
0.0
  9
$EXTMIN
 10
-11.07825961509479
 20
-230.6077929537532
 30
-0.0000000000001846
  9
$EXTMAX
 10
268.7602508154405
 20
80.51628966212774
 30
0.0000000000041672
  9
$LIMMIN
 10
-66.34999999999982
 20
-2008.85
  9
$LIMMAX
 10
3734.350000000001
 20
346.85
  9
$ORTHOMODE
 70
     0
  9
$REGENMODE
 70
     1
  9
$FILLMODE
 70
     1
  9
$QTEXTMODE
 70
     0
  9
$MIRRTEXT
 70
     1
  9
$LTSCALE
 40
10.0
  9
$ATTMODE
 70
     1
  9
$TEXTSIZE
 40
0.0
  9
$TRACEWID
 40
0.05
  9
$TEXTSTYLE
  7
Standard
  9
$CLAYER
  8
0
  9
$CELTYPE
  6
Continuous
  9
$CECOLOR
 62
   256
  9
$CELTSCALE
 40
1.0
  9
$DISPSILH
 70
     0
  9
$DIMSCALE
 40
1.0
  9
$DIMASZ
 40
1.25
  9
$DIMEXO
 40
0.0
  9
$DIMDLI
 40
0.38
  9
$DIMRND
 40
0.0
  9
$DIMDLE
 40
0.0
  9
$DIMEXE
 40
0.75
  9
$DIMTP
 40
0.0
  9
$DIMTM
 40
0.0
  9
$DIMTXT
 40
2.5
  9
$DIMCEN
 40
0.09
  9
$DIMTSZ
 40
0.0
  9
$DIMTOL
 70
     0
  9
$DIMLIM
 70
     0
  9
$DIMTIH
 70
     0
  9
$DIMTOH
 70
     0
  9
$DIMSE1
 70
     0
  9
$DIMSE2
 70
     0
  9
$DIMTAD
 70
     1
  9
$DIMZIN
 70
     0
  9
$DIMBLK
  1

  9
$DIMASO
 70
     1
  9
$DIMSHO
 70
     1
  9
$DIMPOST
  1

  9
$DIMAPOST
  1

  9
$DIMALT
 70
     0
  9
$DIMALTD
 70
     2
  9
$DIMALTF
 40
25.4
  9
$DIMLFAC
 40
1.0
  9
$DIMTOFL
 70
     0
  9
$DIMTVP
 40
0.0
  9
$DIMTIX
 70
     0
  9
$DIMSOXD
 70
     0
  9
$DIMSAH
 70
     0
  9
$DIMBLK1
  1

  9
$DIMBLK2
  1

  9
$DIMSTYLE
  2
Standard
  9
$DIMCLRD
 70
     7
  9
$DIMCLRE
 70
     7
  9
$DIMCLRT
 70
     7
  9
$DIMTFAC
 40
0.8
  9
$DIMGAP
 40
1.25
  9
$DIMJUST
 70
     0
  9
$DIMSD1
 70
     0
  9
$DIMSD2
 70
     0
  9
$DIMTOLJ
 70
     1
  9
$DIMTZIN
 70
     0
  9
$DIMALTZ
 70
     0
  9
$DIMALTTZ
 70
     0
  9
$DIMUPT
 70
     0
  9
$DIMDEC
 70
     2
  9
$DIMTDEC
 70
     4
  9
$DIMALTU
 70
     2
  9
$DIMALTTD
 70
     2
  9
$DIMTXSTY
  7
Standard
  9
$DIMAUNIT
 70
     0
  9
$DIMADEC
 70
     0
  9
$DIMALTRND
 40
0.0
  9
$DIMAZIN
 70
     0
  9
$DIMDSEP
 70
     0
  9
$DIMATFIT
 70
     3
  9
$DIMFRAC
 70
     0
  9
$DIMLDRBLK
  1

  9
$DIMLUNIT
 70
     2
  9
$DIMLWD
 70
     0
  9
$DIMLWE
 70
     0
  9
$DIMTMOVE
 70
     0
  9
$LUNITS
 70
     2
  9
$LUPREC
 70
     4
  9
$SKETCHINC
 40
0.1
  9
$FILLETRAD
 40
0.0
  9
$AUNITS
 70
     0
  9
$AUPREC
 70
     0
  9
$MENU
  1
acad
  9
$ELEVATION
 40
0.0
  9
$PELEVATION
 40
0.0
  9
$THICKNESS
 40
0.0
  9
$LIMCHECK
 70
     0
  9
$CHAMFERA
 40
0.0
  9
$CHAMFERB
 40
0.0
  9
$CHAMFERC
 40
0.0
  9
$CHAMFERD
 40
0.0
  9
$SKPOLY
 70
     0
  9
$TDCREATE
 40
2455303.727916667
  9
$TDUCREATE
 40
2455303.644583334
  9
$TDUPDATE
 40
2455306.466107419
  9
$TDUUPDATE
 40
2455306.382774086
  9
$TDINDWG
 40
0.0028545370
  9
$TDUSRTIMER
 40
0.0028539931
  9
$USRTIMER
 70
     1
  9
$ANGBASE
 50
0.0
  9
$ANGDIR
 70
     0
  9
$PDMODE
 70
     0
  9
$PDSIZE
 40
0.0
  9
$PLINEWID
 40
0.0
  9
$SPLFRAME
 70
     0
  9
$SPLINETYPE
 70
     6
  9
$SPLINESEGS
 70
     8
  9
$HANDSEED
  5
638E
  9
$SURFTAB1
 70
     6
  9
$SURFTAB2
 70
     6
  9
$SURFTYPE
 70
     6
  9
$SURFU
 70
     6
  9
$SURFV
 70
     6
  9
$UCSBASE
  2

  9
$UCSNAME
  2

  9
$UCSORG
 10
0.0
 20
0.0
 30
0.0
  9
$UCSXDIR
 10
1.0
 20
0.0
 30
0.0
  9
$UCSYDIR
 10
0.0
 20
1.0
 30
0.0
  9
$UCSORTHOREF
  2

  9
$UCSORTHOVIEW
 70
     0
  9
$UCSORGTOP
 10
0.0
 20
0.0
 30
0.0
  9
$UCSORGBOTTOM
 10
0.0
 20
0.0
 30
0.0
  9
$UCSORGLEFT
 10
0.0
 20
0.0
 30
0.0
  9
$UCSORGRIGHT
 10
0.0
 20
0.0
 30
0.0
  9
$UCSORGFRONT
 10
0.0
 20
0.0
 30
0.0
  9
$UCSORGBACK
 10
0.0
 20
0.0
 30
0.0
  9
$PUCSBASE
  2

  9
$PUCSNAME
  2

  9
$PUCSORG
 10
0.0
 20
0.0
 30
0.0
  9
$PUCSXDIR
 10
1.0
 20
0.0
 30
0.0
  9
$PUCSYDIR
 10
0.0
 20
1.0
 30
0.0
  9
$PUCSORTHOREF
  2

  9
$PUCSORTHOVIEW
 70
     0
  9
$PUCSORGTOP
 10
0.0
 20
0.0
 30
0.0
  9
$PUCSORGBOTTOM
 10
0.0
 20
0.0
 30
0.0
  9
$PUCSORGLEFT
 10
0.0
 20
0.0
 30
0.0
  9
$PUCSORGRIGHT
 10
0.0
 20
0.0
 30
0.0
  9
$PUCSORGFRONT
 10
0.0
 20
0.0
 30
0.0
  9
$PUCSORGBACK
 10
0.0
 20
0.0
 30
0.0
  9
$USERI1
 70
     0
  9
$USERI2
 70
     0
  9
$USERI3
 70
     0
  9
$USERI4
 70
     0
  9
$USERI5
 70
     0
  9
$USERR1
 40
0.0
  9
$USERR2
 40
0.0
  9
$USERR3
 40
0.0
  9
$USERR4
 40
0.0
  9
$USERR5
 40
0.0
  9
$WORLDVIEW
 70
     1
  9
$SHADEDGE
 70
     3
  9
$SHADEDIF
 70
    70
  9
$TILEMODE
 70
     1
  9
$MAXACTVP
 70
    16
  9
$PINSBASE
 10
0.0
 20
0.0
 30
0.0
  9
$PLIMCHECK
 70
     0
  9
$PEXTMIN
 10
1.000000000000000E+20
 20
1.000000000000000E+20
 30
1.000000000000000E+20
  9
$PEXTMAX
 10
-1.000000000000000E+20
 20
-1.000000000000000E+20
 30
-1.000000000000000E+20
  9
$PLIMMIN
 10
0.0
 20
0.0
  9
$PLIMMAX
 10
12.0
 20
9.0
  9
$UNITMODE
 70
     0
  9
$VISRETAIN
 70
     0
  9
$PLINEGEN
 70
     1
  9
$PSLTSCALE
 70
     0
  9
$TREEDEPTH
 70
  3020
  9
$CMLSTYLE
  2
Standard
  9
$CMLJUST
 70
     0
  9
$CMLSCALE
 40
1.0
  9
$PROXYGRAPHICS
 70
     0
  9
$MEASUREMENT
 70
     1
  9
$CELWEIGHT
370
     0
  9
$ENDCAPS
280
     0
  9
$JOINSTYLE
280
     0
  9
$LWDISPLAY
290
     0
  9
$INSUNITS
 70
     0
  9
$HYPERLINKBASE
  1

  9
$STYLESHEET
  1

  9
$XEDIT
290
     1
  9
$CEPSNTYPE
380
     0
  9
$PSTYLEMODE
290
     1
  9
$FINGERPRINTGUID
  2

  9
$VERSIONGUID
  2
{B2F2B506-D182-498F-8CB4-D4946041D325}
  9
$EXTNAMES
290
     1
  9
$PSVPSCALE
 40
0.0
  9
$OLESTARTUP
290
     0
  0
ENDSEC
  0
SECTION
  2
CLASSES
  0
CLASS
  1
IMAGE
  2
AcDbRasterImage
  3
ISM
 90
    34943
280
     0
281
     1
  0
CLASS
  1
DICTIONARYVAR
  2
AcDbDictionaryVar
  3
ObjectDBX Classes
 90
        0
280
     0
281
     0
  0
CLASS
  1
RASTERVARIABLES
  2
AcDbRasterVariables
  3
ISM
 90
    32768
280
     0
281
     0
  0
CLASS
  1
IMAGEDEF
  2
AcDbRasterImageDef
  3
ISM
 90
    32768
280
     0
281
     0
  0
CLASS
  1
IMAGEDEF_REACTOR
  2
AcDbRasterImageDefReactor
  3
ISM
 90
    32769
280
     0
281
     0
  0
CLASS
  1
IDBUFFER
  2
AcDbIdBuffer
  3
ObjectDBX Classes
 90
    32768
280
     0
281
     0
  0
CLASS
  1
SPATIAL_FILTER
  2
AcDbSpatialFilter
  3
ObjectDBX Classes
 90
    32768
280
     0
281
     0
  0
CLASS
  1
SORTENTSTABLE
  2
AcDbSortentsTable
  3
ObjectDBX Classes
 90
        0
280
     0
281
     0
  0
CLASS
  1
LAYER_INDEX
  2
AcDbLayerIndex
  3
ObjectDBX Classes
 90
    32768
280
     0
281
     0
  0
CLASS
  1
SPATIAL_INDEX
  2
AcDbSpatialIndex
  3
ObjectDBX Classes
 90
    32768
280
     0
281
     0
  0
CLASS
  1
OBJECT_PTR
  2
CAseDLPNTableRecord
  3
ASE-LPNTableRecord
 90
    32769
280
     0
281
     0
  0
CLASS
  1
LAYOUT
  2
AcDbLayout
  3
ObjectDBX Classes
 90
        0
280
     0
281
     0
  0
CLASS
  1
PLOTSETTINGS
  2
AcDbPlotSettings
  3
ObjectDBX Classes
 90
    32768
280
     0
281
     0
  0
CLASS
  1
ACDBDICTIONARYWDFLT
  2
AcDbDictionaryWithDefault
  3
ObjectDBX Classes
 90
        0
280
     0
281
     0
  0
CLASS
  1
ACDBPLACEHOLDER
  2
AcDbPlaceHolder
  3
ObjectDBX Classes
 90
        0
280
     0
281
     0
  0
CLASS
  1
VBA_PROJECT
  2
AcDbVbaProject
  3
acad
 90
    32768
280
     0
281
     0
  0
CLASS
  1
WIPEOUT
  2
AcDbWipeout
  3
"WipeOut|Product Desc: Object Enabler for WipeOut entity                        |Company: Autodesk, Inc.                        |WEB Address: www.autodesk.com"
 90
    34943
280
     0
281
     1
  0
CLASS
  1
WIPEOUTVARIABLES
  2
AcDbWipeoutVariables
  3
"WipeOut|Product Desc:     WipeOut Dbx Application|Company:          Autodesk, Inc.|WEB Address:      www.autodesk.com"
 90
        0
280
     0
281
     0
  0
CLASS
  1
RTEXT
  2
RText
  3
RText|AutoCAD Express Tool|expresstools@autodesk.com
 90
    35839
280
     0
281
     1
  0
CLASS
  1
ARCALIGNEDTEXT
  2
AcDbArcAlignedText
  3
ATEXT|AutoCAD Express Tool|expresstools@autodesk.com
 90
    32768
280
     0
281
     1
  0
CLASS
  1
MATERIAL
  2
AcDbMaterial
  3
ObjectDBX Classes
 90
     1153
280
     0
281
     0
  0
CLASS
  1
VISUALSTYLE
  2
AcDbVisualStyle
  3
ObjectDBX Classes
 90
     4095
280
     0
281
     0
  0
CLASS
  1
TABLESTYLE
  2
AcDbTableStyle
  3
ObjectDBX Classes
 90
     4095
280
     0
281
     0
  0
CLASS
  1
SCALE
  2
AcDbScale
  3
ObjectDBX Classes
 90
     1153
280
     0
281
     0
  0
CLASS
  1
MLEADERSTYLE
  2
AcDbMLeaderStyle
  3
ACDB_MLEADERSTYLE_CLASS
 90
     4095
280
     0
281
     0
  0
CLASS
  1
CELLSTYLEMAP
  2
AcDbCellStyleMap
  3
ObjectDBX Classes
 90
     1152
280
     0
281
     0
  0
ENDSEC
  0
SECTION
  2
TABLES
  0
TABLE
  2
VPORT
  5
7
330
0
100
AcDbSymbolTable
 70
     1
  0
VPORT
  5
15
330
7
100
AcDbSymbolTableRecord
100
AcDbViewportTableRecord
  2
*ACTIVE
 70
     0
 10
0.0
 20
0.0
 11
1.0
 21
1.0
 12
126.117220471512
 22
-75.34579738884122
 13
0.0
 23
0.0
 14
1.0
 24
1.0
 15
0.0
 25
0.0
 16
0.0
 26
0.0
 36
1.0
 17
0.0
 27
0.0
 37
0.0
 40
352.0096277555304
 41
1.61133069828722
 42
50.0
 43
0.0
 44
0.0
 50
0.0
 51
0.0
 71
     0
 72
   100
 73
     1
 74
     1
 75
     0
 76
     0
 77
     0
 78
     0
281
     0
 65
     0
110
0.0
120
0.0
130
0.0
111
1.0
121
0.0
131
0.0
112
0.0
122
1.0
132
0.0
 79
     0
146
0.0
  0
ENDTAB
  0
TABLE
  2
LTYPE
  5
4
330
0
100
AcDbSymbolTable
 70
     4
  0
LTYPE
  5
11
330
4
100
AcDbSymbolTableRecord
100
AcDbLinetypeTableRecord
  2
ByBlock
 70
     0
  3

 72
    65
 73
     0
 40
0.0
  0
LTYPE
  5
12
330
4
100
AcDbSymbolTableRecord
100
AcDbLinetypeTableRecord
  2
ByLayer
 70
     0
  3

 72
    65
 73
     0
 40
0.0
  0
LTYPE
  5
13
330
4
100
AcDbSymbolTableRecord
100
AcDbLinetypeTableRecord
  2
Continuous
 70
     0
  3
Solid line
 72
    65
 73
     0
 40
0.0
  0
LTYPE
  5
1E4
330
4
100
AcDbSymbolTableRecord
100
AcDbLinetypeTableRecord
  2
CENTER
 70
     0
  3
____ _ ____ _ ____ _ ____ _ ____ _ ____ _ ____
 72
    65
 73
     4
 40
2.0
 49
1.25
 74
     0
 49
-0.25
 74
     0
 49
0.25
 74
     0
 49
-0.25
 74
     0
  0
ENDTAB
  0
TABLE
  2
LAYER
  5
2
330
0
100
AcDbSymbolTable
 70
     1
  0
LAYER
  5
14
102
{ACAD_XDICTIONARY
360
5E41
102
}
330
2
100
AcDbSymbolTableRecord
100
AcDbLayerTableRecord
  2
0
 70
     0
 62
     7
  6
Continuous
370
    -3
390
1D
  0
ENDTAB
  0
TABLE
  2
STYLE
  5
3
330
0
100
AcDbSymbolTable
 70
     1
  0
STYLE
  5
17
330
3
100
AcDbSymbolTableRecord
100
AcDbTextStyleTableRecord
  2
Standard
 70
     0
 40
0.0
 41
1.0
 50
0.0
 71
     0
 42
0.0
  3
I011000D.TTF
  4

1001
ACAD
1000
IsonormD
1071
        0
  0
ENDTAB
  0
TABLE
  2
VIEW
  5
5
330
0
100
AcDbSymbolTable
 70
     0
  0
ENDTAB
  0
TABLE
  2
UCS
  5
6
330
0
100
AcDbSymbolTable
 70
     0
  0
ENDTAB
  0
TABLE
  2
APPID
  5
8
330
0
100
AcDbSymbolTable
 70
     5
  0
APPID
  5
16
330
8
100
AcDbSymbolTableRecord
100
AcDbRegAppTableRecord
  2
ACAD
 70
     0
  0
APPID
  5
26
330
8
100
AcDbSymbolTableRecord
100
AcDbRegAppTableRecord
  2
TopSolid'Draft
 70
     0
  0
APPID
  5
319D
330
8
100
AcDbSymbolTableRecord
100
AcDbRegAppTableRecord
  2
ACAD_MLEADERVER
 70
     0
  0
APPID
  5
5E45
330
8
100
AcDbSymbolTableRecord
100
AcDbRegAppTableRecord
  2
DCO15
 70
     0
  0
APPID
  5
632F
330
8
100
AcDbSymbolTableRecord
100
AcDbRegAppTableRecord
  2
ACAD_EXEMPT_FROM_CAD_STANDARDS
 70
     0
  0
ENDTAB
  0
TABLE
  2
DIMSTYLE
  5
9
330
0
100
AcDbSymbolTable
 70
     2
100
AcDbDimStyleTable
 71
     1
340
18
  0
DIMSTYLE
105
18
330
9
100
AcDbSymbolTableRecord
100
AcDbDimStyleTableRecord
  2
Standard
 70
     0
 41
1.25
 42
0.0
 44
0.75
 73
     0
 74
     0
 77
     1
140
2.5
146
0.8
147
1.25
176
     7
177
     7
178
     7
271
     2
340
17
  0
ENDTAB
  0
TABLE
  2
BLOCK_RECORD
  5
1
330
0
100
AcDbSymbolTable
 70
     2
  0
BLOCK_RECORD
  5
A
102
{ACAD_XDICTIONARY
360
31A7
102
}
330
1
100
AcDbSymbolTableRecord
100
AcDbBlockTableRecord
  2
*MODEL_SPACE
340
20
  0
BLOCK_RECORD
  5
B
330
1
100
AcDbSymbolTableRecord
100
AcDbBlockTableRecord
  2
*PAPER_SPACE
340
21
  0
ENDTAB
  0
ENDSEC
  0
SECTION
  2
BLOCKS
  0
BLOCK
  5
D
330
A
100
AcDbEntity
  8
0
100
AcDbBlockBegin
  2
*MODEL_SPACE
 70
     0
 10
0.0
 20
0.0
 30
0.0
  3
*MODEL_SPACE
  1

  0
ENDBLK
  5
E
330
A
100
AcDbEntity
  8
0
100
AcDbBlockEnd
  0
BLOCK
  5
F
330
B
100
AcDbEntity
 67
     1
  8
0
100
AcDbBlockBegin
  2
*PAPER_SPACE
 70
     0
 10
0.0
 20
0.0
 30
0.0
  3
*PAPER_SPACE
  1

  0
ENDBLK
  5
10
330
B
100
AcDbEntity
 67
     1
  8
0
100
AcDbBlockEnd
  0
ENDSEC
  0
SECTION
  2
ENTITIES
  0
LINE
  5
20D9
330
A
100
AcDbEntity
  8
0
  6
CENTER
 62
     1
100
AcDbLine
 10
-10.99999999999994
 20
0.0
 30
0.0
 11
11.0
 21
0.0
 31
0.0
  0
LINE
  5
20DA
330
A
100
AcDbEntity
  8
0
  6
CENTER
 62
     1
100
AcDbLine
 10
0.0000000000000568
 20
-10.99999999999988
 30
0.0
 11
0.0000000000000568
 21
11.0
 31
0.0
  0
LINE
  5
20DB
330
A
100
AcDbEntity
  8
0
  6
CENTER
 62
     1
100
AcDbLine
 10
-11.00000002014638
 20
-191.9999999998888
 30
0.0
 11
10.9999999798535
 21
-191.9999999998888
 31
0.0
  0
LINE
  5
20DC
330
A
100
AcDbEntity
  8
0
  6
CENTER
 62
     1
100
AcDbLine
 10
-0.0000000201465014
 20
-202.9999999998888
 30
0.0
 11
-0.0000000201465014
 21
-180.9999999998887
 31
0.0
  0
LINE
  5
20DD
330
A
100
AcDbEntity
  8
0
  6
CENTER
 62
     1
100
AcDbLine
 10
72.09999998928646
 20
62.50000000647628
 30
0.0
 11
72.09999998928646
 21
80.50000000647623
 31
0.0
  0
LINE
  5
20DE
330
A
100
AcDbEntity
  8
0
  6
CENTER
 62
     1
100
AcDbLine
 10
172.899999989286
 20
62.49999999485732
 30
0.0
 11
172.899999989286
 21
80.49999999485732
 31
0.0
  0
LINE
  5
20DF
330
A
100
AcDbEntity
  8
0
  6
CENTER
 62
     1
100
AcDbLine
 10
63.09999998928652
 20
71.50000000647622
 30
0.0
 11
181.899999989286
 21
71.50000000647622
 31
0.0
  0
LINE
  5
20E0
330
A
100
AcDbEntity
  8
0
  6
CENTER
 62
     1
100
AcDbLine
 10
170.9999999892864
 20
0.0000000001111857
 30
0.0
 11
73.99999998928644
 21
0.0000000001111857
 31
0.0
  0
LINE
  5
20E1
330
A
100
AcDbEntity
  8
0
  6
CENTER
 62
     1
100
AcDbLine
 10
170.999999989266
 20
-191.9999999998914
 30
0.0
 11
73.99999998928644
 21
-192.0000000000274
 31
0.0
  0
LINE
  5
20E2
330
A
100
AcDbEntity
  8
0
  6
CENTER
 62
     1
100
AcDbLine
 10
172.899999989286
 20
-230.4999999999503
 30
0.0
 11
172.899999989286
 21
38.5000000000498
 31
0.0
  0
LINE
  5
20E3
330
A
100
AcDbEntity
  8
0
  6
CENTER
 62
     1
100
AcDbLine
 10
72.09999998928646
 20
-230.4999999998888
 30
0.0
 11
72.09999998928646
 21
38.50000000011119
 31
0.0
  0
LINE
  5
407E
330
A
100
AcDbEntity
  8
0
  6
Continuous
 62
     9
370
     0
100
AcDbLine
 10
253.5627006382288
 20
-185.1269322005343
 30
0.0
 11
254.0763650979573
 21
-184.5560058052255
 31
0.0
  0
LINE
  5
4098
330
A
100
AcDbEntity
  8
0
  6
Continuous
 62
     9
370
     0
100
AcDbLine
 10
253.562700653089
 20
-44.90995748235571
 30
0.0
 11
254.0763651124982
 21
-44.33903108751678
 31
0.0
  0
LINE
  5
40B2
330
A
100
AcDbEntity
  8
0
  6
Continuous
 62
     7
370
     0
100
AcDbLine
 10
252.9726639892412
 20
-186.5628999457021
 30
0.0
 11
254.567901704094
 21
-185.2603938054035
 31
0.0
  0
LINE
  5
40B3
330
A
100
AcDbEntity
  8
0
  6
Continuous
 62
     7
370
     0
100
AcDbLine
 10
254.567901704094
 20
-185.2603938054035
 30
0.0
 11
254.583825061088
 21
-185.2473924388573
 31
0.0
  0
LINE
  5
40B4
330
A
100
AcDbEntity
  8
0
  6
Continuous
 62
     7
370
     0
100
AcDbLine
 10
253.5787513469818
 20
-45.12940141504168
 30
0.0
 11
254.6640616274368
 21
-44.24324928180453
 31
0.0
  0
LINE
  5
40B5
330
A
100
AcDbEntity
  8
0
  6
Continuous
 62
     7
370
     0
100
AcDbLine
 10
253.5862564125288
 20
-45.51057188930338
 30
0.0
 11
254.420024152272
 21
-44.82980338051539
 31
0.0
  0
ELLIPSE
  5
40B6
330
A
100
AcDbEntity
  8
0
  6
Continuous
 62
     7
370
     0
100
AcDbEllipse
 10
228.3636542385934
 20
-199.6920067870716
 30
0.0
 11
-3.035786554918039
 21
3.718064011414834
 31
0.0000000000000003
210
0.0
220
-0.0000000000000001
230
1.0
 40
0.816496581032548
 41
3.723529186996978
 42
4.130452446342843
  0
ELLIPSE
  5
40B7
330
A
100
AcDbEntity
  8
0
  6
Continuous
 62
     7
370
     0
100
AcDbEllipse
 10
242.4956038477372
 20
-188.153318240533
 30
0.0
 11
4.553679832385972
 21
-5.57709601711509
 31
0.0
210
0.0
220
0.0
230
0.9999999999999998
 40
0.8164965810319344
 41
0.7853981631422059
 42
3.141592653589805
  0
ELLIPSE
  5
40B8
330
A
100
AcDbEntity
  8
0
  6
Continuous
 62
     7
370
     0
100
AcDbEllipse
 10
241.7800620953023
 20
-188.7375556352798
 30
0.0
 11
3.541750980744716
 21
-4.337741346645106
 31
0.0
210
0.0
220
0.0
230
1.0
 40
0.8164965810319348
 41
0.7853981631421975
 42
3.682692179948993
  0
ELLIPSE
  5
40B9
330
A
100
AcDbEntity
  8
0
  6
Continuous
 62
     7
370
     0
100
AcDbEllipse
 10
241.7800620953023
 20
-188.7375556352798
 30
0.0
 11
3.541750980744716
 21
-4.337741346645106
 31
-0.0000000000000002
210
0.0
220
0.0
230
1.0
 40
0.8164965810319348
 41
5.742085781624499
 42
7.068583470321783
  0
ELLIPSE
  5
40BA
330
A
100
AcDbEntity
  8
0
  6
Continuous
 62
     7
370
     0
100
AcDbEllipse
 10
241.7800620953023
 20
-188.7375556352798
 30
0.0
 11
-3.086382997506075
 21
3.780031744933463
 31
0.0000000000000002
210
0.0
220
0.0
230
1.0
 40
0.8164965810319351
 41
0.0000000000000179
 42
0.1813197757223006
  0
ELLIPSE
  5
40BB
330
A
100
AcDbEntity
  8
0
  6
Continuous
 62
     7
370
     0
100
AcDbEllipse
 10
243.2111456001718
 20
-187.5690808457864
 30
0.0
 11
4.553679832385972
 21
-5.57709601711509
 31
0.0
210
0.0
220
0.0
230
0.9999999999999998
 40
0.8164965810319346
 41
6.283185307179585
 42
7.068583470321776
  0
ELLIPSE
  5
40BC
330
A
100
AcDbEntity
  8
0
  6
Continuous
 62
     7
370
     0
100
AcDbEllipse
 10
242.4956038477372
 20
-188.153318240533
 30
0.0
 11
4.553679832385972
 21
-5.57709601711509
 31
0.0
210
0.0
220
0.0
230
0.9999999999999998
 40
0.8164965810319346
 41
6.283185307179585
 42
7.068583470321791
  0
ELLIPSE
  5
40BD
330
A
100
AcDbEntity
  8
0
  6
Continuous
 62
     7
370
     0
100
AcDbEllipse
 10
242.4956038477372
 20
-188.153318240533
 30
0.0
 11
4.553679832385972
 21
-5.57709601711509
 31
0.0
210
0.0
220
0.0
230
0.9999999999999998
 40
0.8164965810319346
 41
3.141592653589805
 42
3.982661324373497
  0
ELLIPSE
  5
40BE
330
A
100
AcDbEntity
  8
0
  6
Continuous
 62
     7
370
     0
100
AcDbEllipse
 10
242.4956038477372
 20
-188.153318240533
 30
0.0
 11
4.553679832385972
 21
-5.57709601711509
 31
-0.0000000000000002
210
0.0
220
0.0
230
0.9999999999999998
 40
0.8164965810319351
 41
5.442116636827446
 42
6.283185307179585
  0
ELLIPSE
  5
40BF
330
A
100
AcDbEntity
  8
0
  6
Continuous
 62
     7
370
     0
100
AcDbEllipse
 10
243.2111456001718
 20
-187.5690808457864
 30
0.0
 11
4.553679832385972
 21
-5.57709601711509
 31
0.0
210
0.0
220
0.0
230
0.9999999999999998
 40
0.8164965810319344
 41
0.7853981631421917
 42
3.141592653589792
  0
ELLIPSE
  5
40C0
330
A
100
AcDbEntity
  8
0
  6
Continuous
 62
     7
370
     0
100
AcDbEllipse
 10
242.4956038477372
 20
-188.153318240533
 30
0.0
 11
3.086382997506075
 21
-3.780031744933463
 31
0.0
210
0.0
220
0.0
230
1.0
 40
0.8164965810319351
 41
3.257772986164684
 42
3.322912429313748
  0
ELLIPSE
  5
40C1
330
A
100
AcDbEntity
  8
0
  6
Continuous
 62
     7
370
     0
100
AcDbEllipse
 10
241.7800620953023
 20
-188.7375556352798
 30
0.0
 11
-3.086382997506075
 21
3.780031744933463
 31
0.0
210
0.0
220
0.0
230
1.0
 40
0.8164965810319348
 41
2.960272880509123
 42
3.141592653589778
  0
ELLIPSE
  5
40C2
330
A
100
AcDbEntity
  8
0
  6
Continuous
 62
     7
370
     0
100
AcDbEllipse
 10
241.7800620953023
 20
-188.7375556352798
 30
0.0
 11
-3.086382997506075
 21
3.780031744933575
 31
0.0
210
0.0000000000000001
220
0.0000000000000001
230
1.0
 40
0.8164965810319346
 41
3.141592653589792
 42
6.283185307179616
  0
ELLIPSE
  5
40C3
330
A
100
AcDbEntity
  8
0
  6
Continuous
 62
     7
370
     0
100
AcDbEllipse
 10
242.4956038477372
 20
-188.153318240533
 30
0.0
 11
3.086382997506075
 21
-3.780031744933463
 31
-0.0000000000000002
210
0.0
220
0.0
230
1.0
 40
0.8164965810319348
 41
6.101865534100565
 42
6.167004974604338
  0
ELLIPSE
  5
40C4
330
A
100
AcDbEntity
  8
0
  6
Continuous
 62
     7
370
     0
100
AcDbEllipse
 10
243.7478019145642
 20
-187.1309027997397
 30
0.0
 11
-4.300697619076033
 21
5.267257349823917
 31
0.0000000000000002
210
0.0
220
0.0
230
1.0
 40
0.8164965810066433
 41
3.578211117553496
 42
5.846566843534835
  0
ELLIPSE
  5
40C5
330
A
100
AcDbEntity
  8
0
  6
Continuous
 62
     7
370
     0
100
AcDbEllipse
 10
246.4310834872204
 20
-184.940012569649
 30
0.0
 11
-4.300697618241922
 21
5.267257350504927
 31
0.0
210
0.0000000000000001
220
0.0
230
1.0
 40
0.8164965809538582
 41
3.141592653589792
 42
6.283185307179585
  0
ELLIPSE
  5
40C6
330
A
100
AcDbEntity
  8
0
  6
Continuous
 62
     7
370
     0
100
AcDbEllipse
 10
245.8944271726892
 20
-185.3781906156672
 30
0.0
 11
-4.300697618241922
 21
5.267257350504816
 31
0.0000000000000002
210
0.0
220
0.0
230
1.0
 40
0.8164965809538584
 41
2.924998095558973
 42
3.141592653589785
  0
ELLIPSE
  5
40C7
330
A
100
AcDbEntity
  8
0
  6
Continuous
 62
     7
370
     0
100
AcDbEllipse
 10
245.8944271726892
 20
-185.3781906156672
 30
0.0
 11
-4.300697618241922
 21
5.267257350504816
 31
0.0
210
0.0000000000000001
220
0.0
230
1.0
 40
0.8164965809538584
 41
3.141592653589785
 42
6.283185307179597
  0
ELLIPSE
  5
40C8
330
A
100
AcDbEntity
  8
0
  6
Continuous
 62
     7
370
     0
100
AcDbEllipse
 10
245.8944271726892
 20
-185.3781906156672
 30
0.0
 11
-4.300697618241922
 21
5.267257350504816
 31
-0.0000000000000005
210
-0.0000000000000001
220
0.0
230
1.0
 40
0.8164965809538578
 41
0.0000000000000119
 42
0.216594558206801
  0
ELLIPSE
  5
40C9
330
A
100
AcDbEntity
  8
0
  6
Continuous
 62
     7
370
     0
100
AcDbEllipse
 10
246.4310834872204
 20
-184.940012569649
 30
0.0
 11
-4.553679830642476
 21
5.577096018538616
 31
0.0000000000000002
210
0.0
220
-0.0000000000000001
230
1.0
 40
0.8164965809277259
 41
2.780225529874851
 42
3.141592653589781
  0
ELLIPSE
  5
40CA
330
A
100
AcDbEntity
  8
0
  6
Continuous
 62
     7
370
     0
100
AcDbEllipse
 10
246.4310834872204
 20
-184.940012569649
 30
0.0
 11
-4.553679830642476
 21
5.577096018538616
 31
0.0000000000000002
210
0.0
220
-0.0000000000000001
230
1.0
 40
0.8164965809277259
 41
3.141592653589781
 42
6.283185307179585
  0
ELLIPSE
  5
40CB
330
A
100
AcDbEntity
  8
0
  6
Continuous
 62
     7
370
     0
100
AcDbEllipse
 10
247.1466252400205
 20
-184.3557751749768
 30
0.0
 11
-4.553679830642477
 21
5.577096018538729
 31
0.0000000000000002
210
0.0
220
-0.0000000000000001
230
1.0
 40
0.8164965809277259
 41
3.141592653589792
 42
6.283185307179585
  0
ELLIPSE
  5
40CC
330
A
100
AcDbEntity
  8
0
  6
Continuous
 62
     7
370
     0
100
AcDbEllipse
 10
246.4310834872204
 20
-184.940012569649
 30
0.0
 11
-4.553679830642476
 21
5.577096018538616
 31
0.0
210
0.0
220
0.0
230
1.0
 40
0.8164965809277259
 41
0.0
 42
0.3613671240071054
  0
ARC
  5
40CD
330
A
100
AcDbEntity
  8
0
  6
Continuous
 62
     7
370
     0
100
AcDbCircle
 10
260.4245603646613
 20
-172.1771720595679
 30
0.0
 40
5.836028701863821
100
AcDbArc
 50
308.7263711510532
 51
336.9768244287438
  0
ELLIPSE
  5
40D6
330
A
100
AcDbEntity
  8
0
  6
Continuous
 62
     7
370
     0
100
AcDbEllipse
 10
261.6363457342191
 20
-172.5249679328652
 30
0.0
 11
3.035786553761687
 21
-3.718064012359189
 31
-0.0000000000000002
210
0.0000000000000001
220
0.0
230
1.0
 40
0.816496580927726
 41
0.5350226181064148
 42
1.035773709015014
  0
ELLIPSE
  5
40D7
330
A
100
AcDbEntity
  8
0
  6
Continuous
 62
     7
370
     0
100
AcDbEllipse
 10
226.9683478345243
 20
-34.6887605996659
 30
0.0
 11
5.599999999999938
 21
-0.0000000003516076
 31
-0.0000000000000004
210
0.0000000000000001
220
0.0
230
1.0
 40
0.4082482904900253
 41
6.283185307179546
 42
6.746832916218812
  0
ELLIPSE
  5
40D8
330
A
100
AcDbEntity
  8
0
  6
Continuous
 62
     7
370
     0
100
AcDbEllipse
 10
226.96834783457
 20
-33.95846385633502
 30
0.0
 11
-4.800000000000026
 21
0.0000000003013145
 31
0.0000000000000003
210
0.0000000000000001
220
0.0
230
1.0
 40
0.4082482904900237
 41
3.605240262629011
 42
4.248741371979336
  0
ELLIPSE
  5
40D9
330
A
100
AcDbEntity
  8
0
  6
Continuous
 62
     7
370
     0
100
AcDbEllipse
 10
226.96834783457
 20
-33.95846385633502
 30
0.0
 11
-4.800000000000026
 21
0.0000000003013145
 31
0.0
210
0.0
220
0.0
230
1.0
 40
0.4082482904900255
 41
5.819537698140331
 42
9.8884255698086
  0
ELLIPSE
  5
40DA
330
A
100
AcDbEntity
  8
0
  6
Continuous
 62
     7
370
     0
100
AcDbEllipse
 10
226.96834783457
 20
-33.95846385633502
 30
0.0
 11
-4.800000000000026
 21
0.0000000003013145
 31
0.0000000000000003
210
0.0000000000000001
220
0.0
230
1.0
 40
0.408248290490026
 41
4.248741371979326
 42
5.819537698140331
  0
ELLIPSE
  5
40DB
330
A
100
AcDbEntity
  8
0
  6
Continuous
 62
     7
370
     0
100
AcDbEllipse
 10
226.9683478345243
 20
-34.6887605996659
 30
0.0
 11
5.599999999999938
 21
-0.0000000003516076
 31
-0.0000000000000004
210
0.0000000000000001
220
0.0
230
1.0
 40
0.4082482904900245
 41
2.677945044550561
 42
3.141592653589773
  0
ELLIPSE
  5
40DC
330
A
100
AcDbEntity
  8
0
  6
Continuous
 62
     7
370
     0
100
AcDbEllipse
 10
226.9683478345243
 20
-34.6887605996659
 30
0.0
 11
5.599999999999938
 21
-0.0000000003516076
 31
-0.0000000000000004
210
0.0000000000000001
220
0.0
230
1.0
 40
0.4082482904900245
 41
3.141592653589773
 42
6.283185307179565
  0
ELLIPSE
  5
40DD
330
A
100
AcDbEntity
  8
0
  6
Continuous
 62
     7
370
     0
100
AcDbEllipse
 10
226.968347822466
 20
-226.7568040956828
 30
0.0
 11
-5.600000000000048
 21
0.0000000003516076
 31
0.0000000000000004
210
0.0000000000000001
220
0.0
230
1.0
 40
0.4082482904900246
 41
6.283185307179565
 42
6.746832916218846
  0
ELLIPSE
  5
40DE
330
A
100
AcDbEntity
  8
0
  6
Continuous
 62
     7
370
     0
100
AcDbEllipse
 10
226.9683478224203
 20
-227.4871008390135
 30
0.0
 11
4.800000000000026
 21
-0.0000000003013145
 31
0.0
210
0.0
220
0.0
230
1.0
 40
0.4082482904900254
 41
3.605240262629082
 42
5.819537698140299
  0
ELLIPSE
  5
40DF
330
A
100
AcDbEntity
  8
0
  6
Continuous
 62
     7
370
     0
100
AcDbEllipse
 10
226.968347822466
 20
-226.7568040956828
 30
0.0
 11
-5.600000000000048
 21
0.0000000003516076
 31
0.0
210
0.0
220
0.0
230
1.0
 40
0.4082482904900244
 41
2.677945044550556
 42
3.141592653589773
  0
ELLIPSE
  5
40E0
330
A
100
AcDbEntity
  8
0
  6
Continuous
 62
     7
370
     0
100
AcDbEllipse
 10
226.968347822466
 20
-226.7568040956828
 30
0.0
 11
-5.600000000000048
 21
0.0000000003516076
 31
0.0
210
0.0
220
0.0
230
1.0
 40
0.4082482904900238
 41
0.4636476090392598
 42
2.677945044550556
  0
ELLIPSE
  5
40E1
330
A
100
AcDbEntity
  8
0
  6
Continuous
 62
     7
370
     0
100
AcDbEllipse
 10
263.0316521673275
 20
-5.243195906446317
 30
0.0
 11
5.599999999999938
 21
-0.0000000003516076
 31
0.0
210
0.0
220
0.0
230
1.0
 40
0.4082482904900238
 41
6.283185307179563
 42
6.746832916218847
  0
ELLIPSE
  5
40E2
330
A
100
AcDbEntity
  8
0
  6
Continuous
 62
     7
370
     0
100
AcDbEllipse
 10
263.0316521673733
 20
-4.512899163115434
 30
0.0
 11
-4.800000000000026
 21
0.0000000003013145
 31
0.0
210
0.0
220
0.0000000000000001
230
1.0
 40
0.4082482904900231
 41
5.819537698140299
 42
7.390334024999307
  0
ELLIPSE
  5
40E3
330
A
100
AcDbEntity
  8
0
  6
Continuous
 62
     7
370
     0
100
AcDbEllipse
 10
263.0316521673733
 20
-4.512899163115434
 30
0.0
 11
-4.800000000000026
 21
0.0000000003013145
 31
0.0000000000000003
210
0.0000000000000001
220
0.0
230
1.0
 40
0.408248290490023
 41
3.605240262629088
 42
5.819537698140299
  0
ELLIPSE
  5
40E4
330
A
100
AcDbEntity
  8
0
  6
Continuous
 62
     7
370
     0
100
AcDbEllipse
 10
263.0316521673275
 20
-5.243195906446317
 30
0.0
 11
5.599999999999938
 21
-0.0000000003516076
 31
0.0
210
0.0
220
0.0
230
1.0
 40
0.4082482904900226
 41
3.141592653589792
 42
4.248741371409521
  0
ELLIPSE
  5
40E5
330
A
100
AcDbEntity
  8
0
  6
Continuous
 62
     7
370
     0
100
AcDbEllipse
 10
263.0316521673733
 20
-4.512899163115434
 30
0.0
 11
-4.800000000000026
 21
0.0000000003013145
 31
0.0
210
0.0
220
0.0
230
1.0
 40
0.408248290490023
 41
1.107148717819721
 42
3.605240262629088
  0
ELLIPSE
  5
40E6
330
A
100
AcDbEntity
  8
0
  6
Continuous
 62
     7
370
     0
100
AcDbEllipse
 10
263.0316521673275
 20
-5.243195906446317
 30
0.0
 11
5.599999999999938
 21
-0.0000000003516076
 31
-0.0000000000000004
210
0.0000000000000001
220
0.0
230
1.0
 40
0.4082482904900229
 41
4.248741371409521
 42
6.283185307179565
  0
ELLIPSE
  5
40E7
330
A
100
AcDbEntity
  8
0
  6
Continuous
 62
     7
370
     0
100
AcDbEllipse
 10
263.0316521673275
 20
-5.243195906446317
 30
0.0
 11
5.599999999999938
 21
-0.0000000003516076
 31
-0.0000000000000004
210
0.0000000000000001
220
0.0
230
1.0
 40
0.4082482904900229
 41
2.677945044550556
 42
3.141592653589773
  0
ELLIPSE
  5
40E8
330
A
100
AcDbEntity
  8
0
  6
Continuous
 62
     7
370
     0
100
AcDbEllipse
 10
263.0316521552686
 20
-197.3112394024631
 30
0.0
 11
-5.600000000000048
 21
0.0000000003516076
 31
0.0000000000000004
210
0.0000000000000001
220
0.0
230
1.0
 40
0.4082482904900228
 41
0.0000000000000198
 42
0.4636476090392805
  0
ELLIPSE
  5
40E9
330
A
100
AcDbEntity
  8
0
  6
Continuous
 62
     7
370
     0
100
AcDbEllipse
 10
263.0316521552686
 20
-197.3112394024631
 30
0.0
 11
-5.600000000000048
 21
0.0000000003516076
 31
0.0
210
0.0
220
0.0
230
1.0
 40
0.4082482904900228
 41
1.107148717819707
 42
2.677945044550538
  0
ELLIPSE
  5
40EA
330
A
100
AcDbEntity
  8
0
  6
Continuous
 62
     7
370
     0
100
AcDbEllipse
 10
263.0316521552228
 20
-198.041536145794
 30
0.0
 11
4.800000000000026
 21
-0.0000000003013145
 31
0.0
210
0.0
220
0.0000000000000001
230
1.0
 40
0.408248290490023
 41
4.248741371409491
 42
5.819537698140337
  0
ELLIPSE
  5
40EB
330
A
100
AcDbEntity
  8
0
  6
Continuous
 62
     7
370
     0
100
AcDbEllipse
 10
263.0316521552686
 20
-197.3112394024631
 30
0.0
 11
-5.600000000000048
 21
0.0000000003516076
 31
0.0
210
0.0
220
-0.0000000000000001
230
1.0
 40
0.4082482904900238
 41
0.4636476090392802
 42
1.107148717819707
  0
ELLIPSE
  5
40EC
330
A
100
AcDbEntity
  8
0
  6
Continuous
 62
     7
370
     0
100
AcDbEllipse
 10
263.0316521552686
 20
-197.3112394024631
 30
0.0
 11
-5.600000000000048
 21
0.0000000003516076
 31
0.0
210
0.0
220
0.0
230
1.0
 40
0.4082482904900254
 41
2.677945044550503
 42
3.141592653589752
  0
ELLIPSE
  5
40ED
330
A
100
AcDbEntity
  8
0
  6
Continuous
 62
     7
370
     0
100
AcDbEllipse
 10
263.0316521552228
 20
-198.041536145794
 30
0.0
 11
4.800000000000026
 21
-0.0000000003013145
 31
0.0
210
0.0
220
0.0
230
1.0
 40
0.408248290490023
 41
3.605240262629002
 42
4.248741371409491
  0
ARC
  5
40EE
330
A
100
AcDbEntity
  8
0
  6
Continuous
 62
     7
370
     0
100
AcDbCircle
 10
260.4245603797473
 20
-31.96019734119932
 30
0.0
 40
5.836028701774559
100
AcDbArc
 50
308.7263711511783
 51
336.9768244205337
  0
ELLIPSE
  5
40F7
330
A
100
AcDbEntity
  8
0
  6
Continuous
 62
     7
370
     0
100
AcDbEllipse
 10
261.6363457490693
 20
-32.30799321457403
 30
0.0
 11
3.035786553761687
 21
-3.718064012359189
 31
-0.0000000000000002
210
0.0
220
-0.0000000000000001
230
1.0
 40
0.8164965809277259
 41
0.535022617943179
 42
1.03577370885172
  0
ELLIPSE
  5
40F8
330
A
100
AcDbEntity
  8
0
  6
Continuous
 62
     7
370
     0
100
AcDbEllipse
 10
228.3636542482013
 20
-59.47503206771376
 30
0.0
 11
-3.035786554351548
 21
3.718064011877463
 31
0.0000000000000002
210
0.0
220
-0.0000000000000001
230
1.0
 40
0.8164965809806126
 41
3.723529186497438
 42
4.130452447089788
  0
ELLIPSE
  5
40F9
330
A
100
AcDbEntity
  8
0
  6
Continuous
 62
     7
370
     0
100
AcDbEllipse
 10
243.747801929414
 20
-46.91392808144849
 30
0.0
 11
-4.300697618664694
 21
5.267257350159648
 31
0.0000000000000002
210
0.0
220
0.0
230
1.0
 40
0.816496580980613
 41
3.578211116752826
 42
5.846566843683897
  0
ELLIPSE
  5
40FA
330
A
100
AcDbEntity
  8
0
  6
Continuous
 62
     7
370
     0
100
AcDbEllipse
 10
246.4310835020707
 20
-44.72303785135773
 30
0.0
 11
-4.300697618241366
 21
5.267257350505373
 31
0.0000000000000002
210
0.0
220
0.0
230
1.0
 40
0.8164965809538207
 41
3.141592653589888
 42
6.283185307179665
  0
ELLIPSE
  5
40FB
330
A
100
AcDbEntity
  8
0
  6
Continuous
 62
     7
370
     0
100
AcDbEllipse
 10
245.8944271875393
 20
-45.16121589737588
 30
0.0
 11
-4.300697618241366
 21
5.267257350505373
 31
0.0000000000000005
210
0.0
220
-0.0000000000000001
230
1.0
 40
0.8164965809538207
 41
2.924998095435143
 42
3.141592653589919
  0
ELLIPSE
  5
40FC
330
A
100
AcDbEntity
  8
0
  6
Continuous
 62
     7
370
     0
100
AcDbEllipse
 10
245.8944271875393
 20
-45.16121589737588
 30
0.0
 11
-4.300697618241366
 21
5.267257350505373
 31
0.0000000000000002
210
0.0
220
0.0
230
1.0
 40
0.8164965809538207
 41
3.141592653589919
 42
6.283185307179678
  0
ELLIPSE
  5
40FD
330
A
100
AcDbEntity
  8
0
  6
Continuous
 62
     7
370
     0
100
AcDbEllipse
 10
245.8944271875393
 20
-45.16121589737588
 30
0.0
 11
-4.300697618241366
 21
5.267257350505373
 31
0.0000000000000002
210
0.0
220
0.0
230
1.0
 40
0.8164965809538205
 41
0.0000000000000952
 42
0.2165945581752907
  0
ELLIPSE
  5
40FE
330
A
100
AcDbEntity
  8
0
  6
Continuous
 62
     7
370
     0
100
AcDbEllipse
 10
242.4956038621528
 20
-47.93634352223432
 30
0.0
 11
4.553679831020061
 21
-5.577096018230419
 31
-0.0000000000000002
210
0.0
220
0.0
230
1.0
 40
0.816496580904937
 41
3.916197482846318
 42
3.982661324247661
  0
ELLIPSE
  5
40FF
330
A
100
AcDbEntity
  8
0
  6
Continuous
 62
     7
370
     0
100
AcDbEllipse
 10
242.4956038621528
 20
-47.93634352223432
 30
0.0
 11
4.553679831020061
 21
-5.577096018230419
 31
-0.0000000000000002
210
0.0
220
0.0
230
1.0
 40
0.8164965809049357
 41
5.442116636701565
 42
6.283185307179585
  0
ELLIPSE
  5
4100
330
A
100
AcDbEntity
  8
0
  6
Continuous
 62
     7
370
     0
100
AcDbEllipse
 10
241.7800621093525
 20
-48.52058091698734
 30
0.0
 11
3.541750979682234
 21
-4.337741347512524
 31
-0.0000000000000002
210
0.0
220
0.0
230
1.0
 40
0.8164965809049361
 41
5.74208578135496
 42
9.96587748685906
  0
ELLIPSE
  5
4101
330
A
100
AcDbEntity
  8
0
  6
Continuous
 62
     7
370
     0
100
AcDbEllipse
 10
241.7800621093525
 20
-48.52058091698734
 30
0.0
 11
-3.086382996580259
 21
3.780031745689526
 31
0.0
210
-0.0000000000000001
220
0.0
230
1.0
 40
0.8164965809049363
 41
3.141592653589825
 42
5.486993809641211
  0
ELLIPSE
  5
4102
330
A
100
AcDbEntity
  8
0
  6
Continuous
 62
     7
370
     0
100
AcDbEllipse
 10
243.2111456149531
 20
-47.35210612748085
 30
0.0
 11
4.553679831020061
 21
-5.577096018230419
 31
-0.0000000000000002
210
0.0
220
0.0
230
1.0
 40
0.8164965809049363
 41
0.0
 42
3.141592653589792
  0
ELLIPSE
  5
4103
330
A
100
AcDbEntity
  8
0
  6
Continuous
 62
     7
370
     0
100
AcDbEllipse
 10
242.4956038621528
 20
-47.93634352223432
 30
0.0
 11
4.553679831020061
 21
-5.577096018230419
 31
-0.0000000000000002
210
0.0
220
0.0
230
1.0
 40
0.8164965809049363
 41
3.141592653589811
 42
3.916197482846318
  0
ELLIPSE
  5
4104
330
A
100
AcDbEntity
  8
0
  6
Continuous
 62
     7
370
     0
100
AcDbEllipse
 10
242.4956038621528
 20
-47.93634352223432
 30
0.0
 11
4.553679831020061
 21
-5.577096018230419
 31
-0.0000000000000002
210
0.0
220
0.0
230
1.0
 40
0.8164965809049363
 41
0.0
 42
3.141592653589811
  0
ELLIPSE
  5
4105
330
A
100
AcDbEntity
  8
0
  6
Continuous
 62
     7
370
     0
100
AcDbEllipse
 10
242.4956038621528
 20
-47.93634352223432
 30
0.0
 11
3.086382996580259
 21
-3.780031745689526
 31
-0.0000000000000002
210
0.0
220
0.0
230
1.0
 40
0.8164965809049363
 41
3.257772986218183
 42
3.322912428161068
  0
ELLIPSE
  5
4106
330
A
100
AcDbEntity
  8
0
  6
Continuous
 62
     7
370
     0
100
AcDbEllipse
 10
242.4956038621528
 20
-47.93634352223432
 30
0.0
 11
3.086382996580259
 21
-3.780031745689526
 31
-0.0000000000000002
210
0.0
220
0.0
230
1.0
 40
0.8164965809049363
 41
6.101865532947844
 42
6.167004974551207
  0
ELLIPSE
  5
4107
330
A
100
AcDbEntity
  8
0
  6
Continuous
 62
     7
370
     0
100
AcDbEllipse
 10
241.7800621093525
 20
-48.52058091698734
 30
0.0
 11
-3.086382996580259
 21
3.780031745689526
 31
0.0
210
0.0
220
0.0
230
1.0
 40
0.8164965809049363
 41
5.486993809641211
 42
6.283185307179585
  0
ELLIPSE
  5
4108
330
A
100
AcDbEntity
  8
0
  6
Continuous
 62
     7
370
     0
100
AcDbEllipse
 10
241.7800621093525
 20
-48.52058091698734
 30
0.0
 11
-3.086382996580259
 21
3.780031745689526
 31
0.0
210
0.0
220
0.0
230
1.0
 40
0.8164965809049363
 41
2.9602728794535
 42
3.141592653589825
  0
ELLIPSE
  5
4109
330
A
100
AcDbEntity
  8
0
  6
Continuous
 62
     7
370
     0
100
AcDbEllipse
 10
241.7800621093525
 20
-48.52058091698734
 30
0.0
 11
-3.086382996580259
 21
3.780031745689526
 31
0.0000000000000002
210
0.0
220
0.0
230
1.0
 40
0.8164965809049366
 41
0.0
 42
0.1813197746667239
  0
ELLIPSE
  5
410A
330
A
100
AcDbEntity
  8
0
  6
Continuous
 62
     7
370
     0
100
AcDbEllipse
 10
246.4310835020707
 20
-44.72303785135773
 30
0.0
 11
-4.553679830642476
 21
5.577096018538616
 31
0.0000000000000002
210
0.0
220
-0.0000000000000001
230
1.0
 40
0.8164965809277259
 41
2.780225529794798
 42
3.141592653589781
  0
ELLIPSE
  5
410B
330
A
100
AcDbEntity
  8
0
  6
Continuous
 62
     7
370
     0
100
AcDbEllipse
 10
246.4310835020707
 20
-44.72303785135773
 30
0.0
 11
-4.553679830642476
 21
5.577096018538616
 31
0.0000000000000002
210
0.0
220
-0.0000000000000001
230
1.0
 40
0.8164965809277259
 41
3.141592653589781
 42
6.283185307179585
  0
ELLIPSE
  5
410C
330
A
100
AcDbEntity
  8
0
  6
Continuous
 62
     7
370
     0
100
AcDbEllipse
 10
247.1466252548708
 20
-44.13880045668543
 30
0.0
 11
-4.553679830642476
 21
5.577096018538616
 31
0.0000000000000002
210
0.0
220
-0.0000000000000001
230
1.0
 40
0.8164965809277259
 41
3.141592653589781
 42
6.283185307179585
  0
ELLIPSE
  5
410D
330
A
100
AcDbEntity
  8
0
  6
Continuous
 62
     7
370
     0
100
AcDbEllipse
 10
246.4310835020707
 20
-44.72303785135773
 30
0.0
 11
-4.553679830642476
 21
5.577096018538616
 31
0.0000000000000002
210
0.0
220
-0.0000000000000001
230
1.0
 40
0.8164965809277262
 41
0.0
 42
0.3613671239723528
  0
LINE
  5
410E
330
A
100
AcDbEntity
  8
0
  6
Continuous
 62
     9
370
     0
100
AcDbLine
 10
254.7058437986315
 20
-184.9541153894854
 30
0.0
 11
254.3473266854162
 21
-184.5150233938883
 31
0.0
  0
LINE
  5
410F
330
A
100
AcDbEntity
  8
0
  6
Continuous
 62
     9
370
     0
100
AcDbLine
 10
254.5420428898554
 20
-44.53652633115893
 30
0.0
 11
254.3473266998948
 21
-44.29804867612768
 31
0.0
  0
LINE
  5
4110
330
A
100
AcDbEntity
  8
0
  6
Continuous
 62
     7
370
     0
100
AcDbLine
 10
254.583825061088
 20
-185.2473924388572
 30
0.0
 11
254.7058437986315
 21
-184.9541153894854
 31
0.0
  0
LINE
  5
4111
330
A
100
AcDbEntity
  8
0
  6
Continuous
 62
     7
370
     0
100
AcDbLine
 10
254.7058437986315
 20
-184.9541153894854
 30
0.0
 11
254.827862536175
 21
-184.6608383401134
 31
0.0
  0
LINE
  5
4112
330
A
100
AcDbEntity
  8
0
  6
Continuous
 62
     7
370
     0
100
AcDbLine
 10
254.827862536175
 20
-184.6608383401134
 30
0.0
 11
254.5299574625715
 21
-184.2959806291553
 31
0.0
  0
LINE
  5
4113
330
A
100
AcDbEntity
  8
0
  6
Continuous
 62
     7
370
     0
100
AcDbLine
 10
254.5299574625715
 20
-184.2959806291553
 30
0.0
 11
254.5271269592989
 21
-184.2925139847895
 31
0.0
  0
LINE
  5
4114
330
A
100
AcDbEntity
  8
0
  6
Continuous
 62
     7
370
     0
100
AcDbLine
 10
254.4200241522725
 20
-44.82980338051492
 30
0.0
 11
254.5420428898554
 21
-44.53652633115893
 31
0.0
  0
LINE
  5
4115
330
A
100
AcDbEntity
  8
0
  6
Continuous
 62
     7
370
     0
100
AcDbLine
 10
254.5420428898554
 20
-44.53652633115893
 30
0.0
 11
254.6640616274376
 21
-44.24324928180374
 31
0.0
  0
LINE
  5
4116
330
A
100
AcDbEntity
  8
0
  6
Continuous
 62
     7
370
     0
100
AcDbLine
 10
254.6640616274376
 20
-44.24324928180374
 30
0.0
 11
254.5299574770772
 21
-44.07900591141753
 31
0.0
  0
LINE
  5
4117
330
A
100
AcDbEntity
  8
0
  6
Continuous
 62
     7
370
     0
100
AcDbLine
 10
254.5299574770772
 20
-44.07900591141753
 30
0.0
 11
254.5271269738067
 21
-44.07553926705339
 31
0.0
  0
LINE
  5
4118
330
A
100
AcDbEntity
  8
0
  6
Continuous
 62
     7
370
     0
100
AcDbLine
 10
239.3008364132513
 20
-184.5650615753045
 30
0.0
 11
232.5683478247697
 21
-190.0621154924247
 31
0.0
  0
LINE
  5
4119
330
A
100
AcDbEntity
  8
0
  6
Continuous
 62
     7
370
     0
100
AcDbLine
 10
232.5683478239916
 20
-202.4556622040711
 30
0.0
 11
245.372409515064
 21
-192.0011896046852
 31
0.0
  0
LINE
  5
411A
330
A
100
AcDbEntity
  8
0
  6
Continuous
 62
     7
370
     0
100
AcDbLine
 10
247.0492836801231
 20
-193.7304142576482
 30
0.0
 11
247.7648254325577
 21
-193.1461768629013
 31
0.0
  0
LINE
  5
411B
330
A
100
AcDbEntity
  8
0
  6
Continuous
 62
     7
370
     0
100
AcDbLine
 10
238.6574657677859
 20
-181.9919848286712
 30
0.0
 11
237.9419240153512
 21
-182.5762222234181
 31
0.0
  0
LINE
  5
411C
330
A
100
AcDbEntity
  8
0
  6
Continuous
 62
     7
370
     0
100
AcDbLine
 10
242.1303858689785
 20
-179.6727552191441
 30
0.0
 11
241.5937295544472
 21
-180.1109332651623
 31
0.0
  0
LINE
  5
411D
330
A
100
AcDbEntity
  8
0
  6
Continuous
 62
     7
370
     0
100
AcDbLine
 10
250.1951247909312
 20
-190.6454479661722
 30
0.0
 11
250.7317811054625
 21
-190.2072699201541
 31
0.0
  0
LINE
  5
411E
330
A
100
AcDbEntity
  8
0
  6
Continuous
 62
     7
370
     0
100
AcDbLine
 10
242.5929454093779
 20
-178.7786791564382
 30
0.0
 11
241.8774036565781
 21
-179.3629165511104
 31
0.0
  0
LINE
  5
411F
330
A
100
AcDbEntity
  8
0
  6
Continuous
 62
     7
370
     0
100
AcDbLine
 10
250.984763317863
 20
-190.5171085881877
 30
0.0
 11
251.7003050706629
 21
-189.9328711935156
 31
0.0
  0
LINE
  5
4120
330
A
100
AcDbEntity
  8
0
  6
Continuous
 62
     7
370
     0
100
AcDbLine
 10
254.641704352664
 20
-184.4328420596524
 30
0.0
 11
264.0756378873217
 21
-176.7300675839047
 31
0.0
  0
LINE
  5
4121
330
A
100
AcDbEntity
  8
0
  6
Continuous
 62
     7
370
     0
100
AcDbLine
 10
258.0040647797984
 20
-169.2939395591868
 30
0.0
 11
247.5049512359541
 21
-177.8664298705075
 31
0.0
  0
LINE
  5
4122
330
A
100
AcDbEntity
  8
0
  6
Continuous
 62
     7
370
     0
100
AcDbLine
 10
231.9771401040914
 20
-33.66634515915985
 30
0.0
 11
231.261598351342
 21
-33.08210776447277
 31
0.0
  0
LINE
  5
4123
330
A
100
AcDbEntity
  8
0
  6
Continuous
 62
     7
370
     0
100
AcDbLine
 10
222.6750973179079
 20
-33.08210776393366
 30
0.0
 11
221.9595555650849
 21
-33.66634515853105
 31
0.0
  0
LINE
  5
4124
330
A
100
AcDbEntity
  8
0
  6
Continuous
 62
     7
370
     0
100
AcDbLine
 10
221.3683478345241
 20
-34.68876059931427
 30
0.0
 11
221.368347822466
 21
-226.7568040953311
 31
0.0
  0
LINE
  5
4125
330
A
100
AcDbEntity
  8
0
  6
Continuous
 62
     7
370
     0
100
AcDbLine
 10
232.568347822466
 20
-226.7568040960342
 30
0.0
 11
232.5683478345241
 21
-34.68876060001753
 31
0.0
  0
LINE
  5
4126
330
A
100
AcDbEntity
  8
0
  6
Continuous
 62
     7
370
     0
100
AcDbLine
 10
221.9595555528986
 20
-227.7792195361886
 30
0.0
 11
222.6750973056481
 21
-228.3634569308758
 31
0.0
  0
LINE
  5
4127
330
A
100
AcDbEntity
  8
0
  6
Continuous
 62
     7
370
     0
100
AcDbLine
 10
231.2615983390823
 20
-228.3634569314148
 30
0.0
 11
231.9771400919051
 21
-227.7792195368176
 31
0.0
  0
LINE
  5
4128
330
A
100
AcDbEntity
  8
0
  6
Continuous
 62
     7
370
     0
100
AcDbLine
 10
268.040444436895
 20
-4.220780465940151
 30
0.0
 11
267.3249026841453
 21
-3.636543071253072
 31
0.0
  0
LINE
  5
4129
330
A
100
AcDbEntity
  8
0
  6
Continuous
 62
     7
370
     0
100
AcDbLine
 10
258.7384016507112
 20
-3.636543070713855
 30
0.0
 11
258.0228598978883
 21
-4.220780465311349
 31
0.0
  0
LINE
  5
412A
330
A
100
AcDbEntity
  8
0
  6
Continuous
 62
     7
370
     0
100
AcDbLine
 10
257.4316521673273
 20
-5.243195906094683
 30
0.0
 11
257.4316521658015
 21
-29.5443377952289
 31
0.0
  0
LINE
  5
412B
330
A
100
AcDbEntity
  8
0
  6
Continuous
 62
     7
370
     0
100
AcDbLine
 10
257.4316521650235
 20
-41.93788450372767
 30
0.0
 11
257.4316521569985
 21
-169.7613125085828
 31
0.0
  0
LINE
  5
412C
330
A
100
AcDbEntity
  8
0
  6
Continuous
 62
     7
370
     0
100
AcDbLine
 10
257.4316521562202
 20
-182.1548592170818
 30
0.0
 11
257.4316521552686
 21
-197.3112394021116
 31
0.0
  0
LINE
  5
412D
330
A
100
AcDbEntity
  8
0
  6
Continuous
 62
     7
370
     0
100
AcDbLine
 10
268.6316521552689
 20
-197.3112394028145
 30
0.0
 11
268.6316521673275
 21
-5.243195906797836
 31
0.0
  0
LINE
  5
412E
330
A
100
AcDbEntity
  8
0
  6
Continuous
 62
     7
370
     0
100
AcDbLine
 10
258.0228598857013
 20
-198.3336548429691
 30
0.0
 11
258.7384016384508
 21
-198.9178922376563
 31
0.0
  0
LINE
  5
412F
330
A
100
AcDbEntity
  8
0
  6
Continuous
 62
     7
370
     0
100
AcDbLine
 10
267.324902671885
 20
-198.9178922381952
 30
0.0
 11
268.0404444247078
 21
-198.333654843598
 31
0.0
  0
LINE
  5
4130
330
A
100
AcDbEntity
  8
0
  6
Continuous
 62
     7
370
     0
100
AcDbLine
 10
254.6417043670179
 20
-44.21586734176639
 30
0.0
 11
264.0756379023624
 21
-36.51309286545825
 31
0.0
  0
LINE
  5
4131
330
A
100
AcDbEntity
  8
0
  6
Continuous
 62
     7
370
     0
100
AcDbLine
 10
258.0040647948391
 20
-29.07696484073995
 30
0.0
 11
247.5049512508044
 21
-37.64945515221632
 31
0.0
  0
LINE
  5
4132
330
A
100
AcDbEntity
  8
0
  6
Continuous
 62
     7
370
     0
100
AcDbLine
 10
239.3008364239017
 20
-44.34808685864413
 30
0.0
 11
232.5683478335725
 21
-49.84514077556287
 31
0.0
  0
LINE
  5
4133
330
A
100
AcDbEntity
  8
0
  6
Continuous
 62
     7
370
     0
100
AcDbLine
 10
232.5683478327945
 20
-62.23868748566769
 30
0.0
 11
245.3724095312199
 21
-51.78421488352978
 31
0.0
  0
LINE
  5
4134
330
A
100
AcDbEntity
  8
0
  6
Continuous
 62
     7
370
     0
100
AcDbLine
 10
242.130385883829
 20
-39.45578050085271
 30
0.0
 11
241.5937295692977
 21
-39.89395854687075
 31
0.0
  0
LINE
  5
4135
330
A
100
AcDbEntity
  8
0
  6
Continuous
 62
     7
370
     0
100
AcDbLine
 10
250.195124805781
 20
-50.4284732478809
 30
0.0
 11
250.7317811203125
 21
-49.99029520186275
 31
0.0
  0
LINE
  5
4136
330
A
100
AcDbEntity
  8
0
  6
Continuous
 62
     7
370
     0
100
AcDbLine
 10
247.0492836931728
 20
-53.51343954046445
 30
0.0
 11
247.7648254459731
 21
-52.92920214571132
 31
0.0
  0
LINE
  5
4137
330
A
100
AcDbEntity
  8
0
  6
Continuous
 62
     7
370
     0
100
AcDbLine
 10
238.6574657839329
 20
-41.7750101092505
 30
0.0
 11
237.9419240311326
 21
-42.35924750400386
 31
0.0
  0
LINE
  5
4138
330
A
100
AcDbEntity
  8
0
  6
Continuous
 62
     7
370
     0
100
AcDbLine
 10
242.5929454242282
 20
-38.56170443814699
 30
0.0
 11
241.8774036714283
 21
-39.14594183281918
 31
0.0
  0
LINE
  5
4139
330
A
100
AcDbEntity
  8
0
  6
Continuous
 62
     7
370
     0
100
AcDbLine
 10
250.9847633327131
 20
-50.30013386989651
 30
0.0
 11
251.7003050855131
 21
-49.71589647522421
 31
0.0
  0
LINE
  5
413A
330
A
100
AcDbEntity
  8
0
  6
Continuous
 62
     7
370
     0
100
AcDbLine
 10
120.9999999892864
 20
75.35000502264563
 30
0.0
 11
120.9999999892864
 21
71.3999655645967
 31
0.0
  0
LINE
  5
413B
330
A
100
AcDbEntity
  8
0
  6
Continuous
 62
     7
370
     0
100
AcDbLine
 10
120.9999999892864
 20
71.3999655645967
 30
0.0
 11
120.9999999892864
 21
67.64999500264565
 31
0.0
  0
ELLIPSE
  5
413C
330
A
100
AcDbEntity
  8
0
  6
Continuous
 62
     7
370
     0
100
AcDbEllipse
 10
107.4999999892864
 20
66.99719535223199
 30
0.0
 11
-2.0
 21
0.0
 31
0.0
210
0.0
220
0.0
230
1.0
 40
0.7071067810711071
 41
0.0
 42
1.154473723226197
  0
ELLIPSE
  5
413D
330
A
100
AcDbEntity
  8
0
  6
Continuous
 62
     7
370
     0
100
AcDbEllipse
 10
107.4999999892864
 20
66.73203030924378
 30
0.0
 11
-1.300000000000022
 21
0.0
 31
0.0
210
0.0
220
0.0
230
1.0
 40
0.7071067810711078
 41
0.0
 42
6.283185307179585
  0
ELLIPSE
  5
413E
330
A
100
AcDbEntity
  8
0
  6
Continuous
 62
     7
370
     0
100
AcDbEllipse
 10
107.4999999892864
 20
66.99719535223199
 30
0.0
 11
-2.0
 21
0.0
 31
0.0
210
0.0
220
0.0
230
1.0
 40
0.7071067810711079
 41
1.154473723226197
 42
3.141592653589765
  0
ELLIPSE
  5
413F
330
A
100
AcDbEntity
  8
0
  6
Continuous
 62
     7
370
     0
100
AcDbEllipse
 10
107.4999999892864
 20
66.99719535223199
 30
0.0
 11
-2.0
 21
0.0
 31
0.0
210
0.0
220
0.0
230
1.0
 40
0.7071067810711079
 41
3.141592653589765
 42
6.283185307179585
  0
LINE
  5
4140
330
A
100
AcDbEntity
  8
0
  6
Continuous
 62
     7
370
     0
100
AcDbLine
 10
106.5675657618899
 20
66.25041856480561
 30
0.0
 11
106.4439313614894
 21
67.0622214558885
 31
0.0
  0
LINE
  5
4141
330
A
100
AcDbEntity
  8
0
  6
Continuous
 62
     7
370
     0
100
AcDbLine
 10
107.6236343896869
 20
65.92022741816101
 30
0.0
 11
106.5675657618899
 21
66.25041856480561
 31
0.0
  0
LINE
  5
4142
330
A
100
AcDbEntity
  8
0
  6
Continuous
 62
     7
370
     0
100
AcDbLine
 10
108.5560686170834
 20
66.40183916259911
 30
0.0
 11
107.6236343896869
 21
65.92022741816101
 31
0.0
  0
LINE
  5
4143
330
A
100
AcDbEntity
  8
0
  6
Continuous
 62
     7
370
     0
100
AcDbLine
 10
108.432434216683
 20
67.21364205368189
 30
0.0
 11
108.5560686170834
 21
66.40183916259911
 31
0.0
  0
LINE
  5
4144
330
A
100
AcDbEntity
  8
0
  6
Continuous
 62
     7
370
     0
100
AcDbLine
 10
107.3763655888859
 20
67.54383320032662
 30
0.0
 11
108.432434216683
 21
67.21364205368189
 31
0.0
  0
LINE
  5
4145
330
A
100
AcDbEntity
  8
0
  6
Continuous
 62
     7
370
     0
100
AcDbLine
 10
106.4439313614894
 20
67.0622214558885
 30
0.0
 11
107.3763655888859
 21
67.54383320032662
 31
0.0
  0
LINE
  5
4146
330
A
100
AcDbEntity
  8
0
  6
Continuous
 62
     7
370
     0
100
AcDbLine
 10
106.5675657618899
 20
66.25041856480561
 30
0.0
 11
106.5675657618899
 21
67.12607987882063
 31
0.0
  0
LINE
  5
4147
330
A
100
AcDbEntity
  8
0
  6
Continuous
 62
     7
370
     0
100
AcDbLine
 10
107.6236343896869
 20
65.92022741816101
 30
0.0
 11
107.6236343896869
 21
67.46652196626763
 31
0.0
  0
LINE
  5
4148
330
A
100
AcDbEntity
  8
0
  6
Continuous
 62
     9
370
     0
100
AcDbLine
 10
120.9999999892864
 20
71.60001986466858
 30
0.0
 11
120.9999999892864
 21
71.3999690194808
 31
0.0
  0
ELLIPSE
  5
4149
330
A
100
AcDbEntity
  8
0
  6
Continuous
 62
     7
370
     0
100
AcDbEllipse
 10
107.4999999892864
 20
75.65416550407286
 30
0.0
 11
2.0
 21
0.0
 31
0.0
210
0.0
220
0.0
230
1.0
 40
0.7071067813019876
 41
0.0
 42
1.290265041675254
  0
ELLIPSE
  5
414A
330
A
100
AcDbEntity
  8
0
  6
Continuous
 62
     7
370
     0
100
AcDbEllipse
 10
107.4999999892864
 20
75.91933054697432
 30
0.0
 11
1.299999999999966
 21
0.0
 31
0.0
210
0.0
220
0.0
230
1.0
 40
0.7071067813019864
 41
0.0
 42
6.283185307179585
  0
ELLIPSE
  5
414B
330
A
100
AcDbEntity
  8
0
  6
Continuous
 62
     7
370
     0
100
AcDbEllipse
 10
107.4999999892864
 20
75.65416550407286
 30
0.0
 11
2.0
 21
0.0
 31
0.0
210
0.0
220
0.0
230
1.0
 40
0.7071067813019864
 41
1.290265041675254
 42
3.141592653589792
  0
ELLIPSE
  5
414C
330
A
100
AcDbEntity
  8
0
  6
Continuous
 62
     7
370
     0
100
AcDbEllipse
 10
107.4999999892864
 20
75.65416550407286
 30
0.0
 11
2.0
 21
0.0
 31
0.0
210
0.0
220
0.0
230
1.0
 40
0.7071067813019864
 41
3.141592653589792
 42
6.283185307179585
  0
LINE
  5
414D
330
A
100
AcDbEntity
  8
0
  6
Continuous
 62
     7
370
     0
100
AcDbLine
 10
108.3316469623167
 20
76.48576529422797
 30
0.0
 11
108.6095615273652
 21
75.69327023800446
 31
0.0
  0
LINE
  5
414E
330
A
100
AcDbEntity
  8
0
  6
Continuous
 62
     7
370
     0
100
AcDbLine
 10
107.222085424238
 20
76.71182560319806
 30
0.0
 11
108.3316469623167
 21
76.48576529422797
 31
0.0
  0
LINE
  5
414F
330
A
100
AcDbEntity
  8
0
  6
Continuous
 62
     7
370
     0
100
AcDbLine
 10
106.3904384512078
 20
76.14539085594453
 30
0.0
 11
107.222085424238
 21
76.71182560319806
 31
0.0
  0
LINE
  5
4150
330
A
100
AcDbEntity
  8
0
  6
Continuous
 62
     7
370
     0
100
AcDbLine
 10
106.6683530162561
 20
75.35289579972101
 30
0.0
 11
106.3904384512078
 21
76.14539085594453
 31
0.0
  0
LINE
  5
4151
330
A
100
AcDbEntity
  8
0
  6
Continuous
 62
     7
370
     0
100
AcDbLine
 10
107.7779145543348
 20
75.12683549075086
 30
0.0
 11
106.6683530162561
 21
75.35289579972101
 31
0.0
  0
LINE
  5
4152
330
A
100
AcDbEntity
  8
0
  6
Continuous
 62
     7
370
     0
100
AcDbLine
 10
108.6095615273652
 20
75.69327023800446
 30
0.0
 11
107.7779145543348
 21
75.12683549075086
 31
0.0
  0
LINE
  5
4153
330
A
100
AcDbEntity
  8
0
  6
Continuous
 62
     7
370
     0
100
AcDbLine
 10
108.3316469623167
 20
76.48576529422797
 30
0.0
 11
108.3316469623167
 21
75.50398262978098
 31
0.0
  0
LINE
  5
4154
330
A
100
AcDbEntity
  8
0
  6
Continuous
 62
     7
370
     0
100
AcDbLine
 10
107.222085424238
 20
76.71182560319806
 30
0.0
 11
107.222085424238
 21
75.24007923665596
 31
0.0
  0
LINE
  5
4155
330
A
100
AcDbEntity
  8
0
  6
Continuous
 62
     7
370
     0
100
AcDbLine
 10
168.9999999877338
 20
65.49999999742857
 30
0.0
 11
168.9999999877815
 21
65.6870833456951
 31
0.0
  0
LINE
  5
4156
330
A
100
AcDbEntity
  8
0
  6
Continuous
 62
     7
370
     0
100
AcDbLine
 10
168.9999999907502
 20
77.31291664916216
 30
0.0
 11
168.9999999907981
 21
77.49999999742858
 31
0.0
  0
LINE
  5
4157
330
A
100
AcDbEntity
  8
0
  6
Continuous
 62
     7
370
     0
100
AcDbLine
 10
129.4999999915837
 20
80.50000000951376
 30
0.0
 11
129.499999986989
 21
62.50000000951371
 31
0.0
  0
LINE
  5
4158
330
A
100
AcDbEntity
  8
0
  6
Continuous
 62
     7
370
     0
100
AcDbLine
 10
131.4999999910732
 20
78.50000000900315
 30
0.0
 11
131.4999999874995
 21
64.50000000900331
 31
0.0
  0
LINE
  5
4159
330
A
100
AcDbEntity
  8
0
  6
Continuous
 62
     7
370
     0
100
AcDbLine
 10
127.4999999915838
 20
80.50000001002416
 30
0.0
 11
127.4999999869891
 21
62.50000001002433
 31
0.0
  0
LINE
  5
415A
330
A
100
AcDbEntity
  8
0
  6
Continuous
 62
     7
370
     0
100
AcDbLine
 10
125.9999999876433
 20
63.00000001031435
 30
0.0
 11
125.9999999909296
 21
80.00000001031418
 31
0.0
  0
LINE
  5
415B
330
A
100
AcDbEntity
  8
0
  6
Continuous
 62
     7
370
     0
100
AcDbLine
 10
127.4999999876433
 20
63.00000001002416
 30
0.0
 11
127.4999999909296
 21
80.00000001002417
 31
0.0
  0
LINE
  5
415C
330
A
100
AcDbEntity
  8
0
  6
Continuous
 62
     7
370
     0
100
AcDbLine
 10
118.4999999887424
 20
63.00000001079428
 30
0.0
 11
118.4999999898306
 21
80.00000001079428
 31
0.0
  0
LINE
  5
415D
330
A
100
AcDbEntity
  8
0
  6
Continuous
 62
     7
370
     0
100
AcDbLine
 10
119.9999999887424
 20
63.00000001069832
 30
0.0
 11
119.9999999898306
 21
80.00000001069833
 31
0.0
  0
LINE
  5
415E
330
A
100
AcDbEntity
  8
0
  6
Continuous
 62
     7
370
     0
100
AcDbLine
 10
116.4999999892864
 20
62.50000001079428
 30
0.0
 11
116.4999999892864
 21
80.50000001079439
 31
0.0
  0
LINE
  5
415F
330
A
100
AcDbEntity
  8
0
  6
Continuous
 62
     7
370
     0
100
AcDbLine
 10
114.4999999892864
 20
64.50000001079439
 30
0.0
 11
114.4999999892864
 21
78.50000001079428
 31
0.0
  0
LINE
  5
4160
330
A
100
AcDbEntity
  8
0
  6
Continuous
 62
     7
370
     0
100
AcDbLine
 10
118.4999999892864
 20
62.50000001079428
 30
0.0
 11
118.4999999892864
 21
80.50000001079439
 31
0.0
  0
LINE
  5
4161
330
A
100
AcDbEntity
  8
0
  6
Continuous
 62
     7
370
     0
100
AcDbLine
 10
75.99999998928644
 20
77.50000001079428
 30
0.0
 11
75.99999998928644
 21
77.31291666228509
 31
0.0
  0
LINE
  5
4162
330
A
100
AcDbEntity
  8
0
  6
Continuous
 62
     7
370
     0
100
AcDbLine
 10
75.99999998928644
 20
65.6870833588182
 30
0.0
 11
75.99999998928644
 21
65.50000001079428
 31
0.0
  0
CIRCLE
  5
4163
330
A
100
AcDbEntity
  8
0
  6
Continuous
 62
     7
370
     0
100
AcDbCircle
 10
172.899999989286
 20
71.49999999492149
 30
0.0
 40
6.000000000000004
  0
CIRCLE
  5
4164
330
A
100
AcDbEntity
  8
0
  6
Continuous
 62
     7
370
     0
100
AcDbCircle
 10
172.899999989286
 20
71.49999999485732
 30
0.0
 40
7.000000000000006
  0
CIRCLE
  5
4165
330
A
100
AcDbEntity
  8
0
  6
Continuous
 62
     7
370
     0
100
AcDbCircle
 10
72.09999998928646
 20
71.50000000654029
 30
0.0
 40
6.000000000000004
  0
CIRCLE
  5
4166
330
A
100
AcDbEntity
  8
0
  6
Continuous
 62
     7
370
     0
100
AcDbCircle
 10
72.09999998928646
 20
71.50000000647622
 30
0.0
 40
7.000000000000006
  0
LINE
  5
4167
330
A
100
AcDbEntity
  8
0
  6
Continuous
 62
     7
370
     0
100
AcDbLine
 10
125.9999999881853
 20
62.9999999895611
 30
0.0
 11
125.9999999887877
 21
67.65000001264565
 31
0.0
  0
LINE
  5
4168
330
A
100
AcDbEntity
  8
0
  6
Continuous
 62
     7
370
     0
100
AcDbLine
 10
125.9999999897852
 20
75.35000001264563
 30
0.0
 11
125.9999999903874
 21
79.9999999895611
 31
0.0
  0
LINE
  5
4169
330
A
100
AcDbEntity
  8
0
  6
Continuous
 62
     9
370
     0
100
AcDbLine
 10
125.9999999897398
 20
75.00000001264567
 30
0.0
 11
120.9999999892864
 21
75.00000001264567
 31
0.0
  0
LINE
  5
416A
330
A
100
AcDbEntity
  8
0
  6
Continuous
 62
     9
370
     0
100
AcDbLine
 10
120.9999999892864
 20
68.00000001264567
 30
0.0
 11
125.9999999888329
 21
68.00000001264567
 31
0.0
  0
LINE
  5
416B
330
A
100
AcDbEntity
  8
0
  6
Continuous
 62
     7
370
     0
100
AcDbLine
 10
121.0049999892864
 20
75.35000001264563
 30
0.0
 11
120.9999999892864
 21
75.35000001264563
 31
0.0
  0
LINE
  5
416C
330
A
100
AcDbEntity
  8
0
  6
Continuous
 62
     7
370
     0
100
AcDbLine
 10
120.9999999892864
 20
75.35000001264563
 30
0.0
 11
119.9999999895328
 21
75.35000001264563
 31
0.0
  0
LINE
  5
416D
330
A
100
AcDbEntity
  8
0
  6
Continuous
 62
     7
370
     0
100
AcDbLine
 10
119.9999999890399
 20
67.65000001264565
 30
0.0
 11
120.9999999892864
 21
67.65000001264565
 31
0.0
  0
LINE
  5
416E
330
A
100
AcDbEntity
  8
0
  6
Continuous
 62
     7
370
     0
100
AcDbLine
 10
120.9999999892864
 20
67.65000001264565
 30
0.0
 11
121.0049999892864
 21
67.65000001264565
 31
0.0
  0
LINE
  5
416F
330
A
100
AcDbEntity
  8
0
  6
Continuous
 62
     7
370
     0
100
AcDbLine
 10
125.9999999897852
 20
75.35000001264563
 30
0.0
 11
120.9999999892864
 21
75.35000001264563
 31
0.0
  0
LINE
  5
4170
330
A
100
AcDbEntity
  8
0
  6
Continuous
 62
     7
370
     0
100
AcDbLine
 10
120.9999999892864
 20
75.35000001264563
 30
0.0
 11
120.9949999892864
 21
75.35000001264563
 31
0.0
  0
LINE
  5
4171
330
A
100
AcDbEntity
  8
0
  6
Continuous
 62
     7
370
     0
100
AcDbLine
 10
120.9949999892864
 20
67.65000001264565
 30
0.0
 11
120.9999999892864
 21
67.65000001264565
 31
0.0
  0
LINE
  5
4172
330
A
100
AcDbEntity
  8
0
  6
Continuous
 62
     7
370
     0
100
AcDbLine
 10
120.9999999892864
 20
67.65000001264565
 30
0.0
 11
125.9999999887877
 21
67.65000001264565
 31
0.0
  0
LINE
  5
4173
330
A
100
AcDbEntity
  8
0
  6
Continuous
 62
     7
370
     0
100
AcDbLine
 10
131.4999999890877
 20
65.50000000700464
 30
0.0
 11
168.9999999877338
 21
65.49999999742857
 31
0.0
  0
LINE
  5
4174
330
A
100
AcDbEntity
  8
0
  6
Continuous
 62
     7
370
     0
100
AcDbLine
 10
168.9999999907981
 20
77.49999999742858
 30
0.0
 11
131.4999999890845
 21
77.50000000700464
 31
0.0
  0
LINE
  5
4175
330
A
100
AcDbEntity
  8
0
  6
Continuous
 62
     7
370
     0
100
AcDbLine
 10
129.499999986989
 20
62.50000000951371
 30
0.0
 11
131.4999999874995
 21
64.50000000900331
 31
0.0
  0
LINE
  5
4176
330
A
100
AcDbEntity
  8
0
  6
Continuous
 62
     7
370
     0
100
AcDbLine
 10
131.4999999910732
 20
78.50000000900315
 30
0.0
 11
129.4999999915837
 21
80.50000000951376
 31
0.0
  0
LINE
  5
4177
330
A
100
AcDbEntity
  8
0
  6
Continuous
 62
     7
370
     0
100
AcDbLine
 10
129.4999999915837
 20
80.50000000951376
 30
0.0
 11
127.4999999915838
 21
80.50000001002416
 31
0.0
  0
LINE
  5
4178
330
A
100
AcDbEntity
  8
0
  6
Continuous
 62
     7
370
     0
100
AcDbLine
 10
127.4999999869891
 20
62.50000001002433
 30
0.0
 11
129.499999986989
 21
62.50000000951371
 31
0.0
  0
LINE
  5
4179
330
A
100
AcDbEntity
  8
0
  6
Continuous
 62
     7
370
     0
100
AcDbLine
 10
125.9999999876433
 20
63.00000001031435
 30
0.0
 11
127.4999999876433
 21
63.00000001002416
 31
0.0
  0
LINE
  5
417A
330
A
100
AcDbEntity
  8
0
  6
Continuous
 62
     7
370
     0
100
AcDbLine
 10
127.4999999909296
 20
80.00000001002417
 30
0.0
 11
125.9999999909296
 21
80.00000001031418
 31
0.0
  0
LINE
  5
417B
330
A
100
AcDbEntity
  8
0
  6
Continuous
 62
     7
370
     0
100
AcDbLine
 10
118.4999999887424
 20
63.00000001079428
 30
0.0
 11
119.9999999887424
 21
63.00000001069832
 31
0.0
  0
LINE
  5
417C
330
A
100
AcDbEntity
  8
0
  6
Continuous
 62
     7
370
     0
100
AcDbLine
 10
119.9999999898306
 20
80.00000001069833
 30
0.0
 11
118.4999999898306
 21
80.00000001079428
 31
0.0
  0
LINE
  5
417D
330
A
100
AcDbEntity
  8
0
  6
Continuous
 62
     7
370
     0
100
AcDbLine
 10
116.4999999892864
 20
80.50000001079439
 30
0.0
 11
114.4999999892864
 21
78.50000001079428
 31
0.0
  0
LINE
  5
417E
330
A
100
AcDbEntity
  8
0
  6
Continuous
 62
     7
370
     0
100
AcDbLine
 10
114.4999999892864
 20
64.50000001079439
 30
0.0
 11
116.4999999892864
 21
62.50000001079428
 31
0.0
  0
LINE
  5
417F
330
A
100
AcDbEntity
  8
0
  6
Continuous
 62
     7
370
     0
100
AcDbLine
 10
116.4999999892864
 20
62.50000001079428
 30
0.0
 11
118.4999999892864
 21
62.50000001079428
 31
0.0
  0
LINE
  5
4180
330
A
100
AcDbEntity
  8
0
  6
Continuous
 62
     7
370
     0
100
AcDbLine
 10
118.4999999892864
 20
80.50000001079439
 30
0.0
 11
116.4999999892864
 21
80.50000001079439
 31
0.0
  0
LINE
  5
4181
330
A
100
AcDbEntity
  8
0
  6
Continuous
 62
     7
370
     0
100
AcDbLine
 10
114.4999999892864
 20
77.50000001079428
 30
0.0
 11
75.99999998928644
 21
77.50000001079428
 31
0.0
  0
LINE
  5
4182
330
A
100
AcDbEntity
  8
0
  6
Continuous
 62
     7
370
     0
100
AcDbLine
 10
75.99999998928644
 20
65.50000001079428
 30
0.0
 11
114.4999999892864
 21
65.50000001079428
 31
0.0
  0
ARC
  5
4183
330
A
100
AcDbEntity
  8
0
  6
Continuous
 62
     7
370
     0
100
AcDbCircle
 10
-0.0000000201465014
 20
-191.9999999998888
 30
0.0
 40
9.000000000000008
100
AcDbArc
 50
0.0
 51
38.94244109382404
  0
ARC
  5
4184
330
A
100
AcDbEntity
  8
0
  6
Continuous
 62
     7
370
     0
100
AcDbCircle
 10
-0.0000000201465014
 20
-191.9999999998888
 30
0.0
 40
8.999999999999932
100
AcDbArc
 50
141.0575585558618
 51
218.9424414367994
  0
ARC
  5
4185
330
A
100
AcDbEntity
  8
0
  6
Continuous
 62
     7
370
     0
100
AcDbCircle
 10
-0.0000000201465014
 20
-191.9999999998888
 30
0.0
 40
9.000000000000015
100
AcDbArc
 50
321.0575588988372
 51
0.0
  0
LINE
  5
4186
330
A
100
AcDbEntity
  8
0
  6
Continuous
 62
     7
370
     0
100
AcDbLine
 10
7.000000011362089
 20
35.4999999996013
 30
0.0
 11
-6.99999998863791
 21
35.50000000049829
 31
0.0
  0
LINE
  5
4187
330
A
100
AcDbEntity
  8
0
  6
Continuous
 62
     7
370
     0
100
AcDbLine
 10
-5.999999988573904
 20
36.50000000043429
 30
0.0
 11
6.000000011426209
 21
36.49999999966531
 31
0.0
  0
LINE
  5
4188
330
A
100
AcDbEntity
  8
0
  6
Continuous
 62
     7
370
     0
100
AcDbLine
 10
-7.000000005490107
 20
-227.4999999995017
 30
0.0
 11
6.999999994509892
 21
-227.5000000003988
 31
0.0
  0
LINE
  5
4189
330
A
100
AcDbEntity
  8
0
  6
Continuous
 62
     7
370
     0
100
AcDbLine
 10
5.999999994445886
 20
-228.5000000003347
 30
0.0
 11
-6.000000005554113
 21
-228.4999999995658
 31
0.0
  0
ARC
  5
418A
330
A
100
AcDbEntity
  8
0
  6
Continuous
 62
     7
370
     0
100
AcDbCircle
 10
0.0000000000000568
 20
0.0
 30
0.0
 40
9.000000000000026
100
AcDbArc
 50
179.3815875100174
 51
218.9424412396744
  0
ARC
  5
418B
330
A
100
AcDbEntity
  8
0
  6
Continuous
 62
     7
370
     0
100
AcDbCircle
 10
0.0000000000000568
 20
0.0
 30
0.0
 40
8.999999999999996
100
AcDbArc
 50
321.0575587017101
 51
38.942441290946
  0
ARC
  5
418C
330
A
100
AcDbEntity
  8
0
  6
Continuous
 62
     7
370
     0
100
AcDbCircle
 10
0.0000000000000568
 20
0.0
 30
0.0
 40
9.000000000000023
100
AcDbArc
 50
141.0575587529817
 51
179.3815875100174
  0
LINE
  5
418D
330
A
100
AcDbEntity
  8
0
  6
Continuous
 62
     7
370
     0
100
AcDbLine
 10
7.000000011362089
 20
35.4999999996013
 30
0.0
 11
6.000000011426209
 21
36.49999999966531
 31
0.0
  0
LINE
  5
418E
330
A
100
AcDbEntity
  8
0
  6
Continuous
 62
     7
370
     0
100
AcDbLine
 10
-5.999999988573904
 20
36.50000000043429
 30
0.0
 11
-6.99999998863791
 21
35.50000000049829
 31
0.0
  0
LINE
  5
418F
330
A
100
AcDbEntity
  8
0
  6
Continuous
 62
     7
370
     0
100
AcDbLine
 10
-6.99999998863791
 20
35.50000000049829
 30
0.0
 11
-7.000000005490107
 21
-227.4999999995017
 31
0.0
  0
LINE
  5
4190
330
A
100
AcDbEntity
  8
0
  6
Continuous
 62
     7
370
     0
100
AcDbLine
 10
6.999999994509892
 20
-227.5000000003988
 30
0.0
 11
7.000000011362089
 21
35.4999999996013
 31
0.0
  0
LINE
  5
4191
330
A
100
AcDbEntity
  8
0
  6
Continuous
 62
     7
370
     0
100
AcDbLine
 10
-7.000000005490107
 20
-227.4999999995017
 30
0.0
 11
-6.000000005554113
 21
-228.4999999995658
 31
0.0
  0
LINE
  5
4192
330
A
100
AcDbEntity
  8
0
  6
Continuous
 62
     7
370
     0
100
AcDbLine
 10
5.999999994445886
 20
-228.5000000003347
 30
0.0
 11
6.999999994509892
 21
-227.5000000003988
 31
0.0
  0
LINE
  5
41B1
330
A
100
AcDbEntity
  8
0
  6
Continuous
 62
     7
370
     0
100
AcDbLine
 10
120.9999999892864
 20
-188.149994989899
 30
0.0
 11
120.9999999892864
 21
-195.850005009899
 31
0.0
  0
LINE
  5
41B2
330
A
100
AcDbEntity
  8
0
  6
Continuous
 62
     7
370
     0
100
AcDbLine
 10
120.9999999892864
 20
3.850005010111203
 30
0.0
 11
120.9999999892864
 21
-3.850005009888832
 31
0.0
  0
LINE
  5
41B3
330
A
100
AcDbEntity
  8
0
  6
Continuous
 62
     9
370
     0
100
AcDbLine
 10
120.9999999892864
 20
-188.3993060141077
 30
0.0
 11
120.9999999892864
 21
-195.6007365865764
 31
0.0
  0
ELLIPSE
  5
41B4
330
A
100
AcDbEntity
  8
0
  6
Continuous
 62
     7
370
     0
100
AcDbEllipse
 10
107.4999999892864
 20
-196.1541654945238
 30
0.0
 11
-2.0
 21
0.0
 31
0.0
210
0.0
220
0.0
230
1.0
 40
0.7071067810711079
 41
3.141592653589792
 42
4.431857695265049
  0
ELLIPSE
  5
41B5
330
A
100
AcDbEntity
  8
0
  6
Continuous
 62
     7
370
     0
100
AcDbEllipse
 10
107.4999999892864
 20
-196.4193305375121
 30
0.0
 11
-1.300000000000022
 21
0.0
 31
0.0
210
0.0
220
0.0
230
1.0
 40
0.7071067810711088
 41
0.0
 42
6.283185307179585
  0
ELLIPSE
  5
41B6
330
A
100
AcDbEntity
  8
0
  6
Continuous
 62
     7
370
     0
100
AcDbEllipse
 10
107.4999999892864
 20
-196.1541654945238
 30
0.0
 11
-2.0
 21
0.0
 31
0.0
210
0.0
220
0.0
230
1.0
 40
0.7071067810711087
 41
4.431857695265049
 42
6.283185307179585
  0
ELLIPSE
  5
41B7
330
A
100
AcDbEntity
  8
0
  6
Continuous
 62
     7
370
     0
100
AcDbEllipse
 10
107.4999999892864
 20
-196.1541654945238
 30
0.0
 11
-2.0
 21
0.0
 31
0.0
210
0.0
220
0.0
230
1.0
 40
0.7071067810711087
 41
0.0
 42
3.141592653589792
  0
LINE
  5
41B8
330
A
100
AcDbEntity
  8
0
  6
Continuous
 62
     7
370
     0
100
AcDbLine
 10
108.3316469623167
 20
-195.8528957904436
 30
0.0
 11
108.6095615273652
 21
-196.6453908464083
 31
0.0
  0
LINE
  5
41B9
330
A
100
AcDbEntity
  8
0
  6
Continuous
 62
     7
370
     0
100
AcDbLine
 10
107.222085424238
 20
-195.6268354815473
 30
0.0
 11
108.3316469623167
 21
-195.8528957904436
 31
0.0
  0
LINE
  5
41BA
330
A
100
AcDbEntity
  8
0
  6
Continuous
 62
     7
370
     0
100
AcDbLine
 10
106.3904384512078
 20
-196.1932702286159
 30
0.0
 11
107.222085424238
 21
-195.6268354815473
 31
0.0
  0
LINE
  5
41BB
330
A
100
AcDbEntity
  8
0
  6
Continuous
 62
     7
370
     0
100
AcDbLine
 10
106.6683530162561
 20
-196.9857652845808
 30
0.0
 11
106.3904384512078
 21
-196.1932702286159
 31
0.0
  0
LINE
  5
41BC
330
A
100
AcDbEntity
  8
0
  6
Continuous
 62
     7
370
     0
100
AcDbLine
 10
107.7779145543348
 20
-197.2118255934767
 30
0.0
 11
106.6683530162561
 21
-196.9857652845808
 31
0.0
  0
LINE
  5
41BD
330
A
100
AcDbEntity
  8
0
  6
Continuous
 62
     7
370
     0
100
AcDbLine
 10
108.6095615273652
 20
-196.6453908464083
 30
0.0
 11
107.7779145543348
 21
-197.2118255934767
 31
0.0
  0
LINE
  5
41BE
330
A
100
AcDbEntity
  8
0
  6
Continuous
 62
     7
370
     0
100
AcDbLine
 10
106.6683530162561
 20
-196.9857652845808
 30
0.0
 11
106.6683530162561
 21
-196.0039826204543
 31
0.0
  0
LINE
  5
41BF
330
A
100
AcDbEntity
  8
0
  6
Continuous
 62
     7
370
     0
100
AcDbLine
 10
107.7779145543348
 20
-197.2118255934767
 30
0.0
 11
107.7779145543348
 21
-195.7400792274154
 31
0.0
  0
ARC
  5
41C0
330
A
100
AcDbEntity
  8
0
  6
Continuous
 62
     7
370
     0
100
AcDbCircle
 10
150.6004505337894
 20
-184.1702802395448
 30
0.0
 40
20.62370873996111
100
AcDbArc
 50
317.888629759135
 51
333.145333129778
  0
ARC
  5
41C1
330
A
100
AcDbEntity
  8
0
  6
Continuous
 62
     7
370
     0
100
AcDbCircle
 10
150.9891847430638
 20
-199.562719741504
 30
0.0
 40
20.15638306084316
100
AcDbArc
 50
26.6767137591967
 51
42.28932335221499
  0
LINE
  5
41C2
330
A
100
AcDbEntity
  8
0
  6
Continuous
 62
     7
370
     0
100
AcDbLine
 10
168.999999989268
 20
-193.4866068746261
 30
0.0
 11
168.9999999892638
 21
-190.5133931251626
 31
0.0
  0
LINE
  5
41C3
330
A
100
AcDbEntity
  8
0
  6
Continuous
 62
     7
370
     0
100
AcDbLine
 10
127.4999999892864
 20
-182.9999999998888
 30
0.0
 11
127.4999999892864
 21
-200.9999999998888
 31
0.0
  0
LINE
  5
41C4
330
A
100
AcDbEntity
  8
0
  6
Continuous
 62
     7
370
     0
100
AcDbLine
 10
129.4999999892864
 20
-182.9999999998888
 30
0.0
 11
129.4999999892864
 21
-200.9999999998888
 31
0.0
  0
LINE
  5
41C5
330
A
100
AcDbEntity
  8
0
  6
Continuous
 62
     7
370
     0
100
AcDbLine
 10
131.4999999892864
 20
-184.9999999998887
 30
0.0
 11
131.4999999892864
 21
-198.9999999998888
 31
0.0
  0
LINE
  5
41C6
330
A
100
AcDbEntity
  8
0
  6
Continuous
 62
     7
370
     0
100
AcDbLine
 10
125.9999999892864
 20
-200.4999999998888
 30
0.0
 11
125.9999999892864
 21
-191.9999999998888
 31
0.0
  0
LINE
  5
41C7
330
A
100
AcDbEntity
  8
0
  6
Continuous
 62
     7
370
     0
100
AcDbLine
 10
125.9999999892864
 20
-191.9999999998888
 30
0.0
 11
125.9999999892864
 21
-183.4999999998887
 31
0.0
  0
LINE
  5
41C8
330
A
100
AcDbEntity
  8
0
  6
Continuous
 62
     7
370
     0
100
AcDbLine
 10
118.4999999892864
 20
-200.4999999998888
 30
0.0
 11
118.4999999892864
 21
-191.9999999998888
 31
0.0
  0
LINE
  5
41C9
330
A
100
AcDbEntity
  8
0
  6
Continuous
 62
     7
370
     0
100
AcDbLine
 10
119.9999999892864
 20
-200.4999999998888
 30
0.0
 11
119.9999999892864
 21
-191.9999999998888
 31
0.0
  0
LINE
  5
41CA
330
A
100
AcDbEntity
  8
0
  6
Continuous
 62
     7
370
     0
100
AcDbLine
 10
118.4999999892864
 20
-191.9999999998888
 30
0.0
 11
118.4999999892864
 21
-183.4999999998887
 31
0.0
  0
LINE
  5
41CB
330
A
100
AcDbEntity
  8
0
  6
Continuous
 62
     7
370
     0
100
AcDbLine
 10
119.9999999892864
 20
-191.9999999998888
 30
0.0
 11
119.9999999892864
 21
-183.4999999998887
 31
0.0
  0
LINE
  5
41CC
330
A
100
AcDbEntity
  8
0
  6
Continuous
 62
     7
370
     0
100
AcDbLine
 10
116.4999999892864
 20
-200.9999999998888
 30
0.0
 11
116.4999999892864
 21
-191.9999999998888
 31
0.0
  0
LINE
  5
41CD
330
A
100
AcDbEntity
  8
0
  6
Continuous
 62
     7
370
     0
100
AcDbLine
 10
114.4999999892864
 20
-198.9999999998888
 30
0.0
 11
114.4999999892864
 21
-191.9999999998888
 31
0.0
  0
LINE
  5
41CE
330
A
100
AcDbEntity
  8
0
  6
Continuous
 62
     7
370
     0
100
AcDbLine
 10
116.4999999892864
 20
-191.9999999998888
 30
0.0
 11
116.4999999892864
 21
-182.9999999998888
 31
0.0
  0
LINE
  5
41CF
330
A
100
AcDbEntity
  8
0
  6
Continuous
 62
     7
370
     0
100
AcDbLine
 10
114.4999999892864
 20
-191.9999999998888
 30
0.0
 11
114.4999999892864
 21
-184.9999999998887
 31
0.0
  0
LINE
  5
41D0
330
A
100
AcDbEntity
  8
0
  6
Continuous
 62
     7
370
     0
100
AcDbLine
 10
118.4999999892864
 20
-200.9999999998888
 30
0.0
 11
118.4999999892864
 21
-191.9999999998888
 31
0.0
  0
LINE
  5
41D1
330
A
100
AcDbEntity
  8
0
  6
Continuous
 62
     7
370
     0
100
AcDbLine
 10
118.4999999892864
 20
-191.9999999998888
 30
0.0
 11
118.4999999892864
 21
-182.9999999998888
 31
0.0
  0
ARC
  5
41D2
330
A
100
AcDbEntity
  8
0
  6
Continuous
 62
     7
370
     0
100
AcDbCircle
 10
94.39954950830099
 20
-199.8297197959025
 30
0.0
 40
20.62370881100267
100
AcDbArc
 50
137.8886298039918
 51
153.1453331216083
  0
ARC
  5
41D3
330
A
100
AcDbEntity
  8
0
  6
Continuous
 62
     7
370
     0
100
AcDbCircle
 10
94.01081524720074
 20
-184.4372802542882
 30
0.0
 40
20.15638307220187
100
AcDbArc
 50
206.6767137586869
 51
222.2893233382043
  0
LINE
  5
41D4
330
A
100
AcDbEntity
  8
0
  6
Continuous
 62
     7
370
     0
100
AcDbLine
 10
75.99999998928644
 20
-190.5133931261062
 30
0.0
 11
75.99999998928644
 21
-193.4866068755697
 31
0.0
  0
LINE
  5
41D5
330
A
100
AcDbEntity
  8
0
  6
Continuous
 62
     7
370
     0
100
AcDbLine
 10
178.899999989286
 20
-228.4999999999503
 30
0.0
 11
166.899999989286
 21
-228.4999999999503
 31
0.0
  0
LINE
  5
41D6
330
A
100
AcDbEntity
  8
0
  6
Continuous
 62
     7
370
     0
100
AcDbLine
 10
165.8999999892861
 20
-227.4999999999503
 30
0.0
 11
179.899999989286
 21
-227.4999999999503
 31
0.0
  0
LINE
  5
41D7
330
A
100
AcDbEntity
  8
0
  6
Continuous
 62
     7
370
     0
100
AcDbLine
 10
179.8999999892867
 20
35.5000000000498
 30
0.0
 11
165.8999999892867
 21
35.5000000000498
 31
0.0
  0
LINE
  5
41D8
330
A
100
AcDbEntity
  8
0
  6
Continuous
 62
     7
370
     0
100
AcDbLine
 10
166.8999999892867
 20
36.50000000004979
 30
0.0
 11
178.8999999892867
 21
36.50000000004979
 31
0.0
  0
LINE
  5
41D9
330
A
100
AcDbEntity
  8
0
  6
Continuous
 62
     7
370
     0
100
AcDbLine
 10
65.09999998928652
 20
-227.4999999998888
 30
0.0
 11
79.09999998928646
 21
-227.4999999998888
 31
0.0
  0
LINE
  5
41DA
330
A
100
AcDbEntity
  8
0
  6
Continuous
 62
     7
370
     0
100
AcDbLine
 10
78.09999998928645
 20
-228.4999999998888
 30
0.0
 11
66.0999999892864
 21
-228.4999999998888
 31
0.0
  0
LINE
  5
41DB
330
A
100
AcDbEntity
  8
0
  6
Continuous
 62
     7
370
     0
100
AcDbLine
 10
79.09999998928646
 20
35.50000000011119
 30
0.0
 11
65.09999998928652
 21
35.50000000011119
 31
0.0
  0
LINE
  5
41DC
330
A
100
AcDbEntity
  8
0
  6
Continuous
 62
     7
370
     0
100
AcDbLine
 10
66.0999999892864
 20
36.50000000011107
 30
0.0
 11
78.09999998928645
 21
36.50000000011107
 31
0.0
  0
ELLIPSE
  5
41DD
330
A
100
AcDbEntity
  8
0
  6
Continuous
 62
     7
370
     0
100
AcDbEllipse
 10
107.4999999892864
 20
-4.143226203875769
 30
0.0
 11
-2.0
 21
0.0
 31
0.0
210
0.0
220
0.0
230
1.0
 40
0.7071067811865502
 41
0.0
 42
0.2290448482704784
  0
ELLIPSE
  5
41DE
330
A
100
AcDbEntity
  8
0
  6
Continuous
 62
     7
370
     0
100
AcDbEllipse
 10
107.4999999892864
 20
-4.408391246820656
 30
0.0
 11
-1.300000000000022
 21
0.0
 31
0.0
210
0.0
220
0.0
230
1.0
 40
0.7071067811865506
 41
0.0
 42
6.283185307179585
  0
ELLIPSE
  5
41DF
330
A
100
AcDbEntity
  8
0
  6
Continuous
 62
     7
370
     0
100
AcDbEllipse
 10
107.4999999892864
 20
-4.143226203875769
 30
0.0
 11
-2.0
 21
0.0
 31
0.0
210
0.0
220
0.0
230
1.0
 40
0.7071067811865503
 41
0.2290448482704774
 42
3.141592653589848
  0
ELLIPSE
  5
41E0
330
A
100
AcDbEntity
  8
0
  6
Continuous
 62
     7
370
     0
100
AcDbEllipse
 10
107.4999999892864
 20
-4.143226203875769
 30
0.0
 11
-2.0
 21
0.0
 31
0.0
210
0.0
220
0.0
230
1.0
 40
0.7071067811865503
 41
3.141592653589848
 42
6.283185307179585
  0
LINE
  5
41E1
330
A
100
AcDbEntity
  8
0
  6
Continuous
 62
     7
370
     0
100
AcDbLine
 10
106.3950303959648
 20
-4.171351660287314
 30
0.0
 11
107.2378282105492
 21
-3.613218532321866
 31
0.0
  0
LINE
  5
41E2
330
A
100
AcDbEntity
  8
0
  6
Continuous
 62
     7
370
     0
100
AcDbLine
 10
106.657202174702
 20
-4.966524374786104
 30
0.0
 11
106.3950303959648
 21
-4.171351660287314
 31
0.0
  0
LINE
  5
41E3
330
A
100
AcDbEntity
  8
0
  6
Continuous
 62
     7
370
     0
100
AcDbLine
 10
107.7621717680236
 20
-5.203563961319559
 30
0.0
 11
106.657202174702
 21
-4.966524374786104
 31
0.0
  0
LINE
  5
41E4
330
A
100
AcDbEntity
  8
0
  6
Continuous
 62
     7
370
     0
100
AcDbLine
 10
108.6049695826079
 20
-4.645430833354112
 30
0.0
 11
107.7621717680236
 21
-5.203563961319559
 31
0.0
  0
LINE
  5
41E5
330
A
100
AcDbEntity
  8
0
  6
Continuous
 62
     7
370
     0
100
AcDbLine
 10
108.3427978038708
 20
-3.850258118855322
 30
0.0
 11
108.6049695826079
 21
-4.645430833354112
 31
0.0
  0
LINE
  5
41E6
330
A
100
AcDbEntity
  8
0
  6
Continuous
 62
     7
370
     0
100
AcDbLine
 10
107.2378282105492
 20
-3.613218532321866
 30
0.0
 11
108.3427978038708
 21
-3.850258118855322
 31
0.0
  0
LINE
  5
41E7
330
A
100
AcDbEntity
  8
0
  6
Continuous
 62
     7
370
     0
100
AcDbLine
 10
106.657202174702
 20
-4.966524374786104
 30
0.0
 11
106.657202174702
 21
-3.997731424925177
 31
0.0
  0
LINE
  5
41E8
330
A
100
AcDbEntity
  8
0
  6
Continuous
 62
     7
370
     0
100
AcDbLine
 10
107.7621717680236
 20
-5.203563961319559
 30
0.0
 11
107.7621717680236
 21
-3.725701428517822
 31
0.0
  0
ARC
  5
41E9
330
A
100
AcDbEntity
  8
0
  6
Continuous
 62
     7
370
     0
100
AcDbCircle
 10
94.39954948308644
 20
-7.829719780542859
 30
0.0
 40
20.62370878199761
100
AcDbArc
 50
137.8886297886713
 51
153.1453331256823
  0
ARC
  5
41EA
330
A
100
AcDbEntity
  8
0
  6
Continuous
 62
     7
370
     0
100
AcDbCircle
 10
94.01081527025025
 20
7.562719759640231
 30
0.0
 40
20.15638309862527
100
AcDbArc
 50
206.6767137622437
 51
222.2893233234048
  0
LINE
  5
41EB
330
A
100
AcDbEntity
  8
0
  6
Continuous
 62
     7
370
     0
100
AcDbLine
 10
75.99999998928644
 20
1.486606874843005
 30
0.0
 11
75.99999998928644
 21
-1.486606874620633
 31
0.0
  0
ARC
  5
41EC
330
A
100
AcDbEntity
  8
0
  6
Continuous
 62
     7
370
     0
100
AcDbCircle
 10
150.6004505149352
 20
7.82971977047714
 30
0.0
 40
20.62370876067084
100
AcDbArc
 50
317.8886297736483
 51
333.1453331277185
  0
ARC
  5
41ED
330
A
100
AcDbEntity
  8
0
  6
Continuous
 62
     7
370
     0
100
AcDbCircle
 10
150.9891847259474
 20
-7.562719750317342
 30
0.0
 40
20.15638307946365
100
AcDbArc
 50
26.67671376065469
 51
42.28932333797597
  0
LINE
  5
41EE
330
A
100
AcDbEntity
  8
0
  6
Continuous
 62
     7
370
     0
100
AcDbLine
 10
168.9999999892864
 20
-1.486606874620633
 30
0.0
 11
168.9999999892864
 21
1.486606874843005
 31
0.0
  0
LINE
  5
41EF
330
A
100
AcDbEntity
  8
0
  6
Continuous
 62
     9
370
     0
100
AcDbLine
 10
120.9999999892864
 20
3.600693985902353
 30
0.0
 11
120.9999999892864
 21
-3.600736586566199
 31
0.0
  0
LINE
  5
41F0
330
A
100
AcDbEntity
  8
0
  6
Continuous
 62
     7
370
     0
100
AcDbLine
 10
125.9999999892864
 20
-8.499999999888927
 30
0.0
 11
125.9999999892864
 21
0.0000000001111857
 31
0.0
  0
LINE
  5
41F1
330
A
100
AcDbEntity
  8
0
  6
Continuous
 62
     7
370
     0
100
AcDbLine
 10
125.9999999892864
 20
0.0000000001111857
 30
0.0
 11
125.9999999892864
 21
8.500000000111072
 31
0.0
  0
LINE
  5
41F2
330
A
100
AcDbEntity
  8
0
  6
Continuous
 62
     7
370
     0
100
AcDbLine
 10
118.4999999892864
 20
-8.499999999888927
 30
0.0
 11
118.4999999892864
 21
0.0000000001111857
 31
0.0
  0
LINE
  5
41F3
330
A
100
AcDbEntity
  8
0
  6
Continuous
 62
     7
370
     0
100
AcDbLine
 10
119.9999999892864
 20
-8.499999999888927
 30
0.0
 11
119.9999999892864
 21
0.0000000001111857
 31
0.0
  0
LINE
  5
41F4
330
A
100
AcDbEntity
  8
0
  6
Continuous
 62
     7
370
     0
100
AcDbLine
 10
118.4999999892864
 20
0.0000000001111857
 30
0.0
 11
118.4999999892864
 21
8.500000000111072
 31
0.0
  0
LINE
  5
41F5
330
A
100
AcDbEntity
  8
0
  6
Continuous
 62
     7
370
     0
100
AcDbLine
 10
119.9999999892864
 20
0.0000000001111857
 30
0.0
 11
119.9999999892864
 21
8.500000000111072
 31
0.0
  0
LINE
  5
41F6
330
A
100
AcDbEntity
  8
0
  6
Continuous
 62
     7
370
     0
100
AcDbLine
 10
129.4999999897863
 20
9.000000000000113
 30
0.0
 11
129.4999999892918
 21
0.0971381207107243
 31
0.0
  0
LINE
  5
41F7
330
A
100
AcDbEntity
  8
0
  6
Continuous
 62
     7
370
     0
100
AcDbLine
 10
131.4999999896753
 20
6.999999999889041
 30
0.0
 11
131.4999999892906
 21
0.0755518715526478
 31
0.0
  0
LINE
  5
41F8
330
A
100
AcDbEntity
  8
0
  6
Continuous
 62
     7
370
     0
100
AcDbLine
 10
129.4999999892918
 20
0.0971381207107243
 30
0.0
 11
129.4999999887865
 21
-9.0
 31
0.0
  0
LINE
  5
41F9
330
A
100
AcDbEntity
  8
0
  6
Continuous
 62
     7
370
     0
100
AcDbLine
 10
131.4999999892906
 20
0.0755518715526478
 30
0.0
 11
131.4999999888975
 21
-7.000000000110958
 31
0.0
  0
LINE
  5
41FA
330
A
100
AcDbEntity
  8
0
  6
Continuous
 62
     7
370
     0
100
AcDbLine
 10
127.4999999897863
 20
9.000000000111185
 30
0.0
 11
127.4999999892918
 21
0.0971381208216826
 31
0.0
  0
LINE
  5
41FB
330
A
100
AcDbEntity
  8
0
  6
Continuous
 62
     7
370
     0
100
AcDbLine
 10
127.4999999892918
 20
0.0971381208216826
 30
0.0
 11
127.4999999887865
 21
-8.999999999888927
 31
0.0
  0
LINE
  5
41FC
330
A
100
AcDbEntity
  8
0
  6
Continuous
 62
     7
370
     0
100
AcDbLine
 10
118.4999999892864
 20
-8.999999999888814
 30
0.0
 11
118.4999999892864
 21
0.0000000001111857
 31
0.0
  0
LINE
  5
41FD
330
A
100
AcDbEntity
  8
0
  6
Continuous
 62
     7
370
     0
100
AcDbLine
 10
118.4999999892864
 20
0.0000000001111857
 30
0.0
 11
118.4999999892864
 21
9.000000000111185
 31
0.0
  0
LINE
  5
41FE
330
A
100
AcDbEntity
  8
0
  6
Continuous
 62
     7
370
     0
100
AcDbLine
 10
116.4999999892864
 20
-8.999999999888814
 30
0.0
 11
116.4999999892864
 21
0.0000000001111857
 31
0.0
  0
LINE
  5
41FF
330
A
100
AcDbEntity
  8
0
  6
Continuous
 62
     7
370
     0
100
AcDbLine
 10
114.4999999892864
 20
-6.9999999998887
 30
0.0
 11
114.4999999892864
 21
0.0000000001111857
 31
0.0
  0
LINE
  5
4200
330
A
100
AcDbEntity
  8
0
  6
Continuous
 62
     7
370
     0
100
AcDbLine
 10
116.4999999892864
 20
0.0000000001111857
 30
0.0
 11
116.4999999892864
 21
9.000000000111185
 31
0.0
  0
LINE
  5
4201
330
A
100
AcDbEntity
  8
0
  6
Continuous
 62
     7
370
     0
100
AcDbLine
 10
114.4999999892864
 20
0.0000000001111857
 30
0.0
 11
114.4999999892864
 21
7.000000000111185
 31
0.0
  0
LINE
  5
4202
330
A
100
AcDbEntity
  8
0
  6
Continuous
 62
     9
370
     0
100
AcDbLine
 10
125.9999999907838
 20
-188.499999999899
 30
0.0
 11
120.9999999892864
 21
-188.499999999899
 31
0.0
  0
LINE
  5
4203
330
A
100
AcDbEntity
  8
0
  6
Continuous
 62
     9
370
     0
100
AcDbLine
 10
120.9999999892864
 20
-195.499999999899
 30
0.0
 11
125.9999999907838
 21
-195.499999999899
 31
0.0
  0
LINE
  5
4204
330
A
100
AcDbEntity
  8
0
  6
Continuous
 62
     9
370
     0
100
AcDbLine
 10
125.9999999902899
 20
3.500000000111072
 30
0.0
 11
120.9999999892864
 21
3.500000000111072
 31
0.0
  0
LINE
  5
4205
330
A
100
AcDbEntity
  8
0
  6
Continuous
 62
     9
370
     0
100
AcDbLine
 10
120.9999999892864
 20
-3.499999999888927
 30
0.0
 11
125.9999999902899
 21
-3.499999999888927
 31
0.0
  0
LINE
  5
4206
330
A
100
AcDbEntity
  8
0
  6
Continuous
 62
     7
370
     0
100
AcDbLine
 10
125.9999999907513
 20
-188.149999999899
 30
0.0
 11
120.9999999892864
 21
-188.149999999899
 31
0.0
  0
LINE
  5
4207
330
A
100
AcDbEntity
  8
0
  6
Continuous
 62
     7
370
     0
100
AcDbLine
 10
120.9999999892864
 20
-188.149999999899
 30
0.0
 11
120.9949999892864
 21
-188.149999999899
 31
0.0
  0
LINE
  5
4208
330
A
100
AcDbEntity
  8
0
  6
Continuous
 62
     7
370
     0
100
AcDbLine
 10
120.9949999892864
 20
-195.8499999998992
 30
0.0
 11
120.9999999892864
 21
-195.8499999998992
 31
0.0
  0
LINE
  5
4209
330
A
100
AcDbEntity
  8
0
  6
Continuous
 62
     7
370
     0
100
AcDbLine
 10
120.9999999892864
 20
-195.8499999998992
 30
0.0
 11
125.9999999907513
 21
-195.8499999998992
 31
0.0
  0
LINE
  5
420A
330
A
100
AcDbEntity
  8
0
  6
Continuous
 62
     7
370
     0
100
AcDbLine
 10
121.0049999892864
 20
-188.149999999899
 30
0.0
 11
120.9999999892864
 21
-188.149999999899
 31
0.0
  0
LINE
  5
420B
330
A
100
AcDbEntity
  8
0
  6
Continuous
 62
     7
370
     0
100
AcDbLine
 10
120.9999999892864
 20
-188.149999999899
 30
0.0
 11
119.9999999897715
 21
-188.149999999899
 31
0.0
  0
LINE
  5
420C
330
A
100
AcDbEntity
  8
0
  6
Continuous
 62
     7
370
     0
100
AcDbLine
 10
119.9999999897715
 20
-195.8499999998992
 30
0.0
 11
120.9999999892864
 21
-195.8499999998992
 31
0.0
  0
LINE
  5
420D
330
A
100
AcDbEntity
  8
0
  6
Continuous
 62
     7
370
     0
100
AcDbLine
 10
120.9999999892864
 20
-195.8499999998992
 30
0.0
 11
121.0049999892864
 21
-195.8499999998992
 31
0.0
  0
LINE
  5
420E
330
A
100
AcDbEntity
  8
0
  6
Continuous
 62
     7
370
     0
100
AcDbLine
 10
131.4999999902068
 20
-197.999999999947
 30
0.0
 11
165.8999999892861
 21
-197.9999999998987
 31
0.0
  0
LINE
  5
420F
330
A
100
AcDbEntity
  8
0
  6
Continuous
 62
     7
370
     0
100
AcDbLine
 10
165.8999999892862
 20
-185.9999999998987
 30
0.0
 11
131.4999999902068
 21
-185.999999999947
 31
0.0
  0
LINE
  5
4210
330
A
100
AcDbEntity
  8
0
  6
Continuous
 62
     7
370
     0
100
AcDbLine
 10
129.4999999892864
 20
-182.9999999998888
 30
0.0
 11
127.4999999892864
 21
-182.9999999998888
 31
0.0
  0
LINE
  5
4211
330
A
100
AcDbEntity
  8
0
  6
Continuous
 62
     7
370
     0
100
AcDbLine
 10
127.4999999892864
 20
-200.9999999998888
 30
0.0
 11
129.4999999892864
 21
-200.9999999998888
 31
0.0
  0
LINE
  5
4212
330
A
100
AcDbEntity
  8
0
  6
Continuous
 62
     7
370
     0
100
AcDbLine
 10
129.4999999892864
 20
-200.9999999998888
 30
0.0
 11
131.4999999892864
 21
-198.9999999998888
 31
0.0
  0
LINE
  5
4213
330
A
100
AcDbEntity
  8
0
  6
Continuous
 62
     7
370
     0
100
AcDbLine
 10
131.4999999892864
 20
-184.9999999998887
 30
0.0
 11
129.4999999892864
 21
-182.9999999998888
 31
0.0
  0
LINE
  5
4214
330
A
100
AcDbEntity
  8
0
  6
Continuous
 62
     7
370
     0
100
AcDbLine
 10
125.9999999892864
 20
-200.4999999998888
 30
0.0
 11
127.4999999892864
 21
-200.4999999998888
 31
0.0
  0
LINE
  5
4215
330
A
100
AcDbEntity
  8
0
  6
Continuous
 62
     7
370
     0
100
AcDbLine
 10
127.4999999892864
 20
-183.4999999998887
 30
0.0
 11
125.9999999892864
 21
-183.4999999998887
 31
0.0
  0
LINE
  5
4216
330
A
100
AcDbEntity
  8
0
  6
Continuous
 62
     7
370
     0
100
AcDbLine
 10
118.4999999892864
 20
-200.4999999998888
 30
0.0
 11
119.9999999892864
 21
-200.4999999998888
 31
0.0
  0
LINE
  5
4217
330
A
100
AcDbEntity
  8
0
  6
Continuous
 62
     7
370
     0
100
AcDbLine
 10
119.9999999892864
 20
-183.4999999998887
 30
0.0
 11
118.4999999892864
 21
-183.4999999998887
 31
0.0
  0
LINE
  5
4218
330
A
100
AcDbEntity
  8
0
  6
Continuous
 62
     7
370
     0
100
AcDbLine
 10
116.4999999892864
 20
-182.9999999998888
 30
0.0
 11
114.4999999892864
 21
-184.9999999998887
 31
0.0
  0
LINE
  5
4219
330
A
100
AcDbEntity
  8
0
  6
Continuous
 62
     7
370
     0
100
AcDbLine
 10
114.4999999892864
 20
-198.9999999998888
 30
0.0
 11
116.4999999892864
 21
-200.9999999998888
 31
0.0
  0
LINE
  5
421A
330
A
100
AcDbEntity
  8
0
  6
Continuous
 62
     7
370
     0
100
AcDbLine
 10
116.4999999892864
 20
-200.9999999998888
 30
0.0
 11
118.4999999892864
 21
-200.9999999998888
 31
0.0
  0
LINE
  5
421B
330
A
100
AcDbEntity
  8
0
  6
Continuous
 62
     7
370
     0
100
AcDbLine
 10
118.4999999892864
 20
-182.9999999998888
 30
0.0
 11
116.4999999892864
 21
-182.9999999998888
 31
0.0
  0
LINE
  5
421C
330
A
100
AcDbEntity
  8
0
  6
Continuous
 62
     7
370
     0
100
AcDbLine
 10
114.4999999892864
 20
-185.9999999998888
 30
0.0
 11
79.09999998928646
 21
-185.9999999998888
 31
0.0
  0
LINE
  5
421D
330
A
100
AcDbEntity
  8
0
  6
Continuous
 62
     7
370
     0
100
AcDbLine
 10
79.09999998928646
 20
-197.9999999998888
 30
0.0
 11
114.4999999892864
 21
-197.9999999998888
 31
0.0
  0
LINE
  5
421E
330
A
100
AcDbEntity
  8
0
  6
Continuous
 62
     7
370
     0
100
AcDbLine
 10
165.899999989286
 20
-227.4999999999503
 30
0.0
 11
166.899999989286
 21
-228.4999999999503
 31
0.0
  0
LINE
  5
421F
330
A
100
AcDbEntity
  8
0
  6
Continuous
 62
     7
370
     0
100
AcDbLine
 10
178.899999989286
 20
-228.4999999999503
 30
0.0
 11
179.899999989286
 21
-227.4999999999503
 31
0.0
  0
LINE
  5
4220
330
A
100
AcDbEntity
  8
0
  6
Continuous
 62
     7
370
     0
100
AcDbLine
 10
165.8999999892861
 20
-197.9984771489481
 30
0.0
 11
165.8999999892861
 21
-197.9993609071346
 31
0.0
  0
LINE
  5
4221
330
A
100
AcDbEntity
  8
0
  6
Continuous
 62
     7
370
     0
100
AcDbLine
 10
165.8999999892861
 20
-197.9999999998987
 30
0.0
 11
165.899999989286
 21
-227.4999999999503
 31
0.0
  0
LINE
  5
4222
330
A
100
AcDbEntity
  8
0
  6
Continuous
 62
     7
370
     0
100
AcDbLine
 10
165.8999999892867
 20
-5.998477148924621
 30
0.0
 11
165.8999999892867
 21
-5.999360907119239
 31
0.0
  0
LINE
  5
4223
330
A
100
AcDbEntity
  8
0
  6
Continuous
 62
     7
370
     0
100
AcDbLine
 10
165.8999999892867
 20
-5.999999999888814
 30
0.0
 11
165.8999999892862
 21
-185.9999999998987
 31
0.0
  0
LINE
  5
4224
330
A
100
AcDbEntity
  8
0
  6
Continuous
 62
     7
370
     0
100
AcDbLine
 10
165.8999999892861
 20
-186.0006390926613
 30
0.0
 11
165.8999999892861
 21
-186.0015228508808
 31
0.0
  0
LINE
  5
4225
330
A
100
AcDbEntity
  8
0
  6
Continuous
 62
     7
370
     0
100
AcDbLine
 10
165.8999999892867
 20
35.5000000000498
 30
0.0
 11
165.8999999892867
 21
6.000000000111299
 31
0.0
  0
LINE
  5
4226
330
A
100
AcDbEntity
  8
0
  6
Continuous
 62
     7
370
     0
100
AcDbLine
 10
165.8999999892867
 20
5.999360907339109
 30
0.0
 11
165.8999999892867
 21
5.998477149127779
 31
0.0
  0
LINE
  5
4227
330
A
100
AcDbEntity
  8
0
  6
Continuous
 62
     7
370
     0
100
AcDbLine
 10
179.899999989286
 20
-227.4999999999503
 30
0.0
 11
179.8999999892867
 21
35.5000000000498
 31
0.0
  0
LINE
  5
4228
330
A
100
AcDbEntity
  8
0
  6
Continuous
 62
     7
370
     0
100
AcDbLine
 10
179.8999999892867
 20
35.5000000000498
 30
0.0
 11
178.8999999892867
 21
36.50000000004979
 31
0.0
  0
LINE
  5
4229
330
A
100
AcDbEntity
  8
0
  6
Continuous
 62
     7
370
     0
100
AcDbLine
 10
166.8999999892867
 20
36.50000000004979
 30
0.0
 11
165.8999999892867
 21
35.5000000000498
 31
0.0
  0
LINE
  5
422A
330
A
100
AcDbEntity
  8
0
  6
Continuous
 62
     7
370
     0
100
AcDbLine
 10
65.09999998928652
 20
-227.4999999998888
 30
0.0
 11
66.0999999892864
 21
-228.4999999998888
 31
0.0
  0
LINE
  5
422B
330
A
100
AcDbEntity
  8
0
  6
Continuous
 62
     7
370
     0
100
AcDbLine
 10
78.09999998928645
 20
-228.4999999998888
 30
0.0
 11
79.09999998928646
 21
-227.4999999998888
 31
0.0
  0
LINE
  5
422C
330
A
100
AcDbEntity
  8
0
  6
Continuous
 62
     7
370
     0
100
AcDbLine
 10
65.09999998928652
 20
35.50000000011119
 30
0.0
 11
65.09999998928652
 21
-227.4999999998888
 31
0.0
  0
LINE
  5
422D
330
A
100
AcDbEntity
  8
0
  6
Continuous
 62
     7
370
     0
100
AcDbLine
 10
79.09999998928646
 20
5.998477143671493
 30
0.0
 11
79.09999998928646
 21
5.99936090187441
 31
0.0
  0
LINE
  5
422E
330
A
100
AcDbEntity
  8
0
  6
Continuous
 62
     7
370
     0
100
AcDbLine
 10
79.09999998928646
 20
6.000000000111299
 30
0.0
 11
79.09999998928646
 21
35.50000000011119
 31
0.0
  0
LINE
  5
422F
330
A
100
AcDbEntity
  8
0
  6
Continuous
 62
     7
370
     0
100
AcDbLine
 10
79.09999998928646
 20
-186.0015228563237
 30
0.0
 11
79.09999998928646
 21
-186.0006390981333
 31
0.0
  0
LINE
  5
4230
330
A
100
AcDbEntity
  8
0
  6
Continuous
 62
     7
370
     0
100
AcDbLine
 10
79.09999998928646
 20
-185.9999999998888
 30
0.0
 11
79.09999998928646
 21
-5.999999999888814
 31
0.0
  0
LINE
  5
4231
330
A
100
AcDbEntity
  8
0
  6
Continuous
 62
     7
370
     0
100
AcDbLine
 10
79.09999998928646
 20
-5.999360901652153
 30
0.0
 11
79.09999998928646
 21
-5.998477143449122
 31
0.0
  0
LINE
  5
4232
330
A
100
AcDbEntity
  8
0
  6
Continuous
 62
     7
370
     0
100
AcDbLine
 10
79.09999998928646
 20
-227.4999999998888
 30
0.0
 11
79.09999998928646
 21
-197.9999999998888
 31
0.0
  0
LINE
  5
4233
330
A
100
AcDbEntity
  8
0
  6
Continuous
 62
     7
370
     0
100
AcDbLine
 10
79.09999998928646
 20
-197.9993609016445
 30
0.0
 11
79.09999998928646
 21
-197.9984771434539
 31
0.0
  0
LINE
  5
4234
330
A
100
AcDbEntity
  8
0
  6
Continuous
 62
     7
370
     0
100
AcDbLine
 10
79.09999998928646
 20
35.50000000011119
 30
0.0
 11
78.09999998928645
 21
36.50000000011107
 31
0.0
  0
LINE
  5
4235
330
A
100
AcDbEntity
  8
0
  6
Continuous
 62
     7
370
     0
100
AcDbLine
 10
66.0999999892864
 20
36.50000000011107
 30
0.0
 11
65.09999998928652
 21
35.50000000011119
 31
0.0
  0
LINE
  5
4236
330
A
100
AcDbEntity
  8
0
  6
Continuous
 62
     7
370
     0
100
AcDbLine
 10
114.4999999892864
 20
6.000000000111299
 30
0.0
 11
79.09999998928646
 21
6.000000000111299
 31
0.0
  0
LINE
  5
4237
330
A
100
AcDbEntity
  8
0
  6
Continuous
 62
     7
370
     0
100
AcDbLine
 10
79.09999998928646
 20
-5.999999999888814
 30
0.0
 11
114.4999999892864
 21
-5.999999999888814
 31
0.0
  0
LINE
  5
4238
330
A
100
AcDbEntity
  8
0
  6
Continuous
 62
     7
370
     0
100
AcDbLine
 10
131.4999999889521
 20
-5.999999999888814
 30
0.0
 11
165.8999999892867
 21
-5.999999999888814
 31
0.0
  0
LINE
  5
4239
330
A
100
AcDbEntity
  8
0
  6
Continuous
 62
     7
370
     0
100
AcDbLine
 10
165.8999999892865
 20
6.000000000111299
 30
0.0
 11
131.4999999896187
 21
6.000000000111299
 31
0.0
  0
LINE
  5
423A
330
A
100
AcDbEntity
  8
0
  6
Continuous
 62
     7
370
     0
100
AcDbLine
 10
125.9999999902682
 20
3.850000000111094
 30
0.0
 11
120.9999999892864
 21
3.850000000111094
 31
0.0
  0
LINE
  5
423B
330
A
100
AcDbEntity
  8
0
  6
Continuous
 62
     7
370
     0
100
AcDbLine
 10
120.9999999892864
 20
3.850000000111094
 30
0.0
 11
120.9949999892864
 21
3.850000000111094
 31
0.0
  0
LINE
  5
423C
330
A
100
AcDbEntity
  8
0
  6
Continuous
 62
     7
370
     0
100
AcDbLine
 10
120.9949999892864
 20
-3.849999999888837
 30
0.0
 11
120.9999999892864
 21
-3.849999999888837
 31
0.0
  0
LINE
  5
423D
330
A
100
AcDbEntity
  8
0
  6
Continuous
 62
     7
370
     0
100
AcDbLine
 10
120.9999999892864
 20
-3.849999999888837
 30
0.0
 11
125.9999999902682
 21
-3.849999999888837
 31
0.0
  0
LINE
  5
423E
330
A
100
AcDbEntity
  8
0
  6
Continuous
 62
     7
370
     0
100
AcDbLine
 10
121.0049999892864
 20
3.850000000111094
 30
0.0
 11
120.9999999892864
 21
3.850000000111094
 31
0.0
  0
LINE
  5
423F
330
A
100
AcDbEntity
  8
0
  6
Continuous
 62
     7
370
     0
100
AcDbLine
 10
120.9999999892864
 20
3.850000000111094
 30
0.0
 11
119.9999999897709
 21
3.850000000111094
 31
0.0
  0
LINE
  5
4240
330
A
100
AcDbEntity
  8
0
  6
Continuous
 62
     7
370
     0
100
AcDbLine
 10
119.9999999897709
 20
-3.849999999888837
 30
0.0
 11
120.9999999892864
 21
-3.849999999888837
 31
0.0
  0
LINE
  5
4241
330
A
100
AcDbEntity
  8
0
  6
Continuous
 62
     7
370
     0
100
AcDbLine
 10
120.9999999892864
 20
-3.849999999888837
 30
0.0
 11
121.0049999892864
 21
-3.849999999888837
 31
0.0
  0
LINE
  5
4242
330
A
100
AcDbEntity
  8
0
  6
Continuous
 62
     7
370
     0
100
AcDbLine
 10
125.9999999892864
 20
-8.499999999888927
 30
0.0
 11
127.4999999892864
 21
-8.499999999888927
 31
0.0
  0
LINE
  5
4243
330
A
100
AcDbEntity
  8
0
  6
Continuous
 62
     7
370
     0
100
AcDbLine
 10
127.4999999892864
 20
8.500000000111072
 30
0.0
 11
125.9999999892864
 21
8.500000000111072
 31
0.0
  0
LINE
  5
4244
330
A
100
AcDbEntity
  8
0
  6
Continuous
 62
     7
370
     0
100
AcDbLine
 10
118.4999999892864
 20
-8.499999999888927
 30
0.0
 11
119.9999999892864
 21
-8.499999999888927
 31
0.0
  0
LINE
  5
4245
330
A
100
AcDbEntity
  8
0
  6
Continuous
 62
     7
370
     0
100
AcDbLine
 10
119.9999999892864
 20
8.500000000111072
 30
0.0
 11
118.4999999892864
 21
8.500000000111072
 31
0.0
  0
LINE
  5
4246
330
A
100
AcDbEntity
  8
0
  6
Continuous
 62
     7
370
     0
100
AcDbLine
 10
129.4999999887865
 20
-9.0
 30
0.0
 11
131.4999999888975
 21
-7.000000000110958
 31
0.0
  0
LINE
  5
4247
330
A
100
AcDbEntity
  8
0
  6
Continuous
 62
     7
370
     0
100
AcDbLine
 10
131.4999999896753
 20
6.999999999889041
 30
0.0
 11
129.4999999897863
 21
9.000000000000113
 31
0.0
  0
LINE
  5
4248
330
A
100
AcDbEntity
  8
0
  6
Continuous
 62
     7
370
     0
100
AcDbLine
 10
129.4999999897863
 20
9.000000000000113
 30
0.0
 11
127.4999999897863
 21
9.000000000111185
 31
0.0
  0
LINE
  5
4249
330
A
100
AcDbEntity
  8
0
  6
Continuous
 62
     7
370
     0
100
AcDbLine
 10
127.4999999887865
 20
-8.999999999888927
 30
0.0
 11
129.4999999887865
 21
-9.0
 31
0.0
  0
LINE
  5
424A
330
A
100
AcDbEntity
  8
0
  6
Continuous
 62
     7
370
     0
100
AcDbLine
 10
116.4999999892864
 20
-8.999999999888814
 30
0.0
 11
118.4999999892864
 21
-8.999999999888814
 31
0.0
  0
LINE
  5
424B
330
A
100
AcDbEntity
  8
0
  6
Continuous
 62
     7
370
     0
100
AcDbLine
 10
118.4999999892864
 20
9.000000000111185
 30
0.0
 11
116.4999999892864
 21
9.000000000111185
 31
0.0
  0
LINE
  5
424C
330
A
100
AcDbEntity
  8
0
  6
Continuous
 62
     7
370
     0
100
AcDbLine
 10
116.4999999892864
 20
9.000000000111185
 30
0.0
 11
114.4999999892864
 21
7.000000000111185
 31
0.0
  0
LINE
  5
424D
330
A
100
AcDbEntity
  8
0
  6
Continuous
 62
     7
370
     0
100
AcDbLine
 10
114.4999999892864
 20
-6.9999999998887
 30
0.0
 11
116.4999999892864
 21
-8.999999999888814
 31
0.0
  0
TEXT
  5
5F7D
330
A
100
AcDbEntity
  8
0
  6
Continuous
 62
     7
370
     0
100
AcDbText
 10
15.03753102828193
 20
66.50732064429735
 30
0.0
 40
10.0
  1
5H01
100
AcDbText
  0
ARC
  5
5FB3
330
A
100
AcDbEntity
  8
0
  6
Continuous
 62
     7
370
     0
100
AcDbCircle
 10
259.2749222586836
 20
-36.92479961020445
 30
0.0
 40
8.128764667432896
100
AcDbArc
 50
36.66032312304628
 51
95.92057571103049
  0
LINE
  5
5FB4
330
A
100
AcDbEntity
  8
0
  6
Continuous
 62
     7
370
     0
100
AcDbLine
 10
258.4364422823875
 20
-28.83939508427886
 30
0.0
 11
258.3317215728812
 21
-28.88063376107448
 31
0.0
  0
LINE
  5
5FB5
330
A
100
AcDbEntity
  8
0
  6
Continuous
 62
     7
370
     0
100
AcDbLine
 10
258.3317215728812
 20
-28.88063376107448
 30
0.0
 11
258.1713003186049
 21
-28.9614361622406
 31
0.0
  0
LINE
  5
5FB6
330
A
100
AcDbEntity
  8
0
  6
Continuous
 62
     7
370
     0
100
AcDbLine
 10
258.1713003186049
 20
-28.9614361622406
 30
0.0
 11
258.029713378695
 21
-29.05659297246166
 31
0.0
  0
LINE
  5
5FB7
330
A
100
AcDbEntity
  8
0
  6
Continuous
 62
     7
370
     0
100
AcDbLine
 10
258.029713378695
 20
-29.05659297246166
 30
0.0
 11
258.00382089138
 21
-29.07716399032267
 31
0.0
  0
ARC
  5
5FB8
330
A
100
AcDbEntity
  8
0
  6
Continuous
 62
     7
370
     0
100
AcDbCircle
 10
259.2749222446822
 20
-177.1417743278577
 30
0.0
 40
8.128764666666759
100
AcDbArc
 50
36.66032312786194
 51
95.92057572172823
  0
LINE
  5
5FB9
330
A
100
AcDbEntity
  8
0
  6
Continuous
 62
     7
370
     0
100
AcDbLine
 10
258.4364422669556
 20
-169.0563698028507
 30
0.0
 11
258.331721557466
 21
-169.0976084796741
 31
0.0
  0
LINE
  5
5FBA
330
A
100
AcDbEntity
  8
0
  6
Continuous
 62
     7
370
     0
100
AcDbLine
 10
258.331721557466
 20
-169.0976084796741
 30
0.0
 11
258.1713003032199
 21
-169.1784108808852
 31
0.0
  0
LINE
  5
5FBB
330
A
100
AcDbEntity
  8
0
  6
Continuous
 62
     7
370
     0
100
AcDbLine
 10
258.1713003032199
 20
-169.1784108808852
 30
0.0
 11
258.0297133633425
 21
-169.2735676911494
 31
0.0
  0
LINE
  5
5FBC
330
A
100
AcDbEntity
  8
0
  6
Continuous
 62
     7
370
     0
100
AcDbLine
 10
258.0297133633425
 20
-169.2735676911494
 30
0.0
 11
258.0038208763415
 21
-169.2941387087678
 31
0.0
  0
LINE
  5
5FBD
330
A
100
AcDbEntity
  8
0
  6
Continuous
 62
     9
370
     0
100
AcDbLine
 10
254.0763651124982
 20
-44.33903108751678
 30
0.0
 11
254.0831602376762
 21
-44.33229887839877
 31
0.0
  0
LINE
  5
5FBE
330
A
100
AcDbEntity
  8
0
  6
Continuous
 62
     9
370
     0
100
AcDbLine
 10
254.0831602376762
 20
-44.33229887839877
 30
0.0
 11
254.117051425105
 21
-44.29928976695953
 31
0.0
  0
LINE
  5
5FBF
330
A
100
AcDbEntity
  8
0
  6
Continuous
 62
     9
370
     0
100
AcDbLine
 10
254.117051425105
 20
-44.29928976695953
 30
0.0
 11
254.1500427575929
 21
-44.26817188620282
 31
0.0
  0
LINE
  5
5FC0
330
A
100
AcDbEntity
  8
0
  6
Continuous
 62
     9
370
     0
100
AcDbLine
 10
254.1500427575929
 20
-44.26817188620282
 30
0.0
 11
254.1820521535304
 21
-44.23905499660224
 31
0.0
  0
LINE
  5
5FC1
330
A
100
AcDbEntity
  8
0
  6
Continuous
 62
     9
370
     0
100
AcDbLine
 10
254.1820521535304
 20
-44.23905499660224
 30
0.0
 11
254.2140274303402
 21
-44.21116203585291
 31
0.0
  0
LINE
  5
5FC2
330
A
100
AcDbEntity
  8
0
  6
Continuous
 62
     9
370
     0
100
AcDbLine
 10
254.2140274303402
 20
-44.21116203585291
 30
0.0
 11
254.2449037261101
 21
-44.18548037572612
 31
0.0
  0
LINE
  5
5FC3
330
A
100
AcDbEntity
  8
0
  6
Continuous
 62
     9
370
     0
100
AcDbLine
 10
254.2449037261101
 20
-44.18548037572612
 30
0.0
 11
254.2745884868244
 21
-44.16208378107728
 31
0.0
  0
LINE
  5
5FC4
330
A
100
AcDbEntity
  8
0
  6
Continuous
 62
     9
370
     0
100
AcDbLine
 10
254.2745884868244
 20
-44.16208378107728
 30
0.0
 11
254.3029891584678
 21
-44.14104601676263
 31
0.0
  0
LINE
  5
5FC5
330
A
100
AcDbEntity
  8
0
  6
Continuous
 62
     9
370
     0
100
AcDbLine
 10
254.3029891584678
 20
-44.14104601676263
 30
0.0
 11
254.3281203976428
 21
-44.12368344446645
 31
0.0
  0
LINE
  5
5FC6
330
A
100
AcDbEntity
  8
0
  6
Continuous
 62
     9
370
     0
100
AcDbLine
 10
254.3281203976428
 20
-44.12368344446645
 30
0.0
 11
254.3520930322637
 21
-44.10835595646495
 31
0.0
  0
LINE
  5
5FC7
330
A
100
AcDbEntity
  8
0
  6
Continuous
 62
     9
370
     0
100
AcDbLine
 10
254.3520930322637
 20
-44.10835595646495
 30
0.0
 11
254.3748384066529
 21
-44.09508052431578
 31
0.0
  0
LINE
  5
5FC8
330
A
100
AcDbEntity
  8
0
  6
Continuous
 62
     9
370
     0
100
AcDbLine
 10
254.3748384066529
 20
-44.09508052431578
 30
0.0
 11
254.3962878651334
 21
-44.08387411957585
 31
0.0
  0
LINE
  5
5FC9
330
A
100
AcDbEntity
  8
0
  6
Continuous
 62
     9
370
     0
100
AcDbLine
 10
254.3962878651334
 20
-44.08387411957585
 30
0.0
 11
254.416957074007
 21
-44.07450130460131
 31
0.0
  0
LINE
  5
5FCA
330
A
100
AcDbEntity
  8
0
  6
Continuous
 62
     9
370
     0
100
AcDbLine
 10
254.416957074007
 20
-44.07450130460131
 30
0.0
 11
254.4361922353906
 21
-44.0672753102001
 31
0.0
  0
LINE
  5
5FCB
330
A
100
AcDbEntity
  8
0
  6
Continuous
 62
     9
370
     0
100
AcDbLine
 10
254.4361922353906
 20
-44.0672753102001
 30
0.0
 11
254.4539287150373
 21
-44.06217587752178
 31
0.0
  0
LINE
  5
5FCC
330
A
100
AcDbEntity
  8
0
  6
Continuous
 62
     9
370
     0
100
AcDbLine
 10
254.4539287150373
 20
-44.06217587752178
 30
0.0
 11
254.4701018787008
 21
-44.05918274771522
 31
0.0
  0
LINE
  5
5FCD
330
A
100
AcDbEntity
  8
0
  6
Continuous
 62
     9
370
     0
100
AcDbLine
 10
254.4701018787008
 20
-44.05918274771522
 30
0.0
 11
254.484528531962
 21
-44.05826477961659
 31
0.0
  0
LINE
  5
5FCE
330
A
100
AcDbEntity
  8
0
  6
Continuous
 62
     9
370
     0
100
AcDbLine
 10
254.484528531962
 20
-44.05826477961659
 30
0.0
 11
254.4973604870165
 21
-44.05933216789378
 31
0.0
  0
LINE
  5
5FCF
330
A
100
AcDbEntity
  8
0
  6
Continuous
 62
     9
370
     0
100
AcDbLine
 10
254.4973604870165
 20
-44.05933216789378
 30
0.0
 11
254.5085463298932
 21
-44.06233862998078
 31
0.0
  0
LINE
  5
5FD0
330
A
100
AcDbEntity
  8
0
  6
Continuous
 62
     9
370
     0
100
AcDbLine
 10
254.5085463298932
 20
-44.06233862998078
 30
0.0
 11
254.5180346466225
 21
-44.06723788331191
 31
0.0
  0
LINE
  5
5FD1
330
A
100
AcDbEntity
  8
0
  6
Continuous
 62
     9
370
     0
100
AcDbLine
 10
254.5180346466225
 20
-44.06723788331191
 30
0.0
 11
254.5259692227579
 21
-44.0741907507803
 31
0.0
  0
LINE
  5
5FD2
330
A
100
AcDbEntity
  8
0
  6
Continuous
 62
     9
370
     0
100
AcDbLine
 10
254.5259692227579
 20
-44.0741907507803
 30
0.0
 11
254.5271023182335
 21
-44.07551540747022
 31
0.0
  0
LINE
  5
5FD3
330
A
100
AcDbEntity
  8
0
  6
Continuous
 62
     9
370
     0
100
AcDbLine
 10
254.0763650979573
 20
-184.5560058052255
 30
0.0
 11
254.0831602231326
 21
-184.5492735961095
 31
0.0
  0
LINE
  5
5FD4
330
A
100
AcDbEntity
  8
0
  6
Continuous
 62
     9
370
     0
100
AcDbLine
 10
254.0831602231326
 20
-184.5492735961095
 30
0.0
 11
254.1170514105598
 21
-184.5162644846689
 31
0.0
  0
LINE
  5
5FD5
330
A
100
AcDbEntity
  8
0
  6
Continuous
 62
     9
370
     0
100
AcDbLine
 10
254.1170514105598
 20
-184.5162644846689
 30
0.0
 11
254.1500427430465
 21
-184.4851466039111
 31
0.0
  0
LINE
  5
5FD6
330
A
100
AcDbEntity
  8
0
  6
Continuous
 62
     9
370
     0
100
AcDbLine
 10
254.1500427430465
 20
-184.4851466039111
 30
0.0
 11
254.1820521389829
 21
-184.4560297143102
 31
0.0
  0
LINE
  5
5FD7
330
A
100
AcDbEntity
  8
0
  6
Continuous
 62
     9
370
     0
100
AcDbLine
 10
254.1820521389829
 20
-184.4560297143102
 30
0.0
 11
254.2140274157923
 21
-184.4281367535604
 31
0.0
  0
LINE
  5
5FD8
330
A
100
AcDbEntity
  8
0
  6
Continuous
 62
     9
370
     0
100
AcDbLine
 10
254.2140274157923
 20
-184.4281367535604
 30
0.0
 11
254.244903711562
 21
-184.4024550934334
 31
0.0
  0
LINE
  5
5FD9
330
A
100
AcDbEntity
  8
0
  6
Continuous
 62
     9
370
     0
100
AcDbLine
 10
254.244903711562
 20
-184.4024550934334
 30
0.0
 11
254.2745884722766
 21
-184.3790584987848
 31
0.0
  0
LINE
  5
5FDA
330
A
100
AcDbEntity
  8
0
  6
Continuous
 62
     9
370
     0
100
AcDbLine
 10
254.2745884722766
 20
-184.3790584987848
 30
0.0
 11
254.3029891439204
 21
-184.3580207344706
 31
0.0
  0
LINE
  5
5FDB
330
A
100
AcDbEntity
  8
0
  6
Continuous
 62
     9
370
     0
100
AcDbLine
 10
254.3029891439204
 20
-184.3580207344706
 30
0.0
 11
254.3281203830964
 21
-184.3406581621752
 31
0.0
  0
LINE
  5
5FDC
330
A
100
AcDbEntity
  8
0
  6
Continuous
 62
     9
370
     0
100
AcDbLine
 10
254.3281203830964
 20
-184.3406581621752
 30
0.0
 11
254.3520930177187
 21
-184.3253306741745
 31
0.0
  0
LINE
  5
5FDD
330
A
100
AcDbEntity
  8
0
  6
Continuous
 62
     9
370
     0
100
AcDbLine
 10
254.3520930177187
 20
-184.3253306741745
 30
0.0
 11
254.3748383921098
 21
-184.3120552420264
 31
0.0
  0
LINE
  5
5FDE
330
A
100
AcDbEntity
  8
0
  6
Continuous
 62
     9
370
     0
100
AcDbLine
 10
254.3748383921098
 20
-184.3120552420264
 30
0.0
 11
254.396287850592
 21
-184.3008488372883
 31
0.0
  0
LINE
  5
5FDF
330
A
100
AcDbEntity
  8
0
  6
Continuous
 62
     9
370
     0
100
AcDbLine
 10
254.396287850592
 20
-184.3008488372883
 30
0.0
 11
254.4169570594681
 21
-184.2914760223152
 31
0.0
  0
LINE
  5
5FE0
330
A
100
AcDbEntity
  8
0
  6
Continuous
 62
     9
370
     0
100
AcDbLine
 10
254.4169570594681
 20
-184.2914760223152
 30
0.0
 11
254.4361922208542
 21
-184.2842500279161
 31
0.0
  0
LINE
  5
5FE1
330
A
100
AcDbEntity
  8
0
  6
Continuous
 62
     9
370
     0
100
AcDbLine
 10
254.4361922208542
 20
-184.2842500279161
 30
0.0
 11
254.4539287005042
 21
-184.2791505952398
 31
0.0
  0
LINE
  5
5FE2
330
A
100
AcDbEntity
  8
0
  6
Continuous
 62
     9
370
     0
100
AcDbLine
 10
254.4539287005042
 20
-184.2791505952398
 30
0.0
 11
254.4701018641709
 21
-184.2761574654355
 31
0.0
  0
LINE
  5
5FE3
330
A
100
AcDbEntity
  8
0
  6
Continuous
 62
     9
370
     0
100
AcDbLine
 10
254.4701018641709
 20
-184.2761574654355
 30
0.0
 11
254.4845285174359
 21
-184.2752394973397
 31
0.0
  0
LINE
  5
5FE4
330
A
100
AcDbEntity
  8
0
  6
Continuous
 62
     9
370
     0
100
AcDbLine
 10
254.4845285174359
 20
-184.2752394973397
 30
0.0
 11
254.497360472494
 21
-184.2763068856195
 31
0.0
  0
LINE
  5
5FE5
330
A
100
AcDbEntity
  8
0
  6
Continuous
 62
     9
370
     0
100
AcDbLine
 10
254.497360472494
 20
-184.2763068856195
 30
0.0
 11
254.508546315375
 21
-184.2793133477096
 31
0.0
  0
LINE
  5
5FE6
330
A
100
AcDbEntity
  8
0
  6
Continuous
 62
     9
370
     0
100
AcDbLine
 10
254.508546315375
 20
-184.2793133477096
 30
0.0
 11
254.5180346321088
 21
-184.2842126010442
 31
0.0
  0
LINE
  5
5FE7
330
A
100
AcDbEntity
  8
0
  6
Continuous
 62
     9
370
     0
100
AcDbLine
 10
254.5180346321088
 20
-184.2842126010442
 30
0.0
 11
254.5259692082487
 21
-184.2911654685163
 31
0.0
  0
LINE
  5
5FE8
330
A
100
AcDbEntity
  8
0
  6
Continuous
 62
     9
370
     0
100
AcDbLine
 10
254.5259692082487
 20
-184.2911654685163
 30
0.0
 11
254.5271023037253
 21
-184.2924901252068
 31
0.0
  0
CIRCLE
  5
633D
330
A
100
AcDbEntity
  8
0
  6
CENTER
 62
     1
100
AcDbCircle
 10
0.0000000000000568
 20
0.0000000000000568
 30
0.0
 40
6.0
  0
CIRCLE
  5
633E
330
A
100
AcDbEntity
  8
0
  6
CENTER
 62
     1
100
AcDbCircle
 10
-0.0000000201464445
 20
-191.9999999998888
 30
0.0
 40
6.0
  0
ENDSEC
  0
SECTION
  2
OBJECTS
  0
DICTIONARY
  5
19
330
0
100
AcDbDictionary
281
     1
  3
ACAD_COLOR
350
3176
  3
ACAD_GROUP
350
1A
  3
ACAD_LAYOUT
350
1E
  3
ACAD_MATERIAL
350
314C
  3
ACAD_MLEADERSTYLE
350
319B
  3
ACAD_MLINESTYLE
350
1B
  3
ACAD_PLOTSETTINGS
350
22
  3
ACAD_PLOTSTYLENAME
350
1F
  3
ACAD_SCALELIST
350
3179
  3
ACAD_TABLESTYLE
350
3177
  3
ACAD_VISUALSTYLE
350
3165
  3
ACAD_WIPEOUT_VARS
350
23
  3
ACDB_RECOMPOSE_DATA
350
630A
  3
AcDbVariableDictionary
350
630B
  3
ASE_INDEX_DICTIONARY
350
5E44
  3
DWGPROPS
350
6388
  0
DICTIONARY
  5
5E41
330
14
100
AcDbDictionary
280
     1
281
     1
  3
ADSK_XREC_LAYER_RECONCILED
360
5E42
  0
DICTIONARY
  5
31A7
330
A
100
AcDbDictionary
280
     1
281
     1
  3
ACAD_SORTENTS
360
31A8
  0
DICTIONARY
  5
3176
102
{ACAD_REACTORS
330
19
102
}
330
19
100
AcDbDictionary
281
     1
  0
DICTIONARY
  5
1A
102
{ACAD_REACTORS
330
19
102
}
330
19
100
AcDbDictionary
281
     1
  0
DICTIONARY
  5
1E
102
{ACAD_REACTORS
330
19
102
}
330
19
100
AcDbDictionary
281
     1
  3
Layout1
350
21
  3
Model
350
20
  0
DICTIONARY
  5
314C
102
{ACAD_REACTORS
330
19
102
}
330
19
100
AcDbDictionary
281
     1
  3
ByBlock
350
3155
  3
ByLayer
350
314D
  3
Global
350
315D
  0
DICTIONARY
  5
319B
102
{ACAD_REACTORS
330
19
102
}
330
19
100
AcDbDictionary
281
     1
  3
Standard
350
319C
  0
DICTIONARY
  5
1B
102
{ACAD_REACTORS
330
19
102
}
330
19
100
AcDbDictionary
281
     1
  3
Standard
350
1C
  0
DICTIONARY
  5
22
102
{ACAD_REACTORS
330
19
102
}
330
19
100
AcDbDictionary
281
     1
  0
ACDBDICTIONARYWDFLT
  5
1F
102
{ACAD_REACTORS
330
19
102
}
330
19
100
AcDbDictionary
281
     1
  3
Normal
350
1D
100
AcDbDictionaryWithDefault
340
1D
  0
DICTIONARY
  5
3179
102
{ACAD_REACTORS
330
19
102
}
330
19
100
AcDbDictionary
281
     1
  3
A0
350
317A
  3
A1
350
317B
  3
A2
350
317C
  3
A3
350
317D
  3
A4
350
317E
  3
A5
350
317F
  3
A6
350
3180
  3
A7
350
3181
  3
A8
350
3182
  3
A9
350
3183
  3
B0
350
3184
  3
B1
350
3185
  3
B2
350
3186
  3
B3
350
3187
  3
B4
350
3188
  3
B5
350
3189
  3
B6
350
318A
  3
B7
350
318B
  3
B8
350
318C
  3
B9
350
318D
  3
C0
350
318E
  3
C1
350
318F
  3
C2
350
3190
  3
C3
350
3191
  3
C4
350
3192
  3
C5
350
3193
  3
C6
350
3194
  3
C7
350
3195
  3
C8
350
3196
  3
C9
350
3197
  3
D0
350
3198
  3
D1
350
3199
  3
D2
350
319A
  0
DICTIONARY
  5
3177
102
{ACAD_REACTORS
330
19
102
}
330
19
100
AcDbDictionary
281
     1
  3
Standard
350
3178
  0
DICTIONARY
  5
3165
102
{ACAD_REACTORS
330
19
102
}
330
19
100
AcDbDictionary
281
     1
  3
2dWireframe
350
316B
  3
3D Hidden
350
316D
  3
3dWireframe
350
316C
  3
Basic
350
316A
  3
Brighten
350
3171
  3
ColorChange
350
3175
  3
Conceptual
350
316E
  3
Dim
350
3170
  3
Facepattern
350
3174
  3
Flat
350
3166
  3
FlatWithEdges
350
3167
  3
Gouraud
350
3168
  3
GouraudWithEdges
350
3169
  3
Linepattern
350
3173
  3
Realistic
350
316F
  3
Thicken
350
3172
  0
WIPEOUTVARIABLES
  5
23
330
19
100
AcDbWipeoutVariables
 70
     1
  0
XRECORD
  5
630A
102
{ACAD_REACTORS
330
19
102
}
330
19
100
AcDbXrecord
280
     1
 90
        1
330
3178
  0
DICTIONARY
  5
630B
102
{ACAD_REACTORS
330
19
102
}
330
19
100
AcDbDictionary
281
     1
  3
CANNOSCALE
350
630F
  3
CMLEADERSTYLE
350
630D
  3
CTABLESTYLE
350
630C
  3
DIMASSOC
350
6318
  3
INDEXCTL
350
6317
  3
LIGHTINGUNITS
350
6310
  3
MSLTSCALE
350
630E
  3
SORTENTS
350
6316
  0
DICTIONARY
  5
5E44
102
{ACAD_REACTORS
330
19
102
}
330
19
100
AcDbDictionary
281
     1
  3
ASEBlockHierarchyIndexRecord
350
5E46
1001
DCO15
1040
1685075681.336
  0
XRECORD
  5
6388
102
{ACAD_REACTORS
330
19
102
}
330
19
100
AcDbXrecord
280
     1
  1
DWGPROPS COOKIE
  2

  3

  4

  6

  7

  8
renzo.ceresoli
  9

300
=
301
=
302
=
303
=
304
=
305
=
306
=
307
=
308
=
309
=
 40
0.002854537037037
 41
2455303.727916667
 42
2455306.466107419
  1

 90
        0
  0
XRECORD
  5
5E42
102
{ACAD_REACTORS
330
5E41
102
}
330
5E41
100
AcDbXrecord
280
     1
290
     1
  0
SORTENTSTABLE
  5
31A8
102
{ACAD_REACTORS
330
31A7
102
}
330
31A7
100
AcDbSortentsTable
330
A
331
4158
  5
4E7B
331
4173
  5
4E96
331
413D
  5
4E5C
331
420B
  5
4DE7
331
41BA
  5
4D96
331
40E5
  5
4ED6
331
41D5
  5
4DB1
331
4100
  5
4EEA
331
41F0
  5
4DCC
331
411B
  5
4F05
331
418C
  5
4E52
331
40B7
  5
4EAF
331
40CA
  5
4EC2
331
4237
  5
4E13
331
4171
  5
4E94
331
413B
  5
4E5A
331
4156
  5
4E79
331
41B8
  5
4D94
331
40E3
  5
4ED4
331
41D3
  5
4DAF
331
40FE
  5
4EE8
331
41EE
  5
4DCA
331
4119
  5
4F03
331
416F
  5
4E92
331
418A
  5
4E50
331
40B5
  5
4EAD
331
40C8
  5
4EC0
331
4209
  5
4DE5
331
4235
  5
4E11
331
4117
  5
4F01
331
4207
  5
4DE3
331
4139
  5
4F23
331
4154
  5
4E77
331
41B6
  5
4D92
331
40E1
  5
4ED2
331
41D1
  5
4DAD
331
40FC
  5
4EE6
331
41EC
  5
4DC8
331
416D
  5
4E90
331
4188
  5
4E4E
331
40B3
  5
4EAB
331
40C6
  5
4EBE
331
4233
  5
4E0F
331
4115
  5
4EFF
331
4205
  5
4DE1
331
4137
  5
4F21
331
4152
  5
4E75
331
41CF
  5
4DAB
331
40FA
  5
4EE4
331
41EA
  5
4DC6
331
416B
  5
4E8E
331
4186
  5
4E4C
331
40C4
  5
4EBC
331
41B4
  5
4D90
331
40DF
  5
4ED0
331
421E
  5
4DFA
331
4231
  5
4E0D
331
424C
  5
4E28
331
4113
  5
4EFD
331
4203
  5
4DDF
331
412E
  5
4F18
331
4135
  5
4F1F
331
4150
  5
4E73
331
41CD
  5
4DA9
331
40F8
  5
4EE2
331
41E8
  5
4DC4
331
4169
  5
4E8C
331
4184
  5
4E4A
331
40C2
  5
4EBA
331
414E
  5
4E71
331
41B2
  5
4D8E
331
40DD
  5
4ECE
331
421C
  5
4DF8
331
422F
  5
4E0B
331
424A
  5
4E26
331
41E6
  5
4DC2
331
4111
  5
4EFB
331
4201
  5
4DDD
331
412C
  5
4F16
331
4133
  5
4F1D
331
20E3
  5
4F2E
331
41CB
  5
4DA7
331
4182
  5
4EA5
331
40C0
  5
4EB8
331
40DB
  5
4ECC
331
414C
  5
4E6F
331
4167
  5
4E8A
331
422D
  5
4E09
331
4248
  5
4E24
331
41E4
  5
4DC0
331
410F
  5
4EF9
331
41FF
  5
4DDB
331
412A
  5
4F14
331
421A
  5
4DF6
331
4131
  5
4F1B
331
20E1
  5
4F2C
331
41C9
  5
4DA5
331
4180
  5
4EA3
331
40BE
  5
4EB6
331
40D9
  5
4ECA
331
414A
  5
4E6D
331
4165
  5
4E88
331
422B
  5
4E07
331
4246
  5
4E22
331
41C7
  5
4DA3
331
41E2
  5
4DBE
331
410D
  5
4EF7
331
41FD
  5
4DD9
331
4128
  5
4F12
331
40D7
  5
4EC8
331
4218
  5
4DF4
331
20DF
  5
4F2A
331
417E
  5
4EA1
331
40BC
  5
4EB4
331
4148
  5
4E67
331
4163
  5
4E86
331
4229
  5
4E05
331
4244
  5
4E20
331
41E0
  5
4DBC
331
410B
  5
4EF5
331
41FB
  5
4DD7
331
4126
  5
4F10
331
4216
  5
4DF2
331
41C5
  5
4DA1
331
20DD
  5
4F28
331
417C
  5
4E9F
331
40BA
  5
4EB2
331
4146
  5
4E65
331
4161
  5
4E84
331
4227
  5
4E03
331
4242
  5
4E1E
331
41DE
  5
4DBA
331
4109
  5
4EF3
331
41F9
  5
4DD5
331
4124
  5
4F0E
331
4214
  5
4DF0
331
41C3
  5
4D9F
331
40EE
  5
4EDF
331
20DB
  5
4F26
331
417A
  5
4E9D
331
40B8
  5
4EB0
331
4144
  5
4E63
331
415F
  5
4E82
331
4225
  5
4E01
331
4240
  5
4E1C
331
4122
  5
4F0C
331
41DC
  5
4DB8
331
4107
  5
4EF1
331
41F7
  5
4DD3
331
4212
  5
4DEE
331
41C1
  5
4D9D
331
40EC
  5
4EDD
331
423E
  5
4E1A
331
20D9
  5
4F24
331
4142
  5
4E61
331
415D
  5
4E80
331
4178
  5
4E9B
331
41DA
  5
4DB6
331
4105
  5
4EEF
331
41F5
  5
4DD1
331
4120
  5
4F0A
331
4210
  5
4DEC
331
41BF
  5
4D9B
331
40EA
  5
4EDB
331
4223
  5
4DFF
331
423C
  5
4E18
331
4191
  5
4E57
331
4140
  5
4E5F
331
415B
  5
4E7E
331
4176
  5
4E99
331
41D8
  5
4DB4
331
4103
  5
4EED
331
41F3
  5
4DCF
331
411E
  5
4F08
331
420E
  5
4DEA
331
418F
  5
4E55
331
40CD
  5
4EC5
331
41BD
  5
4D99
331
40E8
  5
4ED9
331
4221
  5
4DFD
331
423A
  5
4E16
331
413E
  5
4E5D
331
4159
  5
4E7C
331
4174
  5
4E97
331
41F1
  5
4DCD
331
411C
  5
4F06
331
420C
  5
4DE8
331
418D
  5
4E53
331
40CB
  5
4EC3
331
41BB
  5
4D97
331
40E6
  5
4ED7
331
41D6
  5
4DB2
331
4101
  5
4EEB
331
4238
  5
4E14
331
413C
  5
4E5B
331
4157
  5
4E7A
331
4172
  5
4E95
331
41EF
  5
4DCB
331
411A
  5
4F04
331
420A
  5
4DE6
331
418B
  5
4E51
331
40B6
  5
4EAE
331
40C9
  5
4EC1
331
41B9
  5
4D95
331
40E4
  5
4ED5
331
41D4
  5
4DB0
331
40FF
  5
4EE9
331
4236
  5
4E12
331
413A
  5
4E59
331
4155
  5
4E78
331
4170
  5
4E93
331
41ED
  5
4DC9
331
4118
  5
4F02
331
4208
  5
4DE4
331
40C7
  5
4EBF
331
41B7
  5
4D93
331
40E2
  5
4ED3
331
41D2
  5
4DAE
331
40FD
  5
4EE7
331
416E
  5
4E91
331
4189
  5
4E4F
331
40B4
  5
4EAC
331
4116
  5
4F00
331
4206
  5
4DE2
331
4234
  5
4E10
331
4138
  5
4F22
331
4153
  5
4E76
331
41EB
  5
4DC7
331
40C5
  5
4EBD
331
41B5
  5
4D91
331
40E0
  5
4ED1
331
41D0
  5
4DAC
331
40FB
  5
4EE5
331
416C
  5
4E8F
331
4187
  5
4E4D
331
40B2
  5
4EAA
331
424D
  5
4E29
331
4114
  5
4EFE
331
4204
  5
4DE0
331
412F
  5
4F19
331
421F
  5
4DFB
331
4232
  5
4E0E
331
4136
  5
4F20
331
4151
  5
4E74
331
41E9
  5
4DC5
331
40C3
  5
4EBB
331
41B3
  5
4D8F
331
40DE
  5
4ECF
331
41CE
  5
4DAA
331
40F9
  5
4EE3
331
414F
  5
4E72
331
416A
  5
4E8D
331
4185
  5
4E4B
331
424B
  5
4E27
331
4202
  5
4DDE
331
412D
  5
4F17
331
421D
  5
4DF9
331
4230
  5
4E0C
331
40F7
  5
4EE1
331
41E7
  5
4DC3
331
4112
  5
4EFC
331
4134
  5
4F1E
331
40C1
  5
4EB9
331
41B1
  5
4D8D
331
40DC
  5
4ECD
331
41CC
  5
4DA8
331
414D
  5
4E70
331
4168
  5
4E8B
331
4183
  5
4E49
331
4249
  5
4E25
331
4200
  5
4DDC
331
412B
  5
4F15
331
421B
  5
4DF7
331
422E
  5
4E0A
331
41E5
  5
4DC1
331
4110
  5
4EFA
331
4132
  5
4F1C
331
20E2
  5
4F2D
331
40BF
  5
4EB7
331
40DA
  5
4ECB
331
41CA
  5
4DA6
331
414B
  5
4E6E
331
4166
  5
4E89
331
4181
  5
4EA4
331
4247
  5
4E23
331
41FE
  5
4DDA
331
4129
  5
4F13
331
4219
  5
4DF5
331
422C
  5
4E08
331
41E3
  5
4DBF
331
410E
  5
4EF8
331
4130
  5
4F1A
331
20E0
  5
4F2B
331
40D8
  5
4EC9
331
41C8
  5
4DA4
331
4149
  5
4E6C
331
4164
  5
4E87
331
417F
  5
4EA2
331
40BD
  5
4EB5
331
41FC
  5
4DD8
331
4127
  5
4F11
331
4217
  5
4DF3
331
422A
  5
4E06
331
40D6
  5
4EC7
331
41C6
  5
4DA2
331
41E1
  5
4DBD
331
410C
  5
4EF6
331
4245
  5
4E21
331
20DE
  5
4F29
331
4147
  5
4E66
331
4162
  5
4E85
331
417D
  5
4EA0
331
4098
  5
4EA8
331
40BB
  5
4EB3
331
41FA
  5
4DD6
331
4125
  5
4F0F
331
4215
  5
4DF1
331
4228
  5
4E04
331
41C4
  5
4DA0
331
41DF
  5
4DBB
331
410A
  5
4EF4
331
4243
  5
4E1F
331
20DC
  5
4F27
331
4160
  5
4E83
331
417B
  5
4E9E
331
407E
  5
4EA6
331
40B9
  5
4EB1
331
4145
  5
4E64
331
4213
  5
4DEF
331
4226
  5
4E02
331
4241
  5
4E1D
331
40ED
  5
4EDE
331
41C2
  5
4D9E
331
41DD
  5
4DB9
331
4108
  5
4EF2
331
41F8
  5
4DD4
331
4123
  5
4F0D
331
423F
  5
4E1B
331
20DA
  5
4F25
331
415E
  5
4E81
331
4179
  5
4E9C
331
4143
  5
4E62
331
4211
  5
4DED
331
4224
  5
4E00
331
41C0
  5
4D9C
331
40EB
  5
4EDC
331
41DB
  5
4DB7
331
4106
  5
4EF0
331
41F6
  5
4DD2
331
4121
  5
4F0B
331
423D
  5
4E19
331
415C
  5
4E7F
331
4177
  5
4E9A
331
4192
  5
4E58
331
4141
  5
4E60
331
420F
  5
4DEB
331
4222
  5
4DFE
331
41BE
  5
4D9A
331
40E9
  5
4EDA
331
41D9
  5
4DB5
331
4104
  5
4EEE
331
41F4
  5
4DD0
331
411F
  5
4F09
331
423B
  5
4E17
331
415A
  5
4E7D
331
4175
  5
4E98
331
4190
  5
4E56
331
413F
  5
4E5E
331
420D
  5
4DE9
331
4220
  5
4DFC
331
41BC
  5
4D98
331
40E7
  5
4ED8
331
41D7
  5
4DB3
331
4102
  5
4EEC
331
41F2
  5
4DCE
331
411D
  5
4F07
331
418E
  5
4E54
331
40CC
  5
4EC4
331
4239
  5
4E15
  0
LAYOUT
  5
21
102
{ACAD_XDICTIONARY
360
638B
102
}
102
{ACAD_REACTORS
330
1E
102
}
330
1E
100
AcDbPlotSettings
  1

  2

  4

  6

 40
0.0
 41
0.0
 42
0.0
 43
0.0
 44
0.0
 45
0.0
 46
0.0
 47
0.0
 48
0.0
 49
0.0
140
0.0
141
0.0
142
1.0
143
1.0
 70
     0
 72
     0
 73
     0
 74
     0
  7

 75
     0
147
1.0
148
0.0
149
0.0
100
AcDbLayout
  1
Layout1
 70
     0
 71
     1
 10
0.0
 20
0.0
 11
12.0
 21
9.0
 12
0.0
 22
0.0
 32
0.0
 14
1.000000000000000E+20
 24
1.000000000000000E+20
 34
1.000000000000000E+20
 15
-1.000000000000000E+20
 25
-1.000000000000000E+20
 35
-1.000000000000000E+20
146
0.0
 13
0.0
 23
0.0
 33
0.0
 16
1.0
 26
0.0
 36
0.0
 17
0.0
 27
1.0
 37
0.0
 76
     0
330
B
  0
LAYOUT
  5
20
102
{ACAD_XDICTIONARY
360
6389
102
}
102
{ACAD_REACTORS
330
1E
102
}
330
1E
100
AcDbPlotSettings
  1

  2

  4

  6

 40
0.0
 41
0.0
 42
0.0
 43
0.0
 44
0.0
 45
0.0
 46
0.0
 47
0.0
 48
0.0
 49
0.0
140
0.0
141
0.0
142
1.0
143
1.0
 70
  1024
 72
     0
 73
     0
 74
     0
  7

 75
     0
147
1.0
148
0.0
149
0.0
100
AcDbLayout
  1
Model
 70
     0
 71
     0
 10
0.0
 20
0.0
 11
0.0
 21
0.0
 12
0.0
 22
0.0
 32
0.0
 14
0.0
 24
0.0
 34
0.0
 15
0.0
 25
0.0
 35
0.0
146
0.0
 13
0.0
 23
0.0
 33
0.0
 16
0.0
 26
0.0
 36
0.0
 17
0.0
 27
0.0
 37
0.0
 76
     0
330
A
331
15
  0
MATERIAL
  5
3155
102
{ACAD_XDICTIONARY
360
3156
102
}
102
{ACAD_REACTORS
330
314C
102
}
330
314C
100
AcDbMaterial
  1
ByBlock
 72
     0
 43
0.0208333333333333
 43
0.0
 43
0.0
 43
0.0
 43
0.0
 43
0.0208333333333333
 43
0.0
 43
0.0
 43
0.0
 43
0.0
 43
1.0
 43
0.0
 43
0.0
 43
0.0
 43
0.0
 43
1.0
 77
     0
 47
0.0208333333333333
 47
0.0
 47
0.0
 47
0.0
 47
0.0
 47
0.0208333333333333
 47
0.0
 47
0.0
 47
0.0
 47
0.0
 47
1.0
 47
0.0
 47
0.0
 47
0.0
 47
0.0
 47
1.0
171
     0
 49
0.0208333333333333
 49
0.0
 49
0.0
 49
0.0
 49
0.0
 49
0.0208333333333333
 49
0.0
 49
0.0
 49
0.0
 49
0.0
 49
1.0
 49
0.0
 49
0.0
 49
0.0
 49
0.0
 49
1.0
175
     0
142
0.0208333333333333
142
0.0
142
0.0
142
0.0
142
0.0
142
0.0208333333333333
142
0.0
142
0.0
142
0.0
142
0.0
142
1.0
142
0.0
142
0.0
142
0.0
142
0.0
142
1.0
179
     0
144
0.0208333333333333
144
0.0
144
0.0
144
0.0
144
0.0
144
0.0208333333333333
144
0.0
144
0.0
144
0.0
144
0.0
144
1.0
144
0.0
144
0.0
144
0.0
144
0.0
144
1.0
147
0.0208333333333333
147
0.0
147
0.0
147
0.0
147
0.0
147
0.0208333333333333
147
0.0
147
0.0
147
0.0
147
0.0
147
1.0
147
0.0
147
0.0
147
0.0
147
0.0
147
1.0
  0
MATERIAL
  5
314D
102
{ACAD_XDICTIONARY
360
314E
102
}
102
{ACAD_REACTORS
330
314C
102
}
330
314C
100
AcDbMaterial
  1
ByLayer
 72
     0
 43
0.0208333333333333
 43
0.0
 43
0.0
 43
0.0
 43
0.0
 43
0.0208333333333333
 43
0.0
 43
0.0
 43
0.0
 43
0.0
 43
1.0
 43
0.0
 43
0.0
 43
0.0
 43
0.0
 43
1.0
 77
     0
 47
0.0208333333333333
 47
0.0
 47
0.0
 47
0.0
 47
0.0
 47
0.0208333333333333
 47
0.0
 47
0.0
 47
0.0
 47
0.0
 47
1.0
 47
0.0
 47
0.0
 47
0.0
 47
0.0
 47
1.0
171
     0
 49
0.0208333333333333
 49
0.0
 49
0.0
 49
0.0
 49
0.0
 49
0.0208333333333333
 49
0.0
 49
0.0
 49
0.0
 49
0.0
 49
1.0
 49
0.0
 49
0.0
 49
0.0
 49
0.0
 49
1.0
175
     0
142
0.0208333333333333
142
0.0
142
0.0
142
0.0
142
0.0
142
0.0208333333333333
142
0.0
142
0.0
142
0.0
142
0.0
142
1.0
142
0.0
142
0.0
142
0.0
142
0.0
142
1.0
179
     0
144
0.0208333333333333
144
0.0
144
0.0
144
0.0
144
0.0
144
0.0208333333333333
144
0.0
144
0.0
144
0.0
144
0.0
144
1.0
144
0.0
144
0.0
144
0.0
144
0.0
144
1.0
147
0.0208333333333333
147
0.0
147
0.0
147
0.0
147
0.0
147
0.0208333333333333
147
0.0
147
0.0
147
0.0
147
0.0
147
1.0
147
0.0
147
0.0
147
0.0
147
0.0
147
1.0
  0
MATERIAL
  5
315D
102
{ACAD_XDICTIONARY
360
315E
102
}
102
{ACAD_REACTORS
330
314C
102
}
330
314C
100
AcDbMaterial
  1
Global
 72
     0
 43
0.0208333333333333
 43
0.0
 43
0.0
 43
0.0
 43
0.0
 43
0.0208333333333333
 43
0.0
 43
0.0
 43
0.0
 43
0.0
 43
1.0
 43
0.0
 43
0.0
 43
0.0
 43
0.0
 43
1.0
 77
     0
 47
0.0208333333333333
 47
0.0
 47
0.0
 47
0.0
 47
0.0
 47
0.0208333333333333
 47
0.0
 47
0.0
 47
0.0
 47
0.0
 47
1.0
 47
0.0
 47
0.0
 47
0.0
 47
0.0
 47
1.0
171
     0
 49
0.0208333333333333
 49
0.0
 49
0.0
 49
0.0
 49
0.0
 49
0.0208333333333333
 49
0.0
 49
0.0
 49
0.0
 49
0.0
 49
1.0
 49
0.0
 49
0.0
 49
0.0
 49
0.0
 49
1.0
175
     0
142
0.0208333333333333
142
0.0
142
0.0
142
0.0
142
0.0
142
0.0208333333333333
142
0.0
142
0.0
142
0.0
142
0.0
142
1.0
142
0.0
142
0.0
142
0.0
142
0.0
142
1.0
179
     0
144
0.0208333333333333
144
0.0
144
0.0
144
0.0
144
0.0
144
0.0208333333333333
144
0.0
144
0.0
144
0.0
144
0.0
144
1.0
144
0.0
144
0.0
144
0.0
144
0.0
144
1.0
147
0.0208333333333333
147
0.0
147
0.0
147
0.0
147
0.0
147
0.0208333333333333
147
0.0
147
0.0
147
0.0
147
0.0
147
1.0
147
0.0
147
0.0
147
0.0
147
0.0
147
1.0
  0
MLEADERSTYLE
  5
319C
102
{ACAD_REACTORS
330
319B
102
}
330
319B
100
AcDbMLeaderStyle
170
     2
171
     1
172
     0
 90
        2
 40
0.0
 41
0.0
173
     1
 91
-1056964608
340
11
 92
       -2
290
     1
 42
2.0
291
     1
 43
0.36
  3
Standard
 44
4.0
300

342
17
174
     1
178
     6
175
     1
176
     0
 93
-1056964608
 45
4.0
292
     0
297
     0
 46
4.0
 94
-1056964608
 47
1.0
 49
1.0
140
1.0
293
     1
141
0.0
294
     1
177
     0
142
1.0
295
     0
296
     0
143
0.125
1001
ACAD_MLEADERVER
1070
     2
  0
MLINESTYLE
  5
1C
102
{ACAD_REACTORS
330
1B
102
}
330
1B
100
AcDbMlineStyle
  2
STANDARD
 70
     0
  3

 62
     0
 51
90.0
 52
90.0
 71
     2
 49
0.5
 62
   256
  6
BYLAYER
 49
-0.5
 62
   256
  6
BYLAYER
  0
ACDBPLACEHOLDER
  5
1D
102
{ACAD_REACTORS
330
1F
102
}
330
1F
  0
SCALE
  5
317A
102
{ACAD_REACTORS
330
3179
102
}
330
3179
100
AcDbScale
 70
     0
300
1:1
140
1.0
141
1.0
290
     1
  0
SCALE
  5
317B
102
{ACAD_REACTORS
330
3179
102
}
330
3179
100
AcDbScale
 70
     0
300
1:2
140
1.0
141
2.0
290
     0
  0
SCALE
  5
317C
102
{ACAD_REACTORS
330
3179
102
}
330
3179
100
AcDbScale
 70
     0
300
1:4
140
1.0
141
4.0
290
     0
  0
SCALE
  5
317D
102
{ACAD_REACTORS
330
3179
102
}
330
3179
100
AcDbScale
 70
     0
300
1:5
140
1.0
141
5.0
290
     0
  0
SCALE
  5
317E
102
{ACAD_REACTORS
330
3179
102
}
330
3179
100
AcDbScale
 70
     0
300
1:8
140
1.0
141
8.0
290
     0
  0
SCALE
  5
317F
102
{ACAD_REACTORS
330
3179
102
}
330
3179
100
AcDbScale
 70
     0
300
1:10
140
1.0
141
10.0
290
     0
  0
SCALE
  5
3180
102
{ACAD_REACTORS
330
3179
102
}
330
3179
100
AcDbScale
 70
     0
300
1:16
140
1.0
141
16.0
290
     0
  0
SCALE
  5
3181
102
{ACAD_REACTORS
330
3179
102
}
330
3179
100
AcDbScale
 70
     0
300
1:20
140
1.0
141
20.0
290
     0
  0
SCALE
  5
3182
102
{ACAD_REACTORS
330
3179
102
}
330
3179
100
AcDbScale
 70
     0
300
1:30
140
1.0
141
30.0
290
     0
  0
SCALE
  5
3183
102
{ACAD_REACTORS
330
3179
102
}
330
3179
100
AcDbScale
 70
     0
300
1:40
140
1.0
141
40.0
290
     0
  0
SCALE
  5
3184
102
{ACAD_REACTORS
330
3179
102
}
330
3179
100
AcDbScale
 70
     0
300
1:50
140
1.0
141
50.0
290
     0
  0
SCALE
  5
3185
102
{ACAD_REACTORS
330
3179
102
}
330
3179
100
AcDbScale
 70
     0
300
1:100
140
1.0
141
100.0
290
     0
  0
SCALE
  5
3186
102
{ACAD_REACTORS
330
3179
102
}
330
3179
100
AcDbScale
 70
     0
300
2:1
140
2.0
141
1.0
290
     0
  0
SCALE
  5
3187
102
{ACAD_REACTORS
330
3179
102
}
330
3179
100
AcDbScale
 70
     0
300
4:1
140
4.0
141
1.0
290
     0
  0
SCALE
  5
3188
102
{ACAD_REACTORS
330
3179
102
}
330
3179
100
AcDbScale
 70
     0
300
8:1
140
8.0
141
1.0
290
     0
  0
SCALE
  5
3189
102
{ACAD_REACTORS
330
3179
102
}
330
3179
100
AcDbScale
 70
     0
300
10:1
140
10.0
141
1.0
290
     0
  0
SCALE
  5
318A
102
{ACAD_REACTORS
330
3179
102
}
330
3179
100
AcDbScale
 70
     0
300
100:1
140
100.0
141
1.0
290
     0
  0
SCALE
  5
318B
102
{ACAD_REACTORS
330
3179
102
}
330
3179
100
AcDbScale
 70
     0
300
1/128" = 1'-0"
140
0.0078125
141
12.0
290
     0
  0
SCALE
  5
318C
102
{ACAD_REACTORS
330
3179
102
}
330
3179
100
AcDbScale
 70
     0
300
1/64" = 1'-0"
140
0.015625
141
12.0
290
     0
  0
SCALE
  5
318D
102
{ACAD_REACTORS
330
3179
102
}
330
3179
100
AcDbScale
 70
     0
300
1/32" = 1'-0"
140
0.03125
141
12.0
290
     0
  0
SCALE
  5
318E
102
{ACAD_REACTORS
330
3179
102
}
330
3179
100
AcDbScale
 70
     0
300
1/16" = 1'-0"
140
0.0625
141
12.0
290
     0
  0
SCALE
  5
318F
102
{ACAD_REACTORS
330
3179
102
}
330
3179
100
AcDbScale
 70
     0
300
3/32" = 1'-0"
140
0.09375
141
12.0
290
     0
  0
SCALE
  5
3190
102
{ACAD_REACTORS
330
3179
102
}
330
3179
100
AcDbScale
 70
     0
300
1/8" = 1'-0"
140
0.125
141
12.0
290
     0
  0
SCALE
  5
3191
102
{ACAD_REACTORS
330
3179
102
}
330
3179
100
AcDbScale
 70
     0
300
3/16" = 1'-0"
140
0.1875
141
12.0
290
     0
  0
SCALE
  5
3192
102
{ACAD_REACTORS
330
3179
102
}
330
3179
100
AcDbScale
 70
     0
300
1/4" = 1'-0"
140
0.25
141
12.0
290
     0
  0
SCALE
  5
3193
102
{ACAD_REACTORS
330
3179
102
}
330
3179
100
AcDbScale
 70
     0
300
3/8" = 1'-0"
140
0.375
141
12.0
290
     0
  0
SCALE
  5
3194
102
{ACAD_REACTORS
330
3179
102
}
330
3179
100
AcDbScale
 70
     0
300
1/2" = 1'-0"
140
0.5
141
12.0
290
     0
  0
SCALE
  5
3195
102
{ACAD_REACTORS
330
3179
102
}
330
3179
100
AcDbScale
 70
     0
300
3/4" = 1'-0"
140
0.75
141
12.0
290
     0
  0
SCALE
  5
3196
102
{ACAD_REACTORS
330
3179
102
}
330
3179
100
AcDbScale
 70
     0
300
1" = 1'-0"
140
1.0
141
12.0
290
     0
  0
SCALE
  5
3197
102
{ACAD_REACTORS
330
3179
102
}
330
3179
100
AcDbScale
 70
     0
300
1-1/2" = 1'-0"
140
1.5
141
12.0
290
     0
  0
SCALE
  5
3198
102
{ACAD_REACTORS
330
3179
102
}
330
3179
100
AcDbScale
 70
     0
300
3" = 1'-0"
140
3.0
141
12.0
290
     0
  0
SCALE
  5
3199
102
{ACAD_REACTORS
330
3179
102
}
330
3179
100
AcDbScale
 70
     0
300
6" = 1'-0"
140
6.0
141
12.0
290
     0
  0
SCALE
  5
319A
102
{ACAD_REACTORS
330
3179
102
}
330
3179
100
AcDbScale
 70
     0
300
1'-0" = 1'-0"
140
12.0
141
12.0
290
     0
  0
TABLESTYLE
  5
3178
102
{ACAD_XDICTIONARY
360
6308
102
}
102
{ACAD_REACTORS
330
3177
102
}
330
3177
100
AcDbTableStyle
  3
Standard
 70
     0
 71
     0
 40
1.5
 41
1.5
280
     0
281
     0
  7
Standard
140
4.5
170
     2
 62
     0
 63
     7
283
     0
274
    -2
284
     1
 64
     0
275
    -2
285
     1
 65
     0
276
    -2
286
     1
 66
     0
277
    -2
287
     1
 67
     0
278
    -2
288
     1
 68
     0
279
    -2
289
     1
 69
     0
  7
Standard
140
6.0
170
     5
 62
     0
 63
     7
283
     0
274
    -2
284
     1
 64
     0
275
    -2
285
     1
 65
     0
276
    -2
286
     1
 66
     0
277
    -2
287
     1
 67
     0
278
    -2
288
     1
 68
     0
279
    -2
289
     1
 69
     0
  7
Standard
140
4.5
170
     5
 62
     0
 63
     7
283
     0
274
    -2
284
     1
 64
     0
275
    -2
285
     1
 65
     0
276
    -2
286
     1
 66
     0
277
    -2
287
     1
 67
     0
278
    -2
288
     1
 68
     0
279
    -2
289
     1
 69
     0
  0
VISUALSTYLE
  5
316B
102
{ACAD_REACTORS
330
3165
102
}
330
3165
100
AcDbVisualStyle
  2
2dWireframe
 70
     4
 71
     0
 72
     2
 73
     0
 90
        0
 40
-0.6
 41
-30.0
 62
     5
 63
     7
 74
     1
 91
        4
 64
     7
 65
   257
 75
     1
175
     1
 42
1.0
 92
        0
 66
   257
 43
1.0
 76
     1
 77
     6
 78
     2
 67
     7
 79
     5
170
     0
171
     0
290
     0
174
     0
 93
        1
 44
0.0
173
     0
291
     0
 45
0.0
1001
ACAD
1000
AcDbSavedByObjectVersion
1070
     0
1000
AcDbSavedByObjectVersion
1070
     0
  0
VISUALSTYLE
  5
316D
102
{ACAD_REACTORS
330
3165
102
}
330
3165
100
AcDbVisualStyle
  2
3D Hidden
 70
     6
 71
     1
 72
     2
 73
     2
 90
        0
 40
-0.6
 41
-30.0
 62
     5
 63
     7
 74
     2
 91
        2
 64
     7
 65
   257
 75
     2
175
     1
 42
40.0
 92
        0
 66
   257
 43
1.0
 76
     1
 77
     6
 78
     2
 67
     7
 79
     3
170
     0
171
     0
290
     0
174
     0
 93
        1
 44
0.0
173
     0
291
     0
 45
0.0
1001
ACAD
1000
AcDbSavedByObjectVersion
1070
     0
1000
AcDbSavedByObjectVersion
1070
     0
  0
VISUALSTYLE
  5
316C
102
{ACAD_REACTORS
330
3165
102
}
330
3165
100
AcDbVisualStyle
  2
3dWireframe
 70
     5
 71
     0
 72
     2
 73
     0
 90
        0
 40
-0.6
 41
-30.0
 62
     5
 63
     7
 74
     1
 91
        4
 64
     7
 65
   257
 75
     1
175
     1
 42
1.0
 92
        0
 66
   257
 43
1.0
 76
     1
 77
     6
 78
     2
 67
     7
 79
     5
170
     0
171
     0
290
     0
174
     0
 93
        1
 44
0.0
173
     0
291
     0
 45
0.0
1001
ACAD
1000
AcDbSavedByObjectVersion
1070
     0
1000
AcDbSavedByObjectVersion
1070
     0
  0
VISUALSTYLE
  5
316A
102
{ACAD_REACTORS
330
3165
102
}
330
3165
100
AcDbVisualStyle
  2
Basic
 70
     7
 71
     1
 72
     0
 73
     1
 90
        0
 40
-0.6
 41
-30.0
 62
     5
 63
     7
 74
     0
 91
        4
 64
     7
 65
   257
 75
     1
175
     1
 42
1.0
 92
        8
 66
     7
 43
1.0
 76
     1
 77
     6
 78
     2
 67
     7
 79
     5
170
     0
171
     0
290
     0
174
     0
 93
        1
 44
0.0
173
     0
291
     1
 45
0.0
1001
ACAD
1000
AcDbSavedByObjectVersion
1070
     0
1000
AcDbSavedByObjectVersion
1070
     0
  0
VISUALSTYLE
  5
3171
102
{ACAD_REACTORS
330
3165
102
}
330
3165
100
AcDbVisualStyle
  2
Brighten
 70
    12
 71
     2
 72
     2
 73
     0
 90
        0
 40
-0.6
 41
-30.0
 62
     5
 63
     7
 74
     1
 91
        4
 64
     7
 65
   257
 75
     1
175
     1
 42
1.0
 92
        8
 66
     7
 43
1.0
 76
     1
 77
     6
 78
     2
 67
     7
 79
     5
170
     0
171
     0
290
     0
174
     0
 93
        1
 44
50.0
173
     0
291
     1
 45
0.0
1001
ACAD
1000
AcDbSavedByObjectVersion
1070
     0
1000
AcDbSavedByObjectVersion
1070
     0
  0
VISUALSTYLE
  5
3175
102
{ACAD_REACTORS
330
3165
102
}
330
3165
100
AcDbVisualStyle
  2
ColorChange
 70
    16
 71
     2
 72
     2
 73
     3
 90
        0
 40
-0.6
 41
-30.0
 62
     5
 63
     8
 74
     1
 91
        4
 64
     7
 65
   257
 75
     1
175
     1
 42
1.0
 92
        8
 66
     8
 43
1.0
 76
     1
 77
     6
 78
     2
 67
     7
 79
     5
170
     0
171
     0
290
     0
174
     0
 93
        1
 44
0.0
173
     0
291
     1
 45
0.0
1001
ACAD
1000
AcDbSavedByObjectVersion
1070
     0
1000
AcDbSavedByObjectVersion
1070
     0
  0
VISUALSTYLE
  5
316E
102
{ACAD_REACTORS
330
3165
102
}
330
3165
100
AcDbVisualStyle
  2
Conceptual
 70
     9
 71
     3
 72
     2
 73
     0
 90
        0
 40
-0.6
 41
-30.0
 62
     5
 63
     7
 74
     2
 91
        2
 64
     7
 65
   257
 75
     1
175
     1
 42
40.0
 92
        8
 66
     7
 43
1.0
 76
     1
 77
     6
 78
     2
 67
     7
 79
     3
170
     0
171
     0
290
     0
174
     0
 93
        1
 44
0.0
173
     0
291
     0
 45
0.0
1001
ACAD
1000
AcDbSavedByObjectVersion
1070
     0
1000
AcDbSavedByObjectVersion
1070
     0
  0
VISUALSTYLE
  5
3170
102
{ACAD_REACTORS
330
3165
102
}
330
3165
100
AcDbVisualStyle
  2
Dim
 70
    11
 71
     2
 72
     2
 73
     0
 90
        0
 40
-0.6
 41
-30.0
 62
     5
 63
     7
 74
     1
 91
        4
 64
     7
 65
   257
 75
     1
175
     1
 42
1.0
 92
        8
 66
     7
 43
1.0
 76
     1
 77
     6
 78
     2
 67
     7
 79
     5
170
     0
171
     0
290
     0
174
     0
 93
        1
 44
-50.0
173
     0
291
     1
 45
0.0
1001
ACAD
1000
AcDbSavedByObjectVersion
1070
     0
1000
AcDbSavedByObjectVersion
1070
     0
  0
VISUALSTYLE
  5
3174
102
{ACAD_REACTORS
330
3165
102
}
330
3165
100
AcDbVisualStyle
  2
Facepattern
 70
    15
 71
     2
 72
     2
 73
     0
 90
        0
 40
-0.6
 41
-30.0
 62
     5
 63
     7
 74
     1
 91
        4
 64
     7
 65
   257
 75
     1
175
     1
 42
1.0
 92
        8
 66
     7
 43
1.0
 76
     1
 77
     6
 78
     2
 67
     7
 79
     5
170
     0
171
     0
290
     0
174
     0
 93
        1
 44
0.0
173
     0
291
     1
 45
0.0
1001
ACAD
1000
AcDbSavedByObjectVersion
1070
     0
1000
AcDbSavedByObjectVersion
1070
     0
  0
VISUALSTYLE
  5
3166
102
{ACAD_REACTORS
330
3165
102
}
330
3165
100
AcDbVisualStyle
  2
Flat
 70
     0
 71
     2
 72
     1
 73
     1
 90
        2
 40
-0.6
 41
30.0
 62
     5
 63
     7
 74
     0
 91
        4
 64
     7
 65
   257
 75
     1
175
     1
 42
1.0
 92
        8
 66
     7
 43
1.0
 76
     1
 77
     6
 78
     2
 67
     7
 79
     5
170
     0
171
     0
290
     0
174
     0
 93
       13
 44
0.0
173
     0
291
     1
 45
0.0
1001
ACAD
1000
AcDbSavedByObjectVersion
1070
     0
1000
AcDbSavedByObjectVersion
1070
     0
  0
VISUALSTYLE
  5
3167
102
{ACAD_REACTORS
330
3165
102
}
330
3165
100
AcDbVisualStyle
  2
FlatWithEdges
 70
     1
 71
     2
 72
     1
 73
     1
 90
        2
 40
-0.6
 41
30.0
 62
     5
 63
     7
 74
     1
 91
        4
 64
     7
 65
   257
 75
     1
175
     1
 42
1.0
 92
        0
 66
   257
 43
1.0
 76
     1
 77
     6
 78
     2
 67
     7
 79
     5
170
     0
171
     0
290
     0
174
     0
 93
       13
 44
0.0
173
     0
291
     1
 45
0.0
1001
ACAD
1000
AcDbSavedByObjectVersion
1070
     0
1000
AcDbSavedByObjectVersion
1070
     0
  0
VISUALSTYLE
  5
3168
102
{ACAD_REACTORS
330
3165
102
}
330
3165
100
AcDbVisualStyle
  2
Gouraud
 70
     2
 71
     2
 72
     2
 73
     1
 90
        2
 40
-0.6
 41
30.0
 62
     5
 63
     7
 74
     0
 91
        4
 64
     7
 65
   257
 75
     1
175
     1
 42
1.0
 92
        0
 66
     7
 43
1.0
 76
     1
 77
     6
 78
     2
 67
     7
 79
     5
170
     0
171
     0
290
     0
174
     0
 93
       13
 44
0.0
173
     0
291
     1
 45
0.0
1001
ACAD
1000
AcDbSavedByObjectVersion
1070
     0
1000
AcDbSavedByObjectVersion
1070
     0
  0
VISUALSTYLE
  5
3169
102
{ACAD_REACTORS
330
3165
102
}
330
3165
100
AcDbVisualStyle
  2
GouraudWithEdges
 70
     3
 71
     2
 72
     2
 73
     1
 90
        2
 40
-0.6
 41
30.0
 62
     5
 63
     7
 74
     1
 91
        4
 64
     7
 65
   257
 75
     1
175
     1
 42
1.0
 92
        0
 66
   257
 43
1.0
 76
     1
 77
     6
 78
     2
 67
     7
 79
     5
170
     0
171
     0
290
     0
174
     0
 93
       13
 44
0.0
173
     0
291
     1
 45
0.0
1001
ACAD
1000
AcDbSavedByObjectVersion
1070
     0
1000
AcDbSavedByObjectVersion
1070
     0
  0
VISUALSTYLE
  5
3173
102
{ACAD_REACTORS
330
3165
102
}
330
3165
100
AcDbVisualStyle
  2
Linepattern
 70
    14
 71
     2
 72
     2
 73
     0
 90
        0
 40
-0.6
 41
-30.0
 62
     5
 63
     7
 74
     1
 91
        4
 64
     7
 65
   257
 75
     7
175
     7
 42
1.0
 92
        8
 66
     7
 43
1.0
 76
     1
 77
     6
 78
     2
 67
     7
 79
     5
170
     0
171
     0
290
     0
174
     0
 93
        1
 44
0.0
173
     0
291
     1
 45
0.0
1001
ACAD
1000
AcDbSavedByObjectVersion
1070
     0
1000
AcDbSavedByObjectVersion
1070
     0
  0
VISUALSTYLE
  5
316F
102
{ACAD_REACTORS
330
3165
102
}
330
3165
100
AcDbVisualStyle
  2
Realistic
 70
     8
 71
     2
 72
     2
 73
     0
 90
        0
 40
-0.6
 41
-30.0
 62
     5
 63
     7
 74
     1
 91
        0
 64
     7
 65
   257
 75
     1
175
     1
 42
1.0
 92
        8
 66
     8
 43
1.0
 76
     1
 77
     6
 78
     2
 67
     7
 79
     5
170
     0
171
     0
290
     0
174
     0
 93
       13
 44
0.0
173
     0
291
     0
 45
0.0
1001
ACAD
1000
AcDbSavedByObjectVersion
1070
     0
1000
AcDbSavedByObjectVersion
1070
     0
  0
VISUALSTYLE
  5
3172
102
{ACAD_REACTORS
330
3165
102
}
330
3165
100
AcDbVisualStyle
  2
Thicken
 70
    13
 71
     2
 72
     2
 73
     0
 90
        0
 40
-0.6
 41
-30.0
 62
     5
 63
     7
 74
     1
 91
        4
 64
     7
 65
   257
 75
     1
175
     1
 42
1.0
 92
       12
 66
     7
 43
1.0
 76
     1
 77
     6
 78
     2
 67
     7
 79
     5
170
     0
171
     0
290
     0
174
     0
 93
        1
 44
0.0
173
     0
291
     1
 45
0.0
1001
ACAD
1000
AcDbSavedByObjectVersion
1070
     0
1000
AcDbSavedByObjectVersion
1070
     0
  0
DICTIONARYVAR
  5
630F
102
{ACAD_REACTORS
330
630B
102
}
330
630B
100
DictionaryVariables
280
     0
  1
1:1
  0
DICTIONARYVAR
  5
630D
102
{ACAD_REACTORS
330
630B
102
}
330
630B
100
DictionaryVariables
280
     0
  1
STANDARD
  0
DICTIONARYVAR
  5
630C
102
{ACAD_REACTORS
330
630B
102
}
330
630B
100
DictionaryVariables
280
     0
  1
STANDARD
  0
DICTIONARYVAR
  5
6318
102
{ACAD_REACTORS
330
630B
102
}
330
630B
100
DictionaryVariables
280
     0
  1
1
  0
DICTIONARYVAR
  5
6317
102
{ACAD_REACTORS
330
630B
102
}
330
630B
100
DictionaryVariables
280
     0
  1
0
  0
DICTIONARYVAR
  5
6310
102
{ACAD_REACTORS
330
630B
102
}
330
630B
100
DictionaryVariables
280
     0
  1
0
  0
DICTIONARYVAR
  5
630E
102
{ACAD_REACTORS
330
630B
102
}
330
630B
100
DictionaryVariables
280
     0
  1
0
  0
DICTIONARYVAR
  5
6316
102
{ACAD_REACTORS
330
630B
102
}
330
630B
100
DictionaryVariables
280
     0
  1
127
  0
XRECORD
  5
5E46
102
{ACAD_REACTORS
330
5E44
102
}
330
5E44
100
AcDbXrecord
280
     1
  0
DICTIONARY
  5
638B
330
21
100
AcDbDictionary
280
     1
281
     1
  3
ACAD_XREC_ROUNDTRIP
360
638C
  0
DICTIONARY
  5
6389
330
20
100
AcDbDictionary
280
     1
281
     1
  3
ACAD_XREC_ROUNDTRIP
360
638A
  0
DICTIONARY
  5
3156
330
3155
100
AcDbDictionary
280
     1
281
     1
  3
ACAD_XREC_ROUNDTRIP
360
6320
  3
BUMPTILE
360
3158
  3
DIFFUSETILE
360
3157
  3
OPACITYTILE
360
315B
  3
REFLECTIONTILE
360
315A
  3
REFRACTIONTILE
360
315C
  3
SPECULARTILE
360
3159
  0
DICTIONARY
  5
314E
330
314D
100
AcDbDictionary
280
     1
281
     1
  3
ACAD_XREC_ROUNDTRIP
360
631F
  3
BUMPTILE
360
3150
  3
DIFFUSETILE
360
314F
  3
OPACITYTILE
360
3153
  3
REFLECTIONTILE
360
3152
  3
REFRACTIONTILE
360
3154
  3
SPECULARTILE
360
3151
  0
DICTIONARY
  5
315E
330
315D
100
AcDbDictionary
280
     1
281
     1
  3
ACAD_XREC_ROUNDTRIP
360
6321
  3
BUMPTILE
360
3160
  3
DIFFUSETILE
360
315F
  3
OPACITYTILE
360
3163
  3
REFLECTIONTILE
360
3162
  3
REFRACTIONTILE
360
3164
  3
SPECULARTILE
360
3161
  0
DICTIONARY
  5
6308
330
3178
100
AcDbDictionary
280
     1
281
     1
  3
ACAD_ROUNDTRIP_2008_TABLESTYLE_CELLSTYLEMAP
360
6387
  3
ACAD_XREC_ROUNDTRIP
360
638D
  0
XRECORD
  5
638C
102
{ACAD_REACTORS
330
638B
102
}
330
638B
100
AcDbXrecord
280
     1
102
SHADEPLOT
 70
     0
102
SHADEPLOTRESLEVEL
 70
     2
102
SHADEPLOTCUSTOMDPI
 70
   300
  0
XRECORD
  5
638A
102
{ACAD_REACTORS
330
6389
102
}
330
6389
100
AcDbXrecord
280
     1
102
SHADEPLOT
 70
     0
102
SHADEPLOTRESLEVEL
 70
     2
102
SHADEPLOTCUSTOMDPI
 70
   300
  0
XRECORD
  5
6320
102
{ACAD_REACTORS
330
3156
102
}
330
3156
100
AcDbXrecord
280
     1
102
MATERIAL
148
0.0
149
0.0
149
0.0
 93
        0
 94
      127
282
     0
 72
     0
 77
     0
171
     0
175
     0
179
     0
273
     0
  0
XRECORD
  5
3158
102
{ACAD_REACTORS
330
3156
102
}
330
3156
100
AcDbXrecord
280
     1
270
     1
271
     1
  0
XRECORD
  5
3157
102
{ACAD_REACTORS
330
3156
102
}
330
3156
100
AcDbXrecord
280
     1
270
     1
271
     1
  0
XRECORD
  5
315B
102
{ACAD_REACTORS
330
3156
102
}
330
3156
100
AcDbXrecord
280
     1
270
     1
271
     1
  0
XRECORD
  5
315A
102
{ACAD_REACTORS
330
3156
102
}
330
3156
100
AcDbXrecord
280
     1
270
     1
271
     1
  0
XRECORD
  5
315C
102
{ACAD_REACTORS
330
3156
102
}
330
3156
100
AcDbXrecord
280
     1
270
     1
271
     1
  0
XRECORD
  5
3159
102
{ACAD_REACTORS
330
3156
102
}
330
3156
100
AcDbXrecord
280
     1
270
     1
271
     1
  0
XRECORD
  5
631F
102
{ACAD_REACTORS
330
314E
102
}
330
314E
100
AcDbXrecord
280
     1
102
MATERIAL
148
0.0
149
0.0
149
0.0
 93
        0
 94
      127
282
     0
 72
     0
 77
     0
171
     0
175
     0
179
     0
273
     0
  0
XRECORD
  5
3150
102
{ACAD_REACTORS
330
314E
102
}
330
314E
100
AcDbXrecord
280
     1
270
     1
271
     1
  0
XRECORD
  5
314F
102
{ACAD_REACTORS
330
314E
102
}
330
314E
100
AcDbXrecord
280
     1
270
     1
271
     1
  0
XRECORD
  5
3153
102
{ACAD_REACTORS
330
314E
102
}
330
314E
100
AcDbXrecord
280
     1
270
     1
271
     1
  0
XRECORD
  5
3152
102
{ACAD_REACTORS
330
314E
102
}
330
314E
100
AcDbXrecord
280
     1
270
     1
271
     1
  0
XRECORD
  5
3154
102
{ACAD_REACTORS
330
314E
102
}
330
314E
100
AcDbXrecord
280
     1
270
     1
271
     1
  0
XRECORD
  5
3151
102
{ACAD_REACTORS
330
314E
102
}
330
314E
100
AcDbXrecord
280
     1
270
     1
271
     1
  0
XRECORD
  5
6321
102
{ACAD_REACTORS
330
315E
102
}
330
315E
100
AcDbXrecord
280
     1
102
MATERIAL
148
0.0
149
0.0
149
0.0
 93
        0
 94
      127
282
     0
 72
     0
 77
     0
171
     0
175
     0
179
     0
273
     0
  0
XRECORD
  5
3160
102
{ACAD_REACTORS
330
315E
102
}
330
315E
100
AcDbXrecord
280
     1
270
     1
271
     1
  0
XRECORD
  5
315F
102
{ACAD_REACTORS
330
315E
102
}
330
315E
100
AcDbXrecord
280
     1
270
     1
271
     1
  0
XRECORD
  5
3163
102
{ACAD_REACTORS
330
315E
102
}
330
315E
100
AcDbXrecord
280
     1
270
     1
271
     1
  0
XRECORD
  5
3162
102
{ACAD_REACTORS
330
315E
102
}
330
315E
100
AcDbXrecord
280
     1
270
     1
271
     1
  0
XRECORD
  5
3164
102
{ACAD_REACTORS
330
315E
102
}
330
315E
100
AcDbXrecord
280
     1
270
     1
271
     1
  0
XRECORD
  5
3161
102
{ACAD_REACTORS
330
315E
102
}
330
315E
100
AcDbXrecord
280
     1
270
     1
271
     1
  0
CELLSTYLEMAP
  5
6387
102
{ACAD_REACTORS
330
6308
102
}
330
6308
100
AcDbCellStyleMap
 90
        3
300
CELLSTYLE
  1
TABLEFORMAT_BEGIN
 90
        5
170
     1
 91
        0
 92
    32768
 62
   257
 93
        1
300
CONTENTFORMAT
  1
CONTENTFORMAT_BEGIN
 90
        0
 91
        0
 92
      512
 93
        0
300

 40
0.0
140
1.0
 94
        5
 62
     0
340
17
144
6.0
309
CONTENTFORMAT_END
171
     1
301
MARGIN
  1
CELLMARGIN_BEGIN
 40
1.5
 40
1.5
 40
1.5
 40
1.5
 40
0.18
 40
0.18
309
CELLMARGIN_END
 94
        6
 95
        1
302
GRIDFORMAT
  1
GRIDFORMAT_BEGIN
 90
        0
 91
        1
 62
     0
 92
       -2
340
0
 93
        0
 40
1.125
309
GRIDFORMAT_END
 95
        2
302
GRIDFORMAT
  1
GRIDFORMAT_BEGIN
 90
        0
 91
        1
 62
     0
 92
       -2
340
0
 93
        0
 40
1.125
309
GRIDFORMAT_END
 95
        4
302
GRIDFORMAT
  1
GRIDFORMAT_BEGIN
 90
        0
 91
        1
 62
     0
 92
       -2
340
0
 93
        0
 40
1.125
309
GRIDFORMAT_END
 95
        8
302
GRIDFORMAT
  1
GRIDFORMAT_BEGIN
 90
        0
 91
        1
 62
     0
 92
       -2
340
0
 93
        0
 40
1.125
309
GRIDFORMAT_END
 95
       16
302
GRIDFORMAT
  1
GRIDFORMAT_BEGIN
 90
        0
 91
        1
 62
     0
 92
       -2
340
0
 93
        0
 40
1.125
309
GRIDFORMAT_END
 95
       32
302
GRIDFORMAT
  1
GRIDFORMAT_BEGIN
 90
        0
 91
        1
 62
     0
 92
       -2
340
0
 93
        0
 40
1.125
309
GRIDFORMAT_END
309
TABLEFORMAT_END
  1
CELLSTYLE_BEGIN
 90
        1
 91
        1
300
_TITLE
309
CELLSTYLE_END
300
CELLSTYLE
  1
TABLEFORMAT_BEGIN
 90
        5
170
     1
 91
        0
 92
        0
 62
   257
 93
        1
300
CONTENTFORMAT
  1
CONTENTFORMAT_BEGIN
 90
        0
 91
        0
 92
      512
 93
        0
300

 40
0.0
140
1.0
 94
        5
 62
     0
340
17
144
4.5
309
CONTENTFORMAT_END
171
     1
301
MARGIN
  1
CELLMARGIN_BEGIN
 40
1.5
 40
1.5
 40
1.5
 40
1.5
 40
0.18
 40
0.18
309
CELLMARGIN_END
 94
        6
 95
        1
302
GRIDFORMAT
  1
GRIDFORMAT_BEGIN
 90
        0
 91
        1
 62
     0
 92
       -2
340
0
 93
        0
 40
1.125
309
GRIDFORMAT_END
 95
        2
302
GRIDFORMAT
  1
GRIDFORMAT_BEGIN
 90
        0
 91
        1
 62
     0
 92
       -2
340
0
 93
        0
 40
1.125
309
GRIDFORMAT_END
 95
        4
302
GRIDFORMAT
  1
GRIDFORMAT_BEGIN
 90
        0
 91
        1
 62
     0
 92
       -2
340
0
 93
        0
 40
1.125
309
GRIDFORMAT_END
 95
        8
302
GRIDFORMAT
  1
GRIDFORMAT_BEGIN
 90
        0
 91
        1
 62
     0
 92
       -2
340
0
 93
        0
 40
1.125
309
GRIDFORMAT_END
 95
       16
302
GRIDFORMAT
  1
GRIDFORMAT_BEGIN
 90
        0
 91
        1
 62
     0
 92
       -2
340
0
 93
        0
 40
1.125
309
GRIDFORMAT_END
 95
       32
302
GRIDFORMAT
  1
GRIDFORMAT_BEGIN
 90
        0
 91
        1
 62
     0
 92
       -2
340
0
 93
        0
 40
1.125
309
GRIDFORMAT_END
309
TABLEFORMAT_END
  1
CELLSTYLE_BEGIN
 90
        2
 91
        1
300
_HEADER
309
CELLSTYLE_END
300
CELLSTYLE
  1
TABLEFORMAT_BEGIN
 90
        5
170
     1
 91
        0
 92
        0
 62
   257
 93
        1
300
CONTENTFORMAT
  1
CONTENTFORMAT_BEGIN
 90
        0
 91
        0
 92
      512
 93
        0
300

 40
0.0
140
1.0
 94
        2
 62
     0
340
17
144
4.5
309
CONTENTFORMAT_END
171
     1
301
MARGIN
  1
CELLMARGIN_BEGIN
 40
1.5
 40
1.5
 40
1.5
 40
1.5
 40
0.18
 40
0.18
309
CELLMARGIN_END
 94
        6
 95
        1
302
GRIDFORMAT
  1
GRIDFORMAT_BEGIN
 90
        0
 91
        1
 62
     0
 92
       -2
340
0
 93
        0
 40
1.125
309
GRIDFORMAT_END
 95
        2
302
GRIDFORMAT
  1
GRIDFORMAT_BEGIN
 90
        0
 91
        1
 62
     0
 92
       -2
340
0
 93
        0
 40
1.125
309
GRIDFORMAT_END
 95
        4
302
GRIDFORMAT
  1
GRIDFORMAT_BEGIN
 90
        0
 91
        1
 62
     0
 92
       -2
340
0
 93
        0
 40
1.125
309
GRIDFORMAT_END
 95
        8
302
GRIDFORMAT
  1
GRIDFORMAT_BEGIN
 90
        0
 91
        1
 62
     0
 92
       -2
340
0
 93
        0
 40
1.125
309
GRIDFORMAT_END
 95
       16
302
GRIDFORMAT
  1
GRIDFORMAT_BEGIN
 90
        0
 91
        1
 62
     0
 92
       -2
340
0
 93
        0
 40
1.125
309
GRIDFORMAT_END
 95
       32
302
GRIDFORMAT
  1
GRIDFORMAT_BEGIN
 90
        0
 91
        1
 62
     0
 92
       -2
340
0
 93
        0
 40
1.125
309
GRIDFORMAT_END
309
TABLEFORMAT_END
  1
CELLSTYLE_BEGIN
 90
        3
 91
        2
300
_DATA
309
CELLSTYLE_END
  0
XRECORD
  5
638D
102
{ACAD_REACTORS
330
6308
102
}
330
6308
100
AcDbXrecord
280
     1
102
ACAD_ROUNDTRIP_PRE2007_TABLESTYLE
 90
      512
 91
        0
  1

 92
      512
 93
        0
  2

 94
      512
 95
        0
  3

  0
ENDSEC
  0
EOF
