  0
SECTION
  2
HEADER
  9
$ACADVER
  1
AC1015
  9
$ACADMAINTVER
 70
    20
  9
$DWGCODEPAGE
  3
ANSI_1252
  9
$INSBASE
 10
0.0
 20
0.0
 30
0.0
  9
$EXTMIN
 10
-150.5625348953517
 20
-243.3690928153646
 30
-0.0000000000001846
  9
$EXTMAX
 10
259.190643571681
 20
96.69258526135308
 30
0.0000000000041672
  9
$LIMMIN
 10
-66.34999999999982
 20
-2008.85
  9
$LIMMAX
 10
3734.350000000001
 20
346.85
  9
$ORTHOMODE
 70
     0
  9
$REGENMODE
 70
     1
  9
$FILLMODE
 70
     1
  9
$QTEXTMODE
 70
     0
  9
$MIRRTEXT
 70
     1
  9
$LTSCALE
 40
10.0
  9
$ATTMODE
 70
     1
  9
$TEXTSIZE
 40
0.0
  9
$TRACEWID
 40
0.05
  9
$TEXTSTYLE
  7
Standard
  9
$CLAYER
  8
0
  9
$CELTYPE
  6
Continuous
  9
$CECOLOR
 62
   256
  9
$CELTSCALE
 40
1.0
  9
$DISPSILH
 70
     0
  9
$DIMSCALE
 40
1.0
  9
$DIMASZ
 40
1.25
  9
$DIMEXO
 40
0.0
  9
$DIMDLI
 40
0.38
  9
$DIMRND
 40
0.0
  9
$DIMDLE
 40
0.0
  9
$DIMEXE
 40
0.75
  9
$DIMTP
 40
0.0
  9
$DIMTM
 40
0.0
  9
$DIMTXT
 40
2.5
  9
$DIMCEN
 40
0.09
  9
$DIMTSZ
 40
0.0
  9
$DIMTOL
 70
     0
  9
$DIMLIM
 70
     0
  9
$DIMTIH
 70
     0
  9
$DIMTOH
 70
     0
  9
$DIMSE1
 70
     0
  9
$DIMSE2
 70
     0
  9
$DIMTAD
 70
     1
  9
$DIMZIN
 70
     0
  9
$DIMBLK
  1

  9
$DIMASO
 70
     1
  9
$DIMSHO
 70
     1
  9
$DIMPOST
  1

  9
$DIMAPOST
  1

  9
$DIMALT
 70
     0
  9
$DIMALTD
 70
     2
  9
$DIMALTF
 40
25.4
  9
$DIMLFAC
 40
1.0
  9
$DIMTOFL
 70
     0
  9
$DIMTVP
 40
0.0
  9
$DIMTIX
 70
     0
  9
$DIMSOXD
 70
     0
  9
$DIMSAH
 70
     0
  9
$DIMBLK1
  1

  9
$DIMBLK2
  1

  9
$DIMSTYLE
  2
Standard
  9
$DIMCLRD
 70
     7
  9
$DIMCLRE
 70
     7
  9
$DIMCLRT
 70
     7
  9
$DIMTFAC
 40
0.8
  9
$DIMGAP
 40
1.25
  9
$DIMJUST
 70
     0
  9
$DIMSD1
 70
     0
  9
$DIMSD2
 70
     0
  9
$DIMTOLJ
 70
     1
  9
$DIMTZIN
 70
     0
  9
$DIMALTZ
 70
     0
  9
$DIMALTTZ
 70
     0
  9
$DIMUPT
 70
     0
  9
$DIMDEC
 70
     2
  9
$DIMTDEC
 70
     4
  9
$DIMALTU
 70
     2
  9
$DIMALTTD
 70
     2
  9
$DIMTXSTY
  7
Standard
  9
$DIMAUNIT
 70
     0
  9
$DIMADEC
 70
     0
  9
$DIMALTRND
 40
0.0
  9
$DIMAZIN
 70
     0
  9
$DIMDSEP
 70
     0
  9
$DIMATFIT
 70
     3
  9
$DIMFRAC
 70
     0
  9
$DIMLDRBLK
  1

  9
$DIMLUNIT
 70
     2
  9
$DIMLWD
 70
     0
  9
$DIMLWE
 70
     0
  9
$DIMTMOVE
 70
     0
  9
$LUNITS
 70
     2
  9
$LUPREC
 70
     4
  9
$SKETCHINC
 40
0.1
  9
$FILLETRAD
 40
0.0
  9
$AUNITS
 70
     0
  9
$AUPREC
 70
     0
  9
$MENU
  1
acad
  9
$ELEVATION
 40
0.0
  9
$PELEVATION
 40
0.0
  9
$THICKNESS
 40
0.0
  9
$LIMCHECK
 70
     0
  9
$CHAMFERA
 40
0.0
  9
$CHAMFERB
 40
0.0
  9
$CHAMFERC
 40
0.0
  9
$CHAMFERD
 40
0.0
  9
$SKPOLY
 70
     0
  9
$TDCREATE
 40
2455303.727916667
  9
$TDUCREATE
 40
2455303.644583334
  9
$TDUPDATE
 40
2455306.471721921
  9
$TDUUPDATE
 40
2455306.388388589
  9
$TDINDWG
 40
0.0023462731
  9
$TDUSRTIMER
 40
0.0023460995
  9
$USRTIMER
 70
     1
  9
$ANGBASE
 50
0.0
  9
$ANGDIR
 70
     0
  9
$PDMODE
 70
     0
  9
$PDSIZE
 40
0.0
  9
$PLINEWID
 40
0.0
  9
$SPLFRAME
 70
     0
  9
$SPLINETYPE
 70
     6
  9
$SPLINESEGS
 70
     8
  9
$HANDSEED
  5
6344
  9
$SURFTAB1
 70
     6
  9
$SURFTAB2
 70
     6
  9
$SURFTYPE
 70
     6
  9
$SURFU
 70
     6
  9
$SURFV
 70
     6
  9
$UCSBASE
  2

  9
$UCSNAME
  2

  9
$UCSORG
 10
0.0
 20
0.0
 30
0.0
  9
$UCSXDIR
 10
1.0
 20
0.0
 30
0.0
  9
$UCSYDIR
 10
0.0
 20
1.0
 30
0.0
  9
$UCSORTHOREF
  2

  9
$UCSORTHOVIEW
 70
     0
  9
$UCSORGTOP
 10
0.0
 20
0.0
 30
0.0
  9
$UCSORGBOTTOM
 10
0.0
 20
0.0
 30
0.0
  9
$UCSORGLEFT
 10
0.0
 20
0.0
 30
0.0
  9
$UCSORGRIGHT
 10
0.0
 20
0.0
 30
0.0
  9
$UCSORGFRONT
 10
0.0
 20
0.0
 30
0.0
  9
$UCSORGBACK
 10
0.0
 20
0.0
 30
0.0
  9
$PUCSBASE
  2

  9
$PUCSNAME
  2

  9
$PUCSORG
 10
0.0
 20
0.0
 30
0.0
  9
$PUCSXDIR
 10
1.0
 20
0.0
 30
0.0
  9
$PUCSYDIR
 10
0.0
 20
1.0
 30
0.0
  9
$PUCSORTHOREF
  2

  9
$PUCSORTHOVIEW
 70
     0
  9
$PUCSORGTOP
 10
0.0
 20
0.0
 30
0.0
  9
$PUCSORGBOTTOM
 10
0.0
 20
0.0
 30
0.0
  9
$PUCSORGLEFT
 10
0.0
 20
0.0
 30
0.0
  9
$PUCSORGRIGHT
 10
0.0
 20
0.0
 30
0.0
  9
$PUCSORGFRONT
 10
0.0
 20
0.0
 30
0.0
  9
$PUCSORGBACK
 10
0.0
 20
0.0
 30
0.0
  9
$USERI1
 70
     0
  9
$USERI2
 70
     0
  9
$USERI3
 70
     0
  9
$USERI4
 70
     0
  9
$USERI5
 70
     0
  9
$USERR1
 40
0.0
  9
$USERR2
 40
0.0
  9
$USERR3
 40
0.0
  9
$USERR4
 40
0.0
  9
$USERR5
 40
0.0
  9
$WORLDVIEW
 70
     1
  9
$SHADEDGE
 70
     3
  9
$SHADEDIF
 70
    70
  9
$TILEMODE
 70
     1
  9
$MAXACTVP
 70
    16
  9
$PINSBASE
 10
0.0
 20
0.0
 30
0.0
  9
$PLIMCHECK
 70
     0
  9
$PEXTMIN
 10
1.000000000000000E+20
 20
1.000000000000000E+20
 30
1.000000000000000E+20
  9
$PEXTMAX
 10
-1.000000000000000E+20
 20
-1.000000000000000E+20
 30
-1.000000000000000E+20
  9
$PLIMMIN
 10
0.0
 20
0.0
  9
$PLIMMAX
 10
12.0
 20
9.0
  9
$UNITMODE
 70
     0
  9
$VISRETAIN
 70
     0
  9
$PLINEGEN
 70
     1
  9
$PSLTSCALE
 70
     0
  9
$TREEDEPTH
 70
  3020
  9
$CMLSTYLE
  2
Standard
  9
$CMLJUST
 70
     0
  9
$CMLSCALE
 40
1.0
  9
$PROXYGRAPHICS
 70
     0
  9
$MEASUREMENT
 70
     1
  9
$CELWEIGHT
370
     0
  9
$ENDCAPS
280
     0
  9
$JOINSTYLE
280
     0
  9
$LWDISPLAY
290
     0
  9
$INSUNITS
 70
     0
  9
$HYPERLINKBASE
  1

  9
$STYLESHEET
  1

  9
$XEDIT
290
     1
  9
$CEPSNTYPE
380
     0
  9
$PSTYLEMODE
290
     1
  9
$FINGERPRINTGUID
  2

  9
$VERSIONGUID
  2
{3A5F894D-EAF6-46FC-B846-1D9EBEBFB873}
  9
$EXTNAMES
290
     1
  9
$PSVPSCALE
 40
0.0
  9
$OLESTARTUP
290
     0
  0
ENDSEC
  0
SECTION
  2
CLASSES
  0
CLASS
  1
IMAGE
  2
AcDbRasterImage
  3
ISM
 90
    34943
280
     0
281
     1
  0
CLASS
  1
DICTIONARYVAR
  2
AcDbDictionaryVar
  3
ObjectDBX Classes
 90
        0
280
     0
281
     0
  0
CLASS
  1
RASTERVARIABLES
  2
AcDbRasterVariables
  3
ISM
 90
    32768
280
     0
281
     0
  0
CLASS
  1
IMAGEDEF
  2
AcDbRasterImageDef
  3
ISM
 90
    32768
280
     0
281
     0
  0
CLASS
  1
IMAGEDEF_REACTOR
  2
AcDbRasterImageDefReactor
  3
ISM
 90
    32769
280
     0
281
     0
  0
CLASS
  1
IDBUFFER
  2
AcDbIdBuffer
  3
ObjectDBX Classes
 90
    32768
280
     0
281
     0
  0
CLASS
  1
SPATIAL_FILTER
  2
AcDbSpatialFilter
  3
ObjectDBX Classes
 90
    32768
280
     0
281
     0
  0
CLASS
  1
SORTENTSTABLE
  2
AcDbSortentsTable
  3
ObjectDBX Classes
 90
        0
280
     0
281
     0
  0
CLASS
  1
LAYER_INDEX
  2
AcDbLayerIndex
  3
ObjectDBX Classes
 90
    32768
280
     0
281
     0
  0
CLASS
  1
SPATIAL_INDEX
  2
AcDbSpatialIndex
  3
ObjectDBX Classes
 90
    32768
280
     0
281
     0
  0
CLASS
  1
OBJECT_PTR
  2
CAseDLPNTableRecord
  3
ASE-LPNTableRecord
 90
    32769
280
     0
281
     0
  0
CLASS
  1
LAYOUT
  2
AcDbLayout
  3
ObjectDBX Classes
 90
        0
280
     0
281
     0
  0
CLASS
  1
PLOTSETTINGS
  2
AcDbPlotSettings
  3
ObjectDBX Classes
 90
    32768
280
     0
281
     0
  0
CLASS
  1
ACDBDICTIONARYWDFLT
  2
AcDbDictionaryWithDefault
  3
ObjectDBX Classes
 90
        0
280
     0
281
     0
  0
CLASS
  1
ACDBPLACEHOLDER
  2
AcDbPlaceHolder
  3
ObjectDBX Classes
 90
        0
280
     0
281
     0
  0
CLASS
  1
VBA_PROJECT
  2
AcDbVbaProject
  3
acad
 90
    32768
280
     0
281
     0
  0
CLASS
  1
WIPEOUT
  2
AcDbWipeout
  3
"WipeOut|Product Desc: Object Enabler for WipeOut entity                        |Company: Autodesk, Inc.                        |WEB Address: www.autodesk.com"
 90
    34943
280
     0
281
     1
  0
CLASS
  1
WIPEOUTVARIABLES
  2
AcDbWipeoutVariables
  3
"WipeOut|Product Desc:     WipeOut Dbx Application|Company:          Autodesk, Inc.|WEB Address:      www.autodesk.com"
 90
        0
280
     0
281
     0
  0
CLASS
  1
RTEXT
  2
RText
  3
RText|AutoCAD Express Tool|expresstools@autodesk.com
 90
    35839
280
     0
281
     1
  0
CLASS
  1
ARCALIGNEDTEXT
  2
AcDbArcAlignedText
  3
ATEXT|AutoCAD Express Tool|expresstools@autodesk.com
 90
    32768
280
     0
281
     1
  0
CLASS
  1
MATERIAL
  2
AcDbMaterial
  3
ObjectDBX Classes
 90
     1153
280
     0
281
     0
  0
CLASS
  1
VISUALSTYLE
  2
AcDbVisualStyle
  3
ObjectDBX Classes
 90
     4095
280
     0
281
     0
  0
CLASS
  1
TABLESTYLE
  2
AcDbTableStyle
  3
ObjectDBX Classes
 90
     4095
280
     0
281
     0
  0
CLASS
  1
SCALE
  2
AcDbScale
  3
ObjectDBX Classes
 90
     1153
280
     0
281
     0
  0
CLASS
  1
MLEADERSTYLE
  2
AcDbMLeaderStyle
  3
ACDB_MLEADERSTYLE_CLASS
 90
     4095
280
     0
281
     0
  0
CLASS
  1
CELLSTYLEMAP
  2
AcDbCellStyleMap
  3
ObjectDBX Classes
 90
     1152
280
     0
281
     0
  0
ENDSEC
  0
SECTION
  2
TABLES
  0
TABLE
  2
VPORT
  5
7
330
0
100
AcDbSymbolTable
 70
     1
  0
VPORT
  5
15
330
7
100
AcDbSymbolTableRecord
100
AcDbViewportTableRecord
  2
*ACTIVE
 70
     0
 10
0.0
 20
0.0
 11
1.0
 21
1.0
 12
57.60501333987292
 22
-78.71323119466296
 13
0.0
 23
0.0
 14
1.0
 24
1.0
 15
0.0
 25
0.0
 16
0.0
 26
0.0
 36
1.0
 17
0.0
 27
0.0
 37
0.0
 40
384.7499752843514
 41
1.611330698287219
 42
50.0
 43
0.0
 44
0.0
 50
0.0
 51
0.0
 71
     0
 72
   100
 73
     1
 74
     1
 75
     0
 76
     0
 77
     0
 78
     0
281
     0
 65
     0
110
0.0
120
0.0
130
0.0
111
1.0
121
0.0
131
0.0
112
0.0
122
1.0
132
0.0
 79
     0
146
0.0
  0
ENDTAB
  0
TABLE
  2
LTYPE
  5
4
330
0
100
AcDbSymbolTable
 70
     4
  0
LTYPE
  5
11
330
4
100
AcDbSymbolTableRecord
100
AcDbLinetypeTableRecord
  2
ByBlock
 70
     0
  3

 72
    65
 73
     0
 40
0.0
  0
LTYPE
  5
12
330
4
100
AcDbSymbolTableRecord
100
AcDbLinetypeTableRecord
  2
ByLayer
 70
     0
  3

 72
    65
 73
     0
 40
0.0
  0
LTYPE
  5
13
330
4
100
AcDbSymbolTableRecord
100
AcDbLinetypeTableRecord
  2
Continuous
 70
     0
  3
Solid line
 72
    65
 73
     0
 40
0.0
  0
LTYPE
  5
1E4
330
4
100
AcDbSymbolTableRecord
100
AcDbLinetypeTableRecord
  2
CENTER
 70
     0
  3
____ _ ____ _ ____ _ ____ _ ____ _ ____ _ ____
 72
    65
 73
     4
 40
2.0
 49
1.25
 74
     0
 49
-0.25
 74
     0
 49
0.25
 74
     0
 49
-0.25
 74
     0
  0
ENDTAB
  0
TABLE
  2
LAYER
  5
2
330
0
100
AcDbSymbolTable
 70
     1
  0
LAYER
  5
14
102
{ACAD_XDICTIONARY
360
5E41
102
}
330
2
100
AcDbSymbolTableRecord
100
AcDbLayerTableRecord
  2
0
 70
     0
 62
     7
  6
Continuous
370
    -3
390
1D
  0
ENDTAB
  0
TABLE
  2
STYLE
  5
3
330
0
100
AcDbSymbolTable
 70
     1
  0
STYLE
  5
17
330
3
100
AcDbSymbolTableRecord
100
AcDbTextStyleTableRecord
  2
Standard
 70
     0
 40
0.0
 41
1.0
 50
0.0
 71
     0
 42
0.0
  3
I011000D.TTF
  4

1001
ACAD
1000
IsonormD
1071
        0
  0
ENDTAB
  0
TABLE
  2
VIEW
  5
5
330
0
100
AcDbSymbolTable
 70
     0
  0
ENDTAB
  0
TABLE
  2
UCS
  5
6
330
0
100
AcDbSymbolTable
 70
     0
  0
ENDTAB
  0
TABLE
  2
APPID
  5
8
330
0
100
AcDbSymbolTable
 70
     5
  0
APPID
  5
16
330
8
100
AcDbSymbolTableRecord
100
AcDbRegAppTableRecord
  2
ACAD
 70
     0
  0
APPID
  5
26
330
8
100
AcDbSymbolTableRecord
100
AcDbRegAppTableRecord
  2
TopSolid'Draft
 70
     0
  0
APPID
  5
319D
330
8
100
AcDbSymbolTableRecord
100
AcDbRegAppTableRecord
  2
ACAD_MLEADERVER
 70
     0
  0
APPID
  5
5E45
330
8
100
AcDbSymbolTableRecord
100
AcDbRegAppTableRecord
  2
DCO15
 70
     0
  0
APPID
  5
632F
330
8
100
AcDbSymbolTableRecord
100
AcDbRegAppTableRecord
  2
ACAD_EXEMPT_FROM_CAD_STANDARDS
 70
     0
  0
ENDTAB
  0
TABLE
  2
DIMSTYLE
  5
9
330
0
100
AcDbSymbolTable
 70
     2
100
AcDbDimStyleTable
 71
     1
340
18
  0
DIMSTYLE
105
18
330
9
100
AcDbSymbolTableRecord
100
AcDbDimStyleTableRecord
  2
Standard
 70
     0
 41
1.25
 42
0.0
 44
0.75
 73
     0
 74
     0
 77
     1
140
2.5
146
0.8
147
1.25
176
     7
177
     7
178
     7
271
     2
340
17
  0
ENDTAB
  0
TABLE
  2
BLOCK_RECORD
  5
1
330
0
100
AcDbSymbolTable
 70
     1
  0
BLOCK_RECORD
  5
A
102
{ACAD_XDICTIONARY
360
31A7
102
}
330
1
100
AcDbSymbolTableRecord
100
AcDbBlockTableRecord
  2
*MODEL_SPACE
340
20
  0
BLOCK_RECORD
  5
B
330
1
100
AcDbSymbolTableRecord
100
AcDbBlockTableRecord
  2
*PAPER_SPACE
340
21
  0
ENDTAB
  0
ENDSEC
  0
SECTION
  2
BLOCKS
  0
BLOCK
  5
D
330
A
100
AcDbEntity
  8
0
100
AcDbBlockBegin
  2
*MODEL_SPACE
 70
     0
 10
0.0
 20
0.0
 30
0.0
  3
*MODEL_SPACE
  1

  0
ENDBLK
  5
E
330
A
100
AcDbEntity
  8
0
100
AcDbBlockEnd
  0
BLOCK
  5
F
330
B
100
AcDbEntity
 67
     1
  8
0
100
AcDbBlockBegin
  2
*PAPER_SPACE
 70
     0
 10
0.0
 20
0.0
 30
0.0
  3
*PAPER_SPACE
  1

  0
ENDBLK
  5
10
330
B
100
AcDbEntity
 67
     1
  8
0
100
AcDbBlockEnd
  0
ENDSEC
  0
SECTION
  2
ENTITIES
  0
LINE
  5
2C84
330
A
100
AcDbEntity
  8
0
  6
CENTER
 62
     1
100
AcDbLine
 10
135.0573951514932
 20
-135.0573951514509
 30
0.0
 11
-1.414213617531686
 21
1.414213617531345
 31
0.0
  0
LINE
  5
2C85
330
A
100
AcDbEntity
  8
0
  6
CENTER
 62
     1
100
AcDbLine
 10
-0.0000000551267476
 20
-5.749999944873366
 30
0.0
 11
-0.0000000551267476
 21
5.750000055126747
 31
0.0
  0
LINE
  5
2C86
330
A
100
AcDbEntity
  8
0
  6
CENTER
 62
     1
100
AcDbLine
 10
127.8931769933513
 20
-133.6431815951299
 30
0.0
 11
139.3931769933513
 21
-133.6431815951299
 31
0.0
  0
LINE
  5
2C87
330
A
100
AcDbEntity
  8
0
  6
CENTER
 62
     1
100
AcDbLine
 10
6.599999923920222
 20
0.0
 30
0.0
 11
-63.80000007607987
 21
0.0
 31
0.0
  0
LINE
  5
2C88
330
A
100
AcDbEntity
  8
0
  6
CENTER
 62
     1
100
AcDbLine
 10
133.6431815891183
 20
-127.0431815890754
 30
0.0
 11
133.6431815891262
 21
-153.6431815890756
 31
0.0
  0
LINE
  5
2C89
330
A
100
AcDbEntity
  8
0
  6
CENTER
 62
     1
100
AcDbLine
 10
-135.3284092426147
 20
-159.4431815890837
 30
0.0
 11
-135.3284092429517
 21
-155.0431815890837
 31
0.0
  0
LINE
  5
2C8A
330
A
100
AcDbEntity
  8
0
  6
CENTER
 62
     1
100
AcDbLine
 10
-146.7284092434768
 20
0.0000000551267476
 30
0.0
 11
-127.2784092434767
 21
0.0000000551267476
 31
0.0
  0
LINE
  5
2C8B
330
A
100
AcDbEntity
  8
0
  6
CENTER
 62
     1
100
AcDbLine
 10
-146.7284092434777
 20
-133.6431815951299
 30
0.0
 11
-127.2784092434776
 21
-133.6431815951299
 31
0.0
  0
LINE
  5
2C8C
330
A
100
AcDbEntity
  8
0
  6
CENTER
 62
     1
100
AcDbLine
 10
-129.3284092434817
 20
-161.643181589071
 30
0.0
 11
-129.3284092434817
 21
-149.643181589071
 31
0.0
  0
LINE
  5
2C8D
330
A
100
AcDbEntity
  8
0
  6
CENTER
 62
     1
100
AcDbLine
 10
-135.3284092434799
 20
2.000000055158466
 30
0.0
 11
-135.3284092434799
 21
-153.6431815890756
 31
0.0
  0
LINE
  5
2C8E
330
A
100
AcDbEntity
  8
0
  6
CENTER
 62
     1
100
AcDbLine
 10
135.6431815891203
 20
81.67840920546041
 30
0.0
 11
-63.80000007607987
 21
81.67840920546041
 31
0.0
  0
LINE
  5
2C8F
330
A
100
AcDbEntity
  8
0
  6
CENTER
 62
     1
100
AcDbLine
 10
-0.0000000551267476
 20
93.07840920545755
 30
0.0
 11
-0.0000000551267476
 21
73.62840920545761
 31
0.0
  0
LINE
  5
2C90
330
A
100
AcDbEntity
  8
0
  6
CENTER
 62
     1
100
AcDbLine
 10
242.1715907556572
 20
-159.4431815890837
 30
0.0
 11
242.1715907559942
 21
-155.0431815890837
 31
0.0
  0
LINE
  5
2C91
330
A
100
AcDbEntity
  8
0
  6
CENTER
 62
     1
100
AcDbLine
 10
225.1715907565213
 20
0.0
 30
0.0
 11
259.1715907565212
 21
0.0
 31
0.0
  0
LINE
  5
2C92
330
A
100
AcDbEntity
  8
0
  6
CENTER
 62
     1
100
AcDbLine
 10
253.5715907565204
 20
-133.6431815951299
 30
0.0
 11
234.1215907565204
 21
-133.6431815951299
 31
0.0
  0
LINE
  5
2C93
330
A
100
AcDbEntity
  8
0
  6
CENTER
 62
     1
100
AcDbLine
 10
242.1715907565221
 20
17.0
 30
0.0
 11
242.1715907565221
 21
-153.6431815890756
 31
0.0
  0
LINE
  5
2C94
330
A
100
AcDbEntity
  8
0
  6
CENTER
 62
     1
100
AcDbLine
 10
236.1715907565301
 20
-161.6431815890759
 30
0.0
 11
236.1715907565301
 21
-149.6431815890761
 31
0.0
  0
LINE
  5
2C95
330
A
100
AcDbEntity
  8
0
  6
CENTER
 62
     1
100
AcDbLine
 10
142.7681815890694
 20
-222.3215907945447
 30
0.0
 11
153.5181815890694
 21
-222.3215907945447
 31
0.0
  0
LINE
  5
2C96
330
A
100
AcDbEntity
  8
0
  6
CENTER
 62
     1
100
AcDbLine
 10
148.1431815890694
 20
-227.6965907945445
 30
0.0
 11
148.1431815890694
 21
-216.9465907945445
 31
0.0
  0
LINE
  5
2C97
330
A
100
AcDbEntity
  8
0
  6
CENTER
 62
     1
100
AcDbLine
 10
135.6431815891203
 20
-228.3215907945422
 30
0.0
 11
-63.80000007607987
 21
-228.3215907945422
 31
0.0
  0
LINE
  5
2C98
330
A
100
AcDbEntity
  8
0
  6
CENTER
 62
     1
100
AcDbLine
 10
-0.0000000551267476
 20
-239.7215907945391
 30
0.0
 11
-0.0000000551267476
 21
-220.2715907945392
 31
0.0
  0
LINE
  5
2C99
330
A
100
AcDbEntity
  8
0
  6
CENTER
 62
     1
100
AcDbLine
 10
133.6431769933513
 20
-239.7215907945402
 30
0.0
 11
133.6431769933513
 21
-220.2715907945402
 31
0.0
  0
LINE
  5
379D
330
A
100
AcDbEntity
  8
0
  6
Continuous
 62
     7
370
     0
100
AcDbLine
 10
-21.59147001926681
 20
-94.36842494925214
 30
0.0
 11
-21.43261343748168
 21
-94.23871909336606
 31
0.0
  0
ELLIPSE
  5
379E
330
A
100
AcDbEntity
  8
0
  6
Continuous
 62
     7
370
     0
100
AcDbEllipse
 10
-22.00386053363581
 20
-94.32903757142105
 30
0.0
 11
-0.744000000000078
 21
-3.644840737261344
 31
0.0
210
0.0000000000000001
220
0.0
230
1.0
 40
0.4082482904638633
 41
0.6626640347638643
 42
1.625324175504861
  0
ELLIPSE
  5
379F
330
A
100
AcDbEntity
  8
0
  6
Continuous
 62
     7
370
     0
100
AcDbEllipse
 10
-52.86611115239566
 20
-88.02930704393304
 30
0.0
 11
0.3999999999999559
 21
1.959591794226555
 31
0.0
210
0.0000000000000001
220
0.0
230
1.0
 40
0.4082482904638625
 41
0.0000000000000068
 42
0.1634999167828571
  0
ELLIPSE
  5
37A0
330
A
100
AcDbEntity
  8
0
  6
Continuous
 62
     7
370
     0
100
AcDbEllipse
 10
-52.86611115239566
 20
-88.02930704393304
 30
0.0
 11
0.3999999999999559
 21
1.959591794226555
 31
0.0000000000000001
210
0.0000000000000001
220
-0.0000000000000001
230
1.0
 40
0.4082482904638625
 41
2.978092736806944
 42
3.1415926535898
  0
ELLIPSE
  5
37A1
330
A
100
AcDbEntity
  8
0
  6
Continuous
 62
     7
370
     0
100
AcDbEllipse
 10
-52.86611115239566
 20
-88.02930704393304
 30
0.0
 11
0.3999999999999559
 21
1.959591794226555
 31
0.0
210
0.0000000000000001
220
0.0
230
1.0
 40
0.4082482904638625
 41
0.1634999167828571
 42
2.978092736806943
  0
ELLIPSE
  5
37A2
330
A
100
AcDbEntity
  8
0
  6
Continuous
 62
     7
370
     0
100
AcDbEllipse
 10
35.6842539114582
 20
-168.4146545164216
 30
0.0
 11
-2.02385770251756
 21
2.478709341564687
 31
0.0000000000000001
210
0.0
220
0.0
230
1.0
 40
0.8164965809290414
 41
3.421630306712499
 42
4.432351327255495
  0
ELLIPSE
  5
37A3
330
A
100
AcDbEntity
  8
0
  6
Continuous
 62
     7
370
     0
100
AcDbEllipse
 10
34.25316711524625
 20
-147.7472560104156
 30
0.0
 11
2.99999999999989
 21
0.0
 31
-0.0000000000000002
210
0.0000000000000001
220
0.0
230
1.0
 40
0.408248290463864
 41
5.809575867714741
 42
6.283185307179578
  0
ELLIPSE
  5
37A4
330
A
100
AcDbEntity
  8
0
  6
Continuous
 62
     7
370
     0
100
AcDbEllipse
 10
34.25316711524625
 20
-147.7472560104156
 30
0.0
 11
2.99999999999989
 21
0.0
 31
-0.0000000000000002
210
0.0000000000000001
220
0.0
230
1.0
 40
0.4082482904638641
 41
6.283185307179578
 42
9.424777960769397
  0
ELLIPSE
  5
37A5
330
A
100
AcDbEntity
  8
0
  6
Continuous
 62
     7
370
     0
100
AcDbEllipse
 10
34.25316711524625
 20
-148.2949785679207
 30
0.0
 11
3.000000000000113
 21
0.0
 31
-0.0000000000000002
210
0.0000000000000001
220
0.0
230
1.0
 40
0.4082482904638625
 41
5.809575867714737
 42
6.283185307179585
  0
ELLIPSE
  5
37A6
330
A
100
AcDbEntity
  8
0
  6
Continuous
 62
     7
370
     0
100
AcDbEllipse
 10
34.25316711524625
 20
-147.7472560104156
 30
0.0
 11
2.99999999999989
 21
0.0
 31
-0.0000000000000002
210
0.0000000000000001
220
0.0
230
1.0
 40
0.408248290463864
 41
3.141592653589796
 42
5.809575867714742
  0
ELLIPSE
  5
37A7
330
A
100
AcDbEntity
  8
0
  6
Continuous
 62
     7
370
     0
100
AcDbEllipse
 10
34.25316711524625
 20
-148.2949785679207
 30
0.0
 11
3.000000000000113
 21
0.0
 31
0.0
210
0.0
220
0.0
230
1.0
 40
0.4082482904638625
 41
5.024177704317279
 42
5.809575867714737
  0
ELLIPSE
  5
37A8
330
A
100
AcDbEntity
  8
0
  6
Continuous
 62
     7
370
     0
100
AcDbEllipse
 10
34.25316711524625
 20
-148.2949785679207
 30
0.0
 11
3.000000000000113
 21
0.0
 31
-0.0000000000000002
210
0.0000000000000001
220
0.0
230
1.0
 40
0.4082482904638625
 41
4.974357604270782
 42
5.02417770431728
  0
LINE
  5
37A9
330
A
100
AcDbEntity
  8
0
  6
Continuous
 62
     7
370
     0
100
AcDbLine
 10
33.12393881242019
 20
-148.2779786743178
 30
0.0
 11
33.69860308135822
 21
-147.8202248762849
 31
0.0
  0
ELLIPSE
  5
37AA
330
A
100
AcDbEntity
  8
0
  6
Continuous
 62
     7
370
     0
100
AcDbEllipse
 10
34.25316711524625
 20
-147.7472560104156
 30
0.0
 11
1.721962785829367
 21
0.0
 31
0.0
210
0.0
220
0.0
230
1.0
 40
0.408248290463927
 41
3.997173993078535
 42
4.480385088761085
  0
LINE
  5
37AB
330
A
100
AcDbEntity
  8
0
  6
Continuous
 62
     7
370
     0
100
AcDbLine
 10
34.43190360373615
 20
-147.9736558292425
 30
0.0
 11
33.85723933479813
 21
-148.431409627236
 31
0.0
  0
LINE
  5
37AC
330
A
100
AcDbEntity
  8
0
  6
Continuous
 62
     7
370
     0
100
AcDbLine
 10
35.55316683673732
 20
-148.2082615345878
 30
0.0
 11
34.43190360373615
 21
-147.9736558292423
 31
0.0
  0
ELLIPSE
  5
37AD
330
A
100
AcDbEntity
  8
0
  6
Continuous
 62
     7
370
     0
100
AcDbEllipse
 10
34.25316711524625
 20
-147.7472560104156
 30
0.0
 11
1.721962785829367
 21
-0.000000000000111
 31
-0.0000000000000002
210
0.0000000000000001
220
-0.0000000000000001
230
1.0
 40
0.4082482904638792
 41
5.567970319873476
 42
6.05118141555605
  0
LINE
  5
37AE
330
A
100
AcDbEntity
  8
0
  6
Continuous
 62
     7
370
     0
100
AcDbLine
 10
34.80773114913427
 20
-147.674287144546
 30
0.0
 11
35.92899438213613
 21
-147.9088928499305
 31
0.0
  0
LINE
  5
37AF
330
A
100
AcDbEntity
  8
0
  6
Continuous
 62
     7
370
     0
100
AcDbLine
 10
35.38239541807229
 20
-147.2165333465132
 30
0.0
 11
34.80773114913427
 21
-147.674287144546
 31
0.0
  0
ELLIPSE
  5
37B0
330
A
100
AcDbEntity
  8
0
  6
Continuous
 62
     7
370
     0
100
AcDbEllipse
 10
34.25316711524625
 20
-147.7472560104156
 30
0.0
 11
1.721962785829367
 21
0.0
 31
0.0
210
0.0
220
0.0
230
1.0
 40
0.4082482904637999
 41
0.8555813394887723
 42
1.338792435171332
  0
LINE
  5
37B1
330
A
100
AcDbEntity
  8
0
  6
Continuous
 62
     7
370
     0
100
AcDbLine
 10
34.07443062676521
 20
-147.5208561916297
 30
0.0
 11
34.64909489569413
 21
-147.063102393595
 31
0.0
  0
LINE
  5
37B2
330
A
100
AcDbEntity
  8
0
  6
Continuous
 62
     7
370
     0
100
AcDbLine
 10
32.9531673937554
 20
-147.2862504862432
 30
0.0
 11
34.07443062676521
 21
-147.5208561916297
 31
0.0
  0
ELLIPSE
  5
37B3
330
A
100
AcDbEntity
  8
0
  6
Continuous
 62
     7
370
     0
100
AcDbEllipse
 10
34.25316711524625
 20
-147.7472560104156
 30
0.0
 11
1.721962785829367
 21
0.000000000000111
 31
0.0
210
0.0
220
0.0
230
1.0
 40
0.4082482904638489
 41
2.426377666283622
 42
2.909588761966189
  0
LINE
  5
37B4
330
A
100
AcDbEntity
  8
0
  6
Continuous
 62
     7
370
     0
100
AcDbLine
 10
33.69860308135822
 20
-147.8202248762849
 30
0.0
 11
32.57733984835636
 21
-147.5856191709006
 31
0.0
  0
ELLIPSE
  5
37B5
330
A
100
AcDbEntity
  8
0
  6
Continuous
 62
     7
370
     0
100
AcDbEllipse
 10
34.25316711524625
 20
-148.2949785679207
 30
0.0
 11
3.000000000000113
 21
0.0
 31
-0.0000000000000002
210
0.0000000000000001
220
0.0
230
1.0
 40
0.4082482904638625
 41
3.141592653589803
 42
3.605240262590603
  0
LINE
  5
37B6
330
A
100
AcDbEntity
  8
0
  6
Continuous
 62
     7
370
     0
100
AcDbLine
 10
33.69860308135822
 20
-148.4127902028879
 30
0.0
 11
33.69860308135822
 21
-147.8202248762849
 31
0.0
  0
LINE
  5
37B7
330
A
100
AcDbEntity
  8
0
  6
Continuous
 62
     7
370
     0
100
AcDbLine
 10
34.80773114913427
 20
-148.0522914999585
 30
0.0
 11
34.80773114913427
 21
-147.674287144546
 31
0.0
  0
LINE
  5
37B8
330
A
100
AcDbEntity
  8
0
  6
Continuous
 62
     7
370
     0
100
AcDbLine
 10
33.13951890434942
 20
-147.704239024262
 30
0.0
 11
32.9531673937554
 21
-147.2862504862432
 31
0.0
  0
LINE
  5
37B9
330
A
100
AcDbEntity
  8
0
  6
Continuous
 62
     7
370
     0
100
AcDbLine
 10
34.45605077357209
 20
-147.9787332089481
 30
0.0
 11
34.64909489569413
 21
-147.063102393595
 31
0.0
  0
LINE
  5
37BA
330
A
100
AcDbEntity
  8
0
  6
Continuous
 62
     7
370
     0
100
AcDbLine
 10
34.07443062676134
 20
-148.2584040235098
 30
0.0
 11
34.07443062676521
 21
-147.5208561916297
 31
0.0
  0
ELLIPSE
  5
37BB
330
A
100
AcDbEntity
  8
0
  6
Continuous
 62
     7
370
     0
100
AcDbEllipse
 10
-13.56046781588179
 20
-89.18774848526414
 30
0.0
 11
3.000000000000113
 21
0.0
 31
-0.0000000000000002
210
0.0000000000000001
220
0.0
230
1.0
 40
0.408248290463864
 41
3.873749191881664
 42
6.283185307179578
  0
ELLIPSE
  5
37BC
330
A
100
AcDbEntity
  8
0
  6
Continuous
 62
     7
370
     0
100
AcDbEllipse
 10
-13.56046781588179
 20
-89.18774848526414
 30
0.0
 11
3.000000000000113
 21
0.0
 31
0.0
210
0.0
220
0.0
230
1.0
 40
0.408248290463864
 41
6.283185307179578
 42
9.424777960769381
  0
ELLIPSE
  5
37BD
330
A
100
AcDbEntity
  8
0
  6
Continuous
 62
     7
370
     0
100
AcDbEllipse
 10
-13.56046781588179
 20
-89.73547104276917
 30
0.0
 11
3.000000000000113
 21
0.0
 31
-0.0000000000000002
210
0.0000000000000001
220
0.0
230
1.0
 40
0.4082482904638621
 41
5.908620528590562
 42
6.283185307179588
  0
ELLIPSE
  5
37BE
330
A
100
AcDbEntity
  8
0
  6
Continuous
 62
     7
370
     0
100
AcDbEllipse
 10
-13.56046781588179
 20
-89.18774848526414
 30
0.0
 11
3.000000000000113
 21
0.0
 31
0.0
210
0.0
220
0.0
230
1.0
 40
0.408248290463864
 41
3.141592653589792
 42
3.873749191881664
  0
ELLIPSE
  5
37BF
330
A
100
AcDbEntity
  8
0
  6
Continuous
 62
     7
370
     0
100
AcDbEllipse
 10
-13.56046781588179
 20
-89.73547104276917
 30
0.0
 11
3.000000000000113
 21
0.0
 31
-0.0000000000000002
210
0.0000000000000001
220
0.0
230
1.0
 40
0.4082482904638628
 41
3.6052402625906
 42
3.873749191881663
  0
LINE
  5
37C0
330
A
100
AcDbEntity
  8
0
  6
Continuous
 62
     7
370
     0
100
AcDbLine
 10
-14.37170510252872
 20
-88.56766113919457
 30
0.0
 11
-13.52946091812168
 21
-88.95021723388458
 31
0.0
  0
ELLIPSE
  5
37C1
330
A
100
AcDbEntity
  8
0
  6
Continuous
 62
     7
370
     0
100
AcDbEllipse
 10
-13.56046781588179
 20
-89.18774848526414
 30
0.0
 11
1.721962785829367
 21
0.000000000000111
 31
-0.0000000000000001
210
0.0000000000000001
220
0.0
230
1.0
 40
0.4082482904638271
 41
2.061347317245461
 42
2.544558412928024
  0
LINE
  5
37C2
330
A
100
AcDbEntity
  8
0
  6
Continuous
 62
     7
370
     0
100
AcDbLine
 10
-14.14229817972568
 20
-89.17508997230049
 30
0.0
 11
-14.98454236413272
 21
-88.79253387757136
 31
0.0
  0
LINE
  5
37C3
330
A
100
AcDbEntity
  8
0
  6
Continuous
 62
     7
370
     0
100
AcDbLine
 10
-15.07936540970763
 20
-89.51893472069867
 30
0.0
 11
-14.14229817972568
 21
-89.17508997230049
 31
0.0
  0
ELLIPSE
  5
37C4
330
A
100
AcDbEntity
  8
0
  6
Continuous
 62
     7
370
     0
100
AcDbEllipse
 10
-13.56046781588179
 20
-89.18774848526414
 30
0.0
 11
1.721962785829367
 21
0.000000000000111
 31
0.0
210
0.0
220
0.0
230
1.0
 40
0.4082482904639184
 41
3.632143644040366
 42
4.115354739722926
  0
LINE
  5
37C5
330
A
100
AcDbEntity
  8
0
  6
Continuous
 62
     7
370
     0
100
AcDbLine
 10
-13.59147471364076
 20
-89.42527973664368
 30
0.0
 11
-14.52854194362271
 21
-89.76912448508119
 31
0.0
  0
LINE
  5
37C6
330
A
100
AcDbEntity
  8
0
  6
Continuous
 62
     7
370
     0
100
AcDbLine
 10
-12.74923052923373
 20
-89.80783583133371
 30
0.0
 11
-13.59147471364076
 21
-89.42527973664368
 31
0.0
  0
ELLIPSE
  5
37C7
330
A
100
AcDbEntity
  8
0
  6
Continuous
 62
     7
370
     0
100
AcDbEllipse
 10
-13.56046781588179
 20
-89.18774848526414
 30
0.0
 11
1.721962785829367
 21
-0.000000000000111
 31
-0.0000000000000001
210
0.0000000000000001
220
0.0
230
1.0
 40
0.4082482904639017
 41
5.202939970835303
 42
5.686151066517871
  0
LINE
  5
37C8
330
A
100
AcDbEntity
  8
0
  6
Continuous
 62
     7
370
     0
100
AcDbLine
 10
-12.97863745204472
 20
-89.20040699826973
 30
0.0
 11
-12.13639326762973
 21
-89.58296309295723
 31
0.0
  0
LINE
  5
37C9
330
A
100
AcDbEntity
  8
0
  6
Continuous
 62
     7
370
     0
100
AcDbLine
 10
-12.04157022205481
 20
-88.8565622498295
 30
0.0
 11
-12.97863745204472
 21
-89.20040699826973
 31
0.0
  0
ELLIPSE
  5
37CA
330
A
100
AcDbEntity
  8
0
  6
Continuous
 62
     7
370
     0
100
AcDbEllipse
 10
-13.56046781588179
 20
-89.18774848526414
 30
0.0
 11
1.721962785829367
 21
-0.000000000000111
 31
-0.0000000000000001
210
0.0000000000000001
220
0.0
230
1.0
 40
0.4082482904638093
 41
0.4905509904506081
 42
0.9737620861331729
  0
LINE
  5
37CB
330
A
100
AcDbEntity
  8
0
  6
Continuous
 62
     7
370
     0
100
AcDbLine
 10
-13.52946091812168
 20
-88.9502172338847
 30
0.0
 11
-12.59239368813882
 21
-88.60637248544732
 31
0.0
  0
ELLIPSE
  5
37CC
330
A
100
AcDbEntity
  8
0
  6
Continuous
 62
     7
370
     0
100
AcDbEllipse
 10
-13.56046781588179
 20
-89.73547104276917
 30
0.0
 11
3.000000000000113
 21
0.0
 31
-0.0000000000000002
210
0.0000000000000001
220
0.0
230
1.0
 40
0.4082482904638628
 41
3.873749191881664
 42
5.094371610084913
  0
ELLIPSE
  5
37CD
330
A
100
AcDbEntity
  8
0
  6
Continuous
 62
     7
370
     0
100
AcDbEllipse
 10
-13.56046781588179
 20
-89.73547104276917
 30
0.0
 11
3.000000000000113
 21
0.0
 31
0.0
210
0.0
220
0.0
230
1.0
 40
0.4082482904638625
 41
3.141592653589783
 42
3.605240262590601
  0
LINE
  5
37CE
330
A
100
AcDbEntity
  8
0
  6
Continuous
 62
     7
370
     0
100
AcDbLine
 10
-12.97863745204177
 20
-89.70363681386414
 30
0.0
 11
-12.97863745204472
 21
-89.20040699826973
 31
0.0
  0
LINE
  5
37CF
330
A
100
AcDbEntity
  8
0
  6
Continuous
 62
     7
370
     0
100
AcDbLine
 10
-14.14229817972568
 20
-89.62739731163663
 30
0.0
 11
-14.14229817972568
 21
-89.17508997230049
 31
0.0
  0
LINE
  5
37D0
330
A
100
AcDbEntity
  8
0
  6
Continuous
 62
     7
370
     0
100
AcDbLine
 10
-12.7788852570286
 20
-89.12821424118817
 30
0.0
 11
-12.59239368813974
 21
-88.60637248544732
 31
0.0
  0
LINE
  5
37D1
330
A
100
AcDbEntity
  8
0
  6
Continuous
 62
     7
370
     0
100
AcDbLine
 10
-14.04570875037279
 20
-89.59179489618861
 30
0.0
 11
-14.14405121616869
 21
-89.28549632939143
 31
0.0
  0
LINE
  5
37D2
330
A
100
AcDbEntity
  8
0
  6
Continuous
 62
     7
370
     0
100
AcDbLine
 10
-14.18511288858371
 20
-89.15680313778626
 30
0.0
 11
-14.37170510252872
 21
-88.56766113919457
 31
0.0
  0
LINE
  5
37D3
330
A
100
AcDbEntity
  8
0
  6
Continuous
 62
     7
370
     0
100
AcDbLine
 10
-13.52946091812168
 20
-89.45344704948457
 30
0.0
 11
-13.52946091812168
 21
-88.9502172338847
 31
0.0
  0
LINE
  5
37D4
330
A
100
AcDbEntity
  8
0
  6
Continuous
 62
     9
370
     0
100
AcDbLine
 10
5.27372941749104
 20
-153.8087196496323
 30
0.0
 11
37.47310829348044
 21
-160.3813903396873
 31
0.0
  0
ELLIPSE
  5
37D5
330
A
100
AcDbEntity
  8
0
  6
Continuous
 62
     7
370
     0
100
AcDbEllipse
 10
37.47310829348044
 20
-161.8419838263671
 30
0.0
 11
0.3199999999998759
 21
1.567673435381332
 31
0.0
210
0.0
220
0.0
230
1.0
 40
0.4082482904634423
 41
0.4636476090009129
 42
2.034443935795475
  0
LINE
  5
37D6
330
A
100
AcDbEntity
  8
0
  6
Continuous
 62
     9
370
     0
100
AcDbLine
 10
36.75756654068119
 20
-162.4262212210394
 30
0.0
 11
4.558187664692241
 21
-155.853550530984
 31
0.0
  0
ELLIPSE
  5
37D7
330
A
100
AcDbEntity
  8
0
  6
Continuous
 62
     7
370
     0
100
AcDbEllipse
 10
5.27372941749104
 20
-155.2693131363119
 30
0.0
 11
-0.3199999999998759
 21
-1.567673435381332
 31
0.0
210
0.0
220
0.0
230
1.0
 40
0.4082482904634411
 41
3.605240262590697
 42
5.176036589385259
  0
LINE
  5
37D8
330
A
100
AcDbEntity
  8
0
  6
Continuous
 62
     7
370
     0
100
AcDbLine
 10
43.19744231587515
 20
-155.7074911823093
 30
0.0
 11
37.47310829348044
 21
-160.3813903396873
 31
0.0
  0
ELLIPSE
  5
37D9
330
A
100
AcDbEntity
  8
0
  6
Continuous
 62
     7
370
     0
100
AcDbEllipse
 10
43.19744231587515
 20
-157.1680846689891
 30
0.0
 11
0.3199999999996539
 21
1.567673435381332
 31
0.0
210
0.0
220
0.0
230
1.0
 40
0.4082482904634409
 41
5.176036589385269
 42
6.283185307179421
  0
LINE
  5
37DA
330
A
100
AcDbEntity
  8
0
  6
Continuous
 62
     7
370
     0
100
AcDbLine
 10
43.91298406867508
 20
-170.4594853977747
 30
0.0
 11
43.91298406867508
 21
-156.583847274317
 31
0.0
  0
LINE
  5
37DB
330
A
100
AcDbEntity
  8
0
  6
Continuous
 62
     9
370
     0
100
AcDbLine
 10
41.94524424847736
 20
-172.0661382331236
 30
0.0
 11
43.91298406867508
 21
-170.4594853977747
 31
0.0
  0
LINE
  5
37DC
330
A
100
AcDbEntity
  8
0
  6
Continuous
 62
     7
370
     0
100
AcDbLine
 10
41.94524424847736
 20
-159.6510935963454
 30
0.0
 11
41.94524424847736
 21
-172.0661382331233
 31
0.0
  0
LINE
  5
37DD
330
A
100
AcDbEntity
  8
0
  6
Continuous
 62
     7
370
     0
100
AcDbLine
 10
38.18865004627923
 20
-162.7183399183748
 30
0.0
 11
41.94524424847736
 21
-159.6510935963456
 31
0.0
  0
LINE
  5
37DE
330
A
100
AcDbEntity
  8
0
  6
Continuous
 62
     7
370
     0
100
AcDbLine
 10
38.18865004627923
 20
-175.1333845551528
 30
0.0
 11
38.18865004627923
 21
-162.7183399183748
 31
0.0
  0
LINE
  5
37DF
330
A
100
AcDbEntity
  8
0
  6
Continuous
 62
     9
370
     0
100
AcDbLine
 10
36.75756654068119
 20
-176.3018593444972
 30
0.0
 11
38.18865004627923
 21
-175.1333845551528
 31
0.0
  0
LINE
  5
37E0
330
A
100
AcDbEntity
  8
0
  6
Continuous
 62
     7
370
     0
100
AcDbLine
 10
36.75756654068119
 20
-162.4262212210394
 30
0.0
 11
36.75756654068119
 21
-176.3018593444972
 31
0.0
  0
ELLIPSE
  5
37E1
330
A
100
AcDbEntity
  8
0
  6
Continuous
 62
     7
370
     0
100
AcDbEllipse
 10
33.89539952948212
 20
-175.7176219498257
 30
0.0
 11
2.02385770250868
 21
-2.478709341572016
 31
-0.0000000000000001
210
0.0000000000000001
220
0.0
230
1.0
 40
0.8164965809278205
 41
5.497787143781815
 42
6.283185307179563
  0
LINE
  5
37E2
330
A
100
AcDbEntity
  8
0
  6
Continuous
 62
     7
370
     0
100
AcDbLine
 10
7.420354675891303
 20
-173.2346130224732
 30
0.0
 11
33.89539952948212
 21
-178.6388089231851
 31
0.0
  0
ELLIPSE
  5
37E3
330
A
100
AcDbEntity
  8
0
  6
Continuous
 62
     7
370
     0
100
AcDbEllipse
 10
7.420354675891303
 20
-170.3134260491135
 30
0.0
 11
2.02385770250868
 21
-2.478709341572016
 31
-0.0000000000000001
210
0.0000000000000001
220
0.0
230
1.0
 40
0.8164965809278211
 41
3.92699081698695
 42
5.497787143781813
  0
LINE
  5
37E4
330
A
100
AcDbEntity
  8
0
  6
Continuous
 62
     7
370
     0
100
AcDbLine
 10
4.558187664692241
 20
-155.853550530984
 30
0.0
 11
4.558187664692241
 21
-169.7291886544421
 31
0.0
  0
LINE
  5
37E5
330
A
100
AcDbEntity
  8
0
  6
Continuous
 62
     7
370
     0
100
AcDbLine
 10
10.99806343988712
 20
-149.1348204922541
 30
0.0
 11
5.27372941749104
 21
-153.808719649632
 31
0.0
  0
LINE
  5
37E6
330
A
100
AcDbEntity
  8
0
  6
Continuous
 62
     9
370
     0
100
AcDbLine
 10
43.19744231587515
 20
-155.7074911823093
 30
0.0
 11
10.99806343988712
 21
-149.1348204922541
 31
0.0
  0
ELLIPSE
  5
37E7
330
A
100
AcDbEntity
  8
0
  6
Continuous
 62
     7
370
     0
100
AcDbEllipse
 10
33.89539952948212
 20
-175.7176219498257
 30
0.0
 11
2.02385770250868
 21
-2.478709341572016
 31
-0.0000000000000001
210
0.0000000000000001
220
0.0
230
1.0
 40
0.8164965809278205
 41
0.0
 42
0.7853981633971429
  0
ELLIPSE
  5
37E8
330
A
100
AcDbEntity
  8
0
  6
Continuous
 62
     7
370
     0
100
AcDbEllipse
 10
35.32648303508017
 20
-174.5491471604812
 30
0.0
 11
-2.02385770250868
 21
2.478709341572016
 31
0.0000000000000002
210
0.0000000000000001
220
0.0
230
1.0
 40
0.8164965809278214
 41
3.141592653589816
 42
3.926990816986963
  0
ELLIPSE
  5
37E9
330
A
100
AcDbEntity
  8
0
  6
Continuous
 62
     7
370
     0
100
AcDbEllipse
 10
39.0830772372783
 20
-171.4819008384518
 30
0.0
 11
2.02385770250868
 21
-2.478709341572016
 31
0.0
210
0.0000000000000001
220
0.0000000000000001
230
1.0
 40
0.8164965809278205
 41
5.497787143781821
 42
6.283185307179567
  0
LINE
  5
37EA
330
A
100
AcDbEntity
  8
0
  6
Continuous
 62
     7
370
     0
100
AcDbLine
 10
39.0830772372783
 20
-174.4030878118115
 30
0.0
 11
38.18865004627923
 21
-174.2205136259769
 31
0.0
  0
ELLIPSE
  5
37EB
330
A
100
AcDbEntity
  8
0
  6
Continuous
 62
     7
370
     0
100
AcDbEllipse
 10
43.19744231587515
 20
-157.1680846689891
 30
0.0
 11
0.3199999999996539
 21
1.567673435381332
 31
0.0000000000000001
210
0.0000000000000001
220
-0.0000000000000001
230
1.0
 40
0.4082482904634426
 41
6.283185307179585
 42
6.746832916180339
  0
ELLIPSE
  5
37EC
330
A
100
AcDbEntity
  8
0
  6
Continuous
 62
     7
370
     0
100
AcDbEllipse
 10
10.99806343988712
 20
-150.5954139789342
 30
0.0
 11
-0.3199999999998759
 21
-1.567673435381222
 31
0.0
210
0.0
220
0.0
230
1.0
 40
0.4082482904634422
 41
3.141592653589966
 42
3.605240262590706
  0
ELLIPSE
  5
37ED
330
A
100
AcDbEntity
  8
0
  6
Continuous
 62
     7
370
     0
100
AcDbEllipse
 10
39.0830772372783
 20
-171.4819008384518
 30
0.0
 11
2.02385770250868
 21
-2.478709341572016
 31
-0.0000000000000001
210
0.0
220
-0.0000000000000001
230
1.0
 40
0.8164965809278205
 41
6.28318530717958
 42
7.068583470576736
  0
ELLIPSE
  5
37EE
330
A
100
AcDbEntity
  8
0
  6
Continuous
 62
     7
370
     0
100
AcDbEllipse
 10
41.05081705747624
 20
-169.8752480031031
 30
0.0
 11
-2.02385770250868
 21
2.478709341572016
 31
0.0000000000000001
210
0.0000000000000001
220
0.0
230
1.0
 40
0.8164965809278211
 41
3.141592653589805
 42
3.92699081698695
  0
ELLIPSE
  5
37EF
330
A
100
AcDbEntity
  8
0
  6
Continuous
 62
     7
370
     0
100
AcDbEllipse
 10
35.8989164373163
 20
-153.2683000595523
 30
0.0
 11
-4.553679830644473
 21
5.577096018537063
 31
0.0000000000000002
210
0.0000000000000001
220
0.0
230
1.0
 40
0.8164965809278477
 41
5.252174224168419
 42
5.582415099655533
  0
LINE
  5
37F0
330
A
100
AcDbEntity
  8
0
  6
Continuous
 62
     7
370
     0
100
AcDbLine
 10
37.77319491555022
 20
-154.427871643017
 30
0.0
 11
41.57553514918823
 21
-151.323273842725
 31
0.0
  0
LINE
  5
37F7
330
A
100
AcDbEntity
  8
0
  6
Continuous
 62
     7
370
     0
100
AcDbLine
 10
31.53014136332422
 20
-148.8102481218533
 30
0.0
 11
31.55437293530736
 21
-148.829044882606
 31
0.0
  0
ARC
  5
37F8
330
A
100
AcDbEntity
  8
0
  6
Continuous
 62
     7
370
     0
100
AcDbCircle
 10
34.94526041504423
 20
-140.3034942050231
 30
0.0
 40
9.17513663420182
100
AcDbArc
 50
248.3106828540728
 51
270.5319916618866
  0
LINE
  5
37F9
330
A
100
AcDbEntity
  8
0
  6
Continuous
 62
     7
370
     0
100
AcDbLine
 10
35.03045039052927
 20
-149.4782353416625
 30
0.0
 11
35.10611355136325
 21
-149.4767783353142
 31
0.0
  0
ELLIPSE
  5
37FA
330
A
100
AcDbEntity
  8
0
  6
Continuous
 62
     7
370
     0
100
AcDbEllipse
 10
35.8989164373163
 20
-153.2683000595523
 30
0.0
 11
-4.553679830644473
 21
5.577096018537063
 31
0.0
210
0.0000000000000001
220
0.0
230
1.0
 40
0.8164965809278481
 41
4.418800911552443
 42
5.252174224168419
  0
LINE
  5
37FB
330
A
100
AcDbEntity
  8
0
  6
Continuous
 62
     7
370
     0
100
AcDbLine
 10
41.54003712154031
 20
-151.2372455866795
 30
0.0
 11
41.57553514918823
 21
-151.3232738427236
 31
0.0
  0
LINE
  5
37FC
330
A
100
AcDbEntity
  8
0
  6
Continuous
 62
     7
370
     0
100
AcDbLine
 10
26.46521172569214
 20
-149.3080141697735
 30
0.0
 11
27.62514971280234
 21
-150.7286422706183
 31
0.0
  0
LINE
  5
37FD
330
A
100
AcDbEntity
  8
0
  6
Continuous
 62
     7
370
     0
100
AcDbLine
 10
29.94502568702023
 20
-148.8344714694917
 30
0.0
 11
26.46521172569214
 21
-149.3080141697735
 31
0.0
  0
ELLIPSE
  5
37FE
330
A
100
AcDbEntity
  8
0
  6
Continuous
 62
     7
370
     0
100
AcDbEllipse
 10
-11.03064568775676
 20
-99.15092454961177
 30
0.0
 11
-4.957418683144476
 21
-4.047715405016805
 31
0.0000000000000007
210
0.0000000000000001
220
0.0
230
1.0
 40
0.8660254037843934
 41
6.191304374107278
 42
6.283185307179588
  0
ELLIPSE
  5
37FF
330
A
100
AcDbEntity
  8
0
  6
Continuous
 62
     7
370
     0
100
AcDbEllipse
 10
31.72334827774034
 20
-151.5136593903335
 30
0.0
 11
4.957418683144476
 21
4.047715405016805
 31
-0.0000000000000002
210
0.0
220
0.0
230
1.0
 40
0.8660254037843936
 41
0.2003110782249116
 42
2.002514169320884
  0
ELLIPSE
  5
3800
330
A
100
AcDbEntity
  8
0
  6
Continuous
 62
     9
370
     0
100
AcDbEllipse
 10
-13.5604678158927
 20
-96.0525378726461
 30
0.0
 11
4.957418683144476
 21
4.047715405016805
 31
-0.0000000000000007
210
0.0000000000000001
220
0.0000000000000001
230
1.0
 40
0.8660254037843927
 41
2.152877644841433
 42
3.049711720517479
  0
LINE
  5
3801
330
A
100
AcDbEntity
  8
0
  6
Continuous
 62
     7
370
     0
100
AcDbLine
 10
-17.91189261448471
 20
-94.95738322196052
 30
0.0
 11
-16.28878223980473
 21
-96.94527932905181
 31
0.0
  0
ELLIPSE
  5
3802
330
A
100
AcDbEntity
  8
0
  6
Continuous
 62
     7
370
     0
100
AcDbEllipse
 10
-11.03064568775676
 20
-99.15092454961177
 30
0.0
 11
-4.957418683144476
 21
-4.047715405016805
 31
0.0000000000000004
210
0.0000000000000001
220
0.0
230
1.0
 40
0.866025403784395
 41
3.141592653589796
 42
5.144106822910678
  0
LINE
  5
3803
330
A
100
AcDbEntity
  8
0
  6
Continuous
 62
     7
370
     0
100
AcDbLine
 10
-6.415766492543752
 20
-94.72636967468384
 30
0.0
 11
-7.666926388722686
 21
-93.19401800854951
 31
0.0
  0
LINE
  5
3804
330
A
100
AcDbEntity
  8
0
  6
Continuous
 62
     7
370
     0
100
AcDbLine
 10
-7.666926388721776
 20
-93.19401800854951
 30
0.0
 11
-7.670842017445693
 21
-93.18922236235243
 31
0.0
  0
LINE
  5
3805
330
A
100
AcDbEntity
  8
0
  6
Continuous
 62
     7
370
     0
100
AcDbLine
 10
-16.28878223980473
 20
-102.7876532757717
 30
0.0
 11
-18.81860436794068
 21
-99.68926659880617
 31
0.0
  0
ELLIPSE
  5
3806
330
A
100
AcDbEntity
  8
0
  6
Continuous
 62
     7
370
     0
100
AcDbEllipse
 10
-13.5604678158927
 20
-98.97372484600612
 30
0.0
 11
-5.542562584220478
 21
0.0
 31
0.0000000000000004
210
0.0000000000000001
220
0.0
230
1.0
 40
0.4082482904637346
 41
0.2611574109031138
 42
0.3217505543968771
  0
ELLIPSE
  5
3807
330
A
100
AcDbEntity
  8
0
  6
Continuous
 62
     7
370
     0
100
AcDbEllipse
 10
-10.26897578771786
 20
-96.72441088957715
 30
0.0
 11
1.440000000000106
 21
7.054530459215555
 31
0.0
210
0.0000000000000001
220
0.0
230
1.0
 40
0.4082482904638631
 41
6.008352769760817
 42
6.283185307179585
  0
ELLIPSE
  5
3810
330
A
100
AcDbEntity
  8
0
  6
Continuous
 62
     7
370
     0
100
AcDbEllipse
 10
-8.551675580996743
 20
-97.0749533263803
 30
0.0
 11
-0.7999999999999119
 21
-3.919183588453111
 31
0.0
210
0.0000000000000001
220
0.0
230
1.0
 40
0.4082482904638628
 41
3.141592653589794
 42
3.633282435180527
  0
ELLIPSE
  5
3811
330
A
100
AcDbEntity
  8
0
  6
Continuous
 62
     7
370
     0
100
AcDbEllipse
 10
-10.26897578771786
 20
-96.72441088957715
 30
0.0
 11
1.440000000000106
 21
7.054530459215555
 31
0.0
210
0.0000000000000001
220
0.0
230
1.0
 40
0.4082482904638631
 41
6.283185307179584
 42
7.48983188040997
  0
ELLIPSE
  5
3812
330
A
100
AcDbEntity
  8
0
  6
Continuous
 62
     7
370
     0
100
AcDbEllipse
 10
-26.4402194009956
 20
-93.42346960967928
 30
0.0
 11
-1.440000000000106
 21
-7.054530459215555
 31
0.0
210
0.0000000000000001
220
0.0
230
1.0
 40
0.4082482904638628
 41
5.176036589385494
 42
6.283185307179585
  0
LINE
  5
3813
330
A
100
AcDbEntity
  8
0
  6
Continuous
 62
     7
370
     0
100
AcDbLine
 10
-22.83865298173259
 20
-93.95171247323366
 30
0.0
 11
-15.23161459740277
 21
-95.50449268118143
 31
0.0
  0
ELLIPSE
  5
3814
330
A
100
AcDbEntity
  8
0
  6
Continuous
 62
     7
370
     0
100
AcDbEllipse
 10
-20.00034362579572
 20
-94.73800374769167
 30
0.0
 11
-1.440000000000106
 21
-7.054530459215555
 31
0.0
210
0.0000000000000001
220
0.0
230
1.0
 40
0.4082482904638633
 41
4.68422649482005
 42
5.667846683950941
  0
LINE
  5
3815
330
A
100
AcDbEntity
  8
0
  6
Continuous
 62
     7
370
     0
100
AcDbLine
 10
-17.55412173808281
 20
-101.2379352146869
 30
0.0
 11
-22.83865298173259
 21
-100.1592347916252
 31
0.0
  0
ELLIPSE
  5
3816
330
A
100
AcDbEntity
  8
0
  6
Continuous
 62
     7
370
     0
100
AcDbEllipse
 10
-26.4402194009956
 20
-93.42346960967928
 30
0.0
 11
-1.440000000000106
 21
-7.054530459215555
 31
0.0
210
0.0000000000000001
220
0.0
230
1.0
 40
0.408248290463863
 41
3.14159265358979
 42
5.176036589385494
  0
LINE
  5
3817
330
A
100
AcDbEntity
  8
0
  6
Continuous
 62
     7
370
     0
100
AcDbLine
 10
-16.42038238182886
 20
-90.09792751647774
 30
0.0
 11
-16.24421882590968
 21
-90.27865651079116
 31
0.0
  0
ELLIPSE
  5
3818
330
A
100
AcDbEntity
  8
0
  6
Continuous
 62
     7
370
     0
100
AcDbEllipse
 10
-8.551675580996743
 20
-97.0749533263803
 30
0.0
 11
-0.7999999999999119
 21
-3.919183588453111
 31
0.0
210
0.0000000000000001
220
0.0
230
1.0
 40
0.4082482904638633
 41
3.050429229610526
 42
3.141592653589794
  0
ELLIPSE
  5
3819
330
A
100
AcDbEntity
  8
0
  6
Continuous
 62
     7
370
     0
100
AcDbEllipse
 10
-22.14696888419576
 20
-94.2998257016875
 30
0.0
 11
-0.7999999999999119
 21
-3.919183588453111
 31
0.0
210
0.0000000000000001
220
0.0
230
1.0
 40
0.408248290463863
 41
0.7353144528166679
 42
0.9272174211687122
  0
LINE
  5
381A
330
A
100
AcDbEntity
  8
0
  6
Continuous
 62
     7
370
     0
100
AcDbLine
 10
-19.26519023400283
 20
-98.95359666768525
 30
0.0
 11
-20.94268114494685
 21
-98.61118026935457
 31
0.0
  0
ELLIPSE
  5
381B
330
A
100
AcDbEntity
  8
0
  6
Continuous
 62
     7
370
     0
100
AcDbEllipse
 10
-20.00034362579572
 20
-94.73800374769167
 30
0.0
 11
-0.7999999999999119
 21
-3.919183588453111
 31
0.0
210
0.0000000000000001
220
0.0
230
1.0
 40
0.4082482904638625
 41
4.6616814795302
 42
6.19202188320032
  0
LINE
  5
381C
330
A
100
AcDbEntity
  8
0
  6
Continuous
 62
     7
370
     0
100
AcDbLine
 10
-7.609338061845846
 20
-93.20177680471749
 30
0.0
 11
-7.900657112727685
 21
-93.14231155246636
 31
0.0
  0
ARC
  5
384F
330
A
100
AcDbEntity
  8
0
  6
Continuous
 62
     7
370
     0
100
AcDbCircle
 10
-13.77194626469372
 20
-86.82409481139757
 30
0.0
 40
4.260806994848755
100
AcDbArc
 50
236.0508012829006
 51
288.1830740935544
  0
ARC
  5
3850
330
A
100
AcDbEntity
  8
0
  6
Continuous
 62
     7
370
     0
100
AcDbCircle
 10
-13.63502577555891
 20
-85.66888603213511
 30
0.0
 40
5.338192099907339
100
AcDbArc
 50
282.9102463113865
 51
304.3008981397609
  0
LINE
  5
3851
330
A
100
AcDbEntity
  8
0
  6
Continuous
 62
     7
370
     0
100
AcDbLine
 10
-20.94268114494775
 20
-98.61118026935457
 30
0.0
 11
-22.83865298173259
 21
-100.1592347916252
 31
0.0
  0
ELLIPSE
  5
3852
330
A
100
AcDbEntity
  8
0
  6
Continuous
 62
     9
370
     0
100
AcDbEllipse
 10
-28.58684465939587
 20
-92.98529156367521
 30
0.0
 11
-2.399999999999957
 21
-11.75755076535923
 31
0.0
210
0.0000000000000001
220
0.0
230
1.0
 40
0.4082482904638631
 41
3.141592763134872
 42
6.283190004584785
  0
ELLIPSE
  5
3853
330
A
100
AcDbEntity
  8
0
  6
Continuous
 62
     9
370
     0
100
AcDbEllipse
 10
-26.4402194009956
 20
-93.42346960967928
 30
0.0
 11
1.919999999999921
 21
9.406040612287448
 31
0.0
210
0.0000000000000001
220
0.0
230
1.0
 40
0.4082482904638635
 41
5.560451059366171
 42
10.14751220858279
  0
ELLIPSE
  5
3854
330
A
100
AcDbEntity
  8
0
  6
Continuous
 62
     7
370
     0
100
AcDbEllipse
 10
-30.0179281649946
 20
-92.69317286633906
 30
0.0
 11
2.399999999999957
 21
11.75755076535923
 31
0.0
210
0.0000000000000001
220
0.0
230
1.0
 40
0.4082482904638633
 41
0.0000000000000003
 42
3.141592653589794
  0
LINE
  5
3855
330
A
100
AcDbEntity
  8
0
  6
Continuous
 62
     7
370
     0
100
AcDbLine
 10
-53.26611115239575
 20
-89.98889883815957
 30
0.0
 11
-35.15079199147476
 21
-93.68667287748644
 31
0.0
  0
LINE
  5
3856
330
A
100
AcDbEntity
  8
0
  6
Continuous
 62
     7
370
     0
100
AcDbLine
 10
-34.35079199147481
 20
-89.76748928903305
 30
0.0
 11
-52.46611115239557
 21
-86.06971524970651
 31
0.0
  0
LINE
  5
3857
330
A
100
AcDbEntity
  8
0
  6
Continuous
 62
     7
370
     0
100
AcDbLine
 10
-52.60166364706265
 20
-86.06926844840279
 30
0.0
 11
-57.78094817363262
 21
-87.02607013801912
 31
0.0
  0
LINE
  5
3858
330
A
100
AcDbEntity
  8
0
  6
Continuous
 62
     7
370
     0
100
AcDbLine
 10
-57.78094817363262
 20
-87.02607013801879
 30
0.0
 11
-53.39099455712267
 21
-89.93618438411193
 31
0.0
  0
LINE
  5
3859
330
A
100
AcDbEntity
  8
0
  6
Continuous
 62
     7
370
     0
100
AcDbLine
 10
31.25316711524624
 20
-147.7472560104156
 30
0.0
 11
31.25316711524624
 21
-148.2949785679207
 31
0.0
  0
LINE
  5
385A
330
A
100
AcDbEntity
  8
0
  6
Continuous
 62
     7
370
     0
100
AcDbLine
 10
37.25316711524624
 20
-148.2949785679207
 30
0.0
 11
37.25316711524624
 21
-147.7472560104156
 31
0.0
  0
LINE
  5
385B
330
A
100
AcDbEntity
  8
0
  6
Continuous
 62
     7
370
     0
100
AcDbLine
 10
36.7027904484421
 20
-149.0334822793314
 30
0.0
 11
36.70360594749013
 21
-149.0328164271465
 31
0.0
  0
LINE
  5
385C
330
A
100
AcDbEntity
  8
0
  6
Continuous
 62
     7
370
     0
100
AcDbLine
 10
36.70360594749013
 20
-149.0328164271465
 30
0.0
 11
36.70370463867039
 21
-149.0327358461355
 31
0.0
  0
LINE
  5
385D
330
A
100
AcDbEntity
  8
0
  6
Continuous
 62
     7
370
     0
100
AcDbLine
 10
36.70370463867039
 20
-149.0327358461355
 30
0.0
 11
36.93644868824617
 21
-148.8427011254257
 31
0.0
  0
LINE
  5
385E
330
A
100
AcDbEntity
  8
0
  6
Continuous
 62
     7
370
     0
100
AcDbLine
 10
-16.56046781588179
 20
-89.18774848526414
 30
0.0
 11
-16.56046781588179
 21
-89.73547104276917
 31
0.0
  0
LINE
  5
385F
330
A
100
AcDbEntity
  8
0
  6
Continuous
 62
     7
370
     0
100
AcDbLine
 10
-10.56046781588088
 20
-89.73547104276917
 30
0.0
 11
-10.56046781588088
 21
-89.18774848526414
 31
0.0
  0
LINE
  5
3860
330
A
100
AcDbEntity
  8
0
  6
Continuous
 62
     7
370
     0
100
AcDbLine
 10
-16.24374938888081
 20
-90.28319360027444
 30
0.0
 11
-16.15121755050768
 21
-90.35874552993346
 31
0.0
  0
LINE
  5
3861
330
A
100
AcDbEntity
  8
0
  6
Continuous
 62
     7
370
     0
100
AcDbLine
 10
35.91925723198915
 20
-178.1963312913966
 30
0.0
 11
37.35034073758834
 21
-177.0278565020521
 31
0.0
  0
LINE
  5
3862
330
A
100
AcDbEntity
  8
0
  6
Continuous
 62
     7
370
     0
100
AcDbLine
 10
43.51744231587509
 20
-155.6004112336085
 30
0.0
 11
11.31806343988728
 21
-149.0277405435532
 31
0.0
  0
LINE
  5
3863
330
A
100
AcDbEntity
  8
0
  6
Continuous
 62
     7
370
     0
100
AcDbLine
 10
41.10693493978533
 20
-173.9606101800227
 30
0.0
 11
43.07467475998419
 21
-172.3539573446741
 31
0.0
  0
LINE
  5
3864
330
A
100
AcDbEntity
  8
0
  6
Continuous
 62
     7
370
     0
100
AcDbLine
 10
31.25316711524624
 20
-147.766378465975
 30
0.0
 11
26.03026899179417
 21
-152.0308569263105
 31
0.0
  0
ARC
  5
3865
330
A
100
AcDbEntity
  8
0
  6
Continuous
 62
     7
370
     0
100
AcDbCircle
 10
33.81668155052035
 20
-154.9710324097332
 30
0.0
 40
8.578542308459969
100
AcDbArc
 50
25.80228685184778
 51
58.17127353745975
  0
LINE
  5
3866
330
A
100
AcDbEntity
  8
0
  6
Continuous
 62
     7
370
     0
100
AcDbLine
 10
37.5879115667442
 20
-147.2704159442923
 30
0.0
 11
37.46504490042025
 21
-147.2126381005599
 31
0.0
  0
ARC
  5
3867
330
A
100
AcDbEntity
  8
0
  6
Continuous
 62
     7
370
     0
100
AcDbCircle
 10
34.25317040587629
 20
-154.612046067299
 30
0.0
 40
6.399999999999931
100
AcDbArc
 50
356.4065457072748
 51
20.23188132151834
  0
LINE
  5
3868
330
A
100
AcDbEntity
  8
0
  6
Continuous
 62
     7
370
     0
100
AcDbLine
 10
-15.98806437089979
 20
-103.1986399546273
 30
0.0
 11
23.4538747923873
 21
-151.5049526625764
 31
0.0
  0
LINE
  5
3869
330
A
100
AcDbEntity
  8
0
  6
Continuous
 62
     7
370
     0
100
AcDbLine
 10
36.08507725126242
 20
-146.7363760685199
 30
0.0
 11
-6.073227004613727
 21
-95.10320914459658
 31
0.0
  0
ARC
  5
386A
330
A
100
AcDbEntity
  8
0
  6
Continuous
 62
     7
370
     0
100
AcDbCircle
 10
-13.5604678158927
 20
-96.0525378726461
 30
0.0
 40
6.399999999999948
100
AcDbArc
 50
166.6476868697066
 51
213.2109107609011
  0
ARC
  5
386B
330
A
100
AcDbEntity
  8
0
  6
Continuous
 62
     7
370
     0
100
AcDbCircle
 10
-12.08618842238184
 20
-93.87111778566179
 30
0.0
 40
5.490332002154461
100
AcDbArc
 50
21.92451589451353
 51
43.44957539499271
  0
LINE
  5
386C
330
A
100
AcDbEntity
  8
0
  6
Continuous
 62
     7
370
     0
100
AcDbLine
 10
-27.88021940099566
 20
-100.4780000688947
 30
0.0
 11
-16.24535390791766
 21
-102.8529570425579
 31
0.0
  0
LINE
  5
386D
330
A
100
AcDbEntity
  8
0
  6
Continuous
 62
     7
370
     0
100
AcDbLine
 10
-8.828975787716672
 20
-89.66988043036144
 30
0.0
 11
-10.56046781588088
 21
-89.31644110013655
 31
0.0
  0
LINE
  5
386E
330
A
100
AcDbEntity
  8
0
  6
Continuous
 62
     7
370
     0
100
AcDbLine
 10
-15.59686840272775
 20
-88.28839013530103
 30
0.0
 11
-25.00021940099578
 21
-86.36893915046357
 31
0.0
  0
LINE
  5
387C
330
A
100
AcDbEntity
  8
0
  6
Continuous
 62
     7
370
     0
100
AcDbLine
 10
-32.41792816499583
 20
-104.4507236316981
 30
0.0
 11
-30.98684465939573
 21
-104.7428423290343
 31
0.0
  0
LINE
  5
387D
330
A
100
AcDbEntity
  8
0
  6
Continuous
 62
     7
370
     0
100
AcDbLine
 10
-26.18684465939464
 20
-81.22774079831572
 30
0.0
 11
-27.61792816499588
 21
-80.93562210097957
 31
0.0
  0
CIRCLE
  5
387E
330
A
100
AcDbEntity
  8
0
  6
Continuous
 62
     7
370
     0
100
AcDbCircle
 10
242.1715907565213
 20
0.0
 30
0.0
 40
2.500000000000056
  0
LINE
  5
387F
330
A
100
AcDbEntity
  8
0
  6
Continuous
 62
     7
370
     0
100
AcDbLine
 10
232.1715907565274
 20
-158.6431815890754
 30
0.0
 11
239.7403333218192
 21
-158.6431815890756
 31
0.0
  0
LINE
  5
3880
330
A
100
AcDbEntity
  8
0
  6
Continuous
 62
     7
370
     0
100
AcDbLine
 10
239.7403333218192
 20
-158.6431815890756
 30
0.0
 11
240.1715907565353
 21
-158.6431815890756
 31
0.0
  0
LINE
  5
3881
330
A
100
AcDbEntity
  8
0
  6
Continuous
 62
     7
370
     0
100
AcDbLine
 10
239.1715907565345
 20
-159.6431815890761
 30
0.0
 11
238.8481476804973
 21
-159.6431815890761
 31
0.0
  0
LINE
  5
3882
330
A
100
AcDbEntity
  8
0
  6
Continuous
 62
     7
370
     0
100
AcDbLine
 10
238.8481476804973
 20
-159.6431815890761
 30
0.0
 11
233.1715907565274
 21
-159.6431815890759
 31
0.0
  0
LINE
  5
3883
330
A
100
AcDbEntity
  8
0
  6
Continuous
 62
     7
370
     0
100
AcDbLine
 10
251.5715907565204
 20
-137.3931815951301
 30
0.0
 11
251.5715907565204
 21
-129.8931815951298
 31
0.0
  0
LINE
  5
3884
330
A
100
AcDbEntity
  8
0
  6
Continuous
 62
     7
370
     0
100
AcDbLine
 10
250.8215907565205
 20
-136.4512893086345
 30
0.0
 11
250.8215907565205
 21
-130.8355037219346
 31
0.0
  0
LINE
  5
3885
330
A
100
AcDbEntity
  8
0
  6
Continuous
 62
     7
370
     0
100
AcDbLine
 10
244.2715907558102
 20
-157.4431815892445
 30
0.0
 11
240.1715907565312
 21
-157.4431815889306
 31
0.0
  0
LINE
  5
3886
330
A
100
AcDbEntity
  8
0
  6
Continuous
 62
     7
370
     0
100
AcDbLine
 10
253.1715907565183
 20
-153.6431815890821
 30
0.0
 11
253.1715907565183
 21
-169.6431815890819
 31
0.0
  0
ARC
  5
3887
330
A
100
AcDbEntity
  8
0
  6
Continuous
 62
     7
370
     0
100
AcDbCircle
 10
251.1715907565183
 20
-169.6431815890819
 30
0.0
 40
2.0
100
AcDbArc
 50
270.0
 51
0.0
  0
LINE
  5
3888
330
A
100
AcDbEntity
  8
0
  6
Continuous
 62
     7
370
     0
100
AcDbLine
 10
251.1715907565183
 20
-171.6431815890815
 30
0.0
 11
232.1715907565274
 21
-171.6431815890815
 31
0.0
  0
LINE
  5
3889
330
A
100
AcDbEntity
  8
0
  6
Continuous
 62
     9
370
     0
100
AcDbLine
 10
232.1715907565274
 20
-167.6431815890817
 30
0.0
 11
232.1715907565274
 21
-171.6431815890815
 31
0.0
  0
LINE
  5
388A
330
A
100
AcDbEntity
  8
0
  6
Continuous
 62
     7
370
     0
100
AcDbLine
 10
232.1715907565274
 20
-167.6431815890817
 30
0.0
 11
249.1715907565204
 21
-167.6431815890817
 31
0.0
  0
LINE
  5
388B
330
A
100
AcDbEntity
  8
0
  6
Continuous
 62
     7
370
     0
100
AcDbLine
 10
249.1715907565204
 20
-167.6431815890817
 30
0.0
 11
249.1715907565204
 21
-157.1431815890821
 31
0.0
  0
LINE
  5
388C
330
A
100
AcDbEntity
  8
0
  6
Continuous
 62
     7
370
     0
100
AcDbLine
 10
249.1715907565204
 20
-157.1431815890821
 30
0.0
 11
232.1715907565274
 21
-157.1431815890821
 31
0.0
  0
LINE
  5
388D
330
A
100
AcDbEntity
  8
0
  6
Continuous
 62
     9
370
     0
100
AcDbLine
 10
232.1715907565274
 20
-151.6431815890823
 30
0.0
 11
232.1715907565274
 21
-157.1431815890821
 31
0.0
  0
ARC
  5
388E
330
A
100
AcDbEntity
  8
0
  6
Continuous
 62
     7
370
     0
100
AcDbCircle
 10
251.1715907565183
 20
-153.6431815890821
 30
0.0
 40
2.0
100
AcDbArc
 50
0.0
 51
90.0
  0
LINE
  5
388F
330
A
100
AcDbEntity
  8
0
  6
Continuous
 62
     7
370
     0
100
AcDbLine
 10
232.1715907565274
 20
-151.6431815890823
 30
0.0
 11
251.1715907565183
 21
-151.6431815890823
 31
0.0
  0
LINE
  5
3890
330
A
100
AcDbEntity
  8
0
  6
Continuous
 62
     7
370
     0
100
AcDbLine
 10
228.1715907565292
 20
-157.143181589081
 30
0.0
 11
228.1715907565292
 21
-151.6431815890812
 31
0.0
  0
LINE
  5
3891
330
A
100
AcDbEntity
  8
0
  6
Continuous
 62
     7
370
     0
100
AcDbLine
 10
232.1715907565274
 20
-157.143181589081
 30
0.0
 11
228.1715907565283
 21
-157.143181589081
 31
0.0
  0
LINE
  5
3892
330
A
100
AcDbEntity
  8
0
  6
Continuous
 62
     7
370
     0
100
AcDbLine
 10
228.1715907565283
 20
-151.6431815890812
 30
0.0
 11
232.1715907565274
 21
-151.6431815890812
 31
0.0
  0
LINE
  5
3893
330
A
100
AcDbEntity
  8
0
  6
Continuous
 62
     7
370
     0
100
AcDbLine
 10
228.1715907565292
 20
-171.6431815890804
 30
0.0
 11
228.1715907565292
 21
-167.6431815890806
 31
0.0
  0
LINE
  5
3894
330
A
100
AcDbEntity
  8
0
  6
Continuous
 62
     7
370
     0
100
AcDbLine
 10
232.1715907565274
 20
-171.6431815890804
 30
0.0
 11
228.1715907565283
 21
-171.6431815890804
 31
0.0
  0
LINE
  5
3895
330
A
100
AcDbEntity
  8
0
  6
Continuous
 62
     7
370
     0
100
AcDbLine
 10
228.1715907565283
 20
-167.6431815890806
 30
0.0
 11
232.1715907565274
 21
-167.6431815890806
 31
0.0
  0
LINE
  5
3896
330
A
100
AcDbEntity
  8
0
  6
Continuous
 62
     7
370
     0
100
AcDbLine
 10
233.1715907565222
 20
-129.0431815890754
 30
0.0
 11
234.9752272485882
 21
-129.0431815890754
 31
0.0
  0
ARC
  5
3897
330
A
100
AcDbEntity
  8
0
  6
Continuous
 62
     7
370
     0
100
AcDbCircle
 10
263.2569382697623
 20
-133.6431815890754
 30
0.0
 40
12.76188169964905
100
AcDbArc
 50
161.2602996504471
 51
198.7397003495528
  0
LINE
  5
3898
330
A
100
AcDbEntity
  8
0
  6
Continuous
 62
     7
370
     0
100
AcDbLine
 10
246.4215907565233
 20
-142.6431815890756
 30
0.0
 11
237.9215907565221
 21
-142.6431815890756
 31
0.0
  0
LINE
  5
3899
330
A
100
AcDbEntity
  8
0
  6
Continuous
 62
     7
370
     0
100
AcDbLine
 10
246.4215907565213
 20
-131.3646861553831
 30
0.0
 11
246.4215907565213
 21
-142.6431815890777
 31
0.0
  0
LINE
  5
389A
330
A
100
AcDbEntity
  8
0
  6
Continuous
 62
     7
370
     0
100
AcDbLine
 10
249.3679542644561
 20
-129.0431815890754
 30
0.0
 11
251.1715907565222
 21
-129.0431815890754
 31
0.0
  0
LINE
  5
389B
330
A
100
AcDbEntity
  8
0
  6
Continuous
 62
     7
370
     0
100
AcDbLine
 10
237.9215907565233
 20
-142.6431815890777
 30
0.0
 11
237.9215907565233
 21
-131.3646861553831
 31
0.0
  0
ELLIPSE
  5
389C
330
A
100
AcDbEntity
  8
0
  6
Continuous
 62
     7
370
     0
100
AcDbEllipse
 10
242.1715907565221
 20
-126.5721137772137
 30
0.0
 11
8.000000000000008
 21
0.0
 31
0.0
210
0.0
220
0.0
230
1.0
 40
0.7071067811866593
 41
5.235987755982993
 42
6.283185307179585
  0
ELLIPSE
  5
389D
330
A
100
AcDbEntity
  8
0
  6
Continuous
 62
     7
370
     0
100
AcDbEllipse
 10
242.1715907565221
 20
-126.5721137772137
 30
0.0
 11
8.000000000000008
 21
0.0
 31
0.0
210
0.0
220
0.0
230
1.0
 40
0.7071067811866584
 41
3.141592653589792
 42
4.188790204786393
  0
LINE
  5
389E
330
A
100
AcDbEntity
  8
0
  6
Continuous
 62
     7
370
     0
100
AcDbLine
 10
246.1715907565213
 20
-131.4710932627795
 30
0.0
 11
246.1715907565213
 21
-138.5421610746435
 31
0.0
  0
ELLIPSE
  5
389F
330
A
100
AcDbEntity
  8
0
  6
Continuous
 62
     9
370
     0
100
AcDbEllipse
 10
242.1715907565221
 20
-133.643181589078
 30
0.0
 11
-8.000000000000008
 21
0.0
 31
0.0
210
0.0
220
0.0
230
1.0
 40
0.7071067811866599
 41
1.047197551196599
 42
2.094395102393193
  0
LINE
  5
38A0
330
A
100
AcDbEntity
  8
0
  6
Continuous
 62
     7
370
     0
100
AcDbLine
 10
238.1715907565233
 20
-138.5421610746435
 30
0.0
 11
238.1715907565233
 21
-131.4710932627795
 31
0.0
  0
LINE
  5
38A1
330
A
100
AcDbEntity
  8
0
  6
Continuous
 62
     7
370
     0
100
AcDbLine
 10
246.1715907565213
 20
-140.5713848193492
 30
0.0
 11
246.1715907565213
 21
-138.5421610746422
 31
0.0
  0
LINE
  5
38A2
330
A
100
AcDbEntity
  8
0
  6
Continuous
 62
     7
370
     0
100
AcDbLine
 10
238.1715907565233
 20
-138.5421610746422
 30
0.0
 11
238.1715907565233
 21
-140.5713848193481
 31
0.0
  0
CIRCLE
  5
38A3
330
A
100
AcDbEntity
  8
0
  6
Continuous
 62
     7
370
     0
100
AcDbCircle
 10
242.1715907565213
 20
0.0
 30
0.0
 40
15.00000000000001
  0
CIRCLE
  5
38A4
330
A
100
AcDbEntity
  8
0
  6
Continuous
 62
     7
370
     0
100
AcDbCircle
 10
242.1715907565213
 20
0.0
 30
0.0
 40
2.624999999999988
  0
LINE
  5
38A5
330
A
100
AcDbEntity
  8
0
  6
Continuous
 62
     9
370
     0
100
AcDbLine
 10
232.7965907565312
 20
-157.1432015890724
 30
0.0
 11
232.7965907565312
 21
-159.2681815890767
 31
0.0
  0
LINE
  5
38A6
330
A
100
AcDbEntity
  8
0
  6
Continuous
 62
     9
370
     0
100
AcDbLine
 10
239.5465907565301
 20
-159.2681815890768
 30
0.0
 11
239.5465907565301
 21
-157.1432015890724
 31
0.0
  0
LINE
  5
38A7
330
A
100
AcDbEntity
  8
0
  6
Continuous
 62
     9
370
     0
100
AcDbLine
 10
237.9215907565233
 20
-135.2931815951298
 30
0.0
 11
238.1715907565233
 21
-135.2931815951298
 31
0.0
  0
LINE
  5
38A8
330
A
100
AcDbEntity
  8
0
  6
Continuous
 62
     9
370
     0
100
AcDbLine
 10
246.1715907565213
 20
-135.2931815951298
 30
0.0
 11
246.4215907565213
 21
-135.2931815951298
 31
0.0
  0
LINE
  5
38A9
330
A
100
AcDbEntity
  8
0
  6
Continuous
 62
     9
370
     0
100
AcDbLine
 10
246.4215907565213
 20
-131.9931815951299
 30
0.0
 11
246.1715907565213
 21
-131.9931815951299
 31
0.0
  0
LINE
  5
38AA
330
A
100
AcDbEntity
  8
0
  6
Continuous
 62
     9
370
     0
100
AcDbLine
 10
238.1715907565233
 20
-131.9931815951299
 30
0.0
 11
237.9215907565233
 21
-131.9931815951299
 31
0.0
  0
LINE
  5
38AB
330
A
100
AcDbEntity
  8
0
  6
Continuous
 62
     9
370
     0
100
AcDbLine
 10
244.2715907558102
 20
-157.4431815892445
 30
0.0
 11
244.2715907558334
 21
-157.1431815890821
 31
0.0
  0
LINE
  5
38AC
330
A
100
AcDbEntity
  8
0
  6
Continuous
 62
     7
370
     0
100
AcDbLine
 10
232.1715907565301
 20
-157.1432009514055
 30
0.0
 11
232.1715907565301
 21
-158.6431815890754
 31
0.0
  0
LINE
  5
38AD
330
A
100
AcDbEntity
  8
0
  6
Continuous
 62
     7
370
     0
100
AcDbLine
 10
240.1715907565312
 20
-158.6431815890756
 30
0.0
 11
240.1715907565312
 21
-157.143200951403
 31
0.0
  0
LINE
  5
38AE
330
A
100
AcDbEntity
  8
0
  6
Continuous
 62
     7
370
     0
100
AcDbLine
 10
232.1715907565301
 20
-158.6431815890754
 30
0.0
 11
232.7965907565312
 21
-159.2681815890767
 31
0.0
  0
LINE
  5
38AF
330
A
100
AcDbEntity
  8
0
  6
Continuous
 62
     7
370
     0
100
AcDbLine
 10
232.7965907565312
 20
-159.2681815890767
 30
0.0
 11
233.1715907565301
 21
-159.6431815890759
 31
0.0
  0
LINE
  5
38B0
330
A
100
AcDbEntity
  8
0
  6
Continuous
 62
     7
370
     0
100
AcDbLine
 10
239.1715907565313
 20
-159.6431815890761
 30
0.0
 11
239.5465907565301
 21
-159.2681815890768
 31
0.0
  0
LINE
  5
38B1
330
A
100
AcDbEntity
  8
0
  6
Continuous
 62
     7
370
     0
100
AcDbLine
 10
239.5465907565301
 20
-159.2681815890768
 30
0.0
 11
240.1715907565312
 21
-158.6431815890756
 31
0.0
  0
LINE
  5
38B2
330
A
100
AcDbEntity
  8
0
  6
Continuous
 62
     7
370
     0
100
AcDbLine
 10
251.5715907565204
 20
-129.8931815951298
 30
0.0
 11
251.0658838753713
 21
-129.8931815951298
 31
0.0
  0
LINE
  5
38B3
330
A
100
AcDbEntity
  8
0
  6
Continuous
 62
     7
370
     0
100
AcDbLine
 10
251.0658951945373
 20
-137.3931815951301
 30
0.0
 11
251.5715907565204
 21
-137.3931815951301
 31
0.0
  0
LINE
  5
38B4
330
A
100
AcDbEntity
  8
0
  6
Continuous
 62
     7
370
     0
100
AcDbLine
 10
237.9215907565233
 20
-135.6431815951298
 30
0.0
 11
238.1715907565233
 21
-135.6431815951298
 31
0.0
  0
LINE
  5
38B5
330
A
100
AcDbEntity
  8
0
  6
Continuous
 62
     7
370
     0
100
AcDbLine
 10
246.1715907565213
 20
-135.6431815951298
 30
0.0
 11
246.4215907565213
 21
-135.6431815951298
 31
0.0
  0
LINE
  5
38B6
330
A
100
AcDbEntity
  8
0
  6
Continuous
 62
     7
370
     0
100
AcDbLine
 10
246.4215907565213
 20
-131.6431815951298
 30
0.0
 11
246.1715907565213
 21
-131.6431815951298
 31
0.0
  0
LINE
  5
38B7
330
A
100
AcDbEntity
  8
0
  6
Continuous
 62
     7
370
     0
100
AcDbLine
 10
238.1715907565233
 20
-131.6431815951298
 30
0.0
 11
237.9215907565233
 21
-131.6431815951298
 31
0.0
  0
LINE
  5
38B8
330
A
100
AcDbEntity
  8
0
  6
Continuous
 62
     7
370
     0
100
AcDbLine
 10
244.2715907558102
 20
-157.4431815892445
 30
0.0
 11
244.5715907560184
 21
-157.1431815890821
 31
0.0
  0
LINE
  5
38B9
330
A
100
AcDbEntity
  8
0
  6
Continuous
 62
     7
370
     0
100
AcDbLine
 10
251.1715907565192
 20
-129.5438500296251
 30
0.0
 11
251.1715907565192
 21
-129.5431815890756
 31
0.0
  0
LINE
  5
38BA
330
A
100
AcDbEntity
  8
0
  6
Continuous
 62
     7
370
     0
100
AcDbLine
 10
251.1715907565192
 20
-129.5431815890756
 30
0.0
 11
251.1715907565192
 21
-129.0431815890754
 31
0.0
  0
LINE
  5
38BB
330
A
100
AcDbEntity
  8
0
  6
Continuous
 62
     7
370
     0
100
AcDbLine
 10
251.1715907565192
 20
-151.6431815890756
 30
0.0
 11
251.1715907565192
 21
-137.7431815890754
 31
0.0
  0
LINE
  5
38BC
330
A
100
AcDbEntity
  8
0
  6
Continuous
 62
     7
370
     0
100
AcDbLine
 10
251.1715907565192
 20
-137.7431815890754
 30
0.0
 11
251.1715907565192
 21
-137.7430731963577
 31
0.0
  0
LINE
  5
38BD
330
A
100
AcDbEntity
  8
0
  6
Continuous
 62
     7
370
     0
100
AcDbLine
 10
233.1715907565251
 20
-129.0431815890754
 30
0.0
 11
233.1715907565251
 21
-151.6431815890756
 31
0.0
  0
ARC
  5
38BE
330
A
100
AcDbEntity
  8
0
  6
Continuous
 62
     7
370
     0
100
AcDbCircle
 10
237.4470351216601
 20
-131.6355888643
 30
0.0
 40
5.000000000000214
100
AcDbArc
 50
128.4488047573494
 51
148.7695544789866
  0
ARC
  5
38BF
330
A
100
AcDbEntity
  8
0
  6
Continuous
 62
     7
370
     0
100
AcDbCircle
 10
246.8961463913843
 20
-131.6355888643
 30
0.0
 40
4.999999999999995
100
AcDbArc
 50
31.23044552101342
 51
51.55119524266478
  0
LINE
  5
38C0
330
A
100
AcDbEntity
  8
0
  6
Continuous
 62
     7
370
     0
100
AcDbLine
 10
234.1715907565251
 20
-12.68857754045189
 30
0.0
 11
234.1715907565251
 21
-126.5721137772137
 31
0.0
  0
LINE
  5
38C1
330
A
100
AcDbEntity
  8
0
  6
Continuous
 62
     7
370
     0
100
AcDbLine
 10
250.1715907565203
 20
-126.5721137772137
 30
0.0
 11
250.1715907565203
 21
-12.68857754045018
 31
0.0
  0
ARC
  5
38C2
330
A
100
AcDbEntity
  8
0
  6
Continuous
 62
     7
370
     0
100
AcDbCircle
 10
242.1715907565221
 20
-133.643181589078
 30
0.0
 40
8.0
100
AcDbArc
 50
239.9999999999995
 51
270.0
  0
ARC
  5
38C3
330
A
100
AcDbEntity
  8
0
  6
Continuous
 62
     7
370
     0
100
AcDbCircle
 10
242.1715907565221
 20
-133.643181589078
 30
0.0
 40
8.000000000000008
100
AcDbArc
 50
270.0
 51
300.0000000000005
  0
ARC
  5
38C4
330
A
100
AcDbEntity
  8
0
  6
Continuous
 62
     7
370
     0
100
AcDbCircle
 10
148.1431815890694
 20
-222.3215907945447
 30
0.0
 40
3.374999999999971
100
AcDbArc
 50
80.52117384535856
 51
350.5211738453532
  0
ARC
  5
38C5
330
A
100
AcDbEntity
  8
0
  6
Continuous
 62
     7
370
     0
100
AcDbCircle
 10
119.1431815890782
 20
-222.3215907945506
 30
0.0
 40
3.375000000000022
100
AcDbArc
 50
36.34120309391025
 51
143.6587969060897
  0
ARC
  5
38C6
330
A
100
AcDbEntity
  8
0
  6
Continuous
 62
     9
370
     0
100
AcDbCircle
 10
148.1431815891192
 20
-222.3215907945456
 30
0.0
 40
4.000000000000002
100
AcDbArc
 50
0.0
 51
80.52117384605889
  0
ARC
  5
38C7
330
A
100
AcDbEntity
  8
0
  6
Continuous
 62
     9
370
     0
100
AcDbCircle
 10
148.1431815891192
 20
-222.3215907945456
 30
0.0
 40
3.999999999999966
100
AcDbArc
 50
80.52117384605889
 51
270.0
  0
ARC
  5
38C8
330
A
100
AcDbEntity
  8
0
  6
Continuous
 62
     9
370
     0
100
AcDbCircle
 10
119.1431815891312
 20
-222.3215907945456
 30
0.0
 40
4.000000000000073
100
AcDbArc
 50
30.00000000001508
 51
149.9999999999849
  0
LINE
  5
38C9
330
A
100
AcDbEntity
  8
0
  6
Continuous
 62
     7
370
     0
100
AcDbLine
 10
-54.93130652744366
 20
-225.8215907945409
 30
0.0
 11
-54.93130652744366
 21
-228.3215907945408
 31
0.0
  0
LINE
  5
38CA
330
A
100
AcDbEntity
  8
0
  6
Continuous
 62
     7
370
     0
100
AcDbLine
 10
-54.93130652744366
 20
-228.3215907945408
 30
0.0
 11
-54.93130652744366
 21
-230.8215907945408
 31
0.0
  0
LINE
  5
38CB
330
A
100
AcDbEntity
  8
0
  6
Continuous
 62
     7
370
     0
100
AcDbLine
 10
150.5923167789922
 20
-223.7443475627531
 30
0.0
 11
150.9216829979593
 21
-221.7716545065979
 31
0.0
  0
LINE
  5
38CC
330
A
100
AcDbEntity
  8
0
  6
Continuous
 62
     7
370
     0
100
AcDbLine
 10
150.9216829979593
 20
-221.7716545065979
 30
0.0
 11
145.6940463991473
 21
-220.8988340263355
 31
0.0
  0
LINE
  5
38CD
330
A
100
AcDbEntity
  8
0
  6
Continuous
 62
     7
370
     0
100
AcDbLine
 10
145.6940463991473
 20
-220.8988340263355
 30
0.0
 11
145.3646801801803
 21
-222.871527082491
 31
0.0
  0
LINE
  5
38CE
330
A
100
AcDbEntity
  8
0
  6
Continuous
 62
     7
370
     0
100
AcDbLine
 10
145.3646801801803
 20
-222.871527082491
 30
0.0
 11
150.5923167789922
 21
-223.7443475627531
 31
0.0
  0
ARC
  5
38CF
330
A
100
AcDbEntity
  8
0
  6
Continuous
 62
     7
370
     0
100
AcDbCircle
 10
148.1431815890694
 20
-222.3215907945447
 30
0.0
 40
4.000000000000089
100
AcDbArc
 50
80.52117384535856
 51
270.0000000007165
  0
ARC
  5
38D0
330
A
100
AcDbEntity
  8
0
  6
Continuous
 62
     7
370
     0
100
AcDbCircle
 10
148.1431815890694
 20
-222.3215907945447
 30
0.0
 40
4.000000000000002
100
AcDbArc
 50
270.0000000007165
 51
359.999999999987
  0
ARC
  5
38D1
330
A
100
AcDbEntity
  8
0
  6
Continuous
 62
     7
370
     0
100
AcDbCircle
 10
148.1431815890694
 20
-222.3215907945447
 30
0.0
 40
4.000000000000002
100
AcDbArc
 50
359.9999999999805
 51
80.52117384535856
  0
LINE
  5
38D2
330
A
100
AcDbEntity
  8
0
  6
Continuous
 62
     7
370
     0
100
AcDbLine
 10
117.2305585242923
 20
-220.232482608733
 30
0.0
 11
117.1854475148334
 21
-220.3215907945447
 31
0.0
  0
LINE
  5
38D3
330
A
100
AcDbEntity
  8
0
  6
Continuous
 62
     7
370
     0
100
AcDbLine
 10
117.4065747312872
 20
-220.3215907945447
 30
0.0
 11
117.2305585242923
 21
-220.232482608733
 31
0.0
  0
ARC
  5
38D4
330
A
100
AcDbEntity
  8
0
  6
Continuous
 62
     7
370
     0
100
AcDbCircle
 10
119.1431815890782
 20
-222.3215907945506
 30
0.0
 40
3.999999999999986
100
AcDbArc
 50
30.00000000009104
 51
149.9999999999267
  0
LINE
  5
38D5
330
A
100
AcDbEntity
  8
0
  6
Continuous
 62
     7
370
     0
100
AcDbLine
 10
129.8931769933513
 20
-237.7215907945402
 30
0.0
 11
137.3931769933513
 21
-237.7215907945402
 31
0.0
  0
LINE
  5
38D6
330
A
100
AcDbEntity
  8
0
  6
Continuous
 62
     7
370
     0
100
AcDbLine
 10
129.8931769933513
 20
-236.9715907945406
 30
0.0
 11
131.1577238847942
 21
-236.9715907945406
 31
0.0
  0
LINE
  5
38D7
330
A
100
AcDbEntity
  8
0
  6
Continuous
 62
     7
370
     0
100
AcDbLine
 10
136.1286392934432
 20
-236.9715907945406
 30
0.0
 11
137.3931769933513
 21
-236.9715907945406
 31
0.0
  0
LINE
  5
38D8
330
A
100
AcDbEntity
  8
0
  6
Continuous
 62
     7
370
     0
100
AcDbLine
 10
-3.750000055126747
 20
-237.7215907945391
 30
0.0
 11
3.749999944873252
 21
-237.7215907945391
 31
0.0
  0
LINE
  5
38D9
330
A
100
AcDbEntity
  8
0
  6
Continuous
 62
     7
370
     0
100
AcDbLine
 10
-2.808073599523822
 20
-236.9715907945391
 30
0.0
 11
2.807822140017151
 21
-236.9715907945391
 31
0.0
  0
ARC
  5
38DA
330
A
100
AcDbEntity
  8
0
  6
Continuous
 62
     7
370
     0
100
AcDbCircle
 10
133.6431815890823
 20
-228.3215907947481
 30
0.0
 40
4.650000000000066
100
AcDbArc
 50
59.34073769959411
 51
64.52567846446069
  0
ARC
  5
38DB
330
A
100
AcDbEntity
  8
0
  6
Continuous
 62
     7
370
     0
100
AcDbCircle
 10
133.6431815890823
 20
-228.3215907947481
 30
0.0
 40
4.649999999999987
100
AcDbArc
 50
295.4743215355393
 51
300.6592623103561
  0
ARC
  5
38DC
330
A
100
AcDbEntity
  8
0
  6
Continuous
 62
     7
370
     0
100
AcDbCircle
 10
133.6431815890823
 20
-228.3215907947481
 30
0.0
 40
4.649999999999923
100
AcDbArc
 50
241.6241079555703
 51
244.5255530136649
  0
ARC
  5
38DD
330
A
100
AcDbEntity
  8
0
  6
Continuous
 62
     7
370
     0
100
AcDbCircle
 10
133.6431815890823
 20
-228.3215907947481
 30
0.0
 40
4.650000000000094
100
AcDbArc
 50
115.4744469863351
 51
118.375892042448
  0
ARC
  5
38DE
330
A
100
AcDbEntity
  8
0
  6
Continuous
 62
     7
370
     0
100
AcDbCircle
 10
152.1431815891171
 20
-218.3215907945474
 30
0.0
 40
4.000000000000002
100
AcDbArc
 50
0.0
 51
90.0
  0
LINE
  5
38DF
330
A
100
AcDbEntity
  8
0
  6
Continuous
 62
     7
370
     0
100
AcDbLine
 10
156.1431815891162
 20
-218.3215907945474
 30
0.0
 11
156.1431815891162
 21
-237.3215907945387
 31
0.0
  0
LINE
  5
38E0
330
A
100
AcDbEntity
  8
0
  6
Continuous
 62
     9
370
     0
100
AcDbLine
 10
111.1431815891353
 20
-237.3215907945387
 30
0.0
 11
129.8931769933513
 21
-237.3215907945387
 31
0.0
  0
LINE
  5
38E1
330
A
100
AcDbEntity
  8
0
  6
Continuous
 62
     9
370
     0
100
AcDbLine
 10
137.3931769933513
 20
-237.3215907945387
 30
0.0
 11
156.1431815891162
 21
-237.3215907945387
 31
0.0
  0
LINE
  5
38E2
330
A
100
AcDbEntity
  8
0
  6
Continuous
 62
     7
370
     0
100
AcDbLine
 10
111.1431815891353
 20
-218.3215907945474
 30
0.0
 11
111.1431815891353
 21
-220.3215907945447
 31
0.0
  0
LINE
  5
38E3
330
A
100
AcDbEntity
  8
0
  6
Continuous
 62
     7
370
     0
100
AcDbLine
 10
111.1431815891353
 20
-236.3215907945396
 30
0.0
 11
111.1431815891353
 21
-237.3215907945387
 31
0.0
  0
ARC
  5
38E4
330
A
100
AcDbEntity
  8
0
  6
Continuous
 62
     7
370
     0
100
AcDbCircle
 10
115.1431815891333
 20
-218.3215907945474
 30
0.0
 40
4.000000000000002
100
AcDbArc
 50
90.0
 51
180.0
  0
LINE
  5
38E5
330
A
100
AcDbEntity
  8
0
  6
Continuous
 62
     7
370
     0
100
AcDbLine
 10
115.1431815891333
 20
-214.321590794549
 30
0.0
 11
152.1431815891171
 21
-214.321590794549
 31
0.0
  0
ARC
  5
38E6
330
A
100
AcDbEntity
  8
0
  6
Continuous
 62
     7
370
     0
100
AcDbCircle
 10
119.1431815891312
 20
-222.3215907945456
 30
0.0
 40
3.375000000000091
100
AcDbArc
 50
36.34120309382165
 51
143.6587969061783
  0
ARC
  5
38E7
330
A
100
AcDbEntity
  8
0
  6
Continuous
 62
     7
370
     0
100
AcDbCircle
 10
148.1431815891192
 20
-222.3215907945456
 30
0.0
 40
3.375000000000127
100
AcDbArc
 50
350.5211738452333
 51
0.0
  0
ARC
  5
38E8
330
A
100
AcDbEntity
  8
0
  6
Continuous
 62
     7
370
     0
100
AcDbCircle
 10
148.1431815891192
 20
-222.3215907945456
 30
0.0
 40
3.375000000000026
100
AcDbArc
 50
80.52117384619062
 51
350.5211738452333
  0
ARC
  5
38E9
330
A
100
AcDbEntity
  8
0
  6
Continuous
 62
     7
370
     0
100
AcDbCircle
 10
148.1431815891192
 20
-222.3215907945456
 30
0.0
 40
3.374999999999956
100
AcDbArc
 50
0.0
 51
80.52117384619062
  0
LINE
  5
38EA
330
A
100
AcDbEntity
  8
0
  6
Continuous
 62
     7
370
     0
100
AcDbLine
 10
156.1431815891162
 20
-239.3215907945379
 30
0.0
 11
111.1431815891353
 21
-239.3215907945379
 31
0.0
  0
LINE
  5
38EB
330
A
100
AcDbEntity
  8
0
  6
Continuous
 62
     7
370
     0
100
AcDbLine
 10
111.1431815891353
 20
-239.321590794537
 30
0.0
 11
111.1431815891353
 21
-237.3215907945387
 31
0.0
  0
LINE
  5
38EC
330
A
100
AcDbEntity
  8
0
  6
Continuous
 62
     7
370
     0
100
AcDbLine
 10
156.1431815891162
 20
-237.3215907945387
 30
0.0
 11
156.1431815891162
 21
-239.3215907945361
 31
0.0
  0
ARC
  5
38ED
330
A
100
AcDbEntity
  8
0
  6
Continuous
 62
     7
370
     0
100
AcDbCircle
 10
133.6431815891183
 20
-228.3215907945421
 30
0.0
 40
4.999999999999944
100
AcDbArc
 50
58.2116693829456
 51
118.0642836546636
  0
ARC
  5
38EE
330
A
100
AcDbEntity
  8
0
  6
Continuous
 62
     7
370
     0
100
AcDbCircle
 10
133.6431815891192
 20
-228.3215907945421
 30
0.0
 40
8.999999999999875
100
AcDbArc
 50
28.17864274053182
 51
123.9920595970195
  0
LINE
  5
38EF
330
A
100
AcDbEntity
  8
0
  6
Continuous
 62
     7
370
     0
100
AcDbLine
 10
141.5764974154263
 20
-224.0715907945432
 30
0.0
 11
136.2770950273302
 21
-224.0715907945432
 31
0.0
  0
ARC
  5
38F0
330
A
100
AcDbEntity
  8
0
  6
Continuous
 62
     7
370
     0
100
AcDbCircle
 10
133.6431815891192
 20
-228.3215907945421
 30
0.0
 40
9.000000000000117
100
AcDbArc
 50
236.0079404029804
 51
331.8213572594682
  0
ARC
  5
38F1
330
A
100
AcDbEntity
  8
0
  6
Continuous
 62
     7
370
     0
100
AcDbCircle
 10
133.6431815891183
 20
-228.3215907945421
 30
0.0
 40
5.000000000000047
100
AcDbArc
 50
241.9357163453364
 51
301.7883306170433
  0
LINE
  5
38F2
330
A
100
AcDbEntity
  8
0
  6
Continuous
 62
     7
370
     0
100
AcDbLine
 10
136.2770950273302
 20
-232.5715907945408
 30
0.0
 11
141.5764974154263
 21
-232.5715907945408
 31
0.0
  0
ARC
  5
38F3
330
A
100
AcDbEntity
  8
0
  6
Continuous
 62
     7
370
     0
100
AcDbCircle
 10
133.6431815891233
 20
-228.3215907945421
 30
0.0
 40
8.999999999999875
100
AcDbArc
 50
331.8213572594682
 51
28.17864274053182
  0
ARC
  5
38F4
330
A
100
AcDbEntity
  8
0
  6
Continuous
 62
     7
370
     0
100
AcDbCircle
 10
133.6431815891233
 20
-228.3215907945421
 30
0.0
 40
5.000000000000047
100
AcDbArc
 50
53.1301023541625
 51
58.21166938295668
  0
ARC
  5
38F5
330
A
100
AcDbEntity
  8
0
  6
Continuous
 62
     7
370
     0
100
AcDbCircle
 10
133.6431815891233
 20
-228.3215907945421
 30
0.0
 40
4.999999999999981
100
AcDbArc
 50
301.7883306170433
 51
306.8698976458375
  0
LINE
  5
38F6
330
A
100
AcDbEntity
  8
0
  6
Continuous
 62
     7
370
     0
100
AcDbLine
 10
-6.928203285429844
 20
-232.321590794541
 30
0.0
 11
4.898979430404324
 21
-232.321590794541
 31
0.0
  0
LINE
  5
38F7
330
A
100
AcDbEntity
  8
0
  6
Continuous
 62
     7
370
     0
100
AcDbLine
 10
4.898979430404324
 20
-224.3215907945435
 30
0.0
 11
-6.928203285428708
 21
-224.3215907945435
 31
0.0
  0
ELLIPSE
  5
38F8
330
A
100
AcDbEntity
  8
0
  6
Continuous
 62
     9
370
     0
100
AcDbEllipse
 10
-0.0000000551588073
 20
-228.3215907945422
 30
0.0
 11
0.0
 21
8.000000000000008
 31
0.0
210
0.0
220
0.0
230
1.0
 40
0.7071067811864362
 41
4.188790204786393
 42
5.235987755982973
  0
ELLIPSE
  5
38F9
330
A
100
AcDbEntity
  8
0
  6
Continuous
 62
     7
370
     0
100
AcDbEllipse
 10
7.071067756708316
 20
-228.3215907945422
 30
0.0
 11
0.0
 21
-8.000000000000008
 31
0.0
210
0.0
220
0.0
230
1.0
 40
0.707106781186436
 41
6.283185307179585
 42
7.330382858376184
  0
ELLIPSE
  5
38FA
330
A
100
AcDbEntity
  8
0
  6
Continuous
 62
     7
370
     0
100
AcDbEllipse
 10
7.071067756708316
 20
-228.3215907945422
 30
0.0
 11
0.0
 21
-8.000000000000008
 31
0.0
210
0.0
220
0.0
230
1.0
 40
0.707106781186436
 41
3.141592653589792
 42
3.345889427595037
  0
ELLIPSE
  5
38FB
330
A
100
AcDbEntity
  8
0
  6
Continuous
 62
     7
370
     0
100
AcDbEllipse
 10
7.071067756708316
 20
-228.3215907945422
 30
0.0
 11
0.0
 21
-8.000000000000008
 31
0.0
210
0.0
220
0.0
230
1.0
 40
0.707106781186436
 41
4.152313674157738
 42
4.188790204786391
  0
ELLIPSE
  5
38FC
330
A
100
AcDbEntity
  8
0
  6
Continuous
 62
     7
370
     0
100
AcDbEllipse
 10
126.5721137772532
 20
-228.3215907945422
 30
0.0
 11
0.0
 21
8.000000000000008
 31
0.0
210
0.0
220
0.0
230
1.0
 40
0.7071067811864359
 41
5.235987755982986
 42
6.283185307179585
  0
ELLIPSE
  5
38FD
330
A
100
AcDbEntity
  8
0
  6
Continuous
 62
     7
370
     0
100
AcDbEllipse
 10
7.071067756708316
 20
-228.3215907945422
 30
0.0
 11
0.0
 21
-8.000000000000008
 31
0.0
210
0.0
220
0.0
230
1.0
 40
0.7071067811864383
 41
5.235987755982986
 42
5.272464286611276
  0
ELLIPSE
  5
38FE
330
A
100
AcDbEntity
  8
0
  6
Continuous
 62
     7
370
     0
100
AcDbEllipse
 10
7.071067756708316
 20
-228.3215907945422
 30
0.0
 11
0.0
 21
-8.000000000000008
 31
0.0
210
0.0
220
0.0
230
1.0
 40
0.707106781186436
 41
6.078888533174063
 42
6.283185307179585
  0
ELLIPSE
  5
38FF
330
A
100
AcDbEntity
  8
0
  6
Continuous
 62
     7
370
     0
100
AcDbEllipse
 10
7.071067756708316
 20
-228.3215907945422
 30
0.0
 11
0.0
 21
-8.000000000000008
 31
0.0
210
0.0
220
0.0
230
1.0
 40
0.707106781186436
 41
2.094395102393181
 42
3.141592653589792
  0
LINE
  5
3900
330
A
100
AcDbEntity
  8
0
  6
Continuous
 62
     7
370
     0
100
AcDbLine
 10
131.4710932628172
 20
-224.3215907945435
 30
0.0
 11
138.5421610746841
 21
-224.3215907945435
 31
0.0
  0
ELLIPSE
  5
3901
330
A
100
AcDbEntity
  8
0
  6
Continuous
 62
     9
370
     0
100
AcDbEllipse
 10
133.6431815891203
 20
-228.3215907945422
 30
0.0
 11
0.0
 21
-8.000000000000008
 31
0.0
210
0.0
220
0.0
230
1.0
 40
0.707106781186436
 41
1.047197551196584
 42
2.094395102393206
  0
LINE
  5
3902
330
A
100
AcDbEntity
  8
0
  6
Continuous
 62
     7
370
     0
100
AcDbLine
 10
138.5421610746841
 20
-232.321590794541
 30
0.0
 11
131.4710932628172
 21
-232.321590794541
 31
0.0
  0
ELLIPSE
  5
3903
330
A
100
AcDbEntity
  8
0
  6
Continuous
 62
     7
370
     0
100
AcDbEllipse
 10
126.5721137772532
 20
-228.3215907945422
 30
0.0
 11
0.0
 21
8.000000000000008
 31
0.0
210
0.0
220
0.0
230
1.0
 40
0.7071067811864391
 41
3.141592653589792
 42
4.188790204786393
  0
LINE
  5
3904
330
A
100
AcDbEntity
  8
0
  6
Continuous
 62
     7
370
     0
100
AcDbLine
 10
11.97004724227236
 20
-232.321590794541
 30
0.0
 11
4.898979430405233
 21
-232.321590794541
 31
0.0
  0
LINE
  5
3905
330
A
100
AcDbEntity
  8
0
  6
Continuous
 62
     7
370
     0
100
AcDbLine
 10
4.898979430405233
 20
-224.3215907945435
 30
0.0
 11
11.97004724227236
 21
-224.3215907945435
 31
0.0
  0
LINE
  5
3906
330
A
100
AcDbEntity
  8
0
  6
Continuous
 62
     7
370
     0
100
AcDbLine
 10
140.5713848193911
 20
-224.3215907945435
 30
0.0
 11
138.5421610746823
 21
-224.3215907945435
 31
0.0
  0
LINE
  5
3907
330
A
100
AcDbEntity
  8
0
  6
Continuous
 62
     7
370
     0
100
AcDbLine
 10
138.5421610746832
 20
-232.321590794541
 30
0.0
 11
140.5713848193902
 21
-232.321590794541
 31
0.0
  0
LINE
  5
3908
330
A
100
AcDbEntity
  8
0
  6
Continuous
 62
     7
370
     0
100
AcDbLine
 10
4.599999923920222
 20
-219.3215907945408
 30
0.0
 11
4.599999923920222
 21
-224.071590794541
 31
0.0
  0
ARC
  5
3909
330
A
100
AcDbEntity
  8
0
  6
Continuous
 62
     7
370
     0
100
AcDbCircle
 10
-0.0000000760796866
 20
-249.4080047444421
 30
0.0
 40
12.7628916068564
100
AcDbArc
 50
71.26183772632313
 51
108.7381622736768
  0
LINE
  5
390A
330
A
100
AcDbEntity
  8
0
  6
Continuous
 62
     7
370
     0
100
AcDbLine
 10
-9.000000076079686
 20
-232.5715907945408
 30
0.0
 11
-9.000000076079686
 21
-224.071590794541
 31
0.0
  0
LINE
  5
390B
330
A
100
AcDbEntity
  8
0
  6
Continuous
 62
     7
370
     0
100
AcDbLine
 10
4.599999923920222
 20
-232.5715907945408
 30
0.0
 11
-9.000000076079686
 21
-232.5715907945408
 31
0.0
  0
LINE
  5
390C
330
A
100
AcDbEntity
  8
0
  6
Continuous
 62
     7
370
     0
100
AcDbLine
 10
4.599999923920222
 20
-232.5715907945408
 30
0.0
 11
4.599999923920222
 21
-237.3215907945412
 31
0.0
  0
LINE
  5
390D
330
A
100
AcDbEntity
  8
0
  6
Continuous
 62
     7
370
     0
100
AcDbLine
 10
-9.000000076079686
 20
-224.071590794541
 30
0.0
 11
4.599999923920222
 21
-224.071590794541
 31
0.0
  0
LINE
  5
390E
330
A
100
AcDbEntity
  8
0
  6
Continuous
 62
     7
370
     0
100
AcDbLine
 10
6.999999923920313
 20
-224.071590794541
 30
0.0
 11
6.999999923920313
 21
-223.3215907945409
 31
0.0
  0
LINE
  5
390F
330
A
100
AcDbEntity
  8
0
  6
Continuous
 62
     7
370
     0
100
AcDbLine
 10
6.999999923920313
 20
-224.071590794541
 30
0.0
 11
4.599999923920222
 21
-224.071590794541
 31
0.0
  0
LINE
  5
3910
330
A
100
AcDbEntity
  8
0
  6
Continuous
 62
     7
370
     0
100
AcDbLine
 10
6.999999923920313
 20
-233.321590794541
 30
0.0
 11
6.999999923920313
 21
-232.5715907945408
 31
0.0
  0
LINE
  5
3911
330
A
100
AcDbEntity
  8
0
  6
Continuous
 62
     7
370
     0
100
AcDbLine
 10
4.599999923920222
 20
-232.5715907945408
 30
0.0
 11
6.999999923920313
 21
-232.5715907945408
 31
0.0
  0
LINE
  5
3912
330
A
100
AcDbEntity
  8
0
  6
Continuous
 62
     9
370
     0
100
AcDbLine
 10
-21.00000007607969
 20
-243.3215907945408
 30
0.0
 11
-21.00000007607969
 21
-228.3215907945408
 31
0.0
  0
LINE
  5
3913
330
A
100
AcDbEntity
  8
0
  6
Continuous
 62
     7
370
     0
100
AcDbLine
 10
-18.00000007607969
 20
-216.321590794541
 30
0.0
 11
-18.00000007607969
 21
-228.3215907945408
 31
0.0
  0
LINE
  5
3914
330
A
100
AcDbEntity
  8
0
  6
Continuous
 62
     7
370
     0
100
AcDbLine
 10
-18.00000007607969
 20
-228.3215907945408
 30
0.0
 11
-18.00000007607969
 21
-240.3215907945409
 31
0.0
  0
LINE
  5
3915
330
A
100
AcDbEntity
  8
0
  6
Continuous
 62
     9
370
     0
100
AcDbLine
 10
-21.00000007607969
 20
-228.3215907945408
 30
0.0
 11
-21.00000007607969
 21
-213.3215907945409
 31
0.0
  0
LINE
  5
3916
330
A
100
AcDbEntity
  8
0
  6
Continuous
 62
     7
370
     0
100
AcDbLine
 10
-23.00000007607969
 20
-213.3215907945409
 30
0.0
 11
-23.00000007607969
 21
-228.3215907945408
 31
0.0
  0
LINE
  5
3917
330
A
100
AcDbEntity
  8
0
  6
Continuous
 62
     7
370
     0
100
AcDbLine
 10
-23.00000007607969
 20
-228.3215907945408
 30
0.0
 11
-23.00000007607969
 21
-243.3215907945408
 31
0.0
  0
LINE
  5
3918
330
A
100
AcDbEntity
  8
0
  6
Continuous
 62
     9
370
     0
100
AcDbLine
 10
-54.93130652744366
 20
-230.421590794541
 30
0.0
 11
-23.00000007607969
 21
-230.421590794541
 31
0.0
  0
LINE
  5
3919
330
A
100
AcDbEntity
  8
0
  6
Continuous
 62
     9
370
     0
100
AcDbLine
 10
-23.00000007607969
 20
-226.221590794541
 30
0.0
 11
-54.93130652744366
 21
-226.221590794541
 31
0.0
  0
LINE
  5
391A
330
A
100
AcDbEntity
  8
0
  6
Continuous
 62
     9
370
     0
100
AcDbLine
 10
131.9931769933514
 20
-223.6016877410963
 30
0.0
 11
131.9931769933514
 21
-224.3215907945435
 31
0.0
  0
LINE
  5
391B
330
A
100
AcDbEntity
  8
0
  6
Continuous
 62
     9
370
     0
100
AcDbLine
 10
131.9931769933514
 20
-232.321590794541
 30
0.0
 11
131.9931769933514
 21
-233.0414938479878
 31
0.0
  0
LINE
  5
391C
330
A
100
AcDbEntity
  8
0
  6
Continuous
 62
     9
370
     0
100
AcDbLine
 10
135.2931769933514
 20
-233.041497061195
 30
0.0
 11
135.2931769933514
 21
-232.321590794541
 31
0.0
  0
LINE
  5
391D
330
A
100
AcDbEntity
  8
0
  6
Continuous
 62
     9
370
     0
100
AcDbLine
 10
135.2931769933514
 20
-224.3215907945435
 30
0.0
 11
135.2931769933514
 21
-223.6016845278893
 31
0.0
  0
LINE
  5
391E
330
A
100
AcDbEntity
  8
0
  6
Continuous
 62
     9
370
     0
100
AcDbLine
 10
-1.650000055126611
 20
-224.071590794541
 30
0.0
 11
-1.650000055126611
 21
-224.3215907945435
 31
0.0
  0
LINE
  5
391F
330
A
100
AcDbEntity
  8
0
  6
Continuous
 62
     9
370
     0
100
AcDbLine
 10
-1.650000055126611
 20
-232.321590794541
 30
0.0
 11
-1.650000055126611
 21
-232.5715907945408
 31
0.0
  0
LINE
  5
3920
330
A
100
AcDbEntity
  8
0
  6
Continuous
 62
     9
370
     0
100
AcDbLine
 10
1.649999944873343
 20
-232.5715907945408
 30
0.0
 11
1.649999944873343
 21
-232.321590794541
 31
0.0
  0
LINE
  5
3921
330
A
100
AcDbEntity
  8
0
  6
Continuous
 62
     9
370
     0
100
AcDbLine
 10
1.649999944873343
 20
-224.3215907945435
 30
0.0
 11
1.649999944873343
 21
-224.071590794541
 31
0.0
  0
LINE
  5
3922
330
A
100
AcDbEntity
  8
0
  6
Continuous
 62
     7
370
     0
100
AcDbLine
 10
-54.93130652744366
 20
-230.8215907945408
 30
0.0
 11
-23.00000007607969
 21
-230.8215907945408
 31
0.0
  0
LINE
  5
3923
330
A
100
AcDbEntity
  8
0
  6
Continuous
 62
     7
370
     0
100
AcDbLine
 10
-23.00000007607969
 20
-225.8215907945409
 30
0.0
 11
-54.93130652744366
 21
-225.8215907945409
 31
0.0
  0
LINE
  5
3924
330
A
100
AcDbEntity
  8
0
  6
Continuous
 62
     7
370
     0
100
AcDbLine
 10
-54.93130652744366
 20
-225.8215907945409
 30
0.0
 11
-61.80000007607986
 21
-228.3215907945408
 31
0.0
  0
LINE
  5
3925
330
A
100
AcDbEntity
  8
0
  6
Continuous
 62
     7
370
     0
100
AcDbLine
 10
-61.80000007607986
 20
-228.3215907945408
 30
0.0
 11
-54.93130652744366
 21
-230.8215907945408
 31
0.0
  0
LINE
  5
3926
330
A
100
AcDbEntity
  8
0
  6
Continuous
 62
     7
370
     0
100
AcDbLine
 10
137.3931769933513
 20
-237.7215907945402
 30
0.0
 11
137.3931769933513
 21
-236.9715907945406
 31
0.0
  0
LINE
  5
3927
330
A
100
AcDbEntity
  8
0
  6
Continuous
 62
     7
370
     0
100
AcDbLine
 10
129.8931769933513
 20
-236.9715907945406
 30
0.0
 11
129.8931769933513
 21
-237.7215907945402
 31
0.0
  0
LINE
  5
3928
330
A
100
AcDbEntity
  8
0
  6
Continuous
 62
     7
370
     0
100
AcDbLine
 10
137.3931769933513
 20
-236.9715907945406
 30
0.0
 11
137.0666355769622
 21
-236.6450493781517
 31
0.0
  0
LINE
  5
3929
330
A
100
AcDbEntity
  8
0
  6
Continuous
 62
     7
370
     0
100
AcDbLine
 10
130.2197210884712
 20
-236.6450466994206
 30
0.0
 11
129.8931769933513
 21
-236.9715907945406
 31
0.0
  0
LINE
  5
392A
330
A
100
AcDbEntity
  8
0
  6
Continuous
 62
     7
370
     0
100
AcDbLine
 10
131.6431769933513
 20
-223.7390171053481
 30
0.0
 11
131.6431769933513
 21
-224.3215907945435
 31
0.0
  0
LINE
  5
392B
330
A
100
AcDbEntity
  8
0
  6
Continuous
 62
     7
370
     0
100
AcDbLine
 10
131.6431769933513
 20
-232.321590794541
 30
0.0
 11
131.6431769933513
 21
-232.9041644837358
 31
0.0
  0
LINE
  5
392C
330
A
100
AcDbEntity
  8
0
  6
Continuous
 62
     7
370
     0
100
AcDbLine
 10
135.6431769933513
 20
-232.9041684952499
 30
0.0
 11
135.6431769933513
 21
-232.321590794541
 31
0.0
  0
LINE
  5
392D
330
A
100
AcDbEntity
  8
0
  6
Continuous
 62
     7
370
     0
100
AcDbLine
 10
135.6431769933513
 20
-224.3215907945435
 30
0.0
 11
135.6431769933513
 21
-223.7390130938341
 31
0.0
  0
LINE
  5
392E
330
A
100
AcDbEntity
  8
0
  6
Continuous
 62
     7
370
     0
100
AcDbLine
 10
3.749999944873252
 20
-237.7215907945391
 30
0.0
 11
3.749999944873252
 21
-237.2159118156407
 31
0.0
  0
LINE
  5
392F
330
A
100
AcDbEntity
  8
0
  6
Continuous
 62
     7
370
     0
100
AcDbLine
 10
-3.750000055126747
 20
-237.2158951613973
 30
0.0
 11
-3.750000055126747
 21
-237.7215907945391
 31
0.0
  0
LINE
  5
3930
330
A
100
AcDbEntity
  8
0
  6
Continuous
 62
     7
370
     0
100
AcDbLine
 10
-2.000000055126747
 20
-224.071590794541
 30
0.0
 11
-2.000000055126747
 21
-224.3215907945435
 31
0.0
  0
LINE
  5
3931
330
A
100
AcDbEntity
  8
0
  6
Continuous
 62
     7
370
     0
100
AcDbLine
 10
-2.000000055126747
 20
-232.321590794541
 30
0.0
 11
-2.000000055126747
 21
-232.5715907945408
 31
0.0
  0
LINE
  5
3932
330
A
100
AcDbEntity
  8
0
  6
Continuous
 62
     7
370
     0
100
AcDbLine
 10
1.999999944873252
 20
-232.5715907945408
 30
0.0
 11
1.999999944873252
 21
-232.321590794541
 31
0.0
  0
LINE
  5
3933
330
A
100
AcDbEntity
  8
0
  6
Continuous
 62
     7
370
     0
100
AcDbLine
 10
1.999999944873252
 20
-224.3215907945435
 30
0.0
 11
1.999999944873252
 21
-224.071590794541
 31
0.0
  0
ARC
  5
3934
330
A
100
AcDbEntity
  8
0
  6
Continuous
 62
     7
370
     0
100
AcDbCircle
 10
-0.0000000551588073
 20
-228.3215907945422
 30
0.0
 40
8.0
100
AcDbArc
 50
150.0000000000027
 51
180.0
  0
ARC
  5
3935
330
A
100
AcDbEntity
  8
0
  6
Continuous
 62
     7
370
     0
100
AcDbCircle
 10
-0.0000000551588073
 20
-228.3215907945422
 30
0.0
 40
8.000000000000008
100
AcDbArc
 50
180.0
 51
209.9999999999973
  0
LINE
  5
3936
330
A
100
AcDbEntity
  8
0
  6
Continuous
 62
     7
370
     0
100
AcDbLine
 10
7.071067756708316
 20
-236.3215907945396
 30
0.0
 11
126.5721137772532
 21
-236.3215907945396
 31
0.0
  0
LINE
  5
3937
330
A
100
AcDbEntity
  8
0
  6
Continuous
 62
     7
370
     0
100
AcDbLine
 10
126.5721137772532
 20
-220.3215907945447
 30
0.0
 11
7.071067756708316
 21
-220.3215907945447
 31
0.0
  0
ARC
  5
3938
330
A
100
AcDbEntity
  8
0
  6
Continuous
 62
     7
370
     0
100
AcDbCircle
 10
133.6431815891203
 20
-228.3215907945422
 30
0.0
 40
7.999999999999753
100
AcDbArc
 50
330.0000000000027
 51
29.99999999999729
  0
LINE
  5
3939
330
A
100
AcDbEntity
  8
0
  6
Continuous
 62
     7
370
     0
100
AcDbLine
 10
4.099330307047239
 20
-237.3215907945412
 30
0.0
 11
4.099999923920222
 21
-237.3215907945412
 31
0.0
  0
LINE
  5
393A
330
A
100
AcDbEntity
  8
0
  6
Continuous
 62
     7
370
     0
100
AcDbLine
 10
4.099999923920222
 20
-237.3215907945412
 30
0.0
 11
4.599999923920222
 21
-237.3215907945412
 31
0.0
  0
LINE
  5
393B
330
A
100
AcDbEntity
  8
0
  6
Continuous
 62
     7
370
     0
100
AcDbLine
 10
-18.00000007607969
 20
-237.3215907945412
 30
0.0
 11
-4.100000076079822
 21
-237.3215907945412
 31
0.0
  0
LINE
  5
393C
330
A
100
AcDbEntity
  8
0
  6
Continuous
 62
     7
370
     0
100
AcDbLine
 10
-4.100000076079822
 20
-237.3215907945412
 30
0.0
 11
-4.09986271219077
 21
-237.3215907945412
 31
0.0
  0
LINE
  5
393D
330
A
100
AcDbEntity
  8
0
  6
Continuous
 62
     7
370
     0
100
AcDbLine
 10
4.599999923920222
 20
-219.3215907945408
 30
0.0
 11
-18.00000007607969
 21
-219.3215907945408
 31
0.0
  0
ARC
  5
393E
330
A
100
AcDbEntity
  8
0
  6
Continuous
 62
     7
370
     0
100
AcDbCircle
 10
2.007592648695435
 20
-223.5970351596757
 30
0.0
 40
4.999999999999946
100
AcDbArc
 50
3.157958585156291
 51
58.76955447899772
  0
ARC
  5
393F
330
A
100
AcDbEntity
  8
0
  6
Continuous
 62
     7
370
     0
100
AcDbCircle
 10
2.007592648695435
 20
-233.0461464294062
 30
0.0
 40
4.999999999999955
100
AcDbArc
 50
301.2304455210022
 51
356.8420414148437
  0
ARC
  5
3940
330
A
100
AcDbEntity
  8
0
  6
Continuous
 62
     7
370
     0
100
AcDbCircle
 10
-21.00000007607969
 20
-216.321590794541
 30
0.0
 40
3.000000000000113
100
AcDbArc
 50
0.0
 51
90.0
  0
ARC
  5
3941
330
A
100
AcDbEntity
  8
0
  6
Continuous
 62
     7
370
     0
100
AcDbCircle
 10
-21.00000007607969
 20
-240.3215907945409
 30
0.0
 40
3.000000000000001
100
AcDbArc
 50
270.0
 51
0.0
  0
LINE
  5
3942
330
A
100
AcDbEntity
  8
0
  6
Continuous
 62
     7
370
     0
100
AcDbLine
 10
-23.00000007607969
 20
-243.3215907945408
 30
0.0
 11
-21.00000007607969
 21
-243.3215907945408
 31
0.0
  0
LINE
  5
3943
330
A
100
AcDbEntity
  8
0
  6
Continuous
 62
     7
370
     0
100
AcDbLine
 10
-21.00000007607969
 20
-213.3215907945409
 30
0.0
 11
-23.00000007607969
 21
-213.3215907945409
 31
0.0
  0
LINE
  5
3944
330
A
100
AcDbEntity
  8
0
  6
Continuous
 62
     7
370
     0
100
AcDbLine
 10
-54.93130652744366
 20
84.17840920545916
 30
0.0
 11
-54.93130652744366
 21
79.17840920545916
 31
0.0
  0
LINE
  5
3945
330
A
100
AcDbEntity
  8
0
  6
Continuous
 62
     7
370
     0
100
AcDbLine
 10
2.808734270958211
 20
90.32840920545766
 30
0.0
 11
-1.373494750284862
 21
90.32840920545766
 31
0.0
  0
LINE
  5
3946
330
A
100
AcDbEntity
  8
0
  6
Continuous
 62
     7
370
     0
100
AcDbLine
 10
-1.373494750284862
 20
90.32840920545766
 30
0.0
 11
-2.674022563302742
 21
90.32840920545766
 31
0.0
  0
LINE
  5
3947
330
A
100
AcDbEntity
  8
0
  6
Continuous
 62
     7
370
     0
100
AcDbLine
 10
3.749999944873252
 20
91.07840920545744
 30
0.0
 11
-1.373494750284862
 21
91.07840920545744
 31
0.0
  0
LINE
  5
3948
330
A
100
AcDbEntity
  8
0
  6
Continuous
 62
     7
370
     0
100
AcDbLine
 10
-1.373494750284862
 20
91.07840920545744
 30
0.0
 11
-3.750000055126747
 21
91.07840920545744
 31
0.0
  0
LINE
  5
3949
330
A
100
AcDbEntity
  8
0
  6
Continuous
 62
     9
370
     0
100
AcDbLine
 10
156.1431815891223
 20
90.678409205457
 30
0.0
 11
111.1431815891412
 21
90.678409205457
 31
0.0
  0
LINE
  5
394A
330
A
100
AcDbEntity
  8
0
  6
Continuous
 62
     7
370
     0
100
AcDbLine
 10
156.1431815891223
 20
90.678409205457
 30
0.0
 11
156.1431815891223
 21
71.67840920546564
 31
0.0
  0
ARC
  5
394B
330
A
100
AcDbEntity
  8
0
  6
Continuous
 62
     7
370
     0
100
AcDbCircle
 10
152.1431815891233
 20
71.67840920546564
 30
0.0
 40
3.999999999999891
100
AcDbArc
 50
270.0
 51
0.0
  0
LINE
  5
394C
330
A
100
AcDbEntity
  8
0
  6
Continuous
 62
     7
370
     0
100
AcDbLine
 10
115.1431815891392
 20
67.67840920546757
 30
0.0
 11
152.1431815891233
 21
67.67840920546757
 31
0.0
  0
ARC
  5
394D
330
A
100
AcDbEntity
  8
0
  6
Continuous
 62
     7
370
     0
100
AcDbCircle
 10
115.1431815891392
 20
71.67840920546564
 30
0.0
 40
4.000000000000002
100
AcDbArc
 50
180.0
 51
270.0
  0
LINE
  5
394E
330
A
100
AcDbEntity
  8
0
  6
Continuous
 62
     7
370
     0
100
AcDbLine
 10
111.1431815891412
 20
90.678409205457
 30
0.0
 11
111.1431815891412
 21
71.67840920546564
 31
0.0
  0
LINE
  5
394F
330
A
100
AcDbEntity
  8
0
  6
Continuous
 62
     7
370
     0
100
AcDbLine
 10
111.1431815891403
 20
92.67840920545598
 30
0.0
 11
156.1431815891212
 21
92.67840920545598
 31
0.0
  0
LINE
  5
3950
330
A
100
AcDbEntity
  8
0
  6
Continuous
 62
     7
370
     0
100
AcDbLine
 10
156.1431815891212
 20
92.67840920545529
 30
0.0
 11
156.1431815891212
 21
90.678409205457
 31
0.0
  0
LINE
  5
3951
330
A
100
AcDbEntity
  8
0
  6
Continuous
 62
     7
370
     0
100
AcDbLine
 10
111.1431815891403
 20
90.678409205457
 30
0.0
 11
111.1431815891403
 21
92.67840920545451
 31
0.0
  0
ELLIPSE
  5
3952
330
A
100
AcDbEntity
  8
0
  6
Continuous
 62
     7
370
     0
100
AcDbEllipse
 10
7.071067756708316
 20
81.67840920546041
 30
0.0
 11
0.0
 21
-8.000000000000008
 31
0.0
210
0.0
220
0.0
230
1.0
 40
0.7071067811864359
 41
5.235987755982986
 42
6.283185307179585
  0
ELLIPSE
  5
3953
330
A
100
AcDbEntity
  8
0
  6
Continuous
 62
     9
370
     0
100
AcDbEllipse
 10
-0.0000000551588073
 20
81.67840920546041
 30
0.0
 11
0.0
 21
8.000000000000008
 31
0.0
210
0.0
220
0.0
230
1.0
 40
0.7071067811864353
 41
1.047197551196599
 42
2.094395102393193
  0
LINE
  5
3954
330
A
100
AcDbEntity
  8
0
  6
Continuous
 62
     7
370
     0
100
AcDbLine
 10
-4.898979540722621
 20
85.67840920545927
 30
0.0
 11
2.172088271144275
 21
85.67840920545927
 31
0.0
  0
ELLIPSE
  5
3955
330
A
100
AcDbEntity
  8
0
  6
Continuous
 62
     7
370
     0
100
AcDbEllipse
 10
7.071067756708316
 20
81.67840920546041
 30
0.0
 11
0.0
 21
-8.000000000000008
 31
0.0
210
0.0
220
0.0
230
1.0
 40
0.7071067811864378
 41
3.141592653589792
 42
4.188790204786393
  0
LINE
  5
3956
330
A
100
AcDbEntity
  8
0
  6
Continuous
 62
     7
370
     0
100
AcDbLine
 10
2.172088271144275
 20
77.67840920546177
 30
0.0
 11
-4.898979540722621
 21
77.67840920546177
 31
0.0
  0
LINE
  5
3957
330
A
100
AcDbEntity
  8
0
  6
Continuous
 62
     7
370
     0
100
AcDbLine
 10
-6.928203285429844
 20
77.67840920546177
 30
0.0
 11
-4.898979540720802
 21
77.67840920546177
 31
0.0
  0
LINE
  5
3958
330
A
100
AcDbEntity
  8
0
  6
Continuous
 62
     7
370
     0
100
AcDbLine
 10
-4.898979540720802
 20
85.67840920545927
 30
0.0
 11
-6.928203285428708
 21
85.67840920545927
 31
0.0
  0
LINE
  5
3959
330
A
100
AcDbEntity
  8
0
  6
Continuous
 62
     7
370
     0
100
AcDbLine
 10
4.599999923920222
 20
90.67840920545927
 30
0.0
 11
4.599999923920222
 21
88.87477269902285
 31
0.0
  0
LINE
  5
395A
330
A
100
AcDbEntity
  8
0
  6
Continuous
 62
     7
370
     0
100
AcDbLine
 10
-4.100000076079822
 20
90.67840920545927
 30
0.0
 11
-2.720672013353805
 21
90.30890496997017
 31
0.0
  0
LINE
  5
395B
330
A
100
AcDbEntity
  8
0
  6
Continuous
 62
     7
370
     0
100
AcDbLine
 10
-9.000000076079686
 20
85.92840920545915
 30
0.0
 11
2.278495378540355
 21
85.92840920545915
 31
0.0
  0
LINE
  5
395C
330
A
100
AcDbEntity
  8
0
  6
Continuous
 62
     7
370
     0
100
AcDbLine
 10
2.278495378541265
 20
77.42840920545927
 30
0.0
 11
-9.000000076079686
 21
77.42840920545927
 31
0.0
  0
LINE
  5
395D
330
A
100
AcDbEntity
  8
0
  6
Continuous
 62
     7
370
     0
100
AcDbLine
 10
4.599999923920222
 20
74.48204571189819
 30
0.0
 11
4.599999923920222
 21
72.67840920545928
 31
0.0
  0
ARC
  5
395E
330
A
100
AcDbEntity
  8
0
  6
Continuous
 62
     7
370
     0
100
AcDbCircle
 10
0.0300115344514325
 20
102.6701690813298
 30
0.0
 40
12.66361363951685
100
AcDbArc
 50
257.4546916381731
 51
288.7471484713618
  0
LINE
  5
395F
330
A
100
AcDbEntity
  8
0
  6
Continuous
 62
     7
370
     0
100
AcDbLine
 10
-9.000000076079686
 20
77.42840920545927
 30
0.0
 11
-9.000000076079686
 21
85.92840920545915
 31
0.0
  0
LINE
  5
3960
330
A
100
AcDbEntity
  8
0
  6
Continuous
 62
     9
370
     0
100
AcDbLine
 10
-21.00000007607969
 20
66.67840920545916
 30
0.0
 11
-21.00000007607969
 21
96.67840920545927
 31
0.0
  0
LINE
  5
3961
330
A
100
AcDbEntity
  8
0
  6
Continuous
 62
     7
370
     0
100
AcDbLine
 10
-18.00000007607969
 20
93.67840920545928
 30
0.0
 11
-18.00000007607969
 21
69.67840920545928
 31
0.0
  0
LINE
  5
3962
330
A
100
AcDbEntity
  8
0
  6
Continuous
 62
     7
370
     0
100
AcDbLine
 10
-23.00000007607969
 20
96.67840920545927
 30
0.0
 11
-23.00000007607969
 21
66.67840920545916
 31
0.0
  0
LINE
  5
3963
330
A
100
AcDbEntity
  8
0
  6
Continuous
 62
     9
370
     0
100
AcDbLine
 10
-54.93130652744366
 20
79.57840920545937
 30
0.0
 11
-23.00000007607969
 21
79.57840920545937
 31
0.0
  0
LINE
  5
3964
330
A
100
AcDbEntity
  8
0
  6
Continuous
 62
     9
370
     0
100
AcDbLine
 10
-23.00000007607969
 20
83.77840920545919
 30
0.0
 11
-54.93130652744366
 21
83.77840920545919
 31
0.0
  0
LINE
  5
3965
330
A
100
AcDbEntity
  8
0
  6
Continuous
 62
     9
370
     0
100
AcDbLine
 10
1.649999944873343
 20
77.42840920545927
 30
0.0
 11
1.649999944873343
 21
77.67840920546177
 31
0.0
  0
LINE
  5
3966
330
A
100
AcDbEntity
  8
0
  6
Continuous
 62
     9
370
     0
100
AcDbLine
 10
1.649999944873343
 20
85.67840920545927
 30
0.0
 11
1.649999944873343
 21
85.92840920545915
 31
0.0
  0
LINE
  5
3967
330
A
100
AcDbEntity
  8
0
  6
Continuous
 62
     9
370
     0
100
AcDbLine
 10
-1.650000055126611
 20
85.92840920545915
 30
0.0
 11
-1.650000055126611
 21
85.67840920545927
 31
0.0
  0
LINE
  5
3968
330
A
100
AcDbEntity
  8
0
  6
Continuous
 62
     9
370
     0
100
AcDbLine
 10
-1.650000055126611
 20
77.67840920546177
 30
0.0
 11
-1.650000055126611
 21
77.42840920545927
 31
0.0
  0
LINE
  5
3969
330
A
100
AcDbEntity
  8
0
  6
Continuous
 62
     7
370
     0
100
AcDbLine
 10
-54.93130652744366
 20
79.17840920545916
 30
0.0
 11
-23.00000007607969
 21
79.17840920545927
 31
0.0
  0
LINE
  5
396A
330
A
100
AcDbEntity
  8
0
  6
Continuous
 62
     7
370
     0
100
AcDbLine
 10
-23.00000007607969
 20
84.17840920545916
 30
0.0
 11
-54.93130652744366
 21
84.17840920545916
 31
0.0
  0
LINE
  5
396B
330
A
100
AcDbEntity
  8
0
  6
Continuous
 62
     7
370
     0
100
AcDbLine
 10
-54.93130652744366
 20
84.17840920545916
 30
0.0
 11
-61.80000007607986
 21
81.67840920545927
 31
0.0
  0
LINE
  5
396C
330
A
100
AcDbEntity
  8
0
  6
Continuous
 62
     7
370
     0
100
AcDbLine
 10
-61.80000007607986
 20
81.67840920545927
 30
0.0
 11
-54.93130652744366
 21
79.17840920545916
 31
0.0
  0
LINE
  5
396D
330
A
100
AcDbEntity
  8
0
  6
Continuous
 62
     7
370
     0
100
AcDbLine
 10
-3.750000055126747
 20
91.07840920545744
 30
0.0
 11
-3.750000055126747
 21
90.57270719266103
 31
0.0
  0
LINE
  5
396E
330
A
100
AcDbEntity
  8
0
  6
Continuous
 62
     7
370
     0
100
AcDbLine
 10
3.749999944873252
 20
90.57270849486656
 30
0.0
 11
3.749999944873252
 21
91.07840920545744
 31
0.0
  0
LINE
  5
396F
330
A
100
AcDbEntity
  8
0
  6
Continuous
 62
     7
370
     0
100
AcDbLine
 10
1.999999944873252
 20
77.42840920545927
 30
0.0
 11
1.999999944873252
 21
77.67840920546177
 31
0.0
  0
LINE
  5
3970
330
A
100
AcDbEntity
  8
0
  6
Continuous
 62
     7
370
     0
100
AcDbLine
 10
1.999999944873252
 20
85.67840920545927
 30
0.0
 11
1.999999944873252
 21
85.92840920545915
 31
0.0
  0
LINE
  5
3971
330
A
100
AcDbEntity
  8
0
  6
Continuous
 62
     7
370
     0
100
AcDbLine
 10
-2.000000055126747
 20
85.92840920545915
 30
0.0
 11
-2.000000055126747
 21
85.67840920545927
 31
0.0
  0
LINE
  5
3972
330
A
100
AcDbEntity
  8
0
  6
Continuous
 62
     7
370
     0
100
AcDbLine
 10
-2.000000055126747
 20
77.67840920546177
 30
0.0
 11
-2.000000055126747
 21
77.42840920545927
 31
0.0
  0
LINE
  5
3973
330
A
100
AcDbEntity
  8
0
  6
Continuous
 62
     7
370
     0
100
AcDbLine
 10
7.071067756708316
 20
73.67840920546303
 30
0.0
 11
111.1431815891362
 21
73.67840920546303
 31
0.0
  0
LINE
  5
3974
330
A
100
AcDbEntity
  8
0
  6
Continuous
 62
     7
370
     0
100
AcDbLine
 10
111.1431815891412
 20
89.67840920545802
 30
0.0
 11
7.071067756708316
 21
89.67840920545802
 31
0.0
  0
ARC
  5
3975
330
A
100
AcDbEntity
  8
0
  6
Continuous
 62
     7
370
     0
100
AcDbCircle
 10
-0.0000000551588073
 20
81.67840920546041
 30
0.0
 40
8.000000000000056
100
AcDbArc
 50
150.0000000000027
 51
209.9999999999973
  0
LINE
  5
3976
330
A
100
AcDbEntity
  8
0
  6
Continuous
 62
     7
370
     0
100
AcDbLine
 10
-18.00000007607969
 20
72.67840920545928
 30
0.0
 11
4.599999923920222
 21
72.67840920545928
 31
0.0
  0
LINE
  5
3977
330
A
100
AcDbEntity
  8
0
  6
Continuous
 62
     7
370
     0
100
AcDbLine
 10
-4.09986271219077
 20
90.67840920545927
 30
0.0
 11
-4.100000076079822
 21
90.67840920545927
 31
0.0
  0
LINE
  5
3978
330
A
100
AcDbEntity
  8
0
  6
Continuous
 62
     7
370
     0
100
AcDbLine
 10
-4.100000076079822
 20
90.67840920545927
 30
0.0
 11
-18.00000007607969
 21
90.67840920545927
 31
0.0
  0
LINE
  5
3979
330
A
100
AcDbEntity
  8
0
  6
Continuous
 62
     7
370
     0
100
AcDbLine
 10
4.599999923920222
 20
90.67840920545927
 30
0.0
 11
4.099999923920222
 21
90.67840920545927
 31
0.0
  0
LINE
  5
397A
330
A
100
AcDbEntity
  8
0
  6
Continuous
 62
     7
370
     0
100
AcDbLine
 10
4.099999923920222
 20
90.67840920545927
 30
0.0
 11
4.099330307047239
 21
90.67840920545927
 31
0.0
  0
ARC
  5
397B
330
A
100
AcDbEntity
  8
0
  6
Continuous
 62
     7
370
     0
100
AcDbCircle
 10
2.007592648695435
 20
86.40296484032456
 30
0.0
 40
5.000000000000063
100
AcDbArc
 50
38.44880468455133
 51
58.76955447899772
  0
ARC
  5
397C
330
A
100
AcDbEntity
  8
0
  6
Continuous
 62
     7
370
     0
100
AcDbCircle
 10
2.007592648695435
 20
76.95385357059411
 30
0.0
 40
5.00000000000005
100
AcDbArc
 50
301.2304455210022
 51
321.5511953154853
  0
ARC
  5
397D
330
A
100
AcDbEntity
  8
0
  6
Continuous
 62
     7
370
     0
100
AcDbCircle
 10
-21.00000007607969
 20
93.67840920545928
 30
0.0
 40
3.000000000000113
100
AcDbArc
 50
0.0
 51
90.0
  0
ARC
  5
397E
330
A
100
AcDbEntity
  8
0
  6
Continuous
 62
     7
370
     0
100
AcDbCircle
 10
-21.00000007607969
 20
69.67840920545928
 30
0.0
 40
3.000000000000001
100
AcDbArc
 50
270.0
 51
0.0
  0
LINE
  5
397F
330
A
100
AcDbEntity
  8
0
  6
Continuous
 62
     7
370
     0
100
AcDbLine
 10
-23.00000007607969
 20
66.67840920545916
 30
0.0
 11
-21.00000007607969
 21
66.67840920545916
 31
0.0
  0
LINE
  5
3980
330
A
100
AcDbEntity
  8
0
  6
Continuous
 62
     7
370
     0
100
AcDbLine
 10
-21.00000007607969
 20
96.67840920545927
 30
0.0
 11
-23.00000007607969
 21
96.67840920545927
 31
0.0
  0
ARC
  5
3981
330
A
100
AcDbEntity
  8
0
  6
Continuous
 62
     7
370
     0
100
AcDbCircle
 10
-135.3284092434787
 20
0.0
 30
0.0
 40
4.650000000000127
100
AcDbArc
 50
205.4743835085183
 51
208.3758914144391
  0
ARC
  5
3982
330
A
100
AcDbEntity
  8
0
  6
Continuous
 62
     7
370
     0
100
AcDbCircle
 10
-135.3284092434787
 20
0.0
 30
0.0
 40
4.650000000000023
100
AcDbArc
 50
149.3407376946464
 51
154.5256149866716
  0
ARC
  5
3983
330
A
100
AcDbEntity
  8
0
  6
Continuous
 62
     7
370
     0
100
AcDbCircle
 10
-135.3284092434787
 20
0.0
 30
0.0
 40
4.650000000000066
100
AcDbArc
 50
25.47438501332835
 51
30.6592623054117
  0
ARC
  5
3984
330
A
100
AcDbEntity
  8
0
  6
Continuous
 62
     7
370
     0
100
AcDbCircle
 10
-135.3284092434787
 20
0.0
 30
0.0
 40
4.649999999999909
100
AcDbArc
 50
331.6241085855552
 51
334.5256164914817
  0
LINE
  5
3985
330
A
100
AcDbEntity
  8
0
  6
Continuous
 62
     7
370
     0
100
AcDbLine
 10
-133.3284092434817
 20
-158.6431815890712
 30
0.0
 11
-125.3830231311717
 21
-158.643181589071
 31
0.0
  0
LINE
  5
3986
330
A
100
AcDbEntity
  8
0
  6
Continuous
 62
     7
370
     0
100
AcDbLine
 10
-126.3284092434817
 20
-159.643181589071
 30
0.0
 11
-126.3693696592497
 21
-159.643181589071
 31
0.0
  0
LINE
  5
3987
330
A
100
AcDbEntity
  8
0
  6
Continuous
 62
     7
370
     0
100
AcDbLine
 10
-125.3830231311717
 20
-158.643181589071
 30
0.0
 11
-125.3284092434817
 21
-158.643181589071
 31
0.0
  0
LINE
  5
3988
330
A
100
AcDbEntity
  8
0
  6
Continuous
 62
     7
370
     0
100
AcDbLine
 10
-126.3693696592497
 20
-159.643181589071
 30
0.0
 11
-132.3284092434817
 21
-159.643181589071
 31
0.0
  0
LINE
  5
3989
330
A
100
AcDbEntity
  8
0
  6
Continuous
 62
     7
370
     0
100
AcDbLine
 10
-143.9784092434777
 20
-130.8344133608464
 30
0.0
 11
-143.9784092434777
 21
-133.6805378415026
 31
0.0
  0
LINE
  5
398A
330
A
100
AcDbEntity
  8
0
  6
Continuous
 62
     7
370
     0
100
AcDbLine
 10
-143.9784092434777
 20
-133.6805378415026
 30
0.0
 11
-143.9784092434777
 21
-136.3211153084669
 31
0.0
  0
LINE
  5
398B
330
A
100
AcDbEntity
  8
0
  6
Continuous
 62
     7
370
     0
100
AcDbLine
 10
-144.7284092434777
 20
-129.8931815951298
 30
0.0
 11
-144.7284092434777
 21
-133.6805378415026
 31
0.0
  0
LINE
  5
398C
330
A
100
AcDbEntity
  8
0
  6
Continuous
 62
     7
370
     0
100
AcDbLine
 10
-144.7284092434777
 20
-133.6805378415026
 30
0.0
 11
-144.7284092434777
 21
-137.3931815951301
 31
0.0
  0
LINE
  5
398D
330
A
100
AcDbEntity
  8
0
  6
Continuous
 62
     7
370
     0
100
AcDbLine
 10
-144.7284092434768
 20
3.750000055126747
 30
0.0
 11
-144.7284092434768
 21
-3.749999944873366
 31
0.0
  0
LINE
  5
398E
330
A
100
AcDbEntity
  8
0
  6
Continuous
 62
     7
370
     0
100
AcDbLine
 10
-143.9784092434768
 20
3.750000055126747
 30
0.0
 11
-143.9784092434768
 21
2.485457704333271
 31
0.0
  0
LINE
  5
398F
330
A
100
AcDbEntity
  8
0
  6
Continuous
 62
     7
370
     0
100
AcDbLine
 10
-143.9784092434768
 20
-2.485457704333271
 30
0.0
 11
-143.9784092434768
 21
-3.749999944873366
 31
0.0
  0
LINE
  5
3990
330
A
100
AcDbEntity
  8
0
  6
Continuous
 62
     7
370
     0
100
AcDbLine
 10
-133.3284092434887
 20
-157.4431815889306
 30
0.0
 11
-137.4284092427676
 21
-157.4431815892445
 31
0.0
  0
LINE
  5
3991
330
A
100
AcDbEntity
  8
0
  6
Continuous
 62
     9
370
     0
100
AcDbLine
 10
-125.3284092434858
 20
-171.6431815890679
 30
0.0
 11
-125.3284092434858
 21
-167.6431815890681
 31
0.0
  0
LINE
  5
3992
330
A
100
AcDbEntity
  8
0
  6
Continuous
 62
     7
370
     0
100
AcDbLine
 10
-125.3284092434858
 20
-167.6431815890691
 30
0.0
 11
-121.3284092434858
 21
-167.6431815890691
 31
0.0
  0
LINE
  5
3993
330
A
100
AcDbEntity
  8
0
  6
Continuous
 62
     7
370
     0
100
AcDbLine
 10
-121.3284092434878
 20
-167.6431815890691
 30
0.0
 11
-121.3284092434878
 21
-171.643181589069
 31
0.0
  0
LINE
  5
3994
330
A
100
AcDbEntity
  8
0
  6
Continuous
 62
     7
370
     0
100
AcDbLine
 10
-121.3284092434858
 20
-171.643181589069
 30
0.0
 11
-125.3284092434858
 21
-171.643181589069
 31
0.0
  0
ARC
  5
3995
330
A
100
AcDbEntity
  8
0
  6
Continuous
 62
     7
370
     0
100
AcDbCircle
 10
-144.3284092434767
 20
-169.6431815890681
 30
0.0
 40
2.0
100
AcDbArc
 50
180.0
 51
270.0
  0
LINE
  5
3996
330
A
100
AcDbEntity
  8
0
  6
Continuous
 62
     7
370
     0
100
AcDbLine
 10
-146.3284092434758
 20
-153.6431815890686
 30
0.0
 11
-146.3284092434758
 21
-169.6431815890681
 31
0.0
  0
ARC
  5
3997
330
A
100
AcDbEntity
  8
0
  6
Continuous
 62
     7
370
     0
100
AcDbCircle
 10
-144.3284092434767
 20
-153.6431815890686
 30
0.0
 40
2.0
100
AcDbArc
 50
90.0
 51
180.0
  0
LINE
  5
3998
330
A
100
AcDbEntity
  8
0
  6
Continuous
 62
     7
370
     0
100
AcDbLine
 10
-125.3284092434858
 20
-151.6431815890686
 30
0.0
 11
-144.3284092434767
 21
-151.6431815890686
 31
0.0
  0
LINE
  5
3999
330
A
100
AcDbEntity
  8
0
  6
Continuous
 62
     9
370
     0
100
AcDbLine
 10
-125.3284092434858
 20
-157.1431815890683
 30
0.0
 11
-125.3284092434858
 21
-151.6431815890686
 31
0.0
  0
LINE
  5
399A
330
A
100
AcDbEntity
  8
0
  6
Continuous
 62
     7
370
     0
100
AcDbLine
 10
-142.3284092434776
 20
-157.1431815890683
 30
0.0
 11
-125.3284092434858
 21
-157.1431815890683
 31
0.0
  0
LINE
  5
399B
330
A
100
AcDbEntity
  8
0
  6
Continuous
 62
     7
370
     0
100
AcDbLine
 10
-142.3284092434776
 20
-167.6431815890681
 30
0.0
 11
-142.3284092434776
 21
-157.1431815890683
 31
0.0
  0
LINE
  5
399C
330
A
100
AcDbEntity
  8
0
  6
Continuous
 62
     7
370
     0
100
AcDbLine
 10
-125.3284092434858
 20
-167.6431815890681
 30
0.0
 11
-142.3284092434776
 21
-167.6431815890681
 31
0.0
  0
LINE
  5
399D
330
A
100
AcDbEntity
  8
0
  6
Continuous
 62
     7
370
     0
100
AcDbLine
 10
-144.3284092434767
 20
-171.6431815890679
 30
0.0
 11
-125.3284092434858
 21
-171.6431815890679
 31
0.0
  0
LINE
  5
399E
330
A
100
AcDbEntity
  8
0
  6
Continuous
 62
     7
370
     0
100
AcDbLine
 10
-125.3284092434858
 20
-151.6431815890699
 30
0.0
 11
-121.3284092434858
 21
-151.6431815890699
 31
0.0
  0
LINE
  5
399F
330
A
100
AcDbEntity
  8
0
  6
Continuous
 62
     7
370
     0
100
AcDbLine
 10
-121.3284092434878
 20
-151.6431815890699
 30
0.0
 11
-121.3284092434878
 21
-157.1431815890696
 31
0.0
  0
LINE
  5
39A0
330
A
100
AcDbEntity
  8
0
  6
Continuous
 62
     7
370
     0
100
AcDbLine
 10
-121.3284092434858
 20
-157.1431815890696
 30
0.0
 11
-125.3284092434858
 21
-157.1431815890696
 31
0.0
  0
LINE
  5
39A1
330
A
100
AcDbEntity
  8
0
  6
Continuous
 62
     7
370
     0
100
AcDbLine
 10
-144.3284092434799
 20
-129.0431815890754
 30
0.0
 11
-139.5784092434808
 21
-129.0431815890754
 31
0.0
  0
LINE
  5
39A2
330
A
100
AcDbEntity
  8
0
  6
Continuous
 62
     7
370
     0
100
AcDbLine
 10
-144.3284092434767
 20
-137.7431815890754
 30
0.0
 11
-143.9589050079887
 21
-136.3638535263492
 31
0.0
  0
LINE
  5
39A3
330
A
100
AcDbEntity
  8
0
  6
Continuous
 62
     7
370
     0
100
AcDbLine
 10
-139.5784092434787
 20
-142.6431815890731
 30
0.0
 11
-139.5784092434787
 21
-129.0431815890731
 31
0.0
  0
LINE
  5
39A4
330
A
100
AcDbEntity
  8
0
  6
Continuous
 62
     7
370
     0
100
AcDbLine
 10
-131.0784092434799
 20
-142.6431815890756
 30
0.0
 11
-139.5784092434808
 21
-142.6431815890756
 31
0.0
  0
LINE
  5
39A5
330
A
100
AcDbEntity
  8
0
  6
Continuous
 62
     7
370
     0
100
AcDbLine
 10
-131.0784092434808
 20
-129.0431815890731
 30
0.0
 11
-131.0784092434808
 21
-142.6431815890731
 31
0.0
  0
LINE
  5
39A6
330
A
100
AcDbEntity
  8
0
  6
Continuous
 62
     7
370
     0
100
AcDbLine
 10
-131.0784092434799
 20
-129.0431815890754
 30
0.0
 11
-126.3284092434798
 21
-129.0431815890754
 31
0.0
  0
ARC
  5
39A7
330
A
100
AcDbEntity
  8
0
  6
Continuous
 62
     7
370
     0
100
AcDbCircle
 10
-156.3201691193477
 20
-133.6131699785443
 30
0.0
 40
12.66361363951657
100
AcDbArc
 50
347.4546916381716
 51
18.74714847135771
  0
LINE
  5
39A8
330
A
100
AcDbEntity
  8
0
  6
Continuous
 62
     7
370
     0
100
AcDbLine
 10
-139.5784092434799
 20
-126.6431815890756
 30
0.0
 11
-140.3284092434799
 21
-126.6431815890756
 31
0.0
  0
LINE
  5
39A9
330
A
100
AcDbEntity
  8
0
  6
Continuous
 62
     7
370
     0
100
AcDbLine
 10
-139.5784092434787
 20
-126.6431815890746
 30
0.0
 11
-139.5784092434787
 21
-129.0431815890731
 31
0.0
  0
LINE
  5
39AA
330
A
100
AcDbEntity
  8
0
  6
Continuous
 62
     7
370
     0
100
AcDbLine
 10
-130.3284092434799
 20
-126.6431815890756
 30
0.0
 11
-131.0784092434799
 21
-126.6431815890756
 31
0.0
  0
LINE
  5
39AB
330
A
100
AcDbEntity
  8
0
  6
Continuous
 62
     7
370
     0
100
AcDbLine
 10
-131.0784092434808
 20
-129.0431815890731
 30
0.0
 11
-131.0784092434808
 21
-126.6431815890746
 31
0.0
  0
LINE
  5
39AC
330
A
100
AcDbEntity
  8
0
  6
Continuous
 62
     7
370
     0
100
AcDbLine
 10
-131.3284092434817
 20
-140.5713848193492
 30
0.0
 11
-131.3284092434817
 21
-128.7442021035141
 31
0.0
  0
LINE
  5
39AD
330
A
100
AcDbEntity
  8
0
  6
Continuous
 62
     7
370
     0
100
AcDbLine
 10
-139.3284092434787
 20
-128.7442021035139
 30
0.0
 11
-139.3284092434787
 21
-140.5713848193481
 31
0.0
  0
ELLIPSE
  5
39AE
330
A
100
AcDbEntity
  8
0
  6
Continuous
 62
     9
370
     0
100
AcDbEllipse
 10
-135.3284092434799
 20
-133.643181589078
 30
0.0
 11
-8.000000000000008
 21
0.0
 31
0.0
210
0.0
220
0.0
230
1.0
 40
0.7071067811866603
 41
4.188790204786384
 42
5.235987755982993
  0
ELLIPSE
  5
39AF
330
A
100
AcDbEntity
  8
0
  6
Continuous
 62
     7
370
     0
100
AcDbEllipse
 10
-135.3284092434799
 20
-7.071067756705929
 30
0.0
 11
-8.000000000000008
 21
0.0
 31
0.0
210
0.0
220
0.0
230
1.0
 40
0.7071067811866593
 41
5.235987755982986
 42
6.283185307179585
  0
ELLIPSE
  5
39B0
330
A
100
AcDbEntity
  8
0
  6
Continuous
 62
     7
370
     0
100
AcDbEllipse
 10
-135.3284092434799
 20
-126.5721137772137
 30
0.0
 11
8.000000000000008
 21
0.0
 31
0.0
210
0.0
220
0.0
230
1.0
 40
0.7071067811866593
 41
0.0
 42
1.047197551196599
  0
ELLIPSE
  5
39B1
330
A
100
AcDbEntity
  8
0
  6
Continuous
 62
     7
370
     0
100
AcDbEllipse
 10
-135.3284092434799
 20
-126.5721137772137
 30
0.0
 11
8.000000000000008
 21
0.0
 31
0.0
210
0.0
220
0.0
230
1.0
 40
0.7071067811866593
 41
3.141592653589792
 42
3.345889424530894
  0
ELLIPSE
  5
39B2
330
A
100
AcDbEntity
  8
0
  6
Continuous
 62
     7
370
     0
100
AcDbEllipse
 10
-135.3284092434799
 20
-126.5721137772137
 30
0.0
 11
8.000000000000008
 21
0.0
 31
0.0
210
0.0
220
0.0
230
1.0
 40
0.7071067811866602
 41
4.152313674158111
 42
4.188790204786384
  0
LINE
  5
39B3
330
A
100
AcDbEntity
  8
0
  6
Continuous
 62
     7
370
     0
100
AcDbLine
 10
-139.3284092434787
 20
-2.172088271140523
 30
0.0
 11
-139.3284092434787
 21
4.898979540723871
 31
0.0
  0
ELLIPSE
  5
39B4
330
A
100
AcDbEntity
  8
0
  6
Continuous
 62
     9
370
     0
100
AcDbEllipse
 10
-135.3284092434799
 20
0.0000000551584662
 30
0.0
 11
8.000000000000008
 21
0.0
 31
0.0
210
0.0
220
0.0
230
1.0
 40
0.7071067811866599
 41
1.047197551196599
 42
2.094395102393201
  0
LINE
  5
39B5
330
A
100
AcDbEntity
  8
0
  6
Continuous
 62
     7
370
     0
100
AcDbLine
 10
-131.3284092434817
 20
4.898979540723871
 30
0.0
 11
-131.3284092434817
 21
-2.172088271140523
 31
0.0
  0
ELLIPSE
  5
39B6
330
A
100
AcDbEntity
  8
0
  6
Continuous
 62
     7
370
     0
100
AcDbEllipse
 10
-135.3284092434799
 20
-7.071067756705929
 30
0.0
 11
-8.000000000000008
 21
0.0
 31
0.0
210
0.0
220
0.0
230
1.0
 40
0.7071067811866593
 41
3.141592653589792
 42
4.188790204786393
  0
ELLIPSE
  5
39B7
330
A
100
AcDbEntity
  8
0
  6
Continuous
 62
     7
370
     0
100
AcDbEllipse
 10
-135.3284092434799
 20
-126.5721137772137
 30
0.0
 11
8.000000000000008
 21
0.0
 31
0.0
210
0.0
220
0.0
230
1.0
 40
0.7071067811866583
 41
5.235987755982986
 42
5.272464286611323
  0
ELLIPSE
  5
39B8
330
A
100
AcDbEntity
  8
0
  6
Continuous
 62
     7
370
     0
100
AcDbEllipse
 10
-135.3284092434799
 20
-126.5721137772137
 30
0.0
 11
8.000000000000008
 21
0.0
 31
0.0
210
0.0
220
0.0
230
1.0
 40
0.7071067811866593
 41
6.078888536239775
 42
6.283185307179585
  0
ELLIPSE
  5
39B9
330
A
100
AcDbEntity
  8
0
  6
Continuous
 62
     7
370
     0
100
AcDbEllipse
 10
-135.3284092434799
 20
-126.5721137772137
 30
0.0
 11
8.000000000000008
 21
0.0
 31
0.0
210
0.0
220
0.0
230
1.0
 40
0.7071067811866572
 41
2.094395102393173
 42
3.141592653589778
  0
LINE
  5
39BA
330
A
100
AcDbEntity
  8
0
  6
Continuous
 62
     7
370
     0
100
AcDbLine
 10
-131.3284092434817
 20
-121.6731342916481
 30
0.0
 11
-131.3284092434817
 21
-128.7442021035124
 31
0.0
  0
LINE
  5
39BB
330
A
100
AcDbEntity
  8
0
  6
Continuous
 62
     7
370
     0
100
AcDbLine
 10
-139.3284092434787
 20
-128.7442021035124
 30
0.0
 11
-139.3284092434787
 21
-121.6731342916481
 31
0.0
  0
LINE
  5
39BC
330
A
100
AcDbEntity
  8
0
  6
Continuous
 62
     7
370
     0
100
AcDbLine
 10
-139.3284092434787
 20
6.92820328542939
 30
0.0
 11
-139.3284092434787
 21
4.898979540722393
 31
0.0
  0
LINE
  5
39BD
330
A
100
AcDbEntity
  8
0
  6
Continuous
 62
     7
370
     0
100
AcDbLine
 10
-131.3284092434817
 20
4.898979540722393
 30
0.0
 11
-131.3284092434817
 21
6.928203285428367
 31
0.0
  0
ARC
  5
39BE
330
A
100
AcDbEntity
  8
0
  6
Continuous
 62
     7
370
     0
100
AcDbCircle
 10
-135.3284092434787
 20
0.0
 30
0.0
 40
5.000000000000068
100
AcDbArc
 50
331.9357169187334
 51
31.78833061705229
  0
LINE
  5
39BF
330
A
100
AcDbEntity
  8
0
  6
Continuous
 62
     7
370
     0
100
AcDbLine
 10
-131.0784092434787
 20
2.633913438213312
 30
0.0
 11
-131.0784092434787
 21
7.933315826311286
 31
0.0
  0
ARC
  5
39C0
330
A
100
AcDbEntity
  8
0
  6
Continuous
 62
     7
370
     0
100
AcDbCircle
 10
-135.3284092434787
 20
0.0
 30
0.0
 40
9.000000000000053
100
AcDbArc
 50
326.0079405925853
 51
61.82135725947392
  0
ARC
  5
39C1
330
A
100
AcDbEntity
  8
0
  6
Continuous
 62
     7
370
     0
100
AcDbCircle
 10
-135.3284092434787
 20
0.0
 30
0.0
 40
9.000000000000008
100
AcDbArc
 50
118.1786427405261
 51
213.9920594073966
  0
LINE
  5
39C2
330
A
100
AcDbEntity
  8
0
  6
Continuous
 62
     7
370
     0
100
AcDbLine
 10
-139.5784092434787
 20
7.933315826311286
 30
0.0
 11
-139.5784092434787
 21
2.633913438213312
 31
0.0
  0
ARC
  5
39C3
330
A
100
AcDbEntity
  8
0
  6
Continuous
 62
     7
370
     0
100
AcDbCircle
 10
-135.3284092434787
 20
0.0
 30
0.0
 40
5.000000000000082
100
AcDbArc
 50
148.2116693829477
 51
208.0642830812551
  0
ARC
  5
39C4
330
A
100
AcDbEntity
  8
0
  6
Continuous
 62
     7
370
     0
100
AcDbCircle
 10
-135.3284092434787
 20
0.0
 30
0.0
 40
9.000000000000008
100
AcDbArc
 50
61.82135725947392
 51
118.1786427405261
  0
ARC
  5
39C5
330
A
100
AcDbEntity
  8
0
  6
Continuous
 62
     7
370
     0
100
AcDbCircle
 10
-135.3284092434787
 20
0.0
 30
0.0
 40
5.000000000000068
100
AcDbArc
 50
143.1301023541533
 51
148.2116693829477
  0
ARC
  5
39C6
330
A
100
AcDbEntity
  8
0
  6
Continuous
 62
     7
370
     0
100
AcDbCircle
 10
-135.3284092434787
 20
0.0
 30
0.0
 40
5.000000000000047
100
AcDbArc
 50
31.78833061705229
 51
36.86989764589353
  0
ARC
  5
39C7
330
A
100
AcDbEntity
  8
0
  6
Continuous
 62
     9
370
     0
100
AcDbCircle
 10
-135.3284092434787
 20
0.0
 30
0.0
 40
12.00000000000001
100
AcDbArc
 50
90.0
 51
228.1896851042298
  0
ARC
  5
39C8
330
A
100
AcDbEntity
  8
0
  6
Continuous
 62
     9
370
     0
100
AcDbCircle
 10
-135.3284092434787
 20
0.0
 30
0.0
 40
12.00000000000003
100
AcDbArc
 50
311.8103148957518
 51
90.0
  0
ARC
  5
39C9
330
A
100
AcDbEntity
  8
0
  6
Continuous
 62
     7
370
     0
100
AcDbCircle
 10
-135.3284092434787
 20
0.0
 30
0.0
 40
15.00000000000001
100
AcDbArc
 50
302.2309526354834
 51
90.0
  0
ARC
  5
39CA
330
A
100
AcDbEntity
  8
0
  6
Continuous
 62
     7
370
     0
100
AcDbCircle
 10
-135.3284092434787
 20
0.0
 30
0.0
 40
14.99999999999993
100
AcDbArc
 50
90.0
 51
237.7690473645021
  0
LINE
  5
39CB
330
A
100
AcDbEntity
  8
0
  6
Continuous
 62
     9
370
     0
100
AcDbLine
 10
-132.7034092434826
 20
-157.1432015890635
 30
0.0
 11
-132.7034092434826
 21
-159.268181589071
 31
0.0
  0
LINE
  5
39CC
330
A
100
AcDbEntity
  8
0
  6
Continuous
 62
     9
370
     0
100
AcDbLine
 10
-125.9534092434817
 20
-159.268181589071
 30
0.0
 11
-125.9534092434817
 21
-157.1432015890635
 31
0.0
  0
LINE
  5
39CD
330
A
100
AcDbEntity
  8
0
  6
Continuous
 62
     9
370
     0
100
AcDbLine
 10
-131.0784092434808
 20
-131.9931815951299
 30
0.0
 11
-131.3284092434817
 21
-131.9931815951299
 31
0.0
  0
LINE
  5
39CE
330
A
100
AcDbEntity
  8
0
  6
Continuous
 62
     9
370
     0
100
AcDbLine
 10
-139.3284092434787
 20
-131.9931815951299
 30
0.0
 11
-139.5784092434787
 21
-131.9931815951299
 31
0.0
  0
LINE
  5
39CF
330
A
100
AcDbEntity
  8
0
  6
Continuous
 62
     9
370
     0
100
AcDbLine
 10
-139.5784092434787
 20
-135.2931815951298
 30
0.0
 11
-139.3284092434787
 21
-135.2931815951298
 31
0.0
  0
LINE
  5
39D0
330
A
100
AcDbEntity
  8
0
  6
Continuous
 62
     9
370
     0
100
AcDbLine
 10
-131.3284092434817
 20
-135.2931815951298
 30
0.0
 11
-131.0784092434808
 21
-135.2931815951298
 31
0.0
  0
LINE
  5
39D1
330
A
100
AcDbEntity
  8
0
  6
Continuous
 62
     9
370
     0
100
AcDbLine
 10
-130.6085046026958
 20
1.650000055126724
 30
0.0
 11
-131.3284092434817
 21
1.650000055126724
 31
0.0
  0
LINE
  5
39D2
330
A
100
AcDbEntity
  8
0
  6
Continuous
 62
     9
370
     0
100
AcDbLine
 10
-139.3284092434787
 20
1.650000055126724
 30
0.0
 11
-140.0483138842617
 21
1.650000055126724
 31
0.0
  0
LINE
  5
39D3
330
A
100
AcDbEntity
  8
0
  6
Continuous
 62
     9
370
     0
100
AcDbLine
 10
-140.0483139228047
 20
-1.649999944873229
 30
0.0
 11
-139.3284092434787
 21
-1.649999944873229
 31
0.0
  0
LINE
  5
39D4
330
A
100
AcDbEntity
  8
0
  6
Continuous
 62
     9
370
     0
100
AcDbLine
 10
-131.3284092434817
 20
-1.649999944873229
 30
0.0
 11
-130.6085045641537
 21
-1.649999944873229
 31
0.0
  0
LINE
  5
39D5
330
A
100
AcDbEntity
  8
0
  6
Continuous
 62
     9
370
     0
100
AcDbLine
 10
-137.4284092427906
 20
-157.1431815890683
 30
0.0
 11
-137.4284092427676
 21
-157.4431815892445
 31
0.0
  0
LINE
  5
39D6
330
A
100
AcDbEntity
  8
0
  6
Continuous
 62
     7
370
     0
100
AcDbLine
 10
-133.3284092434817
 20
-158.6431815890712
 30
0.0
 11
-132.7034092434887
 21
-159.2681815890649
 31
0.0
  0
LINE
  5
39D7
330
A
100
AcDbEntity
  8
0
  6
Continuous
 62
     7
370
     0
100
AcDbLine
 10
-132.7034092434887
 20
-159.2681815890649
 30
0.0
 11
-132.3284092434817
 21
-159.643181589071
 31
0.0
  0
LINE
  5
39D8
330
A
100
AcDbEntity
  8
0
  6
Continuous
 62
     7
370
     0
100
AcDbLine
 10
-126.3284092434817
 20
-159.643181589071
 30
0.0
 11
-125.9534092434887
 21
-159.2681815890771
 31
0.0
  0
LINE
  5
39D9
330
A
100
AcDbEntity
  8
0
  6
Continuous
 62
     7
370
     0
100
AcDbLine
 10
-125.9534092434887
 20
-159.2681815890771
 30
0.0
 11
-125.3284092434817
 21
-158.643181589071
 31
0.0
  0
LINE
  5
39DA
330
A
100
AcDbEntity
  8
0
  6
Continuous
 62
     7
370
     0
100
AcDbLine
 10
-133.3284092434817
 20
-157.143200951396
 30
0.0
 11
-133.3284092434817
 21
-158.6431815890712
 31
0.0
  0
LINE
  5
39DB
330
A
100
AcDbEntity
  8
0
  6
Continuous
 62
     7
370
     0
100
AcDbLine
 10
-125.3284092434817
 20
-158.643181589071
 30
0.0
 11
-125.3284092434817
 21
-157.1432009513954
 31
0.0
  0
LINE
  5
39DC
330
A
100
AcDbEntity
  8
0
  6
Continuous
 62
     7
370
     0
100
AcDbLine
 10
-144.7284092434777
 20
-137.3931815951301
 30
0.0
 11
-144.2227072385838
 21
-137.3931815951301
 31
0.0
  0
LINE
  5
39DD
330
A
100
AcDbEntity
  8
0
  6
Continuous
 62
     7
370
     0
100
AcDbLine
 10
-144.2227084340427
 20
-129.8931815951298
 30
0.0
 11
-144.7284092434777
 21
-129.8931815951298
 31
0.0
  0
LINE
  5
39DE
330
A
100
AcDbEntity
  8
0
  6
Continuous
 62
     7
370
     0
100
AcDbLine
 10
-131.0784092434808
 20
-131.6431815951298
 30
0.0
 11
-131.3284092434817
 21
-131.6431815951298
 31
0.0
  0
LINE
  5
39DF
330
A
100
AcDbEntity
  8
0
  6
Continuous
 62
     7
370
     0
100
AcDbLine
 10
-139.3284092434787
 20
-131.6431815951298
 30
0.0
 11
-139.5784092434787
 21
-131.6431815951298
 31
0.0
  0
LINE
  5
39E0
330
A
100
AcDbEntity
  8
0
  6
Continuous
 62
     7
370
     0
100
AcDbLine
 10
-139.5784092434787
 20
-135.6431815951298
 30
0.0
 11
-139.3284092434787
 21
-135.6431815951298
 31
0.0
  0
LINE
  5
39E1
330
A
100
AcDbEntity
  8
0
  6
Continuous
 62
     7
370
     0
100
AcDbLine
 10
-131.3284092434817
 20
-135.6431815951298
 30
0.0
 11
-131.0784092434808
 21
-135.6431815951298
 31
0.0
  0
LINE
  5
39E2
330
A
100
AcDbEntity
  8
0
  6
Continuous
 62
     7
370
     0
100
AcDbLine
 10
-144.7284092434768
 20
-3.749999944873366
 30
0.0
 11
-143.9784092434768
 21
-3.749999944873366
 31
0.0
  0
LINE
  5
39E3
330
A
100
AcDbEntity
  8
0
  6
Continuous
 62
     7
370
     0
100
AcDbLine
 10
-143.9784092434768
 20
3.750000055126747
 30
0.0
 11
-144.7284092434768
 21
3.750000055126747
 31
0.0
  0
LINE
  5
39E4
330
A
100
AcDbEntity
  8
0
  6
Continuous
 62
     7
370
     0
100
AcDbLine
 10
-143.9784092434768
 20
-3.749999944873366
 30
0.0
 11
-143.6518665037908
 21
-3.42345720518756
 31
0.0
  0
LINE
  5
39E5
330
A
100
AcDbEntity
  8
0
  6
Continuous
 62
     7
370
     0
100
AcDbLine
 10
-143.6518664716598
 20
3.423457283309289
 30
0.0
 11
-143.9784092434768
 21
3.750000055126747
 31
0.0
  0
LINE
  5
39E6
330
A
100
AcDbEntity
  8
0
  6
Continuous
 62
     7
370
     0
100
AcDbLine
 10
-130.7458335725828
 20
2.000000055126747
 30
0.0
 11
-131.3284092434817
 21
2.000000055126747
 31
0.0
  0
LINE
  5
39E7
330
A
100
AcDbEntity
  8
0
  6
Continuous
 62
     7
370
     0
100
AcDbLine
 10
-139.3284092434787
 20
2.000000055126747
 30
0.0
 11
-139.9109849143758
 21
2.000000055126747
 31
0.0
  0
LINE
  5
39E8
330
A
100
AcDbEntity
  8
0
  6
Continuous
 62
     7
370
     0
100
AcDbLine
 10
-139.9109849624938
 20
-1.999999944873252
 30
0.0
 11
-139.3284092434787
 21
-1.999999944873252
 31
0.0
  0
LINE
  5
39E9
330
A
100
AcDbEntity
  8
0
  6
Continuous
 62
     7
370
     0
100
AcDbLine
 10
-131.3284092434817
 20
-1.999999944873252
 30
0.0
 11
-130.7458335244637
 21
-1.999999944873252
 31
0.0
  0
LINE
  5
39EA
330
A
100
AcDbEntity
  8
0
  6
Continuous
 62
     7
370
     0
100
AcDbLine
 10
-137.7284092429897
 20
-157.1431815890686
 30
0.0
 11
-137.4284092427676
 21
-157.4431815892445
 31
0.0
  0
LINE
  5
39EB
330
A
100
AcDbEntity
  8
0
  6
Continuous
 62
     7
370
     0
100
AcDbLine
 10
-126.3284092434826
 20
-151.6431815890756
 30
0.0
 11
-126.3284092434826
 21
-129.0431815890754
 31
0.0
  0
LINE
  5
39EC
330
A
100
AcDbEntity
  8
0
  6
Continuous
 62
     7
370
     0
100
AcDbLine
 10
-144.3284092434767
 20
-137.7431815890754
 30
0.0
 11
-144.3284092434767
 21
-151.6431815890756
 31
0.0
  0
LINE
  5
39ED
330
A
100
AcDbEntity
  8
0
  6
Continuous
 62
     7
370
     0
100
AcDbLine
 10
-144.3284092434767
 20
-129.0431815890754
 30
0.0
 11
-144.3284092434767
 21
-129.5431815890756
 31
0.0
  0
LINE
  5
39EE
330
A
100
AcDbEntity
  8
0
  6
Continuous
 62
     7
370
     0
100
AcDbLine
 10
-144.3284092434767
 20
-129.5431815890756
 30
0.0
 11
-144.3284092434767
 21
-129.5438592560761
 31
0.0
  0
ARC
  5
39EF
330
A
100
AcDbEntity
  8
0
  6
Continuous
 62
     7
370
     0
100
AcDbCircle
 10
-140.0529648783417
 20
-131.6355888643
 30
0.0
 40
4.999999999999988
100
AcDbArc
 50
93.15795858516894
 51
148.7695544789866
  0
ARC
  5
39F0
330
A
100
AcDbEntity
  8
0
  6
Continuous
 62
     7
370
     0
100
AcDbCircle
 10
-130.6038536086178
 20
-131.6355888643
 30
0.0
 40
4.999999999999995
100
AcDbArc
 50
31.23044552101342
 51
86.84204141483107
  0
ARC
  5
39F1
330
A
100
AcDbEntity
  8
0
  6
Continuous
 62
     7
370
     0
100
AcDbCircle
 10
-135.3284092434799
 20
-133.643181589078
 30
0.0
 40
8.0
100
AcDbArc
 50
239.9999999999995
 51
300.0000000000005
  0
LINE
  5
39F2
330
A
100
AcDbEntity
  8
0
  6
Continuous
 62
     7
370
     0
100
AcDbLine
 10
-143.3284092434776
 20
-7.071067756705929
 30
0.0
 11
-143.3284092434776
 21
-126.5721137772137
 31
0.0
  0
LINE
  5
39F3
330
A
100
AcDbEntity
  8
0
  6
Continuous
 62
     7
370
     0
100
AcDbLine
 10
-127.3284092434826
 20
-126.5721137772137
 30
0.0
 11
-127.3284092434826
 21
-7.071067756705929
 31
0.0
  0
ARC
  5
39F4
330
A
100
AcDbEntity
  8
0
  6
Continuous
 62
     7
370
     0
100
AcDbCircle
 10
-135.3284092434799
 20
0.0000000551584662
 30
0.0
 40
8.0
100
AcDbArc
 50
59.99999999999946
 51
90.0
  0
ARC
  5
39F5
330
A
100
AcDbEntity
  8
0
  6
Continuous
 62
     7
370
     0
100
AcDbCircle
 10
-135.3284092434799
 20
0.0000000551584662
 30
0.0
 40
8.000000000000008
100
AcDbArc
 50
90.0
 51
120.0000000000005
  0
LINE
  5
3A58
330
A
100
AcDbEntity
  8
0
  6
Continuous
 62
     7
370
     0
100
AcDbLine
 10
-54.93130652744366
 20
2.500000000000227
 30
0.0
 11
-54.93130652744366
 21
-2.499999999999772
 31
0.0
  0
LINE
  5
3A59
330
A
100
AcDbEntity
  8
0
  6
Continuous
 62
     7
370
     0
100
AcDbLine
 10
133.1073833067291
 20
-135.7278832809318
 30
0.0
 11
133.1230722891073
 21
-134.1530257837039
 31
0.0
  0
ARC
  5
3A5A
330
A
100
AcDbEntity
  8
0
  6
Continuous
 62
     7
370
     0
100
AcDbCircle
 10
133.6431769933513
 20
-133.6431815951299
 30
0.0
 40
2.152453482286709
100
AcDbArc
 50
255.5862509599351
 51
283.2722073564301
  0
LINE
  5
3A5B
330
A
100
AcDbEntity
  8
0
  6
Continuous
 62
     7
370
     0
100
AcDbLine
 10
134.1530211819254
 20
-134.1632862993745
 30
0.0
 11
134.1373321995483
 21
-135.7381437966021
 31
0.0
  0
LINE
  5
3A5C
330
A
100
AcDbEntity
  8
0
  6
Continuous
 62
     7
370
     0
100
AcDbLine
 10
135.7278786791532
 20
-134.1789752817515
 30
0.0
 11
134.1530211819254
 21
-134.1632862993745
 31
0.0
  0
ARC
  5
3A5D
330
A
100
AcDbEntity
  8
0
  6
Continuous
 62
     7
370
     0
100
AcDbCircle
 10
133.6431769933513
 20
-133.6431815951299
 30
0.0
 40
2.152453482286709
100
AcDbArc
 50
345.5862509599367
 51
13.27220735643643
  0
LINE
  5
3A5E
330
A
100
AcDbEntity
  8
0
  6
Continuous
 62
     7
370
     0
100
AcDbLine
 10
134.1632816975961
 20
-133.1333374065557
 30
0.0
 11
135.7381391948233
 21
-133.149026388933
 31
0.0
  0
LINE
  5
3A5F
330
A
100
AcDbEntity
  8
0
  6
Continuous
 62
     7
370
     0
100
AcDbLine
 10
134.1789706799732
 20
-131.5584799093282
 30
0.0
 11
134.1632816975961
 21
-133.1333374065557
 31
0.0
  0
ARC
  5
3A60
330
A
100
AcDbEntity
  8
0
  6
Continuous
 62
     7
370
     0
100
AcDbCircle
 10
133.6431769933513
 20
-133.6431815951299
 30
0.0
 40
2.152453482286817
100
AcDbArc
 50
75.58625095993507
 51
103.2722073564301
  0
LINE
  5
3A61
330
A
100
AcDbEntity
  8
0
  6
Continuous
 62
     7
370
     0
100
AcDbLine
 10
133.1333328047904
 20
-133.1230768908856
 30
0.0
 11
133.1490217871542
 21
-131.5482193936578
 31
0.0
  0
LINE
  5
3A62
330
A
100
AcDbEntity
  8
0
  6
Continuous
 62
     7
370
     0
100
AcDbLine
 10
131.5584753075493
 20
-133.1073879085082
 30
0.0
 11
133.1333328047904
 21
-133.1230768908856
 31
0.0
  0
ARC
  5
3A63
330
A
100
AcDbEntity
  8
0
  6
Continuous
 62
     7
370
     0
100
AcDbCircle
 10
133.6431769933513
 20
-133.6431815951299
 30
0.0
 40
2.152453482286951
100
AcDbArc
 50
165.5862509599367
 51
193.2722073564364
  0
LINE
  5
3A64
330
A
100
AcDbEntity
  8
0
  6
Continuous
 62
     7
370
     0
100
AcDbLine
 10
133.1230722891073
 20
-134.1530257837039
 30
0.0
 11
131.5482147918792
 21
-134.1373368013267
 31
0.0
  0
CIRCLE
  5
3A65
330
A
100
AcDbEntity
  8
0
  6
Continuous
 62
     7
370
     0
100
AcDbCircle
 10
133.6431769933513
 20
-133.6431815951299
 30
0.0
 40
3.750000000000031
  0
ARC
  5
3A66
330
A
100
AcDbEntity
  8
0
  6
Continuous
 62
     7
370
     0
100
AcDbCircle
 10
133.6431769933513
 20
-133.6431815951299
 30
0.0
 40
1.030668528585463
100
AcDbArc
 50
149.4506835417012
 51
209.4077747746767
  0
ARC
  5
3A67
330
A
100
AcDbEntity
  8
0
  6
Continuous
 62
     7
370
     0
100
AcDbCircle
 10
133.6431769933513
 20
-133.6431815951299
 30
0.0
 40
1.030668528585312
100
AcDbArc
 50
59.45068354170685
 51
119.4077747746734
  0
ARC
  5
3A68
330
A
100
AcDbEntity
  8
0
  6
Continuous
 62
     7
370
     0
100
AcDbCircle
 10
133.6431769933513
 20
-133.6431815951299
 30
0.0
 40
1.030668528585521
100
AcDbArc
 50
239.4506835416923
 51
299.4077747746734
  0
ARC
  5
3A69
330
A
100
AcDbEntity
  8
0
  6
Continuous
 62
     7
370
     0
100
AcDbCircle
 10
133.6431769933513
 20
-133.6431815951299
 30
0.0
 40
1.030668528585217
100
AcDbArc
 50
329.4506835417012
 51
29.40777477467664
  0
LINE
  5
3A6A
330
A
100
AcDbEntity
  8
0
  6
Continuous
 62
     7
370
     0
100
AcDbLine
 10
-1.756080482204879
 20
1.244683760748898
 30
0.0
 11
-0.2905863507787671
 21
0.6678395603818217
 31
0.0
  0
ARC
  5
3A6B
330
A
100
AcDbEntity
  8
0
  6
Continuous
 62
     7
370
     0
100
AcDbCircle
 10
-0.0000000551267476
 20
0.0000000551267476
 30
0.0
 40
2.152453482286896
100
AcDbArc
 50
144.6715525658602
 51
172.3575089623621
  0
LINE
  5
3A6C
330
A
100
AcDbEntity
  8
0
  6
Continuous
 62
     7
370
     0
100
AcDbLine
 10
-0.667839560381708
 20
-0.2905862405251582
 30
0.0
 11
-2.133333691808729
 21
0.2862579598420325
 31
0.0
  0
LINE
  5
3A6D
330
A
100
AcDbEntity
  8
0
  6
Continuous
 62
     7
370
     0
100
AcDbLine
 10
-1.244683760749694
 20
-1.756080371951384
 30
0.0
 11
-0.667839560381708
 21
-0.2905862405251582
 31
0.0
  0
ARC
  5
3A6E
330
A
100
AcDbEntity
  8
0
  6
Continuous
 62
     7
370
     0
100
AcDbCircle
 10
-0.0000000551267476
 20
0.0000000551267476
 30
0.0
 40
2.152453482286786
100
AcDbArc
 50
234.6715525658602
 51
262.3575089623622
  0
LINE
  5
3A6F
330
A
100
AcDbEntity
  8
0
  6
Continuous
 62
     7
370
     0
100
AcDbLine
 10
0.2905862405252719
 20
-0.6678394501282128
 30
0.0
 11
-0.2862579598427146
 21
-2.133333581554666
 31
0.0
  0
LINE
  5
3A70
330
A
100
AcDbEntity
  8
0
  6
Continuous
 62
     7
370
     0
100
AcDbLine
 10
1.756080371951384
 20
-1.24468365049563
 30
0.0
 11
0.2905862405252719
 21
-0.6678394501282128
 31
0.0
  0
ARC
  5
3A71
330
A
100
AcDbEntity
  8
0
  6
Continuous
 62
     7
370
     0
100
AcDbCircle
 10
-0.0000000551267476
 20
0.0000000551267476
 30
0.0
 40
2.152453482286676
100
AcDbArc
 50
324.6715525658603
 51
352.3575089623621
  0
LINE
  5
3A72
330
A
100
AcDbEntity
  8
0
  6
Continuous
 62
     7
370
     0
100
AcDbLine
 10
0.6678394501232106
 20
0.2905863507663753
 30
0.0
 11
2.133333581554325
 21
-0.286257849588651
 31
0.0
  0
LINE
  5
3A73
330
A
100
AcDbEntity
  8
0
  6
Continuous
 62
     7
370
     0
100
AcDbLine
 10
1.244683650495289
 20
1.756080482204879
 30
0.0
 11
0.6678394501232106
 21
0.2905863507663753
 31
0.0
  0
ARC
  5
3A74
330
A
100
AcDbEntity
  8
0
  6
Continuous
 62
     7
370
     0
100
AcDbCircle
 10
-0.0000000551267476
 20
0.0000000551267476
 30
0.0
 40
2.152453482286786
100
AcDbArc
 50
54.67155256586027
 51
82.35750896236211
  0
LINE
  5
3A75
330
A
100
AcDbEntity
  8
0
  6
Continuous
 62
     7
370
     0
100
AcDbLine
 10
-0.2905863507787671
 20
0.6678395603818217
 30
0.0
 11
0.2862578495883099
 21
2.133333691808161
 31
0.0
  0
CIRCLE
  5
3A76
330
A
100
AcDbEntity
  8
0
  6
Continuous
 62
     7
370
     0
100
AcDbCircle
 10
-0.0000000551267476
 20
0.0000000551267476
 30
0.0
 40
3.750000000000031
  0
ARC
  5
3A77
330
A
100
AcDbEntity
  8
0
  6
Continuous
 62
     7
370
     0
100
AcDbCircle
 10
-0.0000000551267476
 20
0.0000000551267476
 30
0.0
 40
1.030668528585387
100
AcDbArc
 50
38.53598514762344
 51
98.49307638059698
  0
ARC
  5
3A78
330
A
100
AcDbEntity
  8
0
  6
Continuous
 62
     7
370
     0
100
AcDbCircle
 10
-0.0000000551267476
 20
0.0000000551267476
 30
0.0
 40
1.030668528585232
100
AcDbArc
 50
308.5359851476194
 51
8.493076380589574
  0
ARC
  5
3A79
330
A
100
AcDbEntity
  8
0
  6
Continuous
 62
     7
370
     0
100
AcDbCircle
 10
-0.0000000551267476
 20
0.0000000551267476
 30
0.0
 40
1.030668528585457
100
AcDbArc
 50
128.5359851476234
 51
188.493076380596
  0
ARC
  5
3A7A
330
A
100
AcDbEntity
  8
0
  6
Continuous
 62
     7
370
     0
100
AcDbCircle
 10
-0.0000000551267476
 20
0.0000000551267476
 30
0.0
 40
1.030668528585387
100
AcDbArc
 50
218.5359851476234
 51
278.493076380597
  0
LINE
  5
3A7B
330
A
100
AcDbEntity
  8
0
  6
Continuous
 62
     9
370
     0
100
AcDbLine
 10
111.1431815891403
 20
-169.6431815890819
 30
0.0
 11
156.1431815891212
 21
-169.6431815890681
 31
0.0
  0
LINE
  5
3A7C
330
A
100
AcDbEntity
  8
0
  6
Continuous
 62
     7
370
     0
100
AcDbLine
 10
156.1431815891223
 20
-171.6431815890679
 30
0.0
 11
111.1431815891412
 21
-171.6431815890815
 31
0.0
  0
LINE
  5
3A7D
330
A
100
AcDbEntity
  8
0
  6
Continuous
 62
     7
370
     0
100
AcDbLine
 10
111.1431815891412
 20
-171.64318158908
 30
0.0
 11
111.1431815891403
 21
-169.6431815890819
 31
0.0
  0
LINE
  5
3A7E
330
A
100
AcDbEntity
  8
0
  6
Continuous
 62
     7
370
     0
100
AcDbLine
 10
156.1431815891212
 20
-169.6431815890681
 30
0.0
 11
156.1431815891223
 21
-171.6431815890655
 31
0.0
  0
LINE
  5
3A7F
330
A
100
AcDbEntity
  8
0
  6
Continuous
 62
     7
370
     0
100
AcDbLine
 10
111.1431815891353
 20
-151.6431815890823
 30
0.0
 11
133.6431815891253
 21
-151.6431815890756
 31
0.0
  0
LINE
  5
3A80
330
A
100
AcDbEntity
  8
0
  6
Continuous
 62
     7
370
     0
100
AcDbLine
 10
133.6431815891253
 20
-151.6431815890756
 30
0.0
 11
156.1431815891162
 21
-151.6431815890686
 31
0.0
  0
LINE
  5
3A81
330
A
100
AcDbEntity
  8
0
  6
Continuous
 62
     9
370
     0
100
AcDbLine
 10
156.1431815891162
 20
-153.6431815890686
 30
0.0
 11
111.1431815891353
 21
-153.6431815890821
 31
0.0
  0
LINE
  5
3A82
330
A
100
AcDbEntity
  8
0
  6
Continuous
 62
     7
370
     0
100
AcDbLine
 10
111.1431815891353
 20
-153.6431815890821
 30
0.0
 11
111.1431815891353
 21
-151.6431815890848
 31
0.0
  0
LINE
  5
3A83
330
A
100
AcDbEntity
  8
0
  6
Continuous
 62
     7
370
     0
100
AcDbLine
 10
156.1431815891162
 20
-151.6431815890703
 30
0.0
 11
156.1431815891162
 21
-153.6431815890686
 31
0.0
  0
LINE
  5
3A84
330
A
100
AcDbEntity
  8
0
  6
Continuous
 62
     7
370
     0
100
AcDbLine
 10
111.1431815891353
 20
-153.6431815890821
 30
0.0
 11
111.1431815891403
 21
-169.6431815890819
 31
0.0
  0
LINE
  5
3A85
330
A
100
AcDbEntity
  8
0
  6
Continuous
 62
     7
370
     0
100
AcDbLine
 10
156.1431815891162
 20
-153.6431815890686
 30
0.0
 11
156.1431815891212
 21
-169.6431815890681
 31
0.0
  0
LINE
  5
3A86
330
A
100
AcDbEntity
  8
0
  6
Continuous
 62
     7
370
     0
100
AcDbLine
 10
142.6431815891223
 20
-142.6431815890727
 30
0.0
 11
141.5764974154333
 21
-142.6431815890731
 31
0.0
  0
LINE
  5
3A87
330
A
100
AcDbEntity
  8
0
  6
Continuous
 62
     7
370
     0
100
AcDbLine
 10
125.7098657628112
 20
-142.6431815890777
 30
0.0
 11
124.6431815891223
 21
-142.643181589078
 31
0.0
  0
LINE
  5
3A88
330
A
100
AcDbEntity
  8
0
  6
Continuous
 62
     7
370
     0
100
AcDbLine
 10
125.7098657628103
 20
-129.0431815890779
 30
0.0
 11
125.7098657628153
 21
-142.6431815890777
 31
0.0
  0
LINE
  5
3A89
330
A
100
AcDbEntity
  8
0
  6
Continuous
 62
     7
370
     0
100
AcDbLine
 10
125.7098657628082
 20
-129.0431815890779
 30
0.0
 11
141.5764974154301
 21
-129.0431815890731
 31
0.0
  0
LINE
  5
3A8A
330
A
100
AcDbEntity
  8
0
  6
Continuous
 62
     7
370
     0
100
AcDbLine
 10
141.5764974154301
 20
-142.6431815890731
 30
0.0
 11
141.5764974154263
 21
-129.0431815890731
 31
0.0
  0
LINE
  5
3A8B
330
A
100
AcDbEntity
  8
0
  6
Continuous
 62
     7
370
     0
100
AcDbLine
 10
142.6431815891253
 20
-151.6431815890727
 30
0.0
 11
133.6431815891253
 21
-151.6431815890756
 31
0.0
  0
LINE
  5
3A8C
330
A
100
AcDbEntity
  8
0
  6
Continuous
 62
     7
370
     0
100
AcDbLine
 10
133.6431815891253
 20
-151.6431815890756
 30
0.0
 11
124.6431815891253
 21
-151.643181589078
 31
0.0
  0
ARC
  5
3A8D
330
A
100
AcDbEntity
  8
0
  6
Continuous
 62
     7
370
     0
100
AcDbCircle
 10
133.6433917540271
 20
-132.5803645403924
 30
0.0
 40
3.037118793153312
100
AcDbArc
 50
34.97194115371717
 51
144.9156525687295
  0
ARC
  5
3A8E
330
A
100
AcDbEntity
  8
0
  6
Continuous
 62
     7
370
     0
100
AcDbCircle
 10
133.6429503717072
 20
-134.7063350835403
 30
0.0
 40
3.036644998665245
100
AcDbArc
 50
215.056421649489
 51
324.819361753326
  0
ARC
  5
3A8F
330
A
100
AcDbEntity
  8
0
  6
Continuous
 62
     7
370
     0
100
AcDbCircle
 10
130.5673613608371
 20
-132.7181778127691
 30
0.0
 40
6.091047588797253
100
AcDbArc
 50
85.83952382680136
 51
142.8902380517648
  0
LINE
  5
3A90
330
A
100
AcDbEntity
  8
0
  6
Continuous
 62
     7
370
     0
100
AcDbLine
 10
136.2770950273311
 20
-126.6431815890746
 30
0.0
 11
131.0092681509052
 21
-126.6431815890761
 31
0.0
  0
ARC
  5
3A91
330
A
100
AcDbEntity
  8
0
  6
Continuous
 62
     7
370
     0
100
AcDbCircle
 10
136.6951953197401
 20
-132.7707445671676
 30
0.0
 40
6.141810474526933
100
AcDbArc
 50
37.36684139293775
 51
93.90339672857072
  0
LINE
  5
3A92
330
A
100
AcDbEntity
  8
0
  6
Continuous
 62
     7
370
     0
100
AcDbLine
 10
-1.864643144817591
 20
-7.933315826311059
 30
0.0
 11
2.172088271144275
 21
-11.97004724227156
 31
0.0
  0
LINE
  5
3A93
330
A
100
AcDbEntity
  8
0
  6
Continuous
 62
     7
370
     0
100
AcDbLine
 10
2.172088271142229
 20
-11.97004724227326
 30
0.0
 11
11.97004724227418
 21
-2.172088271138932
 31
0.0
  0
LINE
  5
3A94
330
A
100
AcDbEntity
  8
0
  6
Continuous
 62
     7
370
     0
100
AcDbLine
 10
11.97004724227236
 20
-2.172088271140523
 30
0.0
 11
6.991524818287416
 21
2.806434152843053
 31
0.0
  0
LINE
  5
3A95
330
A
100
AcDbEntity
  8
0
  6
Continuous
 62
     7
370
     0
100
AcDbLine
 10
136.4482913794852
 20
-126.6503324083145
 30
0.0
 11
131.4710932628172
 21
-121.6731342916481
 31
0.0
  0
LINE
  5
3A96
330
A
100
AcDbEntity
  8
0
  6
Continuous
 62
     7
370
     0
100
AcDbLine
 10
131.4710932628193
 20
-121.6731342916465
 30
0.0
 11
121.6731342916882
 21
-131.4710932627809
 31
0.0
  0
LINE
  5
3A97
330
A
100
AcDbEntity
  8
0
  6
Continuous
 62
     7
370
     0
100
AcDbLine
 10
121.6731342916892
 20
-131.4710932627795
 30
0.0
 11
125.7098657628132
 21
-135.5078247339012
 31
0.0
  0
LINE
  5
3A98
330
A
100
AcDbEntity
  8
0
  6
Continuous
 62
     7
370
     0
100
AcDbLine
 10
-9.000000076079686
 20
-9.0
 30
0.0
 11
-9.000000076079686
 21
-7.933315826311059
 31
0.0
  0
LINE
  5
3A99
330
A
100
AcDbEntity
  8
0
  6
Continuous
 62
     7
370
     0
100
AcDbLine
 10
-9.000000076079686
 20
7.933315826311286
 30
0.0
 11
-9.000000076079686
 21
9.0
 31
0.0
  0
LINE
  5
3A9A
330
A
100
AcDbEntity
  8
0
  6
Continuous
 62
     7
370
     0
100
AcDbLine
 10
4.599999923920222
 20
7.933315826311286
 30
0.0
 11
-9.000000076079686
 21
7.933315826311286
 31
0.0
  0
LINE
  5
3A9B
330
A
100
AcDbEntity
  8
0
  6
Continuous
 62
     7
370
     0
100
AcDbLine
 10
4.599999923920222
 20
7.933315826311286
 30
0.0
 11
4.599999923920222
 21
-7.933315826311059
 31
0.0
  0
LINE
  5
3A9C
330
A
100
AcDbEntity
  8
0
  6
Continuous
 62
     7
370
     0
100
AcDbLine
 10
-9.000000076079686
 20
-7.933315826311059
 30
0.0
 11
4.599999923920222
 21
-7.933315826311059
 31
0.0
  0
ARC
  5
3A9D
330
A
100
AcDbEntity
  8
0
  6
Continuous
 62
     7
370
     0
100
AcDbCircle
 10
1.062869613418115
 20
-0.0002134592748462
 30
0.0
 40
3.03706621126645
100
AcDbArc
 50
304.9778370474991
 51
54.90796820719538
  0
ARC
  5
3A9E
330
A
100
AcDbEntity
  8
0
  6
Continuous
 62
     7
370
     0
100
AcDbCircle
 10
-1.063129633831749
 20
0.0002002614899084
 30
0.0
 40
3.03667016105118
100
AcDbArc
 50
125.0611963194022
 51
234.8312319407427
  0
ARC
  5
3A9F
330
A
100
AcDbEntity
  8
0
  6
Continuous
 62
     7
370
     0
100
AcDbCircle
 10
0.9250037002243516
 20
3.075820228284442
 30
0.0
 40
6.091047588799907
100
AcDbArc
 50
355.8395238267753
 51
52.89023805173742
  0
LINE
  5
3AA0
330
A
100
AcDbEntity
  8
0
  6
Continuous
 62
     7
370
     0
100
AcDbLine
 10
6.999999923920313
 20
-2.633913438213085
 30
0.0
 11
6.999999923920313
 21
2.633913438213312
 31
0.0
  0
ARC
  5
3AA1
330
A
100
AcDbEntity
  8
0
  6
Continuous
 62
     7
370
     0
100
AcDbCircle
 10
0.8724369458241199
 20
-3.052013730622661
 30
0.0
 40
6.141810474529847
100
AcDbArc
 50
307.3668413929286
 51
3.903396728557727
  0
LINE
  5
3AA2
330
A
100
AcDbEntity
  8
0
  6
Continuous
 62
     9
370
     0
100
AcDbLine
 10
-21.00000007607969
 20
-15.0
 30
0.0
 11
-21.00000007607969
 21
15.0
 31
0.0
  0
LINE
  5
3AA3
330
A
100
AcDbEntity
  8
0
  6
Continuous
 62
     7
370
     0
100
AcDbLine
 10
-18.00000007607969
 20
12.0
 30
0.0
 11
-18.00000007607969
 21
-12.0
 31
0.0
  0
LINE
  5
3AA4
330
A
100
AcDbEntity
  8
0
  6
Continuous
 62
     7
370
     0
100
AcDbLine
 10
-23.00000007607969
 20
15.0
 30
0.0
 11
-23.00000007607969
 21
-15.0
 31
0.0
  0
LINE
  5
3AA5
330
A
100
AcDbEntity
  8
0
  6
Continuous
 62
     9
370
     0
100
AcDbLine
 10
-54.93130652744366
 20
-2.100000000000022
 30
0.0
 11
-23.00000007607969
 21
-2.100000000000022
 31
0.0
  0
LINE
  5
3AA6
330
A
100
AcDbEntity
  8
0
  6
Continuous
 62
     9
370
     0
100
AcDbLine
 10
-23.00000007607969
 20
2.100000000000022
 30
0.0
 11
-54.93130652744366
 21
2.100000000000022
 31
0.0
  0
LINE
  5
3AA7
330
A
100
AcDbEntity
  8
0
  6
Continuous
 62
     7
370
     0
100
AcDbLine
 10
-54.93130652744366
 20
-2.499999999999772
 30
0.0
 11
-23.00000007607969
 21
-2.499999999999772
 31
0.0
  0
LINE
  5
3AA8
330
A
100
AcDbEntity
  8
0
  6
Continuous
 62
     7
370
     0
100
AcDbLine
 10
-23.00000007607969
 20
2.5
 30
0.0
 11
-54.93130652744366
 21
2.5
 31
0.0
  0
LINE
  5
3AA9
330
A
100
AcDbEntity
  8
0
  6
Continuous
 62
     7
370
     0
100
AcDbLine
 10
-54.93130652744366
 20
2.5
 30
0.0
 11
-61.80000007607986
 21
0.0
 31
0.0
  0
LINE
  5
3AAA
330
A
100
AcDbEntity
  8
0
  6
Continuous
 62
     7
370
     0
100
AcDbLine
 10
-61.80000007607986
 20
0.0
 30
0.0
 11
-54.93130652744366
 21
-2.499999999999772
 31
0.0
  0
LINE
  5
3AAB
330
A
100
AcDbEntity
  8
0
  6
Continuous
 62
     7
370
     0
100
AcDbLine
 10
142.6431815891212
 20
-151.6431815890727
 30
0.0
 11
142.6431815891192
 21
-142.6431815890727
 31
0.0
  0
LINE
  5
3AAC
330
A
100
AcDbEntity
  8
0
  6
Continuous
 62
     7
370
     0
100
AcDbLine
 10
124.6431815891262
 20
-142.6431815890781
 30
0.0
 11
124.6431815891292
 21
-151.643181589078
 31
0.0
  0
LINE
  5
3AAD
330
A
100
AcDbEntity
  8
0
  6
Continuous
 62
     7
370
     0
100
AcDbLine
 10
-3.380392672669813
 20
-7.933315826311059
 30
0.0
 11
125.7098657628132
 21
-137.0235742617531
 31
0.0
  0
LINE
  5
3AAE
330
A
100
AcDbEntity
  8
0
  6
Continuous
 62
     7
370
     0
100
AcDbLine
 10
138.1769396849513
 20
-126.8632311859287
 30
0.0
 11
6.778677141884372
 21
4.535031357097295
 31
0.0
  0
ARC
  5
3AAF
330
A
100
AcDbEntity
  8
0
  6
Continuous
 62
     7
370
     0
100
AcDbCircle
 10
-0.0000000551588073
 20
0.0000000551584662
 30
0.0
 40
8.000000000000017
100
AcDbArc
 50
82.59702405380931
 51
97.40297594625696
  0
ARC
  5
3AB0
330
A
100
AcDbEntity
  8
0
  6
Continuous
 62
     7
370
     0
100
AcDbCircle
 10
133.6431815891203
 20
-133.643181589078
 30
0.0
 40
7.999999999999906
100
AcDbArc
 50
352.5970271195455
 51
7.40297288041575
  0
LINE
  5
3AB1
330
A
100
AcDbEntity
  8
0
  6
Continuous
 62
     7
370
     0
100
AcDbLine
 10
-18.00000007607969
 20
-9.0
 30
0.0
 11
-9.000000076079686
 21
-9.0
 31
0.0
  0
LINE
  5
3AB2
330
A
100
AcDbEntity
  8
0
  6
Continuous
 62
     7
370
     0
100
AcDbLine
 10
-9.000000076079686
 20
9.0
 30
0.0
 11
-18.00000007607969
 21
9.0
 31
0.0
  0
ARC
  5
3AB3
330
A
100
AcDbEntity
  8
0
  6
Continuous
 62
     7
370
     0
100
AcDbCircle
 10
-21.00000007607969
 20
12.0
 30
0.0
 40
3.000000000000113
100
AcDbArc
 50
0.0
 51
90.0
  0
ARC
  5
3AB4
330
A
100
AcDbEntity
  8
0
  6
Continuous
 62
     7
370
     0
100
AcDbCircle
 10
-21.00000007607969
 20
-12.0
 30
0.0
 40
3.000000000000001
100
AcDbArc
 50
270.0
 51
0.0
  0
LINE
  5
3AB5
330
A
100
AcDbEntity
  8
0
  6
Continuous
 62
     7
370
     0
100
AcDbLine
 10
-23.00000007607969
 20
-15.0
 30
0.0
 11
-21.00000007607969
 21
-15.0
 31
0.0
  0
LINE
  5
3AB6
330
A
100
AcDbEntity
  8
0
  6
Continuous
 62
     7
370
     0
100
AcDbLine
 10
-21.00000007607969
 20
15.0
 30
0.0
 11
-23.00000007607969
 21
15.0
 31
0.0
  0
TEXT
  5
5EDA
330
A
100
AcDbEntity
  8
0
  6
Continuous
 62
     7
370
     0
100
AcDbText
 10
59.82267490906929
 20
-18.31427015032409
 30
0.0
 40
10.0
  1
5F08
100
AcDbText
  0
ARC
  5
5F14
330
A
100
AcDbEntity
  8
0
  6
Continuous
 62
     7
370
     0
100
AcDbCircle
 10
-28.31927789838869
 20
-87.04378513060907
 30
0.0
 40
6.251993926611052
100
AcDbArc
 50
0.7123578541782881
 51
65.83019199699862
  0
LINE
  5
5F15
330
A
100
AcDbEntity
  8
0
  6
Continuous
 62
     7
370
     0
100
AcDbLine
 10
-25.75944690367783
 20
-81.33986600978529
 30
0.0
 11
-26.02050611906179
 21
-81.26540480898905
 31
0.0
  0
LINE
  5
5F16
330
A
100
AcDbEntity
  8
0
  6
Continuous
 62
     7
370
     0
100
AcDbLine
 10
-26.02050611906179
 20
-81.26540480898905
 30
0.0
 11
-26.18681654151169
 21
-81.22774653795989
 31
0.0
  0
ARC
  5
5F17
330
A
100
AcDbEntity
  8
0
  6
Continuous
 62
     7
370
     0
100
AcDbCircle
 10
-30.27199225042978
 20
-99.50810275604704
 30
0.0
 40
5.283326692772177
100
AcDbArc
 50
262.2242740508911
 51
328.9263016793568
  0
LINE
  5
5F18
330
A
100
AcDbEntity
  8
0
  6
Continuous
 62
     7
370
     0
100
AcDbLine
 10
-25.74680122643076
 20
-102.23504007452
 30
0.0
 11
-25.43188699324764
 21
-101.8119482365016
 31
0.0
  0
LINE
  5
5F19
330
A
100
AcDbEntity
  8
0
  6
Continuous
 62
     7
370
     0
100
AcDbLine
 10
-25.43188699324764
 20
-101.8119482365016
 30
0.0
 11
-25.13118611163782
 21
-101.368181809609
 31
0.0
  0
LINE
  5
5F1A
330
A
100
AcDbEntity
  8
0
  6
Continuous
 62
     7
370
     0
100
AcDbLine
 10
-25.13118611163782
 20
-101.368181809609
 30
0.0
 11
-24.94863305088984
 21
-101.0784087690649
 31
0.0
  0
LINE
  5
5F1B
330
A
100
AcDbEntity
  8
0
  6
Continuous
 62
     7
370
     0
100
AcDbLine
 10
-16.43348841352258
 20
-88.8358490313176
 30
0.0
 11
-16.44934267837766
 21
-88.84686737440858
 31
0.0
  0
LINE
  5
5F1C
330
A
100
AcDbEntity
  8
0
  6
Continuous
 62
     7
370
     0
100
AcDbLine
 10
-16.44934267837766
 20
-88.84686737440858
 30
0.0
 11
-16.4963204555288
 21
-88.88279063067102
 31
0.0
  0
LINE
  5
5F1D
330
A
100
AcDbEntity
  8
0
  6
Continuous
 62
     7
370
     0
100
AcDbLine
 10
-16.4963204555288
 20
-88.88279063067102
 30
0.0
 11
-16.53929293316969
 21
-88.920869920673
 31
0.0
  0
LINE
  5
5F1E
330
A
100
AcDbEntity
  8
0
  6
Continuous
 62
     7
370
     0
100
AcDbLine
 10
-16.53929293316969
 20
-88.920869920673
 30
0.0
 11
-16.57813739274866
 21
-88.96096690935804
 31
0.0
  0
LINE
  5
5F1F
330
A
100
AcDbEntity
  8
0
  6
Continuous
 62
     7
370
     0
100
AcDbLine
 10
-16.57813739274866
 20
-88.96096690935804
 30
0.0
 11
-16.61273111571086
 21
-89.00294326166852
 31
0.0
  0
LINE
  5
5F20
330
A
100
AcDbEntity
  8
0
  6
Continuous
 62
     7
370
     0
100
AcDbLine
 10
-16.61273111571086
 20
-89.00294326166852
 30
0.0
 11
-16.64007055801767
 21
-89.04207330289102
 31
0.0
  0
LINE
  5
5F21
330
A
100
AcDbEntity
  8
0
  6
Continuous
 62
     7
370
     0
100
AcDbLine
 10
-16.64007055801767
 20
-89.04207330289102
 30
0.0
 11
-16.66400060476485
 21
-89.08259865255434
 31
0.0
  0
LINE
  5
5F22
330
A
100
AcDbEntity
  8
0
  6
Continuous
 62
     7
370
     0
100
AcDbLine
 10
-16.66400060476485
 20
-89.08259865255434
 30
0.0
 11
-16.68450359717371
 21
-89.12439010903666
 31
0.0
  0
LINE
  5
5F23
330
A
100
AcDbEntity
  8
0
  6
Continuous
 62
     7
370
     0
100
AcDbLine
 10
-16.68450359717371
 20
-89.12439010903666
 30
0.0
 11
-16.70156187647058
 21
-89.16731847071606
 31
0.0
  0
LINE
  5
5F24
330
A
100
AcDbEntity
  8
0
  6
Continuous
 62
     7
370
     0
100
AcDbLine
 10
-16.70156187647058
 20
-89.16731847071606
 30
0.0
 11
-16.71926893427962
 21
-89.22739092702874
 31
0.0
  0
LINE
  5
5F25
330
A
100
AcDbEntity
  8
0
  6
Continuous
 62
     7
370
     0
100
AcDbLine
 10
-16.71926893427962
 20
-89.22739092702874
 30
0.0
 11
-16.73076779636676
 21
-89.28922780024402
 31
0.0
  0
LINE
  5
5F26
330
A
100
AcDbEntity
  8
0
  6
Continuous
 62
     7
370
     0
100
AcDbLine
 10
-16.73076779636676
 20
-89.28922780024402
 30
0.0
 11
-16.73615022161266
 21
-89.35248919384935
 31
0.0
  0
LINE
  5
5F27
330
A
100
AcDbEntity
  8
0
  6
Continuous
 62
     7
370
     0
100
AcDbLine
 10
-16.73615022161266
 20
-89.35248919384935
 30
0.0
 11
-16.73619369510584
 21
-89.40225281337006
 31
0.0
  0
LINE
  5
5F28
330
A
100
AcDbEntity
  8
0
  6
Continuous
 62
     7
370
     0
100
AcDbLine
 10
-16.73619369510584
 20
-89.40225281337006
 30
0.0
 11
-16.73272909269872
 21
-89.45262562359756
 31
0.0
  0
LINE
  5
5F29
330
A
100
AcDbEntity
  8
0
  6
Continuous
 62
     7
370
     0
100
AcDbLine
 10
-16.73272909269872
 20
-89.45262562359756
 30
0.0
 11
-16.72259930342966
 21
-89.5214567859881
 31
0.0
  0
LINE
  5
5F2A
330
A
100
AcDbEntity
  8
0
  6
Continuous
 62
     7
370
     0
100
AcDbLine
 10
-16.72259930342966
 20
-89.5214567859881
 30
0.0
 11
-16.70638716386679
 21
-89.59096659517047
 31
0.0
  0
LINE
  5
5F2B
330
A
100
AcDbEntity
  8
0
  6
Continuous
 62
     7
370
     0
100
AcDbLine
 10
-16.70638716386679
 20
-89.59096659517047
 30
0.0
 11
-16.68431175785076
 21
-89.66081907361923
 31
0.0
  0
LINE
  5
5F2C
330
A
100
AcDbEntity
  8
0
  6
Continuous
 62
     7
370
     0
100
AcDbLine
 10
-16.68431175785076
 20
-89.66081907361923
 30
0.0
 11
-16.6637332252717
 21
-89.71399141093014
 31
0.0
  0
LINE
  5
5F2D
330
A
100
AcDbEntity
  8
0
  6
Continuous
 62
     7
370
     0
100
AcDbLine
 10
-16.6637332252717
 20
-89.71399141093014
 30
0.0
 11
-16.63997062836779
 21
-89.76713948838051
 31
0.0
  0
LINE
  5
5F2E
330
A
100
AcDbEntity
  8
0
  6
Continuous
 62
     7
370
     0
100
AcDbLine
 10
-16.63997062836779
 20
-89.76713948838051
 30
0.0
 11
-16.59623086003466
 21
-89.85068082716532
 31
0.0
  0
LINE
  5
5F2F
330
A
100
AcDbEntity
  8
0
  6
Continuous
 62
     7
370
     0
100
AcDbLine
 10
-16.59623086003466
 20
-89.85068082716532
 30
0.0
 11
-16.54477717498184
 21
-89.93407315775233
 31
0.0
  0
LINE
  5
5F30
330
A
100
AcDbEntity
  8
0
  6
Continuous
 62
     7
370
     0
100
AcDbLine
 10
-16.54477717498184
 20
-89.93407315775233
 30
0.0
 11
-16.48619645468057
 21
-90.01643671310365
 31
0.0
  0
LINE
  5
5F31
330
A
100
AcDbEntity
  8
0
  6
Continuous
 62
     7
370
     0
100
AcDbLine
 10
-16.48619645468057
 20
-90.01643671310365
 30
0.0
 11
-16.42038238182886
 21
-90.09792751647774
 31
0.0
  0
LINE
  5
5F32
330
A
100
AcDbEntity
  8
0
  6
Continuous
 62
     7
370
     0
100
AcDbLine
 10
-10.6267463464776
 20
-90.07871026582916
 30
0.0
 11
-10.60951042030569
 21
-90.0644067810864
 31
0.0
  0
LINE
  5
5F33
330
A
100
AcDbEntity
  8
0
  6
Continuous
 62
     7
370
     0
100
AcDbLine
 10
-10.60951042030569
 20
-90.0644067810864
 30
0.0
 11
-10.56730598347667
 21
-90.02736462145231
 31
0.0
  0
LINE
  5
5F34
330
A
100
AcDbEntity
  8
0
  6
Continuous
 62
     7
370
     0
100
AcDbLine
 10
-10.56730598347667
 20
-90.02736462145231
 30
0.0
 11
-10.52944693572271
 21
-89.99095532792784
 31
0.0
  0
LINE
  5
5F35
330
A
100
AcDbEntity
  8
0
  6
Continuous
 62
     7
370
     0
100
AcDbLine
 10
-10.52944693572271
 20
-89.99095532792784
 30
0.0
 11
-10.49962875399069
 21
-89.9593202013615
 31
0.0
  0
LINE
  5
5F36
330
A
100
AcDbEntity
  8
0
  6
Continuous
 62
     7
370
     0
100
AcDbLine
 10
-10.49962875399069
 20
-89.9593202013615
 30
0.0
 11
-10.47322563362877
 21
-89.92821801191439
 31
0.0
  0
LINE
  5
5F37
330
A
100
AcDbEntity
  8
0
  6
Continuous
 62
     7
370
     0
100
AcDbLine
 10
-10.47322563362877
 20
-89.92821801191439
 30
0.0
 11
-10.45026664146576
 21
-89.89770785835844
 31
0.0
  0
LINE
  5
5F38
330
A
100
AcDbEntity
  8
0
  6
Continuous
 62
     7
370
     0
100
AcDbLine
 10
-10.45026664146576
 20
-89.89770785835844
 30
0.0
 11
-10.43078084432773
 21
-89.86784883946564
 31
0.0
  0
LINE
  5
5F39
330
A
100
AcDbEntity
  8
0
  6
Continuous
 62
     7
370
     0
100
AcDbLine
 10
-10.43078084432773
 20
-89.86784883946564
 30
0.0
 11
-10.41446854324476
 21
-89.83806533546488
 31
0.0
  0
LINE
  5
5F3A
330
A
100
AcDbEntity
  8
0
  6
Continuous
 62
     7
370
     0
100
AcDbLine
 10
-10.41446854324476
 20
-89.83806533546488
 30
0.0
 11
-10.40170526107476
 21
-89.8089534303358
 31
0.0
  0
LINE
  5
5F3B
330
A
100
AcDbEntity
  8
0
  6
Continuous
 62
     7
370
     0
100
AcDbLine
 10
-10.40170526107476
 20
-89.8089534303358
 30
0.0
 11
-10.39246008287477
 21
-89.78054490503859
 31
0.0
  0
LINE
  5
5F3C
330
A
100
AcDbEntity
  8
0
  6
Continuous
 62
     7
370
     0
100
AcDbLine
 10
-10.39246008287477
 20
-89.78054490503859
 30
0.0
 11
-10.38670209370275
 21
-89.75287154053399
 31
0.0
  0
LINE
  5
5F3D
330
A
100
AcDbEntity
  8
0
  6
Continuous
 62
     7
370
     0
100
AcDbLine
 10
-10.38670209370275
 20
-89.75287154053399
 30
0.0
 11
-10.38436902283183
 21
-89.7254485718048
 31
0.0
  0
LINE
  5
5F3E
330
A
100
AcDbEntity
  8
0
  6
Continuous
 62
     7
370
     0
100
AcDbLine
 10
-10.38436902283183
 20
-89.7254485718048
 30
0.0
 11
-10.38551997743775
 21
-89.69875911412566
 31
0.0
  0
LINE
  5
5F3F
330
A
100
AcDbEntity
  8
0
  6
Continuous
 62
     7
370
     0
100
AcDbLine
 10
-10.38551997743775
 20
-89.69875911412566
 30
0.0
 11
-10.39249657955974
 21
-89.6638418973472
 31
0.0
  0
LINE
  5
5F40
330
A
100
AcDbEntity
  8
0
  6
Continuous
 62
     7
370
     0
100
AcDbLine
 10
-10.39249657955974
 20
-89.6638418973472
 30
0.0
 11
-10.40553202086266
 21
-89.63018696006804
 31
0.0
  0
LINE
  5
5F41
330
A
100
AcDbEntity
  8
0
  6
Continuous
 62
     7
370
     0
100
AcDbLine
 10
-10.40553202086266
 20
-89.63018696006804
 30
0.0
 11
-10.4244194681587
 21
-89.59778327977813
 31
0.0
  0
LINE
  5
5F42
330
A
100
AcDbEntity
  8
0
  6
Continuous
 62
     7
370
     0
100
AcDbLine
 10
-10.4244194681587
 20
-89.59778327977813
 30
0.0
 11
-10.44257491820463
 21
-89.5739518270683
 31
0.0
  0
LINE
  5
5F43
330
A
100
AcDbEntity
  8
0
  6
Continuous
 62
     7
370
     0
100
AcDbLine
 10
-10.44257491820463
 20
-89.5739518270683
 30
0.0
 11
-10.46391426026684
 21
-89.55076876372606
 31
0.0
  0
LINE
  5
5F44
330
A
100
AcDbEntity
  8
0
  6
Continuous
 62
     7
370
     0
100
AcDbLine
 10
-10.46391426026684
 20
-89.55076876372606
 30
0.0
 11
-10.49190069105771
 21
-89.52518814938413
 31
0.0
  0
LINE
  5
5F45
330
A
100
AcDbEntity
  8
0
  6
Continuous
 62
     7
370
     0
100
AcDbLine
 10
-10.49190069105771
 20
-89.52518814938413
 30
0.0
 11
-10.52375700426068
 21
-89.50035436667292
 31
0.0
  0
LINE
  5
5F46
330
A
100
AcDbEntity
  8
0
  6
Continuous
 62
     7
370
     0
100
AcDbLine
 10
-10.52375700426068
 20
-89.50035436667292
 30
0.0
 11
-10.55984170332567
 21
-89.4759125637355
 31
0.0
  0
LINE
  5
5F47
330
A
100
AcDbEntity
  8
0
  6
Continuous
 62
     7
370
     0
100
AcDbLine
 10
-6.993465343512752
 20
-91.81982415859636
 30
0.0
 11
-6.960524670791755
 21
-91.91647608311326
 31
0.0
  0
LINE
  5
5F48
330
A
100
AcDbEntity
  8
0
  6
Continuous
 62
     7
370
     0
100
AcDbLine
 10
-6.960524670791755
 20
-91.91647608311326
 30
0.0
 11
-6.936674913979686
 21
-92.04957365680877
 31
0.0
  0
LINE
  5
5F49
330
A
100
AcDbEntity
  8
0
  6
Continuous
 62
     7
370
     0
100
AcDbLine
 10
-6.936674913979686
 20
-92.04957365680877
 30
0.0
 11
-6.937336108075669
 21
-92.1919049761667
 31
0.0
  0
LINE
  5
5F4A
330
A
100
AcDbEntity
  8
0
  6
Continuous
 62
     7
370
     0
100
AcDbLine
 10
-6.937336108075669
 20
-92.1919049761667
 30
0.0
 11
-6.972493596911817
 21
-92.36435394710747
 31
0.0
  0
ARC
  5
5F4B
330
A
100
AcDbEntity
  8
0
  6
Continuous
 62
     7
370
     0
100
AcDbCircle
 10
-8.781528691713674
 20
-91.64948209464592
 30
0.0
 40
1.945160594826956
100
AcDbArc
 50
307.057697094125
 51
338.4376794338753
  0
ARC
  5
5F4C
330
A
100
AcDbEntity
  8
0
  6
Continuous
 62
     7
370
     0
100
AcDbCircle
 10
35.13290595080025
 20
-146.2526965499727
 30
0.0
 40
3.224193107001966
100
AcDbArc
 50
269.5238780595731
 51
294.7190088027999
  0
LINE
  5
5F4D
330
A
100
AcDbEntity
  8
0
  6
Continuous
 62
     7
370
     0
100
AcDbLine
 10
36.48116182709419
 20
-149.1814552090768
 30
0.0
 11
36.63427187636535
 21
-149.0857995153617
 31
0.0
  0
LINE
  5
5F4E
330
A
100
AcDbEntity
  8
0
  6
Continuous
 62
     7
370
     0
100
AcDbLine
 10
36.63427187636535
 20
-149.0857995153617
 30
0.0
 11
36.70279731185019
 21
-149.0334800316561
 31
0.0
  0
ENDSEC
  0
SECTION
  2
OBJECTS
  0
DICTIONARY
  5
19
330
0
100
AcDbDictionary
281
     1
  3
ACAD_COLOR
350
3176
  3
ACAD_GROUP
350
1A
  3
ACAD_LAYOUT
350
1E
  3
ACAD_MATERIAL
350
314C
  3
ACAD_MLEADERSTYLE
350
319B
  3
ACAD_MLINESTYLE
350
1B
  3
ACAD_PLOTSETTINGS
350
22
  3
ACAD_PLOTSTYLENAME
350
1F
  3
ACAD_SCALELIST
350
3179
  3
ACAD_TABLESTYLE
350
3177
  3
ACAD_VISUALSTYLE
350
3165
  3
ACAD_WIPEOUT_VARS
350
23
  3
ACDB_RECOMPOSE_DATA
350
630A
  3
AcDbVariableDictionary
350
630B
  3
ASE_INDEX_DICTIONARY
350
5E44
  3
DWGPROPS
350
633E
  0
DICTIONARY
  5
5E41
330
14
100
AcDbDictionary
280
     1
281
     1
  3
ADSK_XREC_LAYER_RECONCILED
360
5E42
  0
DICTIONARY
  5
31A7
330
A
100
AcDbDictionary
280
     1
281
     1
  3
ACAD_SORTENTS
360
31A8
  0
DICTIONARY
  5
3176
102
{ACAD_REACTORS
330
19
102
}
330
19
100
AcDbDictionary
281
     1
  0
DICTIONARY
  5
1A
102
{ACAD_REACTORS
330
19
102
}
330
19
100
AcDbDictionary
281
     1
  0
DICTIONARY
  5
1E
102
{ACAD_REACTORS
330
19
102
}
330
19
100
AcDbDictionary
281
     1
  3
Layout1
350
21
  3
Model
350
20
  0
DICTIONARY
  5
314C
102
{ACAD_REACTORS
330
19
102
}
330
19
100
AcDbDictionary
281
     1
  3
ByBlock
350
3155
  3
ByLayer
350
314D
  3
Global
350
315D
  0
DICTIONARY
  5
319B
102
{ACAD_REACTORS
330
19
102
}
330
19
100
AcDbDictionary
281
     1
  3
Standard
350
319C
  0
DICTIONARY
  5
1B
102
{ACAD_REACTORS
330
19
102
}
330
19
100
AcDbDictionary
281
     1
  3
Standard
350
1C
  0
DICTIONARY
  5
22
102
{ACAD_REACTORS
330
19
102
}
330
19
100
AcDbDictionary
281
     1
  0
ACDBDICTIONARYWDFLT
  5
1F
102
{ACAD_REACTORS
330
19
102
}
330
19
100
AcDbDictionary
281
     1
  3
Normal
350
1D
100
AcDbDictionaryWithDefault
340
1D
  0
DICTIONARY
  5
3179
102
{ACAD_REACTORS
330
19
102
}
330
19
100
AcDbDictionary
281
     1
  3
A0
350
317A
  3
A1
350
317B
  3
A2
350
317C
  3
A3
350
317D
  3
A4
350
317E
  3
A5
350
317F
  3
A6
350
3180
  3
A7
350
3181
  3
A8
350
3182
  3
A9
350
3183
  3
B0
350
3184
  3
B1
350
3185
  3
B2
350
3186
  3
B3
350
3187
  3
B4
350
3188
  3
B5
350
3189
  3
B6
350
318A
  3
B7
350
318B
  3
B8
350
318C
  3
B9
350
318D
  3
C0
350
318E
  3
C1
350
318F
  3
C2
350
3190
  3
C3
350
3191
  3
C4
350
3192
  3
C5
350
3193
  3
C6
350
3194
  3
C7
350
3195
  3
C8
350
3196
  3
C9
350
3197
  3
D0
350
3198
  3
D1
350
3199
  3
D2
350
319A
  0
DICTIONARY
  5
3177
102
{ACAD_REACTORS
330
19
102
}
330
19
100
AcDbDictionary
281
     1
  3
Standard
350
3178
  0
DICTIONARY
  5
3165
102
{ACAD_REACTORS
330
19
102
}
330
19
100
AcDbDictionary
281
     1
  3
2dWireframe
350
316B
  3
3D Hidden
350
316D
  3
3dWireframe
350
316C
  3
Basic
350
316A
  3
Brighten
350
3171
  3
ColorChange
350
3175
  3
Conceptual
350
316E
  3
Dim
350
3170
  3
Facepattern
350
3174
  3
Flat
350
3166
  3
FlatWithEdges
350
3167
  3
Gouraud
350
3168
  3
GouraudWithEdges
350
3169
  3
Linepattern
350
3173
  3
Realistic
350
316F
  3
Thicken
350
3172
  0
WIPEOUTVARIABLES
  5
23
330
19
100
AcDbWipeoutVariables
 70
     1
  0
XRECORD
  5
630A
102
{ACAD_REACTORS
330
19
102
}
330
19
100
AcDbXrecord
280
     1
 90
        1
330
3178
  0
DICTIONARY
  5
630B
102
{ACAD_REACTORS
330
19
102
}
330
19
100
AcDbDictionary
281
     1
  3
CANNOSCALE
350
630F
  3
CMLEADERSTYLE
350
630D
  3
CTABLESTYLE
350
630C
  3
DIMASSOC
350
6318
  3
INDEXCTL
350
6317
  3
LIGHTINGUNITS
350
6310
  3
MSLTSCALE
350
630E
  3
SORTENTS
350
6316
  0
DICTIONARY
  5
5E44
102
{ACAD_REACTORS
330
19
102
}
330
19
100
AcDbDictionary
281
     1
  3
ASEBlockHierarchyIndexRecord
350
5E46
1001
DCO15
1040
1685075681.336
  0
XRECORD
  5
633E
102
{ACAD_REACTORS
330
19
102
}
330
19
100
AcDbXrecord
280
     1
  1
DWGPROPS COOKIE
  2

  3

  4

  6

  7

  8
renzo.ceresoli
  9

300
=
301
=
302
=
303
=
304
=
305
=
306
=
307
=
308
=
309
=
 40
0.0023462731481481
 41
2455303.727916667
 42
2455306.471721921
  1

 90
        0
  0
XRECORD
  5
5E42
102
{ACAD_REACTORS
330
5E41
102
}
330
5E41
100
AcDbXrecord
280
     1
290
     1
  0
SORTENTSTABLE
  5
31A8
102
{ACAD_REACTORS
330
31A7
102
}
330
31A7
100
AcDbSortentsTable
330
A
331
37A2
  5
57B4
331
37E9
  5
57FB
331
3804
  5
5811
331
384F
  5
5825
331
37CE
  5
57E0
331
3862
  5
584E
331
38D4
  5
56F9
331
38E7
  5
570C
331
3902
  5
5727
331
3883
  5
576E
331
389E
  5
5789
331
38B9
  5
57A4
331
3936
  5
575B
331
3951
  5
56B9
331
391B
  5
5740
331
39D2
  5
5688
331
3989
  5
5634
331
39A4
  5
564F
331
39BF
  5
566A
331
396E
  5
56D6
331
3A6A
  5
5550
331
39EB
  5
56A1
331
3A9E
  5
55A6
331
3A83
  5
5569
331
2C8F
  5
5A19
331
37A0
  5
57B2
331
3802
  5
580F
331
3860
  5
584C
331
379E
  5
57B0
331
37CC
  5
57DE
331
37E7
  5
57F9
331
38E5
  5
570A
331
3900
  5
5725
331
3881
  5
576C
331
389C
  5
5787
331
38B7
  5
57A2
331
38D2
  5
56F7
331
3934
  5
5759
331
394F
  5
56B7
331
38FE
  5
5723
331
3919
  5
573E
331
3987
  5
5632
331
39A2
  5
564D
331
39BD
  5
5668
331
396C
  5
56D4
331
39D0
  5
5686
331
3A68
  5
554E
331
39E9
  5
569F
331
3A9C
  5
55A4
331
3A66
  5
554C
331
3A81
  5
5567
331
2C8D
  5
5A17
331
3800
  5
580D
331
37B7
  5
57C9
331
37CA
  5
57DC
331
37E5
  5
57F7
331
38E3
  5
5708
331
387F
  5
576A
331
389A
  5
5785
331
38B5
  5
57A0
331
38D0
  5
56F5
331
3932
  5
5757
331
394D
  5
56B5
331
38FC
  5
5721
331
3917
  5
573C
331
3985
  5
5630
331
39A0
  5
564B
331
39BB
  5
5666
331
396A
  5
56D2
331
39E7
  5
569D
331
3A9A
  5
55A2
331
3AB5
  5
55BD
331
3A64
  5
554A
331
3A7F
  5
5565
331
2C8B
  5
5A15
331
37FE
  5
580B
331
37B5
  5
57C7
331
37C8
  5
57DA
331
37E3
  5
57F5
331
38E1
  5
5706
331
3898
  5
5783
331
38B3
  5
579E
331
38CE
  5
56F3
331
387D
  5
585E
331
394B
  5
56B3
331
38FA
  5
571F
331
3915
  5
573A
331
3930
  5
5755
331
399E
  5
5649
331
39B9
  5
5664
331
3968
  5
56D0
331
3983
  5
562E
331
39E5
  5
569B
331
39B7
  5
5662
331
3A98
  5
55A0
331
3AB3
  5
55BB
331
3A62
  5
5548
331
3A7D
  5
5563
331
2C89
  5
5A13
331
37FC
  5
5809
331
37B3
  5
57C5
331
37C6
  5
57D8
331
37E1
  5
57F3
331
3896
  5
5781
331
38B1
  5
579C
331
38CC
  5
56F1
331
3949
  5
56B1
331
38F8
  5
571D
331
3913
  5
5738
331
392E
  5
5753
331
399C
  5
5647
331
3966
  5
56CE
331
3981
  5
562C
331
39E3
  5
5699
331
39B5
  5
5660
331
3A96
  5
559E
331
3AB1
  5
55B9
331
3A60
  5
5546
331
3A7B
  5
5561
331
2C87
  5
5A11
331
37FA
  5
5807
331
37B1
  5
57C3
331
37C4
  5
57D6
331
37DF
  5
57F1
331
3894
  5
577F
331
38AF
  5
579A
331
381B
  5
5821
331
385E
  5
584A
331
38CA
  5
56EF
331
3947
  5
56AF
331
38F6
  5
571B
331
3911
  5
5736
331
392C
  5
5751
331
399A
  5
5645
331
3964
  5
56CC
331
397F
  5
56E7
331
39B3
  5
565E
331
39CE
  5
5684
331
39E1
  5
5697
331
3AAF
  5
55B7
331
3A5E
  5
5544
331
3A79
  5
555F
331
3A94
  5
559C
331
2C85
  5
5A0F
331
37AF
  5
57C1
331
37C2
  5
57D4
331
37DD
  5
57EF
331
37F8
  5
5805
331
3892
  5
577D
331
38AD
  5
5798
331
3819
  5
581F
331
385C
  5
583D
331
38C8
  5
56ED
331
3945
  5
56AD
331
38F4
  5
5719
331
390F
  5
5734
331
38C6
  5
56EB
331
392A
  5
574F
331
3998
  5
5643
331
3962
  5
56CA
331
397D
  5
56E5
331
3996
  5
5641
331
39B1
  5
565C
331
39CC
  5
5682
331
39DF
  5
5695
331
3AAD
  5
55B5
331
3A5C
  5
5542
331
3A77
  5
555D
331
3A92
  5
5590
331
37AD
  5
57BF
331
37C0
  5
57D2
331
37DB
  5
57ED
331
3890
  5
577B
331
38AB
  5
5796
331
3817
  5
581D
331
385A
  5
5830
331
386D
  5
5859
331
3943
  5
5768
331
38F2
  5
5717
331
390D
  5
5732
331
3928
  5
574D
331
38C4
  5
56E9
331
38DF
  5
5704
331
3960
  5
56C8
331
397B
  5
56E3
331
39AF
  5
565A
331
39CA
  5
5680
331
39DD
  5
5693
331
3994
  5
563F
331
3AAB
  5
55B3
331
3A5A
  5
5540
331
3A75
  5
555B
331
3A90
  5
558E
331
37BE
  5
57D0
331
37D9
  5
57EB
331
37AB
  5
57BD
331
38A9
  5
5794
331
3815
  5
581B
331
3858
  5
582E
331
37D7
  5
57E9
331
386B
  5
5857
331
388E
  5
5779
331
38F0
  5
5715
331
390B
  5
5730
331
3926
  5
574B
331
38A7
  5
5792
331
38C2
  5
57AD
331
38DD
  5
5702
331
3941
  5
5766
331
393F
  5
5764
331
395E
  5
56C6
331
3979
  5
56E1
331
39AD
  5
5658
331
39C8
  5
567E
331
39DB
  5
5691
331
3977
  5
56DF
331
3992
  5
563D
331
3AA9
  5
55B1
331
3A58
  5
553E
331
3A73
  5
5559
331
3A8E
  5
558C
331
3AA7
  5
55AF
331
37BC
  5
57CE
331
37A9
  5
57BB
331
3813
  5
5819
331
3856
  5
582C
331
3869
  5
5855
331
37D5
  5
57E7
331
37F0
  5
5802
331
388C
  5
5777
331
38EE
  5
5713
331
3909
  5
572E
331
3924
  5
5749
331
38A5
  5
5790
331
38C0
  5
57AB
331
38DB
  5
5700
331
393D
  5
5762
331
395C
  5
56C4
331
39F4
  5
56AA
331
39AB
  5
5656
331
39C6
  5
567C
331
39D9
  5
568F
331
3975
  5
56DD
331
3990
  5
563B
331
3A71
  5
5557
331
3A8C
  5
5578
331
3AA5
  5
55AD
331
2C98
  5
5A22
331
2C96
  5
5A20
331
37BA
  5
57CC
331
37A7
  5
57B9
331
3854
  5
582A
331
3867
  5
5853
331
388A
  5
5775
331
37D3
  5
57E5
331
37EE
  5
5800
331
3811
  5
5817
331
3907
  5
572C
331
3922
  5
5747
331
38A3
  5
578E
331
38BE
  5
57A9
331
38D9
  5
56FE
331
38EC
  5
5711
331
3956
  5
56BE
331
393B
  5
5760
331
395A
  5
56C2
331
39A9
  5
5654
331
39C4
  5
567A
331
39D7
  5
568D
331
3973
  5
56DB
331
398E
  5
5639
331
39F2
  5
56A8
331
3A6F
  5
5555
331
3A8A
  5
5570
331
3AA3
  5
55AB
331
2C94
  5
5A1E
331
37B8
  5
57CA
331
37A5
  5
57B7
331
3852
  5
5828
331
3865
  5
5851
331
3888
  5
5773
331
37D1
  5
57E3
331
37EC
  5
57FE
331
3807
  5
5814
331
3905
  5
572A
331
3920
  5
5745
331
38A1
  5
578C
331
38BC
  5
57A7
331
38D7
  5
56FC
331
3886
  5
5771
331
38EA
  5
570F
331
3954
  5
56BC
331
391E
  5
5743
331
3939
  5
575E
331
3958
  5
56C0
331
39A7
  5
5652
331
39C2
  5
5678
331
39D5
  5
568B
331
3971
  5
56D9
331
398C
  5
5637
331
39F0
  5
56A6
331
3A6D
  5
5553
331
3A88
  5
556E
331
39EE
  5
56A4
331
3A86
  5
556C
331
3AA1
  5
55A9
331
2C92
  5
5A1C
331
37A3
  5
57B5
331
3850
  5
5826
331
3863
  5
584F
331
37CF
  5
57E1
331
37EA
  5
57FC
331
3805
  5
5812
331
3903
  5
5728
331
38BA
  5
57A5
331
38D5
  5
56FA
331
38E8
  5
570D
331
3884
  5
576F
331
389F
  5
578A
331
391C
  5
5741
331
3937
  5
575C
331
3952
  5
56BA
331
39C0
  5
5676
331
39D3
  5
5689
331
396F
  5
56D7
331
398A
  5
5635
331
39A5
  5
5650
331
3A6B
  5
5551
331
39EC
  5
56A2
331
3A84
  5
556A
331
3A9F
  5
55A7
331
2C90
  5
5A1A
331
37A1
  5
57B3
331
3861
  5
584D
331
37CD
  5
57DF
331
37E8
  5
57FA
331
379F
  5
57B1
331
3803
  5
5810
331
3901
  5
5726
331
38B8
  5
57A3
331
38D3
  5
56F8
331
38E6
  5
570B
331
3882
  5
576D
331
389D
  5
5788
331
38FF
  5
5724
331
391A
  5
573F
331
3935
  5
575A
331
3950
  5
56B8
331
39BE
  5
5669
331
39D1
  5
5687
331
396D
  5
56D5
331
3988
  5
5633
331
39A3
  5
564E
331
3A69
  5
554F
331
39EA
  5
56A0
331
3A67
  5
554D
331
3A82
  5
5568
331
3A9D
  5
55A5
331
2C8E
  5
5A18
331
37CB
  5
57DD
331
37E6
  5
57F8
331
379D
  5
57AF
331
3801
  5
580E
331
38B6
  5
57A1
331
38D1
  5
56F6
331
38E4
  5
5709
331
3880
  5
576B
331
389B
  5
5786
331
3918
  5
573D
331
3933
  5
5758
331
394E
  5
56B6
331
38FD
  5
5722
331
39BC
  5
5667
331
396B
  5
56D3
331
3986
  5
5631
331
39A1
  5
564C
331
39E8
  5
569E
331
3A65
  5
554B
331
3A80
  5
5566
331
3A9B
  5
55A3
331
3AB6
  5
55BE
331
2C8C
  5
5A16
331
37C9
  5
57DB
331
37E4
  5
57F6
331
37FF
  5
580C
331
37B6
  5
57C8
331
38B4
  5
579F
331
38CF
  5
56F4
331
38E2
  5
5707
331
387E
  5
5769
331
3899
  5
5784
331
3916
  5
573B
331
3931
  5
5756
331
394C
  5
56B4
331
38FB
  5
5720
331
39BA
  5
5665
331
3969
  5
56D1
331
3984
  5
562F
331
399F
  5
564A
331
39E6
  5
569C
331
3A63
  5
5549
331
3A7E
  5
5564
331
3A99
  5
55A1
331
3AB4
  5
55BC
331
2C8A
  5
5A14
331
37C7
  5
57D9
331
37E2
  5
57F4
331
37FD
  5
580A
331
37B4
  5
57C6
331
38B2
  5
579D
331
38CD
  5
56F2
331
38E0
  5
5705
331
387C
  5
585D
331
3897
  5
5782
331
3914
  5
5739
331
392F
  5
5754
331
394A
  5
56B2
331
38F9
  5
571E
331
39B8
  5
5663
331
3967
  5
56CF
331
3982
  5
562D
331
399D
  5
5648
331
39E4
  5
569A
331
39B6
  5
5661
331
3A7C
  5
5562
331
3A97
  5
559F
331
3AB2
  5
55BA
331
3A61
  5
5547
331
2C88
  5
5A12
331
37E0
  5
57F2
331
37FB
  5
5808
331
37B2
  5
57C4
331
37C5
  5
57D7
331
38CB
  5
56F0
331
385F
  5
584B
331
3895
  5
5780
331
381C
  5
5822
331
38B0
  5
579B
331
3912
  5
5737
331
392D
  5
5752
331
3948
  5
56B0
331
38F7
  5
571C
331
3965
  5
56CD
331
3980
  5
56E8
331
399B
  5
5646
331
39CF
  5
5685
331
39E2
  5
5698
331
39B4
  5
565F
331
3A7A
  5
5560
331
3A95
  5
559D
331
3AB0
  5
55B8
331
3A5F
  5
5545
331
2C86
  5
5A10
331
37DE
  5
57F0
331
37F9
  5
5806
331
37B0
  5
57C2
331
37C3
  5
57D5
331
38C9
  5
56EE
331
385D
  5
583E
331
3893
  5
577E
331
37F7
  5
5804
331
381A
  5
5820
331
38AE
  5
5799
331
3910
  5
5735
331
392B
  5
5750
331
3946
  5
56AE
331
38C7
  5
56EC
331
38F5
  5
571A
331
3963
  5
56CB
331
397E
  5
56E6
331
3999
  5
5644
331
39CD
  5
5683
331
39E0
  5
5696
331
3997
  5
5642
331
39B2
  5
565D
331
3A78
  5
555E
331
3A93
  5
559B
331
3AAE
  5
55B6
331
3A5D
  5
5543
331
2C84
  5
5A0E
331
37DC
  5
57EE
331
37AE
  5
57C0
331
37C1
  5
57D3
331
386E
  5
585A
331
3891
  5
577C
331
38AC
  5
5797
331
3818
  5
581E
331
385B
  5
583C
331
3929
  5
574E
331
3944
  5
56AC
331
38C5
  5
56EA
331
38F3
  5
5718
331
390E
  5
5733
331
397C
  5
56E4
331
3961
  5
56C9
331
39CB
  5
5681
331
39DE
  5
5694
331
3995
  5
5640
331
39B0
  5
565B
331
3A76
  5
555C
331
3A91
  5
558F
331
3AAC
  5
55B4
331
3A5B
  5
5541
331
37DA
  5
57EC
331
37AC
  5
57BE
331
37BF
  5
57D1
331
386C
  5
5858
331
388F
  5
577A
331
38AA
  5
5795
331
3816
  5
581C
331
3859
  5
582F
331
3927
  5
574C
331
3942
  5
5767
331
38C3
  5
57AE
331
38DE
  5
5703
331
38F1
  5
5716
331
390C
  5
5731
331
397A
  5
56E2
331
395F
  5
56C7
331
39C9
  5
567F
331
39DC
  5
5692
331
3993
  5
563E
331
39AE
  5
5659
331
3A74
  5
555A
331
3A8F
  5
558D
331
3AAA
  5
55B2
331
3A59
  5
553F
331
37D8
  5
57EA
331
37AA
  5
57BC
331
37BD
  5
57CF
331
386A
  5
5856
331
388D
  5
5778
331
38A8
  5
5793
331
3814
  5
581A
331
3857
  5
582D
331
37D6
  5
57E8
331
3925
  5
574A
331
3940
  5
5765
331
38DC
  5
5701
331
38EF
  5
5714
331
390A
  5
572F
331
38A6
  5
5791
331
38C1
  5
57AC
331
393E
  5
5763
331
3978
  5
56E0
331
395D
  5
56C5
331
39DA
  5
5690
331
39F5
  5
56AB
331
3976
  5
56DE
331
3991
  5
563C
331
39AC
  5
5657
331
39C7
  5
567D
331
3A8D
  5
5580
331
3AA8
  5
55B0
331
3A72
  5
5558
331
3AA6
  5
55AE
331
2C99
  5
5A23
331
2C97
  5
5A21
331
37A8
  5
57BA
331
37BB
  5
57CD
331
3868
  5
5854
331
388B
  5
5776
331
37EF
  5
5801
331
3812
  5
5818
331
3855
  5
582B
331
37D4
  5
57E6
331
3923
  5
5748
331
38DA
  5
56FF
331
38ED
  5
5712
331
3908
  5
572D
331
38A4
  5
578F
331
38BF
  5
57AA
331
393C
  5
5761
331
3957
  5
56BF
331
395B
  5
56C3
331
39D8
  5
568E
331
39F3
  5
56A9
331
3974
  5
56DC
331
398F
  5
563A
331
39AA
  5
5655
331
39C5
  5
567B
331
3A8B
  5
5571
331
3A70
  5
5556
331
3AA4
  5
55AC
331
2C95
  5
5A1F
331
37A6
  5
57B8
331
37B9
  5
57CB
331
3866
  5
5852
331
3889
  5
5774
331
37ED
  5
57FF
331
3810
  5
5816
331
3853
  5
5829
331
37D2
  5
57E4
331
3921
  5
5746
331
38D8
  5
56FD
331
38EB
  5
5710
331
3906
  5
572B
331
3887
  5
5772
331
38A2
  5
578D
331
38BD
  5
57A8
331
393A
  5
575F
331
3955
  5
56BD
331
391F
  5
5744
331
3959
  5
56C1
331
39D6
  5
568C
331
39F1
  5
56A7
331
398D
  5
5638
331
39A8
  5
5653
331
39C3
  5
5679
331
3972
  5
56DA
331
3A89
  5
556F
331
3A6E
  5
5554
331
39EF
  5
56A5
331
3A87
  5
556D
331
3AA2
  5
55AA
331
2C93
  5
5A1D
331
37A4
  5
57B6
331
37EB
  5
57FD
331
3806
  5
5813
331
3851
  5
5827
331
37D0
  5
57E2
331
3864
  5
5850
331
38D6
  5
56FB
331
38E9
  5
570E
331
3904
  5
5729
331
3885
  5
5770
331
38A0
  5
578B
331
38BB
  5
57A6
331
3938
  5
575D
331
3953
  5
56BB
331
391D
  5
5742
331
39D4
  5
568A
331
398B
  5
5636
331
39A6
  5
5651
331
39C1
  5
5677
331
3970
  5
56D8
331
3A6C
  5
5552
331
39ED
  5
56A3
331
3A85
  5
556B
331
3AA0
  5
55A8
331
2C91
  5
5A1B
  0
LAYOUT
  5
21
102
{ACAD_XDICTIONARY
360
6341
102
}
102
{ACAD_REACTORS
330
1E
102
}
330
1E
100
AcDbPlotSettings
  1

  2

  4

  6

 40
0.0
 41
0.0
 42
0.0
 43
0.0
 44
0.0
 45
0.0
 46
0.0
 47
0.0
 48
0.0
 49
0.0
140
0.0
141
0.0
142
1.0
143
1.0
 70
     0
 72
     0
 73
     0
 74
     0
  7

 75
     0
147
1.0
148
0.0
149
0.0
100
AcDbLayout
  1
Layout1
 70
     0
 71
     1
 10
0.0
 20
0.0
 11
12.0
 21
9.0
 12
0.0
 22
0.0
 32
0.0
 14
1.000000000000000E+20
 24
1.000000000000000E+20
 34
1.000000000000000E+20
 15
-1.000000000000000E+20
 25
-1.000000000000000E+20
 35
-1.000000000000000E+20
146
0.0
 13
0.0
 23
0.0
 33
0.0
 16
1.0
 26
0.0
 36
0.0
 17
0.0
 27
1.0
 37
0.0
 76
     0
330
B
  0
LAYOUT
  5
20
102
{ACAD_XDICTIONARY
360
633F
102
}
102
{ACAD_REACTORS
330
1E
102
}
330
1E
100
AcDbPlotSettings
  1

  2

  4

  6

 40
0.0
 41
0.0
 42
0.0
 43
0.0
 44
0.0
 45
0.0
 46
0.0
 47
0.0
 48
0.0
 49
0.0
140
0.0
141
0.0
142
1.0
143
1.0
 70
  1024
 72
     0
 73
     0
 74
     0
  7

 75
     0
147
1.0
148
0.0
149
0.0
100
AcDbLayout
  1
Model
 70
     0
 71
     0
 10
0.0
 20
0.0
 11
0.0
 21
0.0
 12
0.0
 22
0.0
 32
0.0
 14
0.0
 24
0.0
 34
0.0
 15
0.0
 25
0.0
 35
0.0
146
0.0
 13
0.0
 23
0.0
 33
0.0
 16
0.0
 26
0.0
 36
0.0
 17
0.0
 27
0.0
 37
0.0
 76
     0
330
A
331
15
  0
MATERIAL
  5
3155
102
{ACAD_XDICTIONARY
360
3156
102
}
102
{ACAD_REACTORS
330
314C
102
}
330
314C
100
AcDbMaterial
  1
ByBlock
 72
     0
 43
0.0208333333333333
 43
0.0
 43
0.0
 43
0.0
 43
0.0
 43
0.0208333333333333
 43
0.0
 43
0.0
 43
0.0
 43
0.0
 43
1.0
 43
0.0
 43
0.0
 43
0.0
 43
0.0
 43
1.0
 77
     0
 47
0.0208333333333333
 47
0.0
 47
0.0
 47
0.0
 47
0.0
 47
0.0208333333333333
 47
0.0
 47
0.0
 47
0.0
 47
0.0
 47
1.0
 47
0.0
 47
0.0
 47
0.0
 47
0.0
 47
1.0
171
     0
 49
0.0208333333333333
 49
0.0
 49
0.0
 49
0.0
 49
0.0
 49
0.0208333333333333
 49
0.0
 49
0.0
 49
0.0
 49
0.0
 49
1.0
 49
0.0
 49
0.0
 49
0.0
 49
0.0
 49
1.0
175
     0
142
0.0208333333333333
142
0.0
142
0.0
142
0.0
142
0.0
142
0.0208333333333333
142
0.0
142
0.0
142
0.0
142
0.0
142
1.0
142
0.0
142
0.0
142
0.0
142
0.0
142
1.0
179
     0
144
0.0208333333333333
144
0.0
144
0.0
144
0.0
144
0.0
144
0.0208333333333333
144
0.0
144
0.0
144
0.0
144
0.0
144
1.0
144
0.0
144
0.0
144
0.0
144
0.0
144
1.0
147
0.0208333333333333
147
0.0
147
0.0
147
0.0
147
0.0
147
0.0208333333333333
147
0.0
147
0.0
147
0.0
147
0.0
147
1.0
147
0.0
147
0.0
147
0.0
147
0.0
147
1.0
  0
MATERIAL
  5
314D
102
{ACAD_XDICTIONARY
360
314E
102
}
102
{ACAD_REACTORS
330
314C
102
}
330
314C
100
AcDbMaterial
  1
ByLayer
 72
     0
 43
0.0208333333333333
 43
0.0
 43
0.0
 43
0.0
 43
0.0
 43
0.0208333333333333
 43
0.0
 43
0.0
 43
0.0
 43
0.0
 43
1.0
 43
0.0
 43
0.0
 43
0.0
 43
0.0
 43
1.0
 77
     0
 47
0.0208333333333333
 47
0.0
 47
0.0
 47
0.0
 47
0.0
 47
0.0208333333333333
 47
0.0
 47
0.0
 47
0.0
 47
0.0
 47
1.0
 47
0.0
 47
0.0
 47
0.0
 47
0.0
 47
1.0
171
     0
 49
0.0208333333333333
 49
0.0
 49
0.0
 49
0.0
 49
0.0
 49
0.0208333333333333
 49
0.0
 49
0.0
 49
0.0
 49
0.0
 49
1.0
 49
0.0
 49
0.0
 49
0.0
 49
0.0
 49
1.0
175
     0
142
0.0208333333333333
142
0.0
142
0.0
142
0.0
142
0.0
142
0.0208333333333333
142
0.0
142
0.0
142
0.0
142
0.0
142
1.0
142
0.0
142
0.0
142
0.0
142
0.0
142
1.0
179
     0
144
0.0208333333333333
144
0.0
144
0.0
144
0.0
144
0.0
144
0.0208333333333333
144
0.0
144
0.0
144
0.0
144
0.0
144
1.0
144
0.0
144
0.0
144
0.0
144
0.0
144
1.0
147
0.0208333333333333
147
0.0
147
0.0
147
0.0
147
0.0
147
0.0208333333333333
147
0.0
147
0.0
147
0.0
147
0.0
147
1.0
147
0.0
147
0.0
147
0.0
147
0.0
147
1.0
  0
MATERIAL
  5
315D
102
{ACAD_XDICTIONARY
360
315E
102
}
102
{ACAD_REACTORS
330
314C
102
}
330
314C
100
AcDbMaterial
  1
Global
 72
     0
 43
0.0208333333333333
 43
0.0
 43
0.0
 43
0.0
 43
0.0
 43
0.0208333333333333
 43
0.0
 43
0.0
 43
0.0
 43
0.0
 43
1.0
 43
0.0
 43
0.0
 43
0.0
 43
0.0
 43
1.0
 77
     0
 47
0.0208333333333333
 47
0.0
 47
0.0
 47
0.0
 47
0.0
 47
0.0208333333333333
 47
0.0
 47
0.0
 47
0.0
 47
0.0
 47
1.0
 47
0.0
 47
0.0
 47
0.0
 47
0.0
 47
1.0
171
     0
 49
0.0208333333333333
 49
0.0
 49
0.0
 49
0.0
 49
0.0
 49
0.0208333333333333
 49
0.0
 49
0.0
 49
0.0
 49
0.0
 49
1.0
 49
0.0
 49
0.0
 49
0.0
 49
0.0
 49
1.0
175
     0
142
0.0208333333333333
142
0.0
142
0.0
142
0.0
142
0.0
142
0.0208333333333333
142
0.0
142
0.0
142
0.0
142
0.0
142
1.0
142
0.0
142
0.0
142
0.0
142
0.0
142
1.0
179
     0
144
0.0208333333333333
144
0.0
144
0.0
144
0.0
144
0.0
144
0.0208333333333333
144
0.0
144
0.0
144
0.0
144
0.0
144
1.0
144
0.0
144
0.0
144
0.0
144
0.0
144
1.0
147
0.0208333333333333
147
0.0
147
0.0
147
0.0
147
0.0
147
0.0208333333333333
147
0.0
147
0.0
147
0.0
147
0.0
147
1.0
147
0.0
147
0.0
147
0.0
147
0.0
147
1.0
  0
MLEADERSTYLE
  5
319C
102
{ACAD_REACTORS
330
319B
102
}
330
319B
100
AcDbMLeaderStyle
170
     2
171
     1
172
     0
 90
        2
 40
0.0
 41
0.0
173
     1
 91
-1056964608
340
11
 92
       -2
290
     1
 42
2.0
291
     1
 43
0.36
  3
Standard
 44
4.0
300

342
17
174
     1
178
     6
175
     1
176
     0
 93
-1056964608
 45
4.0
292
     0
297
     0
 46
4.0
 94
-1056964608
 47
1.0
 49
1.0
140
1.0
293
     1
141
0.0
294
     1
177
     0
142
1.0
295
     0
296
     0
143
0.125
1001
ACAD_MLEADERVER
1070
     2
  0
MLINESTYLE
  5
1C
102
{ACAD_REACTORS
330
1B
102
}
330
1B
100
AcDbMlineStyle
  2
STANDARD
 70
     0
  3

 62
     0
 51
90.0
 52
90.0
 71
     2
 49
0.5
 62
   256
  6
BYLAYER
 49
-0.5
 62
   256
  6
BYLAYER
  0
ACDBPLACEHOLDER
  5
1D
102
{ACAD_REACTORS
330
1F
102
}
330
1F
  0
SCALE
  5
317A
102
{ACAD_REACTORS
330
3179
102
}
330
3179
100
AcDbScale
 70
     0
300
1:1
140
1.0
141
1.0
290
     1
  0
SCALE
  5
317B
102
{ACAD_REACTORS
330
3179
102
}
330
3179
100
AcDbScale
 70
     0
300
1:2
140
1.0
141
2.0
290
     0
  0
SCALE
  5
317C
102
{ACAD_REACTORS
330
3179
102
}
330
3179
100
AcDbScale
 70
     0
300
1:4
140
1.0
141
4.0
290
     0
  0
SCALE
  5
317D
102
{ACAD_REACTORS
330
3179
102
}
330
3179
100
AcDbScale
 70
     0
300
1:5
140
1.0
141
5.0
290
     0
  0
SCALE
  5
317E
102
{ACAD_REACTORS
330
3179
102
}
330
3179
100
AcDbScale
 70
     0
300
1:8
140
1.0
141
8.0
290
     0
  0
SCALE
  5
317F
102
{ACAD_REACTORS
330
3179
102
}
330
3179
100
AcDbScale
 70
     0
300
1:10
140
1.0
141
10.0
290
     0
  0
SCALE
  5
3180
102
{ACAD_REACTORS
330
3179
102
}
330
3179
100
AcDbScale
 70
     0
300
1:16
140
1.0
141
16.0
290
     0
  0
SCALE
  5
3181
102
{ACAD_REACTORS
330
3179
102
}
330
3179
100
AcDbScale
 70
     0
300
1:20
140
1.0
141
20.0
290
     0
  0
SCALE
  5
3182
102
{ACAD_REACTORS
330
3179
102
}
330
3179
100
AcDbScale
 70
     0
300
1:30
140
1.0
141
30.0
290
     0
  0
SCALE
  5
3183
102
{ACAD_REACTORS
330
3179
102
}
330
3179
100
AcDbScale
 70
     0
300
1:40
140
1.0
141
40.0
290
     0
  0
SCALE
  5
3184
102
{ACAD_REACTORS
330
3179
102
}
330
3179
100
AcDbScale
 70
     0
300
1:50
140
1.0
141
50.0
290
     0
  0
SCALE
  5
3185
102
{ACAD_REACTORS
330
3179
102
}
330
3179
100
AcDbScale
 70
     0
300
1:100
140
1.0
141
100.0
290
     0
  0
SCALE
  5
3186
102
{ACAD_REACTORS
330
3179
102
}
330
3179
100
AcDbScale
 70
     0
300
2:1
140
2.0
141
1.0
290
     0
  0
SCALE
  5
3187
102
{ACAD_REACTORS
330
3179
102
}
330
3179
100
AcDbScale
 70
     0
300
4:1
140
4.0
141
1.0
290
     0
  0
SCALE
  5
3188
102
{ACAD_REACTORS
330
3179
102
}
330
3179
100
AcDbScale
 70
     0
300
8:1
140
8.0
141
1.0
290
     0
  0
SCALE
  5
3189
102
{ACAD_REACTORS
330
3179
102
}
330
3179
100
AcDbScale
 70
     0
300
10:1
140
10.0
141
1.0
290
     0
  0
SCALE
  5
318A
102
{ACAD_REACTORS
330
3179
102
}
330
3179
100
AcDbScale
 70
     0
300
100:1
140
100.0
141
1.0
290
     0
  0
SCALE
  5
318B
102
{ACAD_REACTORS
330
3179
102
}
330
3179
100
AcDbScale
 70
     0
300
1/128" = 1'-0"
140
0.0078125
141
12.0
290
     0
  0
SCALE
  5
318C
102
{ACAD_REACTORS
330
3179
102
}
330
3179
100
AcDbScale
 70
     0
300
1/64" = 1'-0"
140
0.015625
141
12.0
290
     0
  0
SCALE
  5
318D
102
{ACAD_REACTORS
330
3179
102
}
330
3179
100
AcDbScale
 70
     0
300
1/32" = 1'-0"
140
0.03125
141
12.0
290
     0
  0
SCALE
  5
318E
102
{ACAD_REACTORS
330
3179
102
}
330
3179
100
AcDbScale
 70
     0
300
1/16" = 1'-0"
140
0.0625
141
12.0
290
     0
  0
SCALE
  5
318F
102
{ACAD_REACTORS
330
3179
102
}
330
3179
100
AcDbScale
 70
     0
300
3/32" = 1'-0"
140
0.09375
141
12.0
290
     0
  0
SCALE
  5
3190
102
{ACAD_REACTORS
330
3179
102
}
330
3179
100
AcDbScale
 70
     0
300
1/8" = 1'-0"
140
0.125
141
12.0
290
     0
  0
SCALE
  5
3191
102
{ACAD_REACTORS
330
3179
102
}
330
3179
100
AcDbScale
 70
     0
300
3/16" = 1'-0"
140
0.1875
141
12.0
290
     0
  0
SCALE
  5
3192
102
{ACAD_REACTORS
330
3179
102
}
330
3179
100
AcDbScale
 70
     0
300
1/4" = 1'-0"
140
0.25
141
12.0
290
     0
  0
SCALE
  5
3193
102
{ACAD_REACTORS
330
3179
102
}
330
3179
100
AcDbScale
 70
     0
300
3/8" = 1'-0"
140
0.375
141
12.0
290
     0
  0
SCALE
  5
3194
102
{ACAD_REACTORS
330
3179
102
}
330
3179
100
AcDbScale
 70
     0
300
1/2" = 1'-0"
140
0.5
141
12.0
290
     0
  0
SCALE
  5
3195
102
{ACAD_REACTORS
330
3179
102
}
330
3179
100
AcDbScale
 70
     0
300
3/4" = 1'-0"
140
0.75
141
12.0
290
     0
  0
SCALE
  5
3196
102
{ACAD_REACTORS
330
3179
102
}
330
3179
100
AcDbScale
 70
     0
300
1" = 1'-0"
140
1.0
141
12.0
290
     0
  0
SCALE
  5
3197
102
{ACAD_REACTORS
330
3179
102
}
330
3179
100
AcDbScale
 70
     0
300
1-1/2" = 1'-0"
140
1.5
141
12.0
290
     0
  0
SCALE
  5
3198
102
{ACAD_REACTORS
330
3179
102
}
330
3179
100
AcDbScale
 70
     0
300
3" = 1'-0"
140
3.0
141
12.0
290
     0
  0
SCALE
  5
3199
102
{ACAD_REACTORS
330
3179
102
}
330
3179
100
AcDbScale
 70
     0
300
6" = 1'-0"
140
6.0
141
12.0
290
     0
  0
SCALE
  5
319A
102
{ACAD_REACTORS
330
3179
102
}
330
3179
100
AcDbScale
 70
     0
300
1'-0" = 1'-0"
140
12.0
141
12.0
290
     0
  0
TABLESTYLE
  5
3178
102
{ACAD_XDICTIONARY
360
6308
102
}
102
{ACAD_REACTORS
330
3177
102
}
330
3177
100
AcDbTableStyle
  3
Standard
 70
     0
 71
     0
 40
1.5
 41
1.5
280
     0
281
     0
  7
Standard
140
4.5
170
     2
 62
     0
 63
     7
283
     0
274
    -2
284
     1
 64
     0
275
    -2
285
     1
 65
     0
276
    -2
286
     1
 66
     0
277
    -2
287
     1
 67
     0
278
    -2
288
     1
 68
     0
279
    -2
289
     1
 69
     0
  7
Standard
140
6.0
170
     5
 62
     0
 63
     7
283
     0
274
    -2
284
     1
 64
     0
275
    -2
285
     1
 65
     0
276
    -2
286
     1
 66
     0
277
    -2
287
     1
 67
     0
278
    -2
288
     1
 68
     0
279
    -2
289
     1
 69
     0
  7
Standard
140
4.5
170
     5
 62
     0
 63
     7
283
     0
274
    -2
284
     1
 64
     0
275
    -2
285
     1
 65
     0
276
    -2
286
     1
 66
     0
277
    -2
287
     1
 67
     0
278
    -2
288
     1
 68
     0
279
    -2
289
     1
 69
     0
  0
VISUALSTYLE
  5
316B
102
{ACAD_REACTORS
330
3165
102
}
330
3165
100
AcDbVisualStyle
  2
2dWireframe
 70
     4
 71
     0
 72
     2
 73
     0
 90
        0
 40
-0.6
 41
-30.0
 62
     5
 63
     7
 74
     1
 91
        4
 64
     7
 65
   257
 75
     1
175
     1
 42
1.0
 92
        0
 66
   257
 43
1.0
 76
     1
 77
     6
 78
     2
 67
     7
 79
     5
170
     0
171
     0
290
     0
174
     0
 93
        1
 44
0.0
173
     0
291
     0
 45
0.0
1001
ACAD
1000
AcDbSavedByObjectVersion
1070
     0
1000
AcDbSavedByObjectVersion
1070
     0
  0
VISUALSTYLE
  5
316D
102
{ACAD_REACTORS
330
3165
102
}
330
3165
100
AcDbVisualStyle
  2
3D Hidden
 70
     6
 71
     1
 72
     2
 73
     2
 90
        0
 40
-0.6
 41
-30.0
 62
     5
 63
     7
 74
     2
 91
        2
 64
     7
 65
   257
 75
     2
175
     1
 42
40.0
 92
        0
 66
   257
 43
1.0
 76
     1
 77
     6
 78
     2
 67
     7
 79
     3
170
     0
171
     0
290
     0
174
     0
 93
        1
 44
0.0
173
     0
291
     0
 45
0.0
1001
ACAD
1000
AcDbSavedByObjectVersion
1070
     0
1000
AcDbSavedByObjectVersion
1070
     0
  0
VISUALSTYLE
  5
316C
102
{ACAD_REACTORS
330
3165
102
}
330
3165
100
AcDbVisualStyle
  2
3dWireframe
 70
     5
 71
     0
 72
     2
 73
     0
 90
        0
 40
-0.6
 41
-30.0
 62
     5
 63
     7
 74
     1
 91
        4
 64
     7
 65
   257
 75
     1
175
     1
 42
1.0
 92
        0
 66
   257
 43
1.0
 76
     1
 77
     6
 78
     2
 67
     7
 79
     5
170
     0
171
     0
290
     0
174
     0
 93
        1
 44
0.0
173
     0
291
     0
 45
0.0
1001
ACAD
1000
AcDbSavedByObjectVersion
1070
     0
1000
AcDbSavedByObjectVersion
1070
     0
  0
VISUALSTYLE
  5
316A
102
{ACAD_REACTORS
330
3165
102
}
330
3165
100
AcDbVisualStyle
  2
Basic
 70
     7
 71
     1
 72
     0
 73
     1
 90
        0
 40
-0.6
 41
-30.0
 62
     5
 63
     7
 74
     0
 91
        4
 64
     7
 65
   257
 75
     1
175
     1
 42
1.0
 92
        8
 66
     7
 43
1.0
 76
     1
 77
     6
 78
     2
 67
     7
 79
     5
170
     0
171
     0
290
     0
174
     0
 93
        1
 44
0.0
173
     0
291
     1
 45
0.0
1001
ACAD
1000
AcDbSavedByObjectVersion
1070
     0
1000
AcDbSavedByObjectVersion
1070
     0
  0
VISUALSTYLE
  5
3171
102
{ACAD_REACTORS
330
3165
102
}
330
3165
100
AcDbVisualStyle
  2
Brighten
 70
    12
 71
     2
 72
     2
 73
     0
 90
        0
 40
-0.6
 41
-30.0
 62
     5
 63
     7
 74
     1
 91
        4
 64
     7
 65
   257
 75
     1
175
     1
 42
1.0
 92
        8
 66
     7
 43
1.0
 76
     1
 77
     6
 78
     2
 67
     7
 79
     5
170
     0
171
     0
290
     0
174
     0
 93
        1
 44
50.0
173
     0
291
     1
 45
0.0
1001
ACAD
1000
AcDbSavedByObjectVersion
1070
     0
1000
AcDbSavedByObjectVersion
1070
     0
  0
VISUALSTYLE
  5
3175
102
{ACAD_REACTORS
330
3165
102
}
330
3165
100
AcDbVisualStyle
  2
ColorChange
 70
    16
 71
     2
 72
     2
 73
     3
 90
        0
 40
-0.6
 41
-30.0
 62
     5
 63
     8
 74
     1
 91
        4
 64
     7
 65
   257
 75
     1
175
     1
 42
1.0
 92
        8
 66
     8
 43
1.0
 76
     1
 77
     6
 78
     2
 67
     7
 79
     5
170
     0
171
     0
290
     0
174
     0
 93
        1
 44
0.0
173
     0
291
     1
 45
0.0
1001
ACAD
1000
AcDbSavedByObjectVersion
1070
     0
1000
AcDbSavedByObjectVersion
1070
     0
  0
VISUALSTYLE
  5
316E
102
{ACAD_REACTORS
330
3165
102
}
330
3165
100
AcDbVisualStyle
  2
Conceptual
 70
     9
 71
     3
 72
     2
 73
     0
 90
        0
 40
-0.6
 41
-30.0
 62
     5
 63
     7
 74
     2
 91
        2
 64
     7
 65
   257
 75
     1
175
     1
 42
40.0
 92
        8
 66
     7
 43
1.0
 76
     1
 77
     6
 78
     2
 67
     7
 79
     3
170
     0
171
     0
290
     0
174
     0
 93
        1
 44
0.0
173
     0
291
     0
 45
0.0
1001
ACAD
1000
AcDbSavedByObjectVersion
1070
     0
1000
AcDbSavedByObjectVersion
1070
     0
  0
VISUALSTYLE
  5
3170
102
{ACAD_REACTORS
330
3165
102
}
330
3165
100
AcDbVisualStyle
  2
Dim
 70
    11
 71
     2
 72
     2
 73
     0
 90
        0
 40
-0.6
 41
-30.0
 62
     5
 63
     7
 74
     1
 91
        4
 64
     7
 65
   257
 75
     1
175
     1
 42
1.0
 92
        8
 66
     7
 43
1.0
 76
     1
 77
     6
 78
     2
 67
     7
 79
     5
170
     0
171
     0
290
     0
174
     0
 93
        1
 44
-50.0
173
     0
291
     1
 45
0.0
1001
ACAD
1000
AcDbSavedByObjectVersion
1070
     0
1000
AcDbSavedByObjectVersion
1070
     0
  0
VISUALSTYLE
  5
3174
102
{ACAD_REACTORS
330
3165
102
}
330
3165
100
AcDbVisualStyle
  2
Facepattern
 70
    15
 71
     2
 72
     2
 73
     0
 90
        0
 40
-0.6
 41
-30.0
 62
     5
 63
     7
 74
     1
 91
        4
 64
     7
 65
   257
 75
     1
175
     1
 42
1.0
 92
        8
 66
     7
 43
1.0
 76
     1
 77
     6
 78
     2
 67
     7
 79
     5
170
     0
171
     0
290
     0
174
     0
 93
        1
 44
0.0
173
     0
291
     1
 45
0.0
1001
ACAD
1000
AcDbSavedByObjectVersion
1070
     0
1000
AcDbSavedByObjectVersion
1070
     0
  0
VISUALSTYLE
  5
3166
102
{ACAD_REACTORS
330
3165
102
}
330
3165
100
AcDbVisualStyle
  2
Flat
 70
     0
 71
     2
 72
     1
 73
     1
 90
        2
 40
-0.6
 41
30.0
 62
     5
 63
     7
 74
     0
 91
        4
 64
     7
 65
   257
 75
     1
175
     1
 42
1.0
 92
        8
 66
     7
 43
1.0
 76
     1
 77
     6
 78
     2
 67
     7
 79
     5
170
     0
171
     0
290
     0
174
     0
 93
       13
 44
0.0
173
     0
291
     1
 45
0.0
1001
ACAD
1000
AcDbSavedByObjectVersion
1070
     0
1000
AcDbSavedByObjectVersion
1070
     0
  0
VISUALSTYLE
  5
3167
102
{ACAD_REACTORS
330
3165
102
}
330
3165
100
AcDbVisualStyle
  2
FlatWithEdges
 70
     1
 71
     2
 72
     1
 73
     1
 90
        2
 40
-0.6
 41
30.0
 62
     5
 63
     7
 74
     1
 91
        4
 64
     7
 65
   257
 75
     1
175
     1
 42
1.0
 92
        0
 66
   257
 43
1.0
 76
     1
 77
     6
 78
     2
 67
     7
 79
     5
170
     0
171
     0
290
     0
174
     0
 93
       13
 44
0.0
173
     0
291
     1
 45
0.0
1001
ACAD
1000
AcDbSavedByObjectVersion
1070
     0
1000
AcDbSavedByObjectVersion
1070
     0
  0
VISUALSTYLE
  5
3168
102
{ACAD_REACTORS
330
3165
102
}
330
3165
100
AcDbVisualStyle
  2
Gouraud
 70
     2
 71
     2
 72
     2
 73
     1
 90
        2
 40
-0.6
 41
30.0
 62
     5
 63
     7
 74
     0
 91
        4
 64
     7
 65
   257
 75
     1
175
     1
 42
1.0
 92
        0
 66
     7
 43
1.0
 76
     1
 77
     6
 78
     2
 67
     7
 79
     5
170
     0
171
     0
290
     0
174
     0
 93
       13
 44
0.0
173
     0
291
     1
 45
0.0
1001
ACAD
1000
AcDbSavedByObjectVersion
1070
     0
1000
AcDbSavedByObjectVersion
1070
     0
  0
VISUALSTYLE
  5
3169
102
{ACAD_REACTORS
330
3165
102
}
330
3165
100
AcDbVisualStyle
  2
GouraudWithEdges
 70
     3
 71
     2
 72
     2
 73
     1
 90
        2
 40
-0.6
 41
30.0
 62
     5
 63
     7
 74
     1
 91
        4
 64
     7
 65
   257
 75
     1
175
     1
 42
1.0
 92
        0
 66
   257
 43
1.0
 76
     1
 77
     6
 78
     2
 67
     7
 79
     5
170
     0
171
     0
290
     0
174
     0
 93
       13
 44
0.0
173
     0
291
     1
 45
0.0
1001
ACAD
1000
AcDbSavedByObjectVersion
1070
     0
1000
AcDbSavedByObjectVersion
1070
     0
  0
VISUALSTYLE
  5
3173
102
{ACAD_REACTORS
330
3165
102
}
330
3165
100
AcDbVisualStyle
  2
Linepattern
 70
    14
 71
     2
 72
     2
 73
     0
 90
        0
 40
-0.6
 41
-30.0
 62
     5
 63
     7
 74
     1
 91
        4
 64
     7
 65
   257
 75
     7
175
     7
 42
1.0
 92
        8
 66
     7
 43
1.0
 76
     1
 77
     6
 78
     2
 67
     7
 79
     5
170
     0
171
     0
290
     0
174
     0
 93
        1
 44
0.0
173
     0
291
     1
 45
0.0
1001
ACAD
1000
AcDbSavedByObjectVersion
1070
     0
1000
AcDbSavedByObjectVersion
1070
     0
  0
VISUALSTYLE
  5
316F
102
{ACAD_REACTORS
330
3165
102
}
330
3165
100
AcDbVisualStyle
  2
Realistic
 70
     8
 71
     2
 72
     2
 73
     0
 90
        0
 40
-0.6
 41
-30.0
 62
     5
 63
     7
 74
     1
 91
        0
 64
     7
 65
   257
 75
     1
175
     1
 42
1.0
 92
        8
 66
     8
 43
1.0
 76
     1
 77
     6
 78
     2
 67
     7
 79
     5
170
     0
171
     0
290
     0
174
     0
 93
       13
 44
0.0
173
     0
291
     0
 45
0.0
1001
ACAD
1000
AcDbSavedByObjectVersion
1070
     0
1000
AcDbSavedByObjectVersion
1070
     0
  0
VISUALSTYLE
  5
3172
102
{ACAD_REACTORS
330
3165
102
}
330
3165
100
AcDbVisualStyle
  2
Thicken
 70
    13
 71
     2
 72
     2
 73
     0
 90
        0
 40
-0.6
 41
-30.0
 62
     5
 63
     7
 74
     1
 91
        4
 64
     7
 65
   257
 75
     1
175
     1
 42
1.0
 92
       12
 66
     7
 43
1.0
 76
     1
 77
     6
 78
     2
 67
     7
 79
     5
170
     0
171
     0
290
     0
174
     0
 93
        1
 44
0.0
173
     0
291
     1
 45
0.0
1001
ACAD
1000
AcDbSavedByObjectVersion
1070
     0
1000
AcDbSavedByObjectVersion
1070
     0
  0
DICTIONARYVAR
  5
630F
102
{ACAD_REACTORS
330
630B
102
}
330
630B
100
DictionaryVariables
280
     0
  1
1:1
  0
DICTIONARYVAR
  5
630D
102
{ACAD_REACTORS
330
630B
102
}
330
630B
100
DictionaryVariables
280
     0
  1
STANDARD
  0
DICTIONARYVAR
  5
630C
102
{ACAD_REACTORS
330
630B
102
}
330
630B
100
DictionaryVariables
280
     0
  1
STANDARD
  0
DICTIONARYVAR
  5
6318
102
{ACAD_REACTORS
330
630B
102
}
330
630B
100
DictionaryVariables
280
     0
  1
1
  0
DICTIONARYVAR
  5
6317
102
{ACAD_REACTORS
330
630B
102
}
330
630B
100
DictionaryVariables
280
     0
  1
0
  0
DICTIONARYVAR
  5
6310
102
{ACAD_REACTORS
330
630B
102
}
330
630B
100
DictionaryVariables
280
     0
  1
0
  0
DICTIONARYVAR
  5
630E
102
{ACAD_REACTORS
330
630B
102
}
330
630B
100
DictionaryVariables
280
     0
  1
0
  0
DICTIONARYVAR
  5
6316
102
{ACAD_REACTORS
330
630B
102
}
330
630B
100
DictionaryVariables
280
     0
  1
127
  0
XRECORD
  5
5E46
102
{ACAD_REACTORS
330
5E44
102
}
330
5E44
100
AcDbXrecord
280
     1
  0
DICTIONARY
  5
6341
330
21
100
AcDbDictionary
280
     1
281
     1
  3
ACAD_XREC_ROUNDTRIP
360
6342
  0
DICTIONARY
  5
633F
330
20
100
AcDbDictionary
280
     1
281
     1
  3
ACAD_XREC_ROUNDTRIP
360
6340
  0
DICTIONARY
  5
3156
330
3155
100
AcDbDictionary
280
     1
281
     1
  3
ACAD_XREC_ROUNDTRIP
360
6320
  3
BUMPTILE
360
3158
  3
DIFFUSETILE
360
3157
  3
OPACITYTILE
360
315B
  3
REFLECTIONTILE
360
315A
  3
REFRACTIONTILE
360
315C
  3
SPECULARTILE
360
3159
  0
DICTIONARY
  5
314E
330
314D
100
AcDbDictionary
280
     1
281
     1
  3
ACAD_XREC_ROUNDTRIP
360
631F
  3
BUMPTILE
360
3150
  3
DIFFUSETILE
360
314F
  3
OPACITYTILE
360
3153
  3
REFLECTIONTILE
360
3152
  3
REFRACTIONTILE
360
3154
  3
SPECULARTILE
360
3151
  0
DICTIONARY
  5
315E
330
315D
100
AcDbDictionary
280
     1
281
     1
  3
ACAD_XREC_ROUNDTRIP
360
6321
  3
BUMPTILE
360
3160
  3
DIFFUSETILE
360
315F
  3
OPACITYTILE
360
3163
  3
REFLECTIONTILE
360
3162
  3
REFRACTIONTILE
360
3164
  3
SPECULARTILE
360
3161
  0
DICTIONARY
  5
6308
330
3178
100
AcDbDictionary
280
     1
281
     1
  3
ACAD_ROUNDTRIP_2008_TABLESTYLE_CELLSTYLEMAP
360
633D
  3
ACAD_XREC_ROUNDTRIP
360
6343
  0
XRECORD
  5
6342
102
{ACAD_REACTORS
330
6341
102
}
330
6341
100
AcDbXrecord
280
     1
102
SHADEPLOT
 70
     0
102
SHADEPLOTRESLEVEL
 70
     2
102
SHADEPLOTCUSTOMDPI
 70
   300
  0
XRECORD
  5
6340
102
{ACAD_REACTORS
330
633F
102
}
330
633F
100
AcDbXrecord
280
     1
102
SHADEPLOT
 70
     0
102
SHADEPLOTRESLEVEL
 70
     2
102
SHADEPLOTCUSTOMDPI
 70
   300
  0
XRECORD
  5
6320
102
{ACAD_REACTORS
330
3156
102
}
330
3156
100
AcDbXrecord
280
     1
102
MATERIAL
148
0.0
149
0.0
149
0.0
 93
        0
 94
      127
282
     0
 72
     0
 77
     0
171
     0
175
     0
179
     0
273
     0
  0
XRECORD
  5
3158
102
{ACAD_REACTORS
330
3156
102
}
330
3156
100
AcDbXrecord
280
     1
270
     1
271
     1
  0
XRECORD
  5
3157
102
{ACAD_REACTORS
330
3156
102
}
330
3156
100
AcDbXrecord
280
     1
270
     1
271
     1
  0
XRECORD
  5
315B
102
{ACAD_REACTORS
330
3156
102
}
330
3156
100
AcDbXrecord
280
     1
270
     1
271
     1
  0
XRECORD
  5
315A
102
{ACAD_REACTORS
330
3156
102
}
330
3156
100
AcDbXrecord
280
     1
270
     1
271
     1
  0
XRECORD
  5
315C
102
{ACAD_REACTORS
330
3156
102
}
330
3156
100
AcDbXrecord
280
     1
270
     1
271
     1
  0
XRECORD
  5
3159
102
{ACAD_REACTORS
330
3156
102
}
330
3156
100
AcDbXrecord
280
     1
270
     1
271
     1
  0
XRECORD
  5
631F
102
{ACAD_REACTORS
330
314E
102
}
330
314E
100
AcDbXrecord
280
     1
102
MATERIAL
148
0.0
149
0.0
149
0.0
 93
        0
 94
      127
282
     0
 72
     0
 77
     0
171
     0
175
     0
179
     0
273
     0
  0
XRECORD
  5
3150
102
{ACAD_REACTORS
330
314E
102
}
330
314E
100
AcDbXrecord
280
     1
270
     1
271
     1
  0
XRECORD
  5
314F
102
{ACAD_REACTORS
330
314E
102
}
330
314E
100
AcDbXrecord
280
     1
270
     1
271
     1
  0
XRECORD
  5
3153
102
{ACAD_REACTORS
330
314E
102
}
330
314E
100
AcDbXrecord
280
     1
270
     1
271
     1
  0
XRECORD
  5
3152
102
{ACAD_REACTORS
330
314E
102
}
330
314E
100
AcDbXrecord
280
     1
270
     1
271
     1
  0
XRECORD
  5
3154
102
{ACAD_REACTORS
330
314E
102
}
330
314E
100
AcDbXrecord
280
     1
270
     1
271
     1
  0
XRECORD
  5
3151
102
{ACAD_REACTORS
330
314E
102
}
330
314E
100
AcDbXrecord
280
     1
270
     1
271
     1
  0
XRECORD
  5
6321
102
{ACAD_REACTORS
330
315E
102
}
330
315E
100
AcDbXrecord
280
     1
102
MATERIAL
148
0.0
149
0.0
149
0.0
 93
        0
 94
      127
282
     0
 72
     0
 77
     0
171
     0
175
     0
179
     0
273
     0
  0
XRECORD
  5
3160
102
{ACAD_REACTORS
330
315E
102
}
330
315E
100
AcDbXrecord
280
     1
270
     1
271
     1
  0
XRECORD
  5
315F
102
{ACAD_REACTORS
330
315E
102
}
330
315E
100
AcDbXrecord
280
     1
270
     1
271
     1
  0
XRECORD
  5
3163
102
{ACAD_REACTORS
330
315E
102
}
330
315E
100
AcDbXrecord
280
     1
270
     1
271
     1
  0
XRECORD
  5
3162
102
{ACAD_REACTORS
330
315E
102
}
330
315E
100
AcDbXrecord
280
     1
270
     1
271
     1
  0
XRECORD
  5
3164
102
{ACAD_REACTORS
330
315E
102
}
330
315E
100
AcDbXrecord
280
     1
270
     1
271
     1
  0
XRECORD
  5
3161
102
{ACAD_REACTORS
330
315E
102
}
330
315E
100
AcDbXrecord
280
     1
270
     1
271
     1
  0
CELLSTYLEMAP
  5
633D
102
{ACAD_REACTORS
330
6308
102
}
330
6308
100
AcDbCellStyleMap
 90
        3
300
CELLSTYLE
  1
TABLEFORMAT_BEGIN
 90
        5
170
     1
 91
        0
 92
    32768
 62
   257
 93
        1
300
CONTENTFORMAT
  1
CONTENTFORMAT_BEGIN
 90
        0
 91
        0
 92
      512
 93
        0
300

 40
0.0
140
1.0
 94
        5
 62
     0
340
17
144
6.0
309
CONTENTFORMAT_END
171
     1
301
MARGIN
  1
CELLMARGIN_BEGIN
 40
1.5
 40
1.5
 40
1.5
 40
1.5
 40
0.18
 40
0.18
309
CELLMARGIN_END
 94
        6
 95
        1
302
GRIDFORMAT
  1
GRIDFORMAT_BEGIN
 90
        0
 91
        1
 62
     0
 92
       -2
340
0
 93
        0
 40
1.125
309
GRIDFORMAT_END
 95
        2
302
GRIDFORMAT
  1
GRIDFORMAT_BEGIN
 90
        0
 91
        1
 62
     0
 92
       -2
340
0
 93
        0
 40
1.125
309
GRIDFORMAT_END
 95
        4
302
GRIDFORMAT
  1
GRIDFORMAT_BEGIN
 90
        0
 91
        1
 62
     0
 92
       -2
340
0
 93
        0
 40
1.125
309
GRIDFORMAT_END
 95
        8
302
GRIDFORMAT
  1
GRIDFORMAT_BEGIN
 90
        0
 91
        1
 62
     0
 92
       -2
340
0
 93
        0
 40
1.125
309
GRIDFORMAT_END
 95
       16
302
GRIDFORMAT
  1
GRIDFORMAT_BEGIN
 90
        0
 91
        1
 62
     0
 92
       -2
340
0
 93
        0
 40
1.125
309
GRIDFORMAT_END
 95
       32
302
GRIDFORMAT
  1
GRIDFORMAT_BEGIN
 90
        0
 91
        1
 62
     0
 92
       -2
340
0
 93
        0
 40
1.125
309
GRIDFORMAT_END
309
TABLEFORMAT_END
  1
CELLSTYLE_BEGIN
 90
        1
 91
        1
300
_TITLE
309
CELLSTYLE_END
300
CELLSTYLE
  1
TABLEFORMAT_BEGIN
 90
        5
170
     1
 91
        0
 92
        0
 62
   257
 93
        1
300
CONTENTFORMAT
  1
CONTENTFORMAT_BEGIN
 90
        0
 91
        0
 92
      512
 93
        0
300

 40
0.0
140
1.0
 94
        5
 62
     0
340
17
144
4.5
309
CONTENTFORMAT_END
171
     1
301
MARGIN
  1
CELLMARGIN_BEGIN
 40
1.5
 40
1.5
 40
1.5
 40
1.5
 40
0.18
 40
0.18
309
CELLMARGIN_END
 94
        6
 95
        1
302
GRIDFORMAT
  1
GRIDFORMAT_BEGIN
 90
        0
 91
        1
 62
     0
 92
       -2
340
0
 93
        0
 40
1.125
309
GRIDFORMAT_END
 95
        2
302
GRIDFORMAT
  1
GRIDFORMAT_BEGIN
 90
        0
 91
        1
 62
     0
 92
       -2
340
0
 93
        0
 40
1.125
309
GRIDFORMAT_END
 95
        4
302
GRIDFORMAT
  1
GRIDFORMAT_BEGIN
 90
        0
 91
        1
 62
     0
 92
       -2
340
0
 93
        0
 40
1.125
309
GRIDFORMAT_END
 95
        8
302
GRIDFORMAT
  1
GRIDFORMAT_BEGIN
 90
        0
 91
        1
 62
     0
 92
       -2
340
0
 93
        0
 40
1.125
309
GRIDFORMAT_END
 95
       16
302
GRIDFORMAT
  1
GRIDFORMAT_BEGIN
 90
        0
 91
        1
 62
     0
 92
       -2
340
0
 93
        0
 40
1.125
309
GRIDFORMAT_END
 95
       32
302
GRIDFORMAT
  1
GRIDFORMAT_BEGIN
 90
        0
 91
        1
 62
     0
 92
       -2
340
0
 93
        0
 40
1.125
309
GRIDFORMAT_END
309
TABLEFORMAT_END
  1
CELLSTYLE_BEGIN
 90
        2
 91
        1
300
_HEADER
309
CELLSTYLE_END
300
CELLSTYLE
  1
TABLEFORMAT_BEGIN
 90
        5
170
     1
 91
        0
 92
        0
 62
   257
 93
        1
300
CONTENTFORMAT
  1
CONTENTFORMAT_BEGIN
 90
        0
 91
        0
 92
      512
 93
        0
300

 40
0.0
140
1.0
 94
        2
 62
     0
340
17
144
4.5
309
CONTENTFORMAT_END
171
     1
301
MARGIN
  1
CELLMARGIN_BEGIN
 40
1.5
 40
1.5
 40
1.5
 40
1.5
 40
0.18
 40
0.18
309
CELLMARGIN_END
 94
        6
 95
        1
302
GRIDFORMAT
  1
GRIDFORMAT_BEGIN
 90
        0
 91
        1
 62
     0
 92
       -2
340
0
 93
        0
 40
1.125
309
GRIDFORMAT_END
 95
        2
302
GRIDFORMAT
  1
GRIDFORMAT_BEGIN
 90
        0
 91
        1
 62
     0
 92
       -2
340
0
 93
        0
 40
1.125
309
GRIDFORMAT_END
 95
        4
302
GRIDFORMAT
  1
GRIDFORMAT_BEGIN
 90
        0
 91
        1
 62
     0
 92
       -2
340
0
 93
        0
 40
1.125
309
GRIDFORMAT_END
 95
        8
302
GRIDFORMAT
  1
GRIDFORMAT_BEGIN
 90
        0
 91
        1
 62
     0
 92
       -2
340
0
 93
        0
 40
1.125
309
GRIDFORMAT_END
 95
       16
302
GRIDFORMAT
  1
GRIDFORMAT_BEGIN
 90
        0
 91
        1
 62
     0
 92
       -2
340
0
 93
        0
 40
1.125
309
GRIDFORMAT_END
 95
       32
302
GRIDFORMAT
  1
GRIDFORMAT_BEGIN
 90
        0
 91
        1
 62
     0
 92
       -2
340
0
 93
        0
 40
1.125
309
GRIDFORMAT_END
309
TABLEFORMAT_END
  1
CELLSTYLE_BEGIN
 90
        3
 91
        2
300
_DATA
309
CELLSTYLE_END
  0
XRECORD
  5
6343
102
{ACAD_REACTORS
330
6308
102
}
330
6308
100
AcDbXrecord
280
     1
102
ACAD_ROUNDTRIP_PRE2007_TABLESTYLE
 90
      512
 91
        0
  1

 92
      512
 93
        0
  2

 94
      512
 95
        0
  3

  0
ENDSEC
  0
EOF
