  0
SECTION
  2
HEADER
  9
$ACADVER
  1
AC1015
  9
$ACADMAINTVER
 70
    20
  9
$DWGCODEPAGE
  3
ANSI_1252
  9
$INSBASE
 10
0.0
 20
0.0
 30
0.0
  9
$EXTMIN
 10
-122.7236774589592
 20
-740.7003141826744
 30
-0.0000000000001846
  9
$EXTMAX
 10
1294.738142585816
 20
15.09216079414727
 30
0.0000000000041672
  9
$LIMMIN
 10
-66.34999999999982
 20
-2008.85
  9
$LIMMAX
 10
3734.350000000001
 20
346.85
  9
$ORTHOMODE
 70
     0
  9
$REGENMODE
 70
     1
  9
$FILLMODE
 70
     1
  9
$QTEXTMODE
 70
     0
  9
$MIRRTEXT
 70
     1
  9
$LTSCALE
 40
10.0
  9
$ATTMODE
 70
     1
  9
$TEXTSIZE
 40
0.0
  9
$TRACEWID
 40
0.05
  9
$TEXTSTYLE
  7
Standard
  9
$CLAYER
  8
0
  9
$CELTYPE
  6
Continuous
  9
$CECOLOR
 62
   256
  9
$CELTSCALE
 40
1.0
  9
$DISPSILH
 70
     0
  9
$DIMSCALE
 40
1.0
  9
$DIMASZ
 40
1.25
  9
$DIMEXO
 40
0.0
  9
$DIMDLI
 40
0.38
  9
$DIMRND
 40
0.0
  9
$DIMDLE
 40
0.0
  9
$DIMEXE
 40
0.75
  9
$DIMTP
 40
0.0
  9
$DIMTM
 40
0.0
  9
$DIMTXT
 40
2.5
  9
$DIMCEN
 40
0.09
  9
$DIMTSZ
 40
0.0
  9
$DIMTOL
 70
     0
  9
$DIMLIM
 70
     0
  9
$DIMTIH
 70
     0
  9
$DIMTOH
 70
     0
  9
$DIMSE1
 70
     0
  9
$DIMSE2
 70
     0
  9
$DIMTAD
 70
     1
  9
$DIMZIN
 70
     0
  9
$DIMBLK
  1

  9
$DIMASO
 70
     1
  9
$DIMSHO
 70
     1
  9
$DIMPOST
  1

  9
$DIMAPOST
  1

  9
$DIMALT
 70
     0
  9
$DIMALTD
 70
     2
  9
$DIMALTF
 40
25.4
  9
$DIMLFAC
 40
1.0
  9
$DIMTOFL
 70
     0
  9
$DIMTVP
 40
0.0
  9
$DIMTIX
 70
     0
  9
$DIMSOXD
 70
     0
  9
$DIMSAH
 70
     0
  9
$DIMBLK1
  1

  9
$DIMBLK2
  1

  9
$DIMSTYLE
  2
Standard
  9
$DIMCLRD
 70
     7
  9
$DIMCLRE
 70
     7
  9
$DIMCLRT
 70
     7
  9
$DIMTFAC
 40
0.8
  9
$DIMGAP
 40
1.25
  9
$DIMJUST
 70
     0
  9
$DIMSD1
 70
     0
  9
$DIMSD2
 70
     0
  9
$DIMTOLJ
 70
     1
  9
$DIMTZIN
 70
     0
  9
$DIMALTZ
 70
     0
  9
$DIMALTTZ
 70
     0
  9
$DIMUPT
 70
     0
  9
$DIMDEC
 70
     2
  9
$DIMTDEC
 70
     4
  9
$DIMALTU
 70
     2
  9
$DIMALTTD
 70
     2
  9
$DIMTXSTY
  7
Standard
  9
$DIMAUNIT
 70
     0
  9
$DIMADEC
 70
     0
  9
$DIMALTRND
 40
0.0
  9
$DIMAZIN
 70
     0
  9
$DIMDSEP
 70
     0
  9
$DIMATFIT
 70
     3
  9
$DIMFRAC
 70
     0
  9
$DIMLDRBLK
  1

  9
$DIMLUNIT
 70
     2
  9
$DIMLWD
 70
     0
  9
$DIMLWE
 70
     0
  9
$DIMTMOVE
 70
     0
  9
$LUNITS
 70
     2
  9
$LUPREC
 70
     4
  9
$SKETCHINC
 40
0.1
  9
$FILLETRAD
 40
0.0
  9
$AUNITS
 70
     0
  9
$AUPREC
 70
     0
  9
$MENU
  1
acad
  9
$ELEVATION
 40
0.0
  9
$PELEVATION
 40
0.0
  9
$THICKNESS
 40
0.0
  9
$LIMCHECK
 70
     0
  9
$CHAMFERA
 40
0.0
  9
$CHAMFERB
 40
0.0
  9
$CHAMFERC
 40
0.0
  9
$CHAMFERD
 40
0.0
  9
$SKPOLY
 70
     0
  9
$TDCREATE
 40
2455303.727916667
  9
$TDUCREATE
 40
2455303.644583334
  9
$TDUPDATE
 40
2455306.477689248
  9
$TDUUPDATE
 40
2455306.394355915
  9
$TDINDWG
 40
0.0021350926
  9
$TDUSRTIMER
 40
0.0021350926
  9
$USRTIMER
 70
     1
  9
$ANGBASE
 50
0.0
  9
$ANGDIR
 70
     0
  9
$PDMODE
 70
     0
  9
$PDSIZE
 40
0.0
  9
$PLINEWID
 40
0.0
  9
$SPLFRAME
 70
     0
  9
$SPLINETYPE
 70
     6
  9
$SPLINESEGS
 70
     8
  9
$HANDSEED
  5
6340
  9
$SURFTAB1
 70
     6
  9
$SURFTAB2
 70
     6
  9
$SURFTYPE
 70
     6
  9
$SURFU
 70
     6
  9
$SURFV
 70
     6
  9
$UCSBASE
  2

  9
$UCSNAME
  2

  9
$UCSORG
 10
0.0
 20
0.0
 30
0.0
  9
$UCSXDIR
 10
1.0
 20
0.0
 30
0.0
  9
$UCSYDIR
 10
0.0
 20
1.0
 30
0.0
  9
$UCSORTHOREF
  2

  9
$UCSORTHOVIEW
 70
     0
  9
$UCSORGTOP
 10
0.0
 20
0.0
 30
0.0
  9
$UCSORGBOTTOM
 10
0.0
 20
0.0
 30
0.0
  9
$UCSORGLEFT
 10
0.0
 20
0.0
 30
0.0
  9
$UCSORGRIGHT
 10
0.0
 20
0.0
 30
0.0
  9
$UCSORGFRONT
 10
0.0
 20
0.0
 30
0.0
  9
$UCSORGBACK
 10
0.0
 20
0.0
 30
0.0
  9
$PUCSBASE
  2

  9
$PUCSNAME
  2

  9
$PUCSORG
 10
0.0
 20
0.0
 30
0.0
  9
$PUCSXDIR
 10
1.0
 20
0.0
 30
0.0
  9
$PUCSYDIR
 10
0.0
 20
1.0
 30
0.0
  9
$PUCSORTHOREF
  2

  9
$PUCSORTHOVIEW
 70
     0
  9
$PUCSORGTOP
 10
0.0
 20
0.0
 30
0.0
  9
$PUCSORGBOTTOM
 10
0.0
 20
0.0
 30
0.0
  9
$PUCSORGLEFT
 10
0.0
 20
0.0
 30
0.0
  9
$PUCSORGRIGHT
 10
0.0
 20
0.0
 30
0.0
  9
$PUCSORGFRONT
 10
0.0
 20
0.0
 30
0.0
  9
$PUCSORGBACK
 10
0.0
 20
0.0
 30
0.0
  9
$USERI1
 70
     0
  9
$USERI2
 70
     0
  9
$USERI3
 70
     0
  9
$USERI4
 70
     0
  9
$USERI5
 70
     0
  9
$USERR1
 40
0.0
  9
$USERR2
 40
0.0
  9
$USERR3
 40
0.0
  9
$USERR4
 40
0.0
  9
$USERR5
 40
0.0
  9
$WORLDVIEW
 70
     1
  9
$SHADEDGE
 70
     3
  9
$SHADEDIF
 70
    70
  9
$TILEMODE
 70
     1
  9
$MAXACTVP
 70
    16
  9
$PINSBASE
 10
0.0
 20
0.0
 30
0.0
  9
$PLIMCHECK
 70
     0
  9
$PEXTMIN
 10
1.000000000000000E+20
 20
1.000000000000000E+20
 30
1.000000000000000E+20
  9
$PEXTMAX
 10
-1.000000000000000E+20
 20
-1.000000000000000E+20
 30
-1.000000000000000E+20
  9
$PLIMMIN
 10
0.0
 20
0.0
  9
$PLIMMAX
 10
12.0
 20
9.0
  9
$UNITMODE
 70
     0
  9
$VISRETAIN
 70
     0
  9
$PLINEGEN
 70
     1
  9
$PSLTSCALE
 70
     0
  9
$TREEDEPTH
 70
  3020
  9
$CMLSTYLE
  2
Standard
  9
$CMLJUST
 70
     0
  9
$CMLSCALE
 40
1.0
  9
$PROXYGRAPHICS
 70
     0
  9
$MEASUREMENT
 70
     1
  9
$CELWEIGHT
370
     0
  9
$ENDCAPS
280
     0
  9
$JOINSTYLE
280
     0
  9
$LWDISPLAY
290
     0
  9
$INSUNITS
 70
     0
  9
$HYPERLINKBASE
  1

  9
$STYLESHEET
  1

  9
$XEDIT
290
     1
  9
$CEPSNTYPE
380
     0
  9
$PSTYLEMODE
290
     1
  9
$FINGERPRINTGUID
  2

  9
$VERSIONGUID
  2
{E738F2AC-09E3-40C8-B42F-49A83B34148E}
  9
$EXTNAMES
290
     1
  9
$PSVPSCALE
 40
0.0
  9
$OLESTARTUP
290
     0
  0
ENDSEC
  0
SECTION
  2
CLASSES
  0
CLASS
  1
IMAGE
  2
AcDbRasterImage
  3
ISM
 90
    34943
280
     0
281
     1
  0
CLASS
  1
DICTIONARYVAR
  2
AcDbDictionaryVar
  3
ObjectDBX Classes
 90
        0
280
     0
281
     0
  0
CLASS
  1
RASTERVARIABLES
  2
AcDbRasterVariables
  3
ISM
 90
    32768
280
     0
281
     0
  0
CLASS
  1
IMAGEDEF
  2
AcDbRasterImageDef
  3
ISM
 90
    32768
280
     0
281
     0
  0
CLASS
  1
IMAGEDEF_REACTOR
  2
AcDbRasterImageDefReactor
  3
ISM
 90
    32769
280
     0
281
     0
  0
CLASS
  1
IDBUFFER
  2
AcDbIdBuffer
  3
ObjectDBX Classes
 90
    32768
280
     0
281
     0
  0
CLASS
  1
SPATIAL_FILTER
  2
AcDbSpatialFilter
  3
ObjectDBX Classes
 90
    32768
280
     0
281
     0
  0
CLASS
  1
SORTENTSTABLE
  2
AcDbSortentsTable
  3
ObjectDBX Classes
 90
        0
280
     0
281
     0
  0
CLASS
  1
LAYER_INDEX
  2
AcDbLayerIndex
  3
ObjectDBX Classes
 90
    32768
280
     0
281
     0
  0
CLASS
  1
SPATIAL_INDEX
  2
AcDbSpatialIndex
  3
ObjectDBX Classes
 90
    32768
280
     0
281
     0
  0
CLASS
  1
OBJECT_PTR
  2
CAseDLPNTableRecord
  3
ASE-LPNTableRecord
 90
    32769
280
     0
281
     0
  0
CLASS
  1
LAYOUT
  2
AcDbLayout
  3
ObjectDBX Classes
 90
        0
280
     0
281
     0
  0
CLASS
  1
PLOTSETTINGS
  2
AcDbPlotSettings
  3
ObjectDBX Classes
 90
    32768
280
     0
281
     0
  0
CLASS
  1
ACDBDICTIONARYWDFLT
  2
AcDbDictionaryWithDefault
  3
ObjectDBX Classes
 90
        0
280
     0
281
     0
  0
CLASS
  1
ACDBPLACEHOLDER
  2
AcDbPlaceHolder
  3
ObjectDBX Classes
 90
        0
280
     0
281
     0
  0
CLASS
  1
VBA_PROJECT
  2
AcDbVbaProject
  3
acad
 90
    32768
280
     0
281
     0
  0
CLASS
  1
WIPEOUT
  2
AcDbWipeout
  3
"WipeOut|Product Desc: Object Enabler for WipeOut entity                        |Company: Autodesk, Inc.                        |WEB Address: www.autodesk.com"
 90
    34943
280
     0
281
     1
  0
CLASS
  1
WIPEOUTVARIABLES
  2
AcDbWipeoutVariables
  3
"WipeOut|Product Desc:     WipeOut Dbx Application|Company:          Autodesk, Inc.|WEB Address:      www.autodesk.com"
 90
        0
280
     0
281
     0
  0
CLASS
  1
RTEXT
  2
RText
  3
RText|AutoCAD Express Tool|expresstools@autodesk.com
 90
    35839
280
     0
281
     1
  0
CLASS
  1
ARCALIGNEDTEXT
  2
AcDbArcAlignedText
  3
ATEXT|AutoCAD Express Tool|expresstools@autodesk.com
 90
    32768
280
     0
281
     1
  0
CLASS
  1
MATERIAL
  2
AcDbMaterial
  3
ObjectDBX Classes
 90
     1153
280
     0
281
     0
  0
CLASS
  1
VISUALSTYLE
  2
AcDbVisualStyle
  3
ObjectDBX Classes
 90
     4095
280
     0
281
     0
  0
CLASS
  1
TABLESTYLE
  2
AcDbTableStyle
  3
ObjectDBX Classes
 90
     4095
280
     0
281
     0
  0
CLASS
  1
SCALE
  2
AcDbScale
  3
ObjectDBX Classes
 90
     1153
280
     0
281
     0
  0
CLASS
  1
MLEADERSTYLE
  2
AcDbMLeaderStyle
  3
ACDB_MLEADERSTYLE_CLASS
 90
     4095
280
     0
281
     0
  0
CLASS
  1
CELLSTYLEMAP
  2
AcDbCellStyleMap
  3
ObjectDBX Classes
 90
     1152
280
     0
281
     0
  0
ENDSEC
  0
SECTION
  2
TABLES
  0
TABLE
  2
VPORT
  5
7
330
0
100
AcDbSymbolTable
 70
     1
  0
VPORT
  5
15
330
7
100
AcDbSymbolTableRecord
100
AcDbViewportTableRecord
  2
*ACTIVE
 70
     0
 10
0.0
 20
0.0
 11
1.0
 21
1.0
 12
590.9924986918114
 22
-377.3640356154365
 13
0.0
 23
0.0
 14
1.0
 24
1.0
 15
0.0
 25
0.0
 16
0.0
 26
0.0
 36
1.0
 17
0.0
 27
0.0
 37
0.0
 40
992.3275805186531
 41
1.611330698287219
 42
50.0
 43
0.0
 44
0.0
 50
0.0
 51
0.0
 71
     0
 72
   100
 73
     1
 74
     1
 75
     0
 76
     0
 77
     0
 78
     0
281
     0
 65
     0
110
0.0
120
0.0
130
0.0
111
1.0
121
0.0
131
0.0
112
0.0
122
1.0
132
0.0
 79
     0
146
0.0
  0
ENDTAB
  0
TABLE
  2
LTYPE
  5
4
330
0
100
AcDbSymbolTable
 70
     4
  0
LTYPE
  5
11
330
4
100
AcDbSymbolTableRecord
100
AcDbLinetypeTableRecord
  2
ByBlock
 70
     0
  3

 72
    65
 73
     0
 40
0.0
  0
LTYPE
  5
12
330
4
100
AcDbSymbolTableRecord
100
AcDbLinetypeTableRecord
  2
ByLayer
 70
     0
  3

 72
    65
 73
     0
 40
0.0
  0
LTYPE
  5
13
330
4
100
AcDbSymbolTableRecord
100
AcDbLinetypeTableRecord
  2
Continuous
 70
     0
  3
Solid line
 72
    65
 73
     0
 40
0.0
  0
LTYPE
  5
1E4
330
4
100
AcDbSymbolTableRecord
100
AcDbLinetypeTableRecord
  2
CENTER
 70
     0
  3
____ _ ____ _ ____ _ ____ _ ____ _ ____ _ ____
 72
    65
 73
     4
 40
2.0
 49
1.25
 74
     0
 49
-0.25
 74
     0
 49
0.25
 74
     0
 49
-0.25
 74
     0
  0
ENDTAB
  0
TABLE
  2
LAYER
  5
2
330
0
100
AcDbSymbolTable
 70
     1
  0
LAYER
  5
14
102
{ACAD_XDICTIONARY
360
5E41
102
}
330
2
100
AcDbSymbolTableRecord
100
AcDbLayerTableRecord
  2
0
 70
     0
 62
     7
  6
Continuous
370
    -3
390
1D
  0
ENDTAB
  0
TABLE
  2
STYLE
  5
3
330
0
100
AcDbSymbolTable
 70
     1
  0
STYLE
  5
17
330
3
100
AcDbSymbolTableRecord
100
AcDbTextStyleTableRecord
  2
Standard
 70
     0
 40
0.0
 41
1.0
 50
0.0
 71
     0
 42
0.0
  3
I011000D.TTF
  4

1001
ACAD
1000
IsonormD
1071
        0
  0
ENDTAB
  0
TABLE
  2
VIEW
  5
5
330
0
100
AcDbSymbolTable
 70
     0
  0
ENDTAB
  0
TABLE
  2
UCS
  5
6
330
0
100
AcDbSymbolTable
 70
     0
  0
ENDTAB
  0
TABLE
  2
APPID
  5
8
330
0
100
AcDbSymbolTable
 70
     5
  0
APPID
  5
16
330
8
100
AcDbSymbolTableRecord
100
AcDbRegAppTableRecord
  2
ACAD
 70
     0
  0
APPID
  5
26
330
8
100
AcDbSymbolTableRecord
100
AcDbRegAppTableRecord
  2
TopSolid'Draft
 70
     0
  0
APPID
  5
319D
330
8
100
AcDbSymbolTableRecord
100
AcDbRegAppTableRecord
  2
ACAD_MLEADERVER
 70
     0
  0
APPID
  5
5E45
330
8
100
AcDbSymbolTableRecord
100
AcDbRegAppTableRecord
  2
DCO15
 70
     0
  0
APPID
  5
632A
330
8
100
AcDbSymbolTableRecord
100
AcDbRegAppTableRecord
  2
ACAD_EXEMPT_FROM_CAD_STANDARDS
 70
     0
  0
ENDTAB
  0
TABLE
  2
DIMSTYLE
  5
9
330
0
100
AcDbSymbolTable
 70
     2
100
AcDbDimStyleTable
 71
     1
340
18
  0
DIMSTYLE
105
18
330
9
100
AcDbSymbolTableRecord
100
AcDbDimStyleTableRecord
  2
Standard
 70
     0
 41
1.25
 42
0.0
 44
0.75
 73
     0
 74
     0
 77
     1
140
2.5
146
0.8
147
1.25
176
     7
177
     7
178
     7
271
     2
340
17
  0
ENDTAB
  0
TABLE
  2
BLOCK_RECORD
  5
1
330
0
100
AcDbSymbolTable
 70
     1
  0
BLOCK_RECORD
  5
A
102
{ACAD_XDICTIONARY
360
31A7
102
}
330
1
100
AcDbSymbolTableRecord
100
AcDbBlockTableRecord
  2
*MODEL_SPACE
340
20
  0
BLOCK_RECORD
  5
B
330
1
100
AcDbSymbolTableRecord
100
AcDbBlockTableRecord
  2
*PAPER_SPACE
340
21
  0
ENDTAB
  0
ENDSEC
  0
SECTION
  2
BLOCKS
  0
BLOCK
  5
D
330
A
100
AcDbEntity
  8
0
100
AcDbBlockBegin
  2
*MODEL_SPACE
 70
     0
 10
0.0
 20
0.0
 30
0.0
  3
*MODEL_SPACE
  1

  0
ENDBLK
  5
E
330
A
100
AcDbEntity
  8
0
100
AcDbBlockEnd
  0
BLOCK
  5
F
330
B
100
AcDbEntity
 67
     1
  8
0
100
AcDbBlockBegin
  2
*PAPER_SPACE
 70
     0
 10
0.0
 20
0.0
 30
0.0
  3
*PAPER_SPACE
  1

  0
ENDBLK
  5
10
330
B
100
AcDbEntity
 67
     1
  8
0
100
AcDbBlockEnd
  0
ENDSEC
  0
SECTION
  2
ENTITIES
  0
LINE
  5
2753
330
A
100
AcDbEntity
  8
0
  6
CENTER
 62
     1
100
AcDbLine
 10
1179.999999999355
 20
-267.499999999945
 30
0.0
 11
-16.00000000064428
 21
-267.499999999945
 31
0.0
  0
LINE
  5
2754
330
A
100
AcDbEntity
  8
0
  6
CENTER
 62
     1
100
AcDbLine
 10
-122.5000000006494
 20
-114.8504119899498
 30
0.0
 11
-88.50000000064945
 21
-114.8504119899498
 31
0.0
  0
LINE
  5
2755
330
A
100
AcDbEntity
  8
0
  6
CENTER
 62
     1
100
AcDbLine
 10
-105.5000000006494
 20
-168.8504119899489
 30
0.0
 11
-105.5000000006494
 21
-97.85041198994987
 31
0.0
  0
LINE
  5
2756
330
A
100
AcDbEntity
  8
0
  6
CENTER
 62
     1
100
AcDbLine
 10
39.99999999950548
 20
-3.999999999976125
 30
0.0
 11
39.99999999950548
 21
4.00000000002592
 31
0.0
  0
LINE
  5
2757
330
A
100
AcDbEntity
  8
0
  6
CENTER
 62
     1
100
AcDbLine
 10
1123.999999999355
 20
-4.000000000471118
 30
0.0
 11
1123.999999999355
 21
3.999999999528881
 31
0.0
  0
LINE
  5
2758
330
A
100
AcDbEntity
  8
0
  6
CENTER
 62
     1
100
AcDbLine
 10
1179.999999999355
 20
0.0000000000550244
 30
0.0
 11
-16.00000000064428
 21
0.0000000000550244
 31
0.0
  0
LINE
  5
2759
330
A
100
AcDbEntity
  8
0
  6
CENTER
 62
     1
100
AcDbLine
 10
1163.999999999355
 20
-120.8504119899498
 30
0.0
 11
1163.999999999355
 21
-168.8504119899489
 31
0.0
  0
LINE
  5
275A
330
A
100
AcDbEntity
  8
0
  6
CENTER
 62
     1
100
AcDbLine
 10
1123.999999999355
 20
-131.8504119899498
 30
0.0
 11
1123.999999999355
 21
-127.3504119899498
 31
0.0
  0
LINE
  5
275B
330
A
100
AcDbEntity
  8
0
  6
CENTER
 62
     1
100
AcDbLine
 10
-0.0000000005744454
 20
-120.850411996759
 30
0.0
 11
-0.0000000000114966
 21
-168.850411996759
 31
0.0
  0
LINE
  5
275C
330
A
100
AcDbEntity
  8
0
  6
CENTER
 62
     1
100
AcDbLine
 10
39.99999999952847
 20
-131.8504119962911
 30
0.0
 11
39.99999999947657
 21
-127.3504119962911
 31
0.0
  0
LINE
  5
275D
330
A
100
AcDbEntity
  8
0
  6
CENTER
 62
     1
100
AcDbLine
 10
0.7499999998819789
 20
-159.8504119967308
 30
0.0
 11
12.74999999988226
 21
-159.8504119965919
 31
0.0
  0
LINE
  5
275E
330
A
100
AcDbEntity
  8
0
  6
CENTER
 62
     1
100
AcDbLine
 10
1163.249999999356
 20
-159.850411989298
 30
0.0
 11
1151.249999999356
 21
-159.8504119900658
 31
0.0
  0
LINE
  5
275F
330
A
100
AcDbEntity
  8
0
  6
CENTER
 62
     1
100
AcDbLine
 10
1179.999999999355
 20
-114.850411982921
 30
0.0
 11
-16.00000000064428
 21
-114.8504119969477
 31
0.0
  0
LINE
  5
2760
330
A
100
AcDbEntity
  8
0
  6
CENTER
 62
     1
100
AcDbLine
 10
1266.49999999935
 20
-114.8504119969709
 30
0.0
 11
1292.49999999935
 21
-114.8504119969709
 31
0.0
  0
LINE
  5
2761
330
A
100
AcDbEntity
  8
0
  6
CENTER
 62
     1
100
AcDbLine
 10
1279.49999999935
 20
-168.850411996759
 30
0.0
 11
1279.49999999935
 21
-101.8504119969718
 31
0.0
  0
ELLIPSE
  5
3ABF
330
A
100
AcDbEntity
  8
0
  6
Continuous
 62
     7
370
     0
100
AcDbEllipse
 10
312.1974361159169
 20
-703.2199176362624
 30
0.0
 11
-1.011928851271769
 21
1.239354670771851
 31
0.0
210
0.0
220
0.0
230
1.0
 40
0.8164965809229396
 41
0.0
 42
6.283185307179585
  0
LINE
  5
3AC0
330
A
100
AcDbEntity
  8
0
  6
Continuous
 62
     7
370
     0
100
AcDbLine
 10
311.4186948979699
 20
-704.0449769936226
 30
0.0
 11
310.9730974916273
 21
-702.7736936875185
 31
0.0
  0
LINE
  5
3AC1
330
A
100
AcDbEntity
  8
0
  6
Continuous
 62
     7
370
     0
100
AcDbLine
 10
312.6430335222611
 20
-704.4912009423665
 30
0.0
 11
311.4186948979699
 21
-704.0449769936226
 31
0.0
  0
LINE
  5
3AC2
330
A
100
AcDbEntity
  8
0
  6
Continuous
 62
     7
370
     0
100
AcDbLine
 10
313.4217747402082
 20
-703.6661415850053
 30
0.0
 11
312.6430335222611
 21
-704.4912009423655
 31
0.0
  0
LINE
  5
3AC3
330
A
100
AcDbEntity
  8
0
  6
Continuous
 62
     7
370
     0
100
AcDbLine
 10
312.9761773338649
 20
-702.3948582789021
 30
0.0
 11
313.4217747402082
 21
-703.6661415850062
 31
0.0
  0
LINE
  5
3AC4
330
A
100
AcDbEntity
  8
0
  6
Continuous
 62
     7
370
     0
100
AcDbLine
 10
311.7518387095739
 20
-701.9486343301582
 30
0.0
 11
312.9761773338649
 21
-702.3948582789012
 31
0.0
  0
LINE
  5
3AC5
330
A
100
AcDbEntity
  8
0
  6
Continuous
 62
     7
370
     0
100
AcDbLine
 10
310.9730974916273
 20
-702.7736936875185
 30
0.0
 11
311.7518387095739
 21
-701.9486343301582
 31
0.0
  0
LINE
  5
3AC6
330
A
100
AcDbEntity
  8
0
  6
Continuous
 62
     7
370
     0
100
AcDbLine
 10
311.8739390612012
 20
-701.9931351732798
 30
0.0
 11
311.6886392444272
 21
-702.1894562928296
 31
0.0
  0
LINE
  5
3AC7
330
A
100
AcDbEntity
  8
0
  6
Continuous
 62
     7
370
     0
100
AcDbLine
 10
310.9730974916273
 20
-702.7736936875185
 30
0.0
 11
311.6886392444272
 21
-702.1894562928296
 31
0.0
  0
LINE
  5
3AC8
330
A
100
AcDbEntity
  8
0
  6
Continuous
 62
     7
370
     0
100
AcDbLine
 10
311.6886392444259
 20
-702.1894562928296
 30
0.0
 11
312.13423665077
 21
-703.4607395989324
 31
0.0
  0
LINE
  5
3AC9
330
A
100
AcDbEntity
  8
0
  6
Continuous
 62
     7
370
     0
100
AcDbLine
 10
311.4186948979699
 20
-704.0449769936226
 30
0.0
 11
312.13423665077
 21
-703.4607395989324
 31
0.0
  0
LINE
  5
3ACA
330
A
100
AcDbEntity
  8
0
  6
Continuous
 62
     7
370
     0
100
AcDbLine
 10
312.13423665077
 20
-703.4607395989337
 30
0.0
 11
313.2364749234333
 21
-703.8624627045556
 31
0.0
  0
ELLIPSE
  5
3ACB
330
A
100
AcDbEntity
  8
0
  6
Continuous
 62
     7
370
     0
100
AcDbEllipse
 10
318.6373118912451
 20
-724.9827605875148
 30
0.0
 11
8.000000000000008
 21
0.0000000000381917
 31
0.0
210
0.0
220
0.0
230
1.0
 40
0.4082482904738344
 41
5.266822585080058
 42
6.283185307179572
  0
ELLIPSE
  5
3ACC
330
A
100
AcDbEntity
  8
0
  6
Continuous
 62
     7
370
     0
100
AcDbEllipse
 10
318.6373118912451
 20
-724.9827605875148
 30
0.0
 11
8.000000000000008
 21
0.0000000000381917
 31
0.0000000000000007
210
-0.0000000000000001
220
0.0
230
1.0
 40
0.4082482904738347
 41
3.141592653589778
 42
3.230660157683812
  0
LINE
  5
3ACD
330
A
100
AcDbEntity
  8
0
  6
Continuous
 62
     7
370
     0
100
AcDbLine
 10
326.6056007822109
 20
-735.6467029450763
 30
0.0
 11
326.6056007821609
 21
-725.2732693799275
 31
0.0
  0
LINE
  5
3ACE
330
A
100
AcDbEntity
  8
0
  6
Continuous
 62
     7
370
     0
100
AcDbLine
 10
322.8490065799591
 20
-727.7594981171455
 30
0.0
 11
322.849006580011
 21
-738.7139492671945
 31
0.0
  0
ELLIPSE
  5
3ACF
330
A
100
AcDbEntity
  8
0
  6
Continuous
 62
     9
370
     0
100
AcDbEllipse
 10
318.6373118912969
 20
-735.9372117375633
 30
0.0
 11
-8.000000000000008
 21
-0.0000000000381917
 31
-0.0000000000000001
210
0.0
220
0.0
230
1.0
 40
0.4082482904738347
 41
0.0890675040940453
 42
2.125229931490268
  0
LINE
  5
3AD0
330
A
100
AcDbEntity
  8
0
  6
Continuous
 62
     7
370
     0
100
AcDbLine
 10
310.6690230003843
 20
-736.227720530052
 30
0.0
 11
310.6690230003311
 21
-725.2732693800021
 31
0.0
  0
LINE
  5
3AD1
330
A
100
AcDbEntity
  8
0
  6
Continuous
 62
     7
370
     0
100
AcDbLine
 10
310.7217189046122
 20
-736.6837214139714
 30
0.0
 11
310.6690230003843
 21
-736.2277205300501
 31
0.0
  0
ARC
  5
3AD2
330
A
100
AcDbEntity
  8
0
  6
Continuous
 62
     7
370
     0
100
AcDbCircle
 10
321.1848841805389
 20
-738.7280289433014
 30
0.0
 40
1.664181960515279
100
AcDbArc
 50
276.6180399097494
 51
0.484752065064259
  0
LINE
  5
3ADA
330
A
100
AcDbEntity
  8
0
  6
Continuous
 62
     7
370
     0
100
AcDbLine
 10
322.8490065800039
 20
-737.0707815945711
 30
0.0
 11
323.8286136709429
 21
-737.2707430546729
 31
0.0
  0
ELLIPSE
  5
3ADB
330
A
100
AcDbEntity
  8
0
  6
Continuous
 62
     9
370
     0
100
AcDbEllipse
 10
313.6285196215171
 20
-702.0514428468836
 30
0.0
 11
-7.589466384537725
 21
9.295160030788897
 31
0.0
210
0.0
220
0.0
230
1.0
 40
0.8164965809229299
 41
3.141814302010256
 42
6.283087749478857
  0
ELLIPSE
  5
3ADC
330
A
100
AcDbEntity
  8
0
  6
Continuous
 62
     9
370
     0
100
AcDbEllipse
 10
312.1974361159169
 20
-703.2199176362624
 30
0.0
 11
5.565608681994183
 21
-6.81645068924519
 31
0.0
210
0.0
220
0.0
230
1.0
 40
0.8164965809229101
 41
0.0
 42
6.283185307179585
  0
ELLIPSE
  5
3ADD
330
A
100
AcDbEntity
  8
0
  6
Continuous
 62
     9
370
     0
100
AcDbEllipse
 10
335.8103139583151
 20
-683.940083611515
 30
0.0
 11
7.589466384537502
 21
-9.295160030788895
 31
0.0000000000000004
210
0.0
220
0.0
230
1.0
 40
0.8164965809229299
 41
6.283185307179581
 42
8.639379797358211
  0
ELLIPSE
  5
3ADE
330
A
100
AcDbEntity
  8
0
  6
Continuous
 62
     9
370
     0
100
AcDbEllipse
 10
335.8103139583151
 20
-683.940083611515
 30
0.0
 11
7.589466384537502
 21
-9.295160030788895
 31
0.0
210
0.0
220
0.0
230
1.0
 40
0.8164965809229299
 41
2.356194490178618
 42
3.14159265358979
  0
ELLIPSE
  5
3ADF
330
A
100
AcDbEntity
  8
0
  6
Continuous
 62
     7
370
     0
100
AcDbEllipse
 10
312.1974361159169
 20
-703.2199176362624
 30
0.0
 11
-1.264911064089656
 21
1.549193338464815
 31
0.0
210
0.0
220
0.0
230
1.0
 40
0.8164965809229299
 41
3.141592653589826
 42
5.497787143768421
  0
ELLIPSE
  5
3AE0
330
A
100
AcDbEntity
  8
0
  6
Continuous
 62
     7
370
     0
100
AcDbEllipse
 10
312.1974361159169
 20
-703.2199176362624
 30
0.0
 11
-1.264911064089434
 21
1.549193338464815
 31
0.0
210
0.0
220
0.0
230
1.0
 40
0.8164965809229299
 41
5.497787143768512
 42
6.283185307179625
  0
ELLIPSE
  5
3AE1
330
A
100
AcDbEntity
  8
0
  6
Continuous
 62
     7
370
     0
100
AcDbEllipse
 10
312.1974361159169
 20
-703.2199176362624
 30
0.0
 11
-1.264911064089434
 21
1.549193338464815
 31
0.0000000000000001
210
0.0
220
-0.0000000000000001
230
1.0
 40
0.8164965809229302
 41
0.0000000000000387
 42
3.141592653589908
  0
ELLIPSE
  5
3AE2
330
A
100
AcDbEntity
  8
0
  6
Continuous
 62
     7
370
     0
100
AcDbEllipse
 10
731.236575099338
 20
-393.9392468265346
 30
0.0
 11
2.023857702699193
 21
-2.478709341416474
 31
-0.0000000000000001
210
0.0
220
0.0
230
0.9999999999999998
 40
0.816496580901164
 41
0.7853981633328673
 42
3.14159265358979
  0
LINE
  5
3AE3
330
A
100
AcDbEntity
  8
0
  6
Continuous
 62
     7
370
     0
100
AcDbLine
 10
730.5210333465969
 20
-395.7284738476656
 30
0.0
 11
731.9521168521961
 21
-396.0205925450043
 31
0.0
  0
LINE
  5
3AE4
330
A
100
AcDbEntity
  8
0
  6
Continuous
 62
     7
370
     0
100
AcDbLine
 10
731.9521168521961
 20
-396.0205925450043
 30
0.0
 11
731.9521168520801
 21
-392.1500198054014
 31
0.0
  0
LINE
  5
3AE5
330
A
100
AcDbEntity
  8
0
  6
Continuous
 62
     7
370
     0
100
AcDbLine
 10
731.9521168520801
 20
-392.1500198054014
 30
0.0
 11
730.521033346481
 21
-391.8579011080635
 31
0.0
  0
LINE
  5
3AE6
330
A
100
AcDbEntity
  8
0
  6
Continuous
 62
     7
370
     0
100
AcDbLine
 10
730.521033346481
 20
-391.8579011080622
 30
0.0
 11
730.5210333465969
 21
-395.7284738476656
 31
0.0
  0
ELLIPSE
  5
3AE7
330
A
100
AcDbEntity
  8
0
  6
Continuous
 62
     7
370
     0
100
AcDbEllipse
 10
731.236575099338
 20
-393.9392468265346
 30
0.0
 11
2.023857702699193
 21
-2.478709341416474
 31
0.0000000000000002
210
-0.0000000000000001
220
0.0
230
0.9999999999999998
 40
0.816496580901164
 41
6.283185307179567
 42
7.068583470512452
  0
ELLIPSE
  5
3AE8
330
A
100
AcDbEntity
  8
0
  6
Continuous
 62
     7
370
     0
100
AcDbEllipse
 10
731.236575099338
 20
-393.9392468265346
 30
0.0
 11
2.023857702699193
 21
-2.478709341416474
 31
0.0000000000000002
210
-0.0000000000000001
220
0.0
230
0.9999999999999998
 40
0.816496580901164
 41
3.14159265358979
 42
6.283185307179567
  0
LINE
  5
3AE9
330
A
100
AcDbEntity
  8
0
  6
Continuous
 62
     7
370
     0
100
AcDbLine
 10
731.2365750993982
 20
-395.1442364529005
 30
0.0
 11
731.236575099304
 21
-392.0039604567376
 31
0.0
  0
LINE
  5
3AEA
330
A
100
AcDbEntity
  8
0
  6
Continuous
 62
     7
370
     0
100
AcDbLine
 10
730.5210333465969
 20
-395.7284738476656
 30
0.0
 11
731.2365750993982
 21
-395.1442364529005
 31
0.0
  0
LINE
  5
3AEB
330
A
100
AcDbEntity
  8
0
  6
Continuous
 62
     7
370
     0
100
AcDbLine
 10
731.952116852174
 20
-395.2902958015645
 30
0.0
 11
731.2365750993982
 21
-395.1442364529005
 31
0.0
  0
ELLIPSE
  5
3AEC
330
A
100
AcDbEntity
  8
0
  6
Continuous
 62
     7
370
     0
100
AcDbEllipse
 10
735.082612020651
 20
-384.9565968834604
 30
0.0
 11
8.000000000000008
 21
-0.0000000000077716
 31
0.0000000000000004
210
0.0
220
0.0
230
1.0
 40
0.4082482904642699
 41
5.266822585082398
 42
6.283185307179585
  0
LINE
  5
3AED
330
A
100
AcDbEntity
  8
0
  6
Continuous
 62
     7
370
     0
100
AcDbLine
 10
739.2943067093648
 20
-387.7333344130463
 30
0.0
 11
739.2943067093539
 21
-398.6877855631474
 31
0.0
  0
ELLIPSE
  5
3AEE
330
A
100
AcDbEntity
  8
0
  6
Continuous
 62
     9
370
     0
100
AcDbEllipse
 10
735.0826120206399
 20
-395.9110480335614
 30
0.0
 11
-8.000000000000008
 21
0.0000000000077716
 31
-0.0000000000000006
210
-0.0000000000000001
220
0.0
230
1.0
 40
0.4082482904642701
 41
0.0890675040963806
 42
2.125229931492609
  0
LINE
  5
3AEF
330
A
100
AcDbEntity
  8
0
  6
Continuous
 62
     7
370
     0
100
AcDbLine
 10
727.1143231297273
 20
-396.2015568260044
 30
0.0
 11
727.114323129737
 21
-385.2471056759034
 31
0.0
  0
ELLIPSE
  5
3AF0
330
A
100
AcDbEntity
  8
0
  6
Continuous
 62
     7
370
     0
100
AcDbEllipse
 10
735.082612020651
 20
-384.9565968834604
 30
0.0
 11
8.000000000000008
 21
-0.0000000000077716
 31
0.0
210
0.0
220
0.0000000000000001
230
1.0
 40
0.40824829046427
 41
3.1415926535898
 42
3.230660157686173
  0
LINE
  5
3AF1
330
A
100
AcDbEntity
  8
0
  6
Continuous
 62
     7
370
     0
100
AcDbLine
 10
743.0509009115539
 20
-395.6205392411182
 30
0.0
 11
743.0509009115641
 21
-385.2471056759184
 31
0.0
  0
LINE
  5
3AF2
330
A
100
AcDbEntity
  8
0
  6
Continuous
 62
     7
370
     0
100
AcDbLine
 10
727.1670345006961
 20
-396.6576254367344
 30
0.0
 11
727.1143231297273
 21
-396.2015568260044
 31
0.0
  0
LINE
  5
3AFF
330
A
100
AcDbEntity
  8
0
  6
Continuous
 62
     7
370
     0
100
AcDbLine
 10
739.2943067093559
 20
-397.0446178906284
 30
0.0
 11
740.273913800274
 21
-397.2445793507254
 31
0.0
  0
ELLIPSE
  5
3B00
330
A
100
AcDbEntity
  8
0
  6
Continuous
 62
     9
370
     0
100
AcDbEllipse
 10
717.9096099534789
 20
-371.9573148520103
 30
0.0
 11
-7.589466384404052
 21
9.295160030897694
 31
0.0
210
0.0
220
0.0
230
1.0
 40
0.8164965809277259
 41
5.497787143782139
 42
6.283406955600339
  0
ELLIPSE
  5
3B01
330
A
100
AcDbEntity
  8
0
  6
Continuous
 62
     9
370
     0
100
AcDbEllipse
 10
717.9096099534789
 20
-371.9573148520103
 30
0.0
 11
-7.589466384404052
 21
9.295160030897694
 31
0.0
210
0.0
220
0.0
230
1.0
 40
0.8164965809277259
 41
3.141495095889137
 42
5.497787143782139
  0
ELLIPSE
  5
3B02
330
A
100
AcDbEntity
  8
0
  6
Continuous
 62
     9
370
     0
100
AcDbEllipse
 10
716.4785264478791
 20
-373.1257896413544
 30
0.0
 11
5.565608681896262
 21
-6.816450689325126
 31
0.0
210
0.0
220
0.0
230
1.0
 40
0.816496580927726
 41
2.356194490192345
 42
3.571292318796003
  0
ELLIPSE
  5
3B03
330
A
100
AcDbEntity
  8
0
  6
Continuous
 62
     9
370
     0
100
AcDbEllipse
 10
716.4785264478791
 20
-373.1257896413544
 30
0.0
 11
5.565608681896262
 21
-6.816450689325126
 31
0.0000000000000006
210
-0.0000000000000001
220
0.0
230
1.0
 40
0.8164965809277264
 41
5.853485640082946
 42
8.639379797371931
  0
ELLIPSE
  5
3B04
330
A
100
AcDbEntity
  8
0
  6
Continuous
 62
     9
370
     0
100
AcDbEllipse
 10
740.0914042902772
 20
-353.8459556171724
 30
0.0
 11
7.589466384404052
 21
-9.295160030897694
 31
0.0000000000000004
210
-0.0000000000000001
220
0.0
230
1.0
 40
0.8164965809277259
 41
0.0
 42
3.141592653589794
  0
ELLIPSE
  5
3B05
330
A
100
AcDbEntity
  8
0
  6
Continuous
 62
     7
370
     0
100
AcDbEllipse
 10
716.4785264478791
 20
-373.1257896413544
 30
0.0
 11
-5.18613536267609
 21
6.351692687780237
 31
0.0
210
0.0
220
0.0
230
1.0
 40
0.816496580927726
 41
6.283185307179581
 42
6.504499747590122
  0
ELLIPSE
  5
3B06
330
A
100
AcDbEntity
  8
0
  6
Continuous
 62
     7
370
     0
100
AcDbEllipse
 10
716.4785264478791
 20
-373.1257896413544
 30
0.0
 11
-5.18613536267609
 21
6.351692687780237
 31
0.0
210
0.0
220
0.0
230
1.0
 40
0.816496580927726
 41
2.920278209304751
 42
3.141592653589792
  0
ELLIPSE
  5
3B07
330
A
100
AcDbEntity
  8
0
  6
Continuous
 62
     7
370
     0
100
AcDbEllipse
 10
716.4785264478791
 20
-373.1257896413544
 30
0.0
 11
-5.18613536267609
 21
6.351692687780237
 31
-0.0000000000000003
210
-0.0000000000000001
220
0.0
230
1.0
 40
0.8164965809277259
 41
3.141592653589794
 42
6.283185307179588
  0
LINE
  5
3B08
330
A
100
AcDbEntity
  8
0
  6
Continuous
 62
     7
370
     0
100
AcDbLine
 10
326.6373118912451
 20
-724.9827605874766
 30
0.0
 11
326.6373118911591
 21
-706.9217418214216
 31
0.0
  0
LINE
  5
3B09
330
A
100
AcDbEntity
  8
0
  6
Continuous
 62
     7
370
     0
100
AcDbLine
 10
310.6373118911862
 20
-712.4744000816704
 30
0.0
 11
310.6373118912451
 21
-724.9827605875521
 31
0.0
  0
ARC
  5
3B14
330
A
100
AcDbEntity
  8
0
  6
Continuous
 62
     7
370
     0
100
AcDbCircle
 10
315.1441589421171
 20
-703.6778451142431
 30
0.0
 40
9.782664733264873
100
AcDbArc
 50
257.2702339876614
 51
308.3939280758112
  0
LINE
  5
3B15
330
A
100
AcDbEntity
  8
0
  6
Continuous
 62
     7
370
     0
100
AcDbLine
 10
321.217986006054
 20
-711.3466028776724
 30
0.0
 11
343.3997803428521
 21
-693.2352436423047
 31
0.0
  0
LINE
  5
3B16
330
A
100
AcDbEntity
  8
0
  6
Continuous
 62
     7
370
     0
100
AcDbLine
 10
328.2208475737772
 20
-674.6449235807262
 30
0.0
 11
306.0390532369792
 21
-692.7562828160944
 31
0.0
  0
LINE
  5
3B17
330
A
100
AcDbEntity
  8
0
  6
Continuous
 62
     7
370
     0
100
AcDbLine
 10
343.3989749715671
 20
-693.2359011482481
 30
0.0
 11
343.4459734581971
 21
-693.1972725584314
 31
0.0
  0
LINE
  5
3B18
330
A
100
AcDbEntity
  8
0
  6
Continuous
 62
     7
370
     0
100
AcDbLine
 10
343.4459734581971
 20
-693.1972725584305
 30
0.0
 11
343.7947335132809
 21
-692.893341264827
 31
0.0
  0
ARC
  5
3B1E
330
A
100
AcDbEntity
  8
0
  6
Continuous
 62
     7
370
     0
100
AcDbCircle
 10
334.2948100288601
 20
-682.3588189936649
 30
0.0
 40
9.826668242654372
100
AcDbArc
 50
77.32899682850034
 51
125.0077827416384
  0
LINE
  5
3B1F
330
A
100
AcDbEntity
  8
0
  6
Continuous
 62
     7
370
     0
100
AcDbLine
 10
328.6573713246929
 20
-674.3100492983662
 30
0.0
 11
328.307250239805
 21
-674.5752531654493
 31
0.0
  0
LINE
  5
3B20
330
A
100
AcDbEntity
  8
0
  6
Continuous
 62
     7
370
     0
100
AcDbLine
 10
328.307250239805
 20
-674.5752531654493
 30
0.0
 11
328.219006657121
 21
-674.6464270850951
 31
0.0
  0
LINE
  5
3B21
330
A
100
AcDbEntity
  8
0
  6
Continuous
 62
     7
370
     0
100
AcDbLine
 10
712.5573021371182
 20
-365.9995002896983
 30
0.0
 11
336.7556982173461
 21
-672.8402250063241
 31
0.0
  0
LINE
  5
3B22
330
A
100
AcDbEntity
  8
0
  6
Continuous
 62
     7
370
     0
100
AcDbLine
 10
346.87575095655
 20
-685.233147725728
 30
0.0
 11
722.6765906694971
 21
-378.3930469813624
 31
0.0
  0
LINE
  5
3B23
330
A
100
AcDbEntity
  8
0
  6
Continuous
 62
     7
370
     0
100
AcDbLine
 10
743.082612020651
 20
-384.9565968834684
 30
0.0
 11
743.0826120206689
 21
-366.8955781172922
 31
0.0
  0
LINE
  5
3B24
330
A
100
AcDbEntity
  8
0
  6
Continuous
 62
     7
370
     0
100
AcDbLine
 10
727.082612020656
 20
-379.9595234121473
 30
0.0
 11
727.082612020651
 21
-384.9565968834522
 31
0.0
  0
ARC
  5
3B2A
330
A
100
AcDbEntity
  8
0
  6
Continuous
 62
     7
370
     0
100
AcDbCircle
 10
716.6397517258091
 20
-370.1647337886175
 30
0.0
 40
9.809528606978773
100
AcDbArc
 50
130.1221468275234
 51
182.9183951956441
  0
ARC
  5
3B2B
330
A
100
AcDbEntity
  8
0
  6
Continuous
 62
     7
370
     0
100
AcDbCircle
 10
719.4083252125779
 20
-373.5425674941962
 30
0.0
 40
9.825489824002671
100
AcDbArc
 50
255.600231102236
 51
308.3023271748728
  0
LINE
  5
3B2C
330
A
100
AcDbEntity
  8
0
  6
Continuous
 62
     7
370
     0
100
AcDbLine
 10
732.5019379058732
 20
-344.5507955862745
 30
0.0
 11
710.3201435690749
 21
-362.6621548211124
 31
0.0
  0
LINE
  5
3B2D
330
A
100
AcDbEntity
  8
0
  6
Continuous
 62
     7
370
     0
100
AcDbLine
 10
725.4990763378828
 20
-381.2524748829076
 30
0.0
 11
747.6808706746811
 21
-363.1411156480706
 31
0.0
  0
LINE
  5
3B2E
330
A
100
AcDbEntity
  8
0
  6
Continuous
 62
     7
370
     0
100
AcDbLine
 10
747.68271159134
 20
-363.1396121436994
 30
0.0
 11
747.7584652824199
 21
-363.0770389518393
 31
0.0
  0
LINE
  5
3B2F
330
A
100
AcDbEntity
  8
0
  6
Continuous
 62
     7
370
     0
100
AcDbLine
 10
747.7584652824199
 20
-363.0770389518393
 30
0.0
 11
748.0929835958018
 21
-362.7834310156295
 31
0.0
  0
LINE
  5
3B36
330
A
100
AcDbEntity
  8
0
  6
Continuous
 62
     7
370
     0
100
AcDbLine
 10
732.935072947254
 20
-344.2183625117295
 30
0.0
 11
732.6092392392442
 21
-344.4645338661344
 31
0.0
  0
LINE
  5
3B37
330
A
100
AcDbEntity
  8
0
  6
Continuous
 62
     7
370
     0
100
AcDbLine
 10
732.6092392392442
 20
-344.4645338661344
 30
0.0
 11
732.502743277157
 21
-344.5501380803317
 31
0.0
  0
ARC
  5
3B38
330
A
100
AcDbEntity
  8
0
  6
Continuous
 62
     9
370
     0
100
AcDbCircle
 10
-105.5000000006494
 20
-114.8504119899498
 30
0.0
 40
3.000000000000113
100
AcDbArc
 50
90.0
 51
0.0
  0
LINE
  5
3B39
330
A
100
AcDbEntity
  8
0
  6
Continuous
 62
     7
370
     0
100
AcDbLine
 10
-95.50000000061304
 20
-151.8504119967501
 30
0.0
 11
-96.98897773533838
 21
-151.850411996751
 31
0.0
  0
LINE
  5
3B3A
330
A
100
AcDbEntity
  8
0
  6
Continuous
 62
     7
370
     0
100
AcDbLine
 10
-114.0110222658867
 20
-151.8504119967681
 30
0.0
 11
-115.5000000006121
 21
-151.8504119967699
 31
0.0
  0
CIRCLE
  5
3B3B
330
A
100
AcDbEntity
  8
0
  6
Continuous
 62
     7
370
     0
100
AcDbCircle
 10
-105.5000000006615
 20
-114.8504119903341
 30
0.0
 40
2.0
  0
LINE
  5
3B3C
330
A
100
AcDbEntity
  8
0
  6
Continuous
 62
     7
370
     0
100
AcDbLine
 10
-104.0000000006614
 20
-115.7164373941188
 30
0.0
 11
-105.5000000006615
 21
-116.5824627979029
 31
0.0
  0
LINE
  5
3B3D
330
A
100
AcDbEntity
  8
0
  6
Continuous
 62
     7
370
     0
100
AcDbLine
 10
-104.0000000006614
 20
-113.9843865865498
 30
0.0
 11
-104.0000000006614
 21
-115.7164373941188
 31
0.0
  0
LINE
  5
3B3E
330
A
100
AcDbEntity
  8
0
  6
Continuous
 62
     7
370
     0
100
AcDbLine
 10
-105.5000000006615
 20
-113.1183611827648
 30
0.0
 11
-104.0000000006614
 21
-113.9843865865498
 31
0.0
  0
LINE
  5
3B3F
330
A
100
AcDbEntity
  8
0
  6
Continuous
 62
     7
370
     0
100
AcDbLine
 10
-107.0000000006615
 20
-113.9843865865498
 30
0.0
 11
-105.5000000006615
 21
-113.1183611827648
 31
0.0
  0
LINE
  5
3B40
330
A
100
AcDbEntity
  8
0
  6
Continuous
 62
     7
370
     0
100
AcDbLine
 10
-107.0000000006615
 20
-115.7164373941188
 30
0.0
 11
-107.0000000006615
 21
-113.9843865865498
 31
0.0
  0
LINE
  5
3B41
330
A
100
AcDbEntity
  8
0
  6
Continuous
 62
     7
370
     0
100
AcDbLine
 10
-105.5000000006615
 20
-116.5824627979029
 30
0.0
 11
-107.0000000006615
 21
-115.7164373941188
 31
0.0
  0
LINE
  5
3B42
330
A
100
AcDbEntity
  8
0
  6
Continuous
 62
     7
370
     0
100
AcDbLine
 10
-95.50000000061251
 20
-151.8504119899401
 30
0.0
 11
-96.98897773533788
 21
-151.850411989941
 31
0.0
  0
LINE
  5
3B43
330
A
100
AcDbEntity
  8
0
  6
Continuous
 62
     7
370
     0
100
AcDbLine
 10
-114.011022265887
 20
-151.8504119899589
 30
0.0
 11
-115.5000000006123
 21
-151.8504119899589
 31
0.0
  0
LINE
  5
3B44
330
A
100
AcDbEntity
  8
0
  6
Continuous
 62
     7
370
     0
100
AcDbLine
 10
-96.98897773533786
 20
-151.850411989941
 30
0.0
 11
-96.98897773532287
 21
-166.850411989941
 31
0.0
  0
LINE
  5
3B45
330
A
100
AcDbEntity
  8
0
  6
Continuous
 62
     9
370
     0
100
AcDbLine
 10
-114.011022265872
 20
-166.850411989958
 30
0.0
 11
-96.98897773532292
 21
-166.850411989941
 31
0.0
  0
LINE
  5
3B46
330
A
100
AcDbEntity
  8
0
  6
Continuous
 62
     7
370
     0
100
AcDbLine
 10
-114.011022265872
 20
-166.850411989958
 30
0.0
 11
-114.011022265887
 21
-151.8504119899589
 31
0.0
  0
LINE
  5
3B47
330
A
100
AcDbEntity
  8
0
  6
Continuous
 62
     7
370
     0
100
AcDbLine
 10
-100.8699352062314
 20
-169.8504119899451
 30
0.0
 11
-110.1300647949574
 21
-169.8504119899537
 31
0.0
  0
ARC
  5
3B48
330
A
100
AcDbEntity
  8
0
  6
Continuous
 62
     7
370
     0
100
AcDbCircle
 10
-110.6631248951674
 20
-166.5297013675649
 30
0.0
 40
3.363223469840646
100
AcDbArc
 50
185.4719313864231
 51
279.1196548919117
  0
ARC
  5
3B49
330
A
100
AcDbEntity
  8
0
  6
Continuous
 62
     7
370
     0
100
AcDbCircle
 10
-100.3795583503291
 20
-166.47448408227
 30
0.0
 40
3.411357310312473
100
AcDbArc
 50
261.7351965565625
 51
353.6732171653309
  0
ARC
  5
3B4A
330
A
100
AcDbEntity
  8
0
  6
Continuous
 62
     7
370
     0
100
AcDbCircle
 10
-105.5000000006494
 20
-114.8504119899498
 30
0.0
 40
14.99999999999998
100
AcDbArc
 50
270.0
 51
180.0
  0
CIRCLE
  5
3B4B
330
A
100
AcDbEntity
  8
0
  6
Continuous
 62
     9
370
     0
100
AcDbCircle
 10
-105.5000000006494
 20
-114.8504119899498
 30
0.0
 40
10.99999999999998
  0
ARC
  5
3B4C
330
A
100
AcDbEntity
  8
0
  6
Continuous
 62
     7
370
     0
100
AcDbCircle
 10
-105.5000000006494
 20
-114.8504119899498
 30
0.0
 40
14.9999999999999
100
AcDbArc
 50
180.0
 51
270.0
  0
CIRCLE
  5
3B4D
330
A
100
AcDbEntity
  8
0
  6
Continuous
 62
     7
370
     0
100
AcDbCircle
 10
-105.5000000006494
 20
-114.8504119899498
 30
0.0
 40
2.500000000000002
  0
LINE
  5
3B4E
330
A
100
AcDbEntity
  8
0
  6
Continuous
 62
     7
370
     0
100
AcDbLine
 10
-95.50000000061245
 20
-151.8504119899401
 30
0.0
 11
-95.50000000063826
 21
-126.0307518774389
 31
0.0
  0
LINE
  5
3B4F
330
A
100
AcDbEntity
  8
0
  6
Continuous
 62
     7
370
     0
100
AcDbLine
 10
-115.5000000006382
 20
-126.0307518774591
 30
0.0
 11
-115.5000000006124
 21
-151.8504119899589
 31
0.0
  0
ARC
  5
3B50
330
A
100
AcDbEntity
  8
0
  6
Continuous
 62
     9
370
     0
100
AcDbCircle
 10
1279.49999999935
 20
-114.8504119969709
 30
0.0
 40
2.99999999999989
100
AcDbArc
 50
89.99999999988519
 51
359.9999999998827
  0
CIRCLE
  5
3B51
330
A
100
AcDbEntity
  8
0
  6
Continuous
 62
     7
370
     0
100
AcDbCircle
 10
1279.49999999935
 20
-114.8504119969709
 30
0.0
 40
1.999999999999779
  0
LINE
  5
3B52
330
A
100
AcDbEntity
  8
0
  6
Continuous
 62
     7
370
     0
100
AcDbLine
 10
1278.41167606171
 20
-116.197835837773
 30
0.0
 11
1277.788934754731
 21
-114.581607739829
 31
0.0
  0
LINE
  5
3B53
330
A
100
AcDbEntity
  8
0
  6
Continuous
 62
     7
370
     0
100
AcDbLine
 10
1280.122741306329
 20
-116.4666400949147
 30
0.0
 11
1278.41167606171
 21
-116.197835837773
 31
0.0
  0
LINE
  5
3B54
330
A
100
AcDbEntity
  8
0
  6
Continuous
 62
     7
370
     0
100
AcDbLine
 10
1281.211065243969
 20
-115.119216254114
 30
0.0
 11
1280.122741306329
 21
-116.4666400949147
 31
0.0
  0
LINE
  5
3B55
330
A
100
AcDbEntity
  8
0
  6
Continuous
 62
     7
370
     0
100
AcDbLine
 10
1280.58832393699
 20
-113.5029881561699
 30
0.0
 11
1281.211065243969
 21
-115.119216254114
 31
0.0
  0
LINE
  5
3B56
330
A
100
AcDbEntity
  8
0
  6
Continuous
 62
     7
370
     0
100
AcDbLine
 10
1278.877258692371
 20
-113.2341838990278
 30
0.0
 11
1280.58832393699
 21
-113.5029881561699
 31
0.0
  0
LINE
  5
3B57
330
A
100
AcDbEntity
  8
0
  6
Continuous
 62
     7
370
     0
100
AcDbLine
 10
1277.788934754731
 20
-114.581607739829
 30
0.0
 11
1278.877258692371
 21
-113.2341838990278
 31
0.0
  0
LINE
  5
3B58
330
A
100
AcDbEntity
  8
0
  6
Continuous
 62
     7
370
     0
100
AcDbLine
 10
1289.499999999313
 20
-151.8504119967699
 30
0.0
 11
1288.011022264587
 21
-151.8504119967681
 31
0.0
  0
LINE
  5
3B59
330
A
100
AcDbEntity
  8
0
  6
Continuous
 62
     7
370
     0
100
AcDbLine
 10
1270.988977734039
 20
-151.850411996751
 30
0.0
 11
1269.499999999314
 21
-151.8504119967501
 31
0.0
  0
LINE
  5
3B5A
330
A
100
AcDbEntity
  8
0
  6
Continuous
 62
     7
370
     0
100
AcDbLine
 10
1288.011022264588
 20
-151.8504119968299
 30
0.0
 11
1288.011022264573
 21
-166.8504119968299
 31
0.0
  0
LINE
  5
3B5B
330
A
100
AcDbEntity
  8
0
  6
Continuous
 62
     9
370
     0
100
AcDbLine
 10
1270.988977734024
 20
-166.850411996751
 30
0.0
 11
1288.011022264572
 21
-166.8504119967681
 31
0.0
  0
LINE
  5
3B5C
330
A
100
AcDbEntity
  8
0
  6
Continuous
 62
     7
370
     0
100
AcDbLine
 10
1270.988977734024
 20
-166.8504119968129
 30
0.0
 11
1270.988977734039
 21
-151.8504119968129
 31
0.0
  0
LINE
  5
3B5D
330
A
100
AcDbEntity
  8
0
  6
Continuous
 62
     7
370
     0
100
AcDbLine
 10
1284.130064793658
 20
-169.8504119967638
 30
0.0
 11
1274.869935204932
 21
-169.8504119967549
 31
0.0
  0
ARC
  5
3B5E
330
A
100
AcDbEntity
  8
0
  6
Continuous
 62
     7
370
     0
100
AcDbCircle
 10
1274.399556570513
 20
-166.448613340118
 30
0.0
 40
3.43416513295911
100
AcDbArc
 50
186.7190179153553
 51
277.8725683627513
  0
ARC
  5
3B5F
330
A
100
AcDbEntity
  8
0
  6
Continuous
 62
     7
370
     0
100
AcDbCircle
 10
1284.636565889916
 20
-166.4953432528341
 30
0.0
 40
3.393085562938386
100
AcDbArc
 50
261.4151158089306
 51
353.9932979127363
  0
ARC
  5
3B60
330
A
100
AcDbEntity
  8
0
  6
Continuous
 62
     7
370
     0
100
AcDbCircle
 10
1279.49999999935
 20
-114.850411996925
 30
0.0
 40
14.9999999999999
100
AcDbArc
 50
269.9999999998852
 51
89.99999999988519
  0
CIRCLE
  5
3B61
330
A
100
AcDbEntity
  8
0
  6
Continuous
 62
     9
370
     0
100
AcDbCircle
 10
1279.49999999935
 20
-114.8504119969709
 30
0.0
 40
10.99999999999945
  0
ARC
  5
3B62
330
A
100
AcDbEntity
  8
0
  6
Continuous
 62
     7
370
     0
100
AcDbCircle
 10
1279.49999999935
 20
-114.850411996925
 30
0.0
 40
14.9999999999999
100
AcDbArc
 50
89.99999999988519
 51
269.9999999998852
  0
CIRCLE
  5
3B63
330
A
100
AcDbEntity
  8
0
  6
Continuous
 62
     7
370
     0
100
AcDbCircle
 10
1279.49999999935
 20
-114.8504119969709
 30
0.0
 40
2.499999999999724
  0
LINE
  5
3B64
330
A
100
AcDbEntity
  8
0
  6
Continuous
 62
     7
370
     0
100
AcDbLine
 10
1289.499999999313
 20
-151.8504119899589
 30
0.0
 11
1288.011022264588
 21
-151.8504119899589
 31
0.0
  0
LINE
  5
3B65
330
A
100
AcDbEntity
  8
0
  6
Continuous
 62
     7
370
     0
100
AcDbLine
 10
1270.988977734038
 20
-151.850411989941
 30
0.0
 11
1269.499999999313
 21
-151.8504119899401
 31
0.0
  0
ARC
  5
3B66
330
A
100
AcDbEntity
  8
0
  6
Continuous
 62
     7
370
     0
100
AcDbCircle
 10
1279.49999999935
 20
-114.8504119899498
 30
0.0
 40
15.00000000000012
100
AcDbArc
 50
90.0
 51
180.0
  0
LINE
  5
3B67
330
A
100
AcDbEntity
  8
0
  6
Continuous
 62
     7
370
     0
100
AcDbLine
 10
1289.499999999313
 20
-151.8504119967699
 30
0.0
 11
1289.499999999339
 21
-126.0307518774609
 31
0.0
  0
LINE
  5
3B68
330
A
100
AcDbEntity
  8
0
  6
Continuous
 62
     7
370
     0
100
AcDbLine
 10
1269.499999999339
 20
-126.0307518844149
 30
0.0
 11
1269.499999999313
 21
-151.8504119967501
 31
0.0
  0
LINE
  5
3B69
330
A
100
AcDbEntity
  8
0
  6
Continuous
 62
     9
370
     0
100
AcDbLine
 10
47.99999999935458
 20
-282.499999999945
 30
0.0
 11
47.99999999935458
 21
-267.4999999999752
 31
0.0
  0
LINE
  5
3B6A
330
A
100
AcDbEntity
  8
0
  6
Continuous
 62
     7
370
     0
100
AcDbLine
 10
51.99999999935458
 20
-256.499999999945
 30
0.0
 11
51.99999999935458
 21
-267.499999999967
 31
0.0
  0
LINE
  5
3B6B
330
A
100
AcDbEntity
  8
0
  6
Continuous
 62
     9
370
     0
100
AcDbLine
 10
47.99999999935458
 20
-267.4999999999752
 30
0.0
 11
47.99999999935458
 21
-252.4999999999459
 31
0.0
  0
LINE
  5
3B6C
330
A
100
AcDbEntity
  8
0
  6
Continuous
 62
     7
370
     0
100
AcDbLine
 10
51.99999999935458
 20
-267.499999999967
 30
0.0
 11
51.99999999935458
 21
-278.499999999945
 31
0.0
  0
LINE
  5
3B6D
330
A
100
AcDbEntity
  8
0
  6
Continuous
 62
     9
370
     0
100
AcDbLine
 10
-14.00000000064459
 20
-252.4999999999459
 30
0.0
 11
-14.00000000064459
 21
-282.499999999945
 31
0.0
  0
LINE
  5
3B6E
330
A
100
AcDbEntity
  8
0
  6
Continuous
 62
     7
370
     0
100
AcDbLine
 10
-18.00000000064462
 20
-278.499999999945
 30
0.0
 11
-18.00000000064462
 21
-256.499999999945
 31
0.0
  0
LINE
  5
3B6F
330
A
100
AcDbEntity
  8
0
  6
Continuous
 62
     9
370
     0
100
AcDbLine
 10
1177.999999999355
 20
-282.499999999945
 30
0.0
 11
1177.999999999355
 21
-252.499999999945
 31
0.0
  0
LINE
  5
3B70
330
A
100
AcDbEntity
  8
0
  6
Continuous
 62
     7
370
     0
100
AcDbLine
 10
1181.999999999355
 20
-256.499999999945
 30
0.0
 11
1181.999999999355
 21
-278.499999999945
 31
0.0
  0
LINE
  5
3B71
330
A
100
AcDbEntity
  8
0
  6
Continuous
 62
     9
370
     0
100
AcDbLine
 10
1115.999999999355
 20
-252.499999999945
 30
0.0
 11
1115.999999999355
 21
-267.499999999945
 31
0.0
  0
LINE
  5
3B72
330
A
100
AcDbEntity
  8
0
  6
Continuous
 62
     9
370
     0
100
AcDbLine
 10
1115.999999999355
 20
-267.499999999945
 30
0.0
 11
1115.999999999355
 21
-282.499999999945
 31
0.0
  0
LINE
  5
3B73
330
A
100
AcDbEntity
  8
0
  6
Continuous
 62
     7
370
     0
100
AcDbLine
 10
1111.999999999355
 20
-278.499999999945
 30
0.0
 11
1111.999999999355
 21
-267.499999999945
 31
0.0
  0
LINE
  5
3B74
330
A
100
AcDbEntity
  8
0
  6
Continuous
 62
     7
370
     0
100
AcDbLine
 10
1111.999999999355
 20
-267.499999999945
 30
0.0
 11
1111.999999999355
 21
-256.499999999945
 31
0.0
  0
ARC
  5
3B75
330
A
100
AcDbEntity
  8
0
  6
Continuous
 62
     7
370
     0
100
AcDbCircle
 10
47.99999999935458
 20
-278.499999999945
 30
0.0
 40
4.000000000000002
100
AcDbArc
 50
270.0
 51
0.0
  0
ARC
  5
3B76
330
A
100
AcDbEntity
  8
0
  6
Continuous
 62
     7
370
     0
100
AcDbCircle
 10
47.99999999935458
 20
-256.499999999945
 30
0.0
 40
4.000000000000002
100
AcDbArc
 50
0.0
 51
89.9999999999992
  0
LINE
  5
3B77
330
A
100
AcDbEntity
  8
0
  6
Continuous
 62
     7
370
     0
100
AcDbLine
 10
-14.00000000064459
 20
-282.499999999945
 30
0.0
 11
47.99999999935458
 21
-282.499999999945
 31
0.0
  0
LINE
  5
3B78
330
A
100
AcDbEntity
  8
0
  6
Continuous
 62
     7
370
     0
100
AcDbLine
 10
47.99999999935458
 20
-252.4999999999459
 30
0.0
 11
-14.00000000064459
 21
-252.4999999999459
 31
0.0
  0
ARC
  5
3B79
330
A
100
AcDbEntity
  8
0
  6
Continuous
 62
     7
370
     0
100
AcDbCircle
 10
-14.00000000064459
 20
-256.499999999945
 30
0.0
 40
4.000000000000002
100
AcDbArc
 50
90.0
 51
180.0
  0
ARC
  5
3B7A
330
A
100
AcDbEntity
  8
0
  6
Continuous
 62
     7
370
     0
100
AcDbCircle
 10
-14.00000000064459
 20
-278.499999999945
 30
0.0
 40
4.000000000000002
100
AcDbArc
 50
180.0
 51
269.9999999999992
  0
LINE
  5
3B7B
330
A
100
AcDbEntity
  8
0
  6
Continuous
 62
     7
370
     0
100
AcDbLine
 10
1111.999999999355
 20
-257.499999999945
 30
0.0
 11
51.99999999930087
 21
-257.499999999945
 31
0.0
  0
LINE
  5
3B7C
330
A
100
AcDbEntity
  8
0
  6
Continuous
 62
     7
370
     0
100
AcDbLine
 10
51.99999999930087
 20
-277.499999999945
 30
0.0
 11
1111.999999999355
 21
-277.499999999945
 31
0.0
  0
ARC
  5
3B7D
330
A
100
AcDbEntity
  8
0
  6
Continuous
 62
     7
370
     0
100
AcDbCircle
 10
1177.999999999355
 20
-278.499999999945
 30
0.0
 40
4.000000000000002
100
AcDbArc
 50
270.0
 51
0.0
  0
ARC
  5
3B7E
330
A
100
AcDbEntity
  8
0
  6
Continuous
 62
     7
370
     0
100
AcDbCircle
 10
1177.999999999355
 20
-256.499999999945
 30
0.0
 40
4.000000000000002
100
AcDbArc
 50
0.0
 51
90.0
  0
LINE
  5
3B7F
330
A
100
AcDbEntity
  8
0
  6
Continuous
 62
     7
370
     0
100
AcDbLine
 10
1177.999999999355
 20
-252.499999999945
 30
0.0
 11
1115.999999999355
 21
-252.499999999945
 31
0.0
  0
LINE
  5
3B80
330
A
100
AcDbEntity
  8
0
  6
Continuous
 62
     7
370
     0
100
AcDbLine
 10
1115.999999999355
 20
-282.499999999945
 30
0.0
 11
1177.999999999355
 21
-282.499999999945
 31
0.0
  0
ARC
  5
3B81
330
A
100
AcDbEntity
  8
0
  6
Continuous
 62
     7
370
     0
100
AcDbCircle
 10
1115.999999999355
 20
-256.499999999945
 30
0.0
 40
4.000000000000002
100
AcDbArc
 50
90.0
 51
180.0
  0
ARC
  5
3B82
330
A
100
AcDbEntity
  8
0
  6
Continuous
 62
     7
370
     0
100
AcDbCircle
 10
1115.999999999355
 20
-278.499999999945
 30
0.0
 40
4.000000000000002
100
AcDbArc
 50
180.0
 51
270.0
  0
ARC
  5
3B83
330
A
100
AcDbEntity
  8
0
  6
Continuous
 62
     9
370
     0
100
AcDbCircle
 10
39.99999999952986
 20
0.0000000000247837
 30
0.0
 40
3.000000000000613
100
AcDbArc
 50
90.00000000005863
 51
0.0
  0
ARC
  5
3B84
330
A
100
AcDbEntity
  8
0
  6
Continuous
 62
     9
370
     0
100
AcDbCircle
 10
1123.99993138502
 20
-0.0000883384279859
 30
0.0
 40
2.999931386965876
100
AcDbArc
 50
284.3272282305481
 51
179.9983128206594
  0
LINE
  5
3B85
330
A
100
AcDbEntity
  8
0
  6
Continuous
 62
     9
370
     0
100
AcDbLine
 10
1124.742292854093
 20
-2.906716587059008
 30
0.0
 11
1123.999999999355
 21
-2.999999999944975
 31
0.0
  0
CIRCLE
  5
3B86
330
A
100
AcDbEntity
  8
0
  6
Continuous
 62
     7
370
     0
100
AcDbCircle
 10
39.99999999950548
 20
0.0000000000247837
 30
0.0
 40
2.000000000001334
  0
LINE
  5
3B87
330
A
100
AcDbEntity
  8
0
  6
Continuous
 62
     7
370
     0
100
AcDbLine
 10
41.63461732255806
 20
0.5727357219568603
 30
0.0
 11
41.31331234587976
 21
-1.129252266238836
 31
0.0
  0
LINE
  5
3B88
330
A
100
AcDbEntity
  8
0
  6
Continuous
 62
     7
370
     0
100
AcDbLine
 10
40.32130497618386
 20
1.701987988220025
 30
0.0
 11
41.63461732255806
 21
0.5727357219568603
 31
0.0
  0
LINE
  5
3B89
330
A
100
AcDbEntity
  8
0
  6
Continuous
 62
     7
370
     0
100
AcDbLine
 10
38.68668765313127
 20
1.129252266289086
 30
0.0
 11
40.32130497618386
 21
1.701987988220025
 31
0.0
  0
LINE
  5
3B8A
330
A
100
AcDbEntity
  8
0
  6
Continuous
 62
     7
370
     0
100
AcDbLine
 10
38.36538267645297
 20
-0.5727357219068381
 30
0.0
 11
38.68668765313127
 21
1.129252266289086
 31
0.0
  0
LINE
  5
3B8B
330
A
100
AcDbEntity
  8
0
  6
Continuous
 62
     7
370
     0
100
AcDbLine
 10
39.67869502282697
 20
-1.701987988170003
 30
0.0
 11
38.36538267645297
 21
-0.5727357219068381
 31
0.0
  0
LINE
  5
3B8C
330
A
100
AcDbEntity
  8
0
  6
Continuous
 62
     7
370
     0
100
AcDbLine
 10
41.31331234587976
 20
-1.129252266238836
 30
0.0
 11
39.67869502282697
 21
-1.701987988170003
 31
0.0
  0
LINE
  5
3B8D
330
A
100
AcDbEntity
  8
0
  6
Continuous
 62
     7
370
     0
100
AcDbLine
 10
3.749999999877971
 20
4.000000000014097
 30
0.0
 11
3.749999999885062
 21
-3.06417777246088
 31
0.0
  0
LINE
  5
3B8E
330
A
100
AcDbEntity
  8
0
  6
Continuous
 62
     7
370
     0
100
AcDbLine
 10
2.749999999884764
 20
-2.999999999987039
 30
0.0
 11
2.749999999884053
 21
-2.298133329342817
 31
0.0
  0
LINE
  5
3B8F
330
A
100
AcDbEntity
  8
0
  6
Continuous
 62
     7
370
     0
100
AcDbLine
 10
3.749999999884863
 20
-3.06417777246088
 30
0.0
 11
3.749999999885773
 21
-3.999999999985902
 31
0.0
  0
LINE
  5
3B90
330
A
100
AcDbEntity
  8
0
  6
Continuous
 62
     7
370
     0
100
AcDbLine
 10
2.749999999884053
 20
-2.298133329342817
 30
0.0
 11
2.749999999878966
 21
3.00000000001296
 31
0.0
  0
LINE
  5
3B91
330
A
100
AcDbEntity
  8
0
  6
Continuous
 62
     7
370
     0
100
AcDbLine
 10
10.74999999987785
 20
4.000000000021145
 30
0.0
 11
10.74999999988498
 21
-3.064177772453831
 31
0.0
  0
LINE
  5
3B92
330
A
100
AcDbEntity
  8
0
  6
Continuous
 62
     7
370
     0
100
AcDbLine
 10
10.74999999988476
 20
-3.064177772453831
 30
0.0
 11
10.74999999988567
 21
-3.999999999978854
 31
0.0
  0
ARC
  5
3B93
330
A
100
AcDbEntity
  8
0
  6
Continuous
 62
     7
370
     0
100
AcDbCircle
 10
-0.0000000000350866
 20
0.0000000000031832
 30
0.0
 40
10.00000000000001
100
AcDbArc
 50
121.6682432535415
 51
180.0
  0
ARC
  5
3B94
330
A
100
AcDbEntity
  8
0
  6
Continuous
 62
     9
370
     0
100
AcDbCircle
 10
0.0
 20
0.0
 30
0.0
 40
7.000000000000018
100
AcDbArc
 50
138.5903778907297
 51
221.4096221092702
  0
LINE
  5
3B95
330
A
100
AcDbEntity
  8
0
  6
Continuous
 62
     7
370
     0
100
AcDbLine
 10
-5.249999999999786
 20
-4.630064794363079
 30
0.0
 11
-5.250000000035058
 21
-8.511022265272231
 31
0.0
  0
ARC
  5
3B96
330
A
100
AcDbEntity
  8
0
  6
Continuous
 62
     7
370
     0
100
AcDbCircle
 10
-0.0000000000350866
 20
0.0000000000031832
 30
0.0
 40
10.00000000000008
100
AcDbArc
 50
180.0
 51
238.3317567464585
  0
LINE
  5
3B97
330
A
100
AcDbEntity
  8
0
  6
Continuous
 62
     7
370
     0
100
AcDbLine
 10
-5.250000000035058
 20
8.511022265276778
 30
0.0
 11
-5.249999999999786
 21
4.630064794362851
 31
0.0
  0
ARC
  5
3B98
330
A
100
AcDbEntity
  8
0
  6
Continuous
 62
     9
370
     0
100
AcDbCircle
 10
0.0
 20
0.0
 30
0.0
 40
6.999999999999861
100
AcDbArc
 50
318.5903778907302
 51
41.40962210926974
  0
LINE
  5
3B99
330
A
100
AcDbEntity
  8
0
  6
Continuous
 62
     7
370
     0
100
AcDbLine
 10
5.249999999999971
 20
4.630064794362851
 30
0.0
 11
5.249999999964856
 21
8.511022265276778
 31
0.0
  0
ARC
  5
3B9A
330
A
100
AcDbEntity
  8
0
  6
Continuous
 62
     7
370
     0
100
AcDbCircle
 10
-0.0000000000350866
 20
0.0000000000031832
 30
0.0
 40
9.999999999999843
100
AcDbArc
 50
301.6682432535415
 51
58.33175674645847
  0
LINE
  5
3B9B
330
A
100
AcDbEntity
  8
0
  6
Continuous
 62
     7
370
     0
100
AcDbLine
 10
5.249999999964856
 20
-8.511022265272231
 30
0.0
 11
5.249999999999971
 21
-4.630064794363079
 31
0.0
  0
LINE
  5
3B9C
330
A
100
AcDbEntity
  8
0
  6
Continuous
 62
     7
370
     0
100
AcDbLine
 10
-5.249999999999786
 20
4.630064794362851
 30
0.0
 11
-5.249999999999786
 21
-4.630064794363079
 31
0.0
  0
LINE
  5
3B9D
330
A
100
AcDbEntity
  8
0
  6
Continuous
 62
     7
370
     0
100
AcDbLine
 10
5.249999999999971
 20
-4.630064794363079
 30
0.0
 11
5.249999999999971
 21
4.630064794362851
 31
0.0
  0
ARC
  5
3B9E
330
A
100
AcDbEntity
  8
0
  6
Continuous
 62
     7
370
     0
100
AcDbCircle
 10
-0.0000000002109459
 20
0.0000000000181899
 30
0.0
 40
9.999999999999843
100
AcDbArc
 50
238.3317567464585
 51
301.6682432535415
  0
ARC
  5
3B9F
330
A
100
AcDbEntity
  8
0
  6
Continuous
 62
     7
370
     0
100
AcDbCircle
 10
-0.0000000002109459
 20
0.0000000000181899
 30
0.0
 40
10.00000000000009
100
AcDbArc
 50
58.33175674645847
 51
121.6682432535415
  0
LINE
  5
3BA0
330
A
100
AcDbEntity
  8
0
  6
Continuous
 62
     9
370
     0
100
AcDbLine
 10
-14.00000000064459
 20
15.00000000005502
 30
0.0
 11
-14.00000000064459
 21
0.0000000000247837
 31
0.0
  0
LINE
  5
3BA1
330
A
100
AcDbEntity
  8
0
  6
Continuous
 62
     7
370
     0
100
AcDbLine
 10
-18.00000000064462
 20
-10.99999999994497
 30
0.0
 11
-18.00000000064462
 21
0.0000000000329692
 31
0.0
  0
LINE
  5
3BA2
330
A
100
AcDbEntity
  8
0
  6
Continuous
 62
     7
370
     0
100
AcDbLine
 10
-18.00000000064462
 20
0.0000000000329692
 30
0.0
 11
-18.00000000064462
 21
11.00000000005502
 31
0.0
  0
LINE
  5
3BA3
330
A
100
AcDbEntity
  8
0
  6
Continuous
 62
     9
370
     0
100
AcDbLine
 10
-14.00000000064459
 20
0.0000000000247837
 30
0.0
 11
-14.00000000064459
 21
-14.99999999994406
 31
0.0
  0
LINE
  5
3BA4
330
A
100
AcDbEntity
  8
0
  6
Continuous
 62
     9
370
     0
100
AcDbLine
 10
47.99999999935458
 20
-14.99999999994497
 30
0.0
 11
47.99999999935458
 21
15.00000000005502
 31
0.0
  0
ARC
  5
3BA5
330
A
100
AcDbEntity
  8
0
  6
Continuous
 62
     7
370
     0
100
AcDbCircle
 10
-0.0000251596650145
 20
-0.0000379921598324
 30
0.0
 40
10.25003799223457
100
AcDbArc
 50
22.9735141057141
 51
89.99985936510363
  0
ARC
  5
3BA6
330
A
100
AcDbEntity
  8
0
  6
Continuous
 62
     7
370
     0
100
AcDbCircle
 10
-0.0000000004784226
 20
0.0000000000409273
 30
0.0
 40
10.25000000000287
100
AcDbArc
 50
90.0000000002125
 51
337.0222825972791
  0
ARC
  5
3BA7
330
A
100
AcDbEntity
  8
0
  6
Continuous
 62
     7
370
     0
100
AcDbCircle
 10
39.99995433984107
 20
-0.0001228754370004
 30
0.0
 40
2.500122875879135
100
AcDbArc
 50
49.23159770583981
 51
89.99895360848382
  0
ARC
  5
3BA8
330
A
100
AcDbEntity
  8
0
  6
Continuous
 62
     7
370
     0
100
AcDbCircle
 10
39.99999437472836
 20
0.0000020999618755
 30
0.0
 40
2.500002082723169
100
AcDbArc
 50
269.8248285126191
 51
49.23042225684938
  0
ARC
  5
3BA9
330
A
100
AcDbEntity
  8
0
  6
Continuous
 62
     7
370
     0
100
AcDbCircle
 10
40.00000647074076
 20
0.0000029804941732
 30
0.0
 40
2.500003000262288
100
AcDbArc
 50
139.6345467665598
 51
269.8245513557595
  0
ARC
  5
3BAA
330
A
100
AcDbEntity
  8
0
  6
Continuous
 62
     7
370
     0
100
AcDbCircle
 10
39.99999999952768
 20
0.0000000000300133
 30
0.0
 40
2.499999999995048
100
AcDbArc
 50
89.99999999998697
 51
139.634398667245
  0
LINE
  5
3BAB
330
A
100
AcDbEntity
  8
0
  6
Continuous
 62
     7
370
     0
100
AcDbLine
 10
51.99999999935458
 20
11.00000000005502
 30
0.0
 11
51.99999999935458
 21
-10.99999999994497
 31
0.0
  0
LINE
  5
3BAC
330
A
100
AcDbEntity
  8
0
  6
Continuous
 62
     7
370
     0
100
AcDbLine
 10
1153.24999999936
 20
-4.000000000001136
 30
0.0
 11
1153.249999999352
 21
3.999999999998863
 31
0.0
  0
LINE
  5
3BAD
330
A
100
AcDbEntity
  8
0
  6
Continuous
 62
     7
370
     0
100
AcDbLine
 10
1160.24999999936
 20
-3.999999999994088
 30
0.0
 11
1160.249999999352
 21
4.000000000005911
 31
0.0
  0
LINE
  5
3BAE
330
A
100
AcDbEntity
  8
0
  6
Continuous
 62
     7
370
     0
100
AcDbLine
 10
1161.249999999353
 20
3.000000000007048
 30
0.0
 11
1161.249999999359
 21
-2.999999999992951
 31
0.0
  0
CIRCLE
  5
3BAF
330
A
100
AcDbEntity
  8
0
  6
Continuous
 62
     7
370
     0
100
AcDbCircle
 10
1123.999999999355
 20
-0.0000000004711183
 30
0.0
 40
2.0
  0
LINE
  5
3BB0
330
A
100
AcDbEntity
  8
0
  6
Continuous
 62
     7
370
     0
100
AcDbLine
 10
1123.13397459557
 20
-1.500000000471118
 30
0.0
 11
1122.267949191786
 21
-0.0000000004711183
 31
0.0
  0
LINE
  5
3BB1
330
A
100
AcDbEntity
  8
0
  6
Continuous
 62
     7
370
     0
100
AcDbLine
 10
1124.866025403139
 20
-1.500000000471118
 30
0.0
 11
1123.13397459557
 21
-1.500000000471118
 31
0.0
  0
LINE
  5
3BB2
330
A
100
AcDbEntity
  8
0
  6
Continuous
 62
     7
370
     0
100
AcDbLine
 10
1125.732050806924
 20
-0.0000000004711183
 30
0.0
 11
1124.86602540314
 21
-1.500000000471118
 31
0.0
  0
LINE
  5
3BB3
330
A
100
AcDbEntity
  8
0
  6
Continuous
 62
     7
370
     0
100
AcDbLine
 10
1124.866025403139
 20
1.499999999528881
 30
0.0
 11
1125.732050806924
 21
-0.0000000004711183
 31
0.0
  0
LINE
  5
3BB4
330
A
100
AcDbEntity
  8
0
  6
Continuous
 62
     7
370
     0
100
AcDbLine
 10
1123.13397459557
 20
1.499999999528881
 30
0.0
 11
1124.866025403139
 21
1.499999999528881
 31
0.0
  0
LINE
  5
3BB5
330
A
100
AcDbEntity
  8
0
  6
Continuous
 62
     7
370
     0
100
AcDbLine
 10
1122.267949191786
 20
-0.0000000004711183
 30
0.0
 11
1123.133974595571
 21
1.499999999528881
 31
0.0
  0
ARC
  5
3BB6
330
A
100
AcDbEntity
  8
0
  6
Continuous
 62
     9
370
     0
100
AcDbCircle
 10
1163.999999999355
 20
0.0
 30
0.0
 40
6.999999999999892
100
AcDbArc
 50
138.5903778907308
 51
221.4096221092702
  0
LINE
  5
3BB7
330
A
100
AcDbEntity
  8
0
  6
Continuous
 62
     7
370
     0
100
AcDbLine
 10
1158.749999999355
 20
-4.630064794363079
 30
0.0
 11
1158.749999999355
 21
-8.511022265272231
 31
0.0
  0
ARC
  5
3BB8
330
A
100
AcDbEntity
  8
0
  6
Continuous
 62
     7
370
     0
100
AcDbCircle
 10
1163.999999999355
 20
0.0000000000031832
 30
0.0
 40
9.999999999999856
100
AcDbArc
 50
121.6682432535408
 51
238.3317567464585
  0
LINE
  5
3BB9
330
A
100
AcDbEntity
  8
0
  6
Continuous
 62
     7
370
     0
100
AcDbLine
 10
1158.749999999355
 20
8.511022265276778
 30
0.0
 11
1158.749999999355
 21
4.630064794362851
 31
0.0
  0
ARC
  5
3BBA
330
A
100
AcDbEntity
  8
0
  6
Continuous
 62
     9
370
     0
100
AcDbCircle
 10
1163.999999999355
 20
0.0
 30
0.0
 40
7.000000000000039
100
AcDbArc
 50
318.5903778907297
 51
41.40962210926921
  0
LINE
  5
3BBB
330
A
100
AcDbEntity
  8
0
  6
Continuous
 62
     7
370
     0
100
AcDbLine
 10
1169.249999999355
 20
4.630064794362851
 30
0.0
 11
1169.249999999355
 21
8.511022265276778
 31
0.0
  0
ARC
  5
3BBC
330
A
100
AcDbEntity
  8
0
  6
Continuous
 62
     7
370
     0
100
AcDbCircle
 10
1163.999999999355
 20
0.0000000000031832
 30
0.0
 40
10.00000000000004
100
AcDbArc
 50
301.6682432535415
 51
58.33175674645917
  0
LINE
  5
3BBD
330
A
100
AcDbEntity
  8
0
  6
Continuous
 62
     7
370
     0
100
AcDbLine
 10
1169.249999999355
 20
-8.511022265272231
 30
0.0
 11
1169.249999999355
 21
-4.630064794363079
 31
0.0
  0
LINE
  5
3BBE
330
A
100
AcDbEntity
  8
0
  6
Continuous
 62
     7
370
     0
100
AcDbLine
 10
1158.749999999355
 20
4.630064794362851
 30
0.0
 11
1158.749999999355
 21
-4.630064794363079
 31
0.0
  0
LINE
  5
3BBF
330
A
100
AcDbEntity
  8
0
  6
Continuous
 62
     7
370
     0
100
AcDbLine
 10
1169.249999999355
 20
-4.630064794363079
 30
0.0
 11
1169.249999999355
 21
4.630064794362851
 31
0.0
  0
ARC
  5
3BC0
330
A
100
AcDbEntity
  8
0
  6
Continuous
 62
     7
370
     0
100
AcDbCircle
 10
1163.999999999355
 20
0.0000000000181899
 30
0.0
 40
10.00000000000004
100
AcDbArc
 50
58.33175674645917
 51
121.6682432535415
  0
ARC
  5
3BC1
330
A
100
AcDbEntity
  8
0
  6
Continuous
 62
     7
370
     0
100
AcDbCircle
 10
1163.999999999355
 20
0.0000000000181899
 30
0.0
 40
10.00000000000004
100
AcDbArc
 50
238.3317567464592
 51
301.6682432535415
  0
LINE
  5
3BC2
330
A
100
AcDbEntity
  8
0
  6
Continuous
 62
     9
370
     0
100
AcDbLine
 10
1177.999999999355
 20
-14.99999999994497
 30
0.0
 11
1177.999999999355
 21
0.0000000000550244
 31
0.0
  0
LINE
  5
3BC3
330
A
100
AcDbEntity
  8
0
  6
Continuous
 62
     9
370
     0
100
AcDbLine
 10
1115.999999999355
 20
15.00000000005502
 30
0.0
 11
1115.999999999355
 21
-14.99999999994497
 31
0.0
  0
ARC
  5
3BC4
330
A
100
AcDbEntity
  8
0
  6
Continuous
 62
     7
370
     0
100
AcDbCircle
 10
1164.000025158493
 20
0.0000379921750664
 30
0.0
 40
10.25003799216152
100
AcDbArc
 50
202.9735141058556
 51
269.9998593651622
  0
ARC
  5
3BC5
330
A
100
AcDbEntity
  8
0
  6
Continuous
 62
     7
370
     0
100
AcDbCircle
 10
1163.999999999355
 20
0.000000000043201
 30
0.0
 40
10.24999999999899
100
AcDbArc
 50
270.0
 51
157.022282597661
  0
ARC
  5
3BC6
330
A
100
AcDbEntity
  8
0
  6
Continuous
 62
     7
370
     0
100
AcDbCircle
 10
1123.999999999355
 20
0.0000000000550244
 30
0.0
 40
2.499999999999945
100
AcDbArc
 50
0.2676674271929797
 51
270.0
  0
ARC
  5
3BC7
330
A
100
AcDbEntity
  8
0
  6
Continuous
 62
     7
370
     0
100
AcDbCircle
 10
1123.999965415339
 20
0.0000344228808444
 30
0.0
 40
2.500034423065915
100
AcDbArc
 50
270.0007925963461
 51
0.2668748308534409
  0
LINE
  5
3BC8
330
A
100
AcDbEntity
  8
0
  6
Continuous
 62
     9
370
     0
100
AcDbLine
 10
1177.999999999355
 20
0.0000000000550244
 30
0.0
 11
1177.999999999355
 21
15.00000000005502
 31
0.0
  0
LINE
  5
3BC9
330
A
100
AcDbEntity
  8
0
  6
Continuous
 62
     7
370
     0
100
AcDbLine
 10
1111.999999999355
 20
-10.99999999994497
 30
0.0
 11
1111.999999999355
 21
11.00000000005502
 31
0.0
  0
LINE
  5
3BCA
330
A
100
AcDbEntity
  8
0
  6
Continuous
 62
     7
370
     0
100
AcDbLine
 10
1181.999999999355
 20
11.00000000005502
 30
0.0
 11
1181.999999999355
 21
0.0000000000550244
 31
0.0
  0
LINE
  5
3BCB
330
A
100
AcDbEntity
  8
0
  6
Continuous
 62
     7
370
     0
100
AcDbLine
 10
1181.999999999355
 20
0.0000000000550244
 30
0.0
 11
1181.999999999355
 21
-10.99999999994497
 31
0.0
  0
LINE
  5
3BCC
330
A
100
AcDbEntity
  8
0
  6
Continuous
 62
     9
370
     0
100
AcDbLine
 10
10.74999999987857
 20
3.375000000021145
 30
0.0
 11
9.413275281661356
 21
3.375000000019099
 31
0.0
  0
LINE
  5
3BCD
330
A
100
AcDbEntity
  8
0
  6
Continuous
 62
     9
370
     0
100
AcDbLine
 10
5.249979999882853
 20
3.375000000015006
 30
0.0
 11
3.124999999878568
 21
3.37500000001296
 31
0.0
  0
LINE
  5
3BCE
330
A
100
AcDbEntity
  8
0
  6
Continuous
 62
     9
370
     0
100
AcDbLine
 10
3.124999999885261
 20
-3.374999999987039
 30
0.0
 11
5.249979999882853
 21
-3.374999999984993
 31
0.0
  0
LINE
  5
3BCF
330
A
100
AcDbEntity
  8
0
  6
Continuous
 62
     9
370
     0
100
AcDbLine
 10
9.41335409287177
 20
-3.3749999999809
 30
0.0
 11
10.74999999988516
 21
-3.374999999978854
 31
0.0
  0
LINE
  5
3BD0
330
A
100
AcDbEntity
  8
0
  6
Continuous
 62
     9
370
     0
100
AcDbLine
 10
1153.249999999359
 20
-3.375000000001136
 30
0.0
 11
1154.586724717576
 21
-3.375
 31
0.0
  0
LINE
  5
3BD1
330
A
100
AcDbEntity
  8
0
  6
Continuous
 62
     9
370
     0
100
AcDbLine
 10
1158.750019999355
 20
-3.374999999994997
 30
0.0
 11
1160.874999999359
 21
-3.374999999992951
 31
0.0
  0
LINE
  5
3BD2
330
A
100
AcDbEntity
  8
0
  6
Continuous
 62
     9
370
     0
100
AcDbLine
 10
1160.874999999353
 20
3.375000000007048
 30
0.0
 11
1158.750019999355
 21
3.375000000005002
 31
0.0
  0
LINE
  5
3BD3
330
A
100
AcDbEntity
  8
0
  6
Continuous
 62
     9
370
     0
100
AcDbLine
 10
1154.586645906366
 20
3.375000000000909
 30
0.0
 11
1153.249999999353
 21
3.374999999998863
 31
0.0
  0
LINE
  5
3BD4
330
A
100
AcDbEntity
  8
0
  6
Continuous
 62
     9
370
     0
100
AcDbLine
 10
9.16515357642497
 20
-3.999994989980905
 30
0.0
 11
9.165540134899558
 21
-3.999994989980905
 31
0.0
  0
LINE
  5
3BD5
330
A
100
AcDbEntity
  8
0
  6
Continuous
 62
     9
370
     0
100
AcDbLine
 10
1154.834459864329
 20
-3.999994989999095
 30
0.0
 11
1154.834846422903
 21
-3.999994989999095
 31
0.0
  0
LINE
  5
3BD6
330
A
100
AcDbEntity
  8
0
  6
Continuous
 62
     7
370
     0
100
AcDbLine
 10
3.749999999877971
 20
4.000000000014097
 30
0.0
 11
3.124999999878568
 21
3.37500000001296
 31
0.0
  0
LINE
  5
3BD7
330
A
100
AcDbEntity
  8
0
  6
Continuous
 62
     7
370
     0
100
AcDbLine
 10
3.124999999878568
 20
3.37500000001296
 30
0.0
 11
2.749999999878966
 21
3.00000000001296
 31
0.0
  0
LINE
  5
3BD8
330
A
100
AcDbEntity
  8
0
  6
Continuous
 62
     7
370
     0
100
AcDbLine
 10
2.749999999884764
 20
-2.999999999987039
 30
0.0
 11
3.124999999884977
 21
-3.374999999987039
 31
0.0
  0
LINE
  5
3BD9
330
A
100
AcDbEntity
  8
0
  6
Continuous
 62
     7
370
     0
100
AcDbLine
 10
3.124999999884977
 20
-3.374999999987039
 30
0.0
 11
3.749999999885773
 21
-3.999999999985902
 31
0.0
  0
LINE
  5
3BDA
330
A
100
AcDbEntity
  8
0
  6
Continuous
 62
     7
370
     0
100
AcDbLine
 10
10.74999999987785
 20
4.000000000021145
 30
0.0
 11
9.166879478184469
 21
4.000000000019099
 31
0.0
  0
LINE
  5
3BDB
330
A
100
AcDbEntity
  8
0
  6
Continuous
 62
     7
370
     0
100
AcDbLine
 10
9.166879478184469
 20
4.000000000019099
 30
0.0
 11
9.16641857902897
 21
4.000000000019099
 31
0.0
  0
LINE
  5
3BDC
330
A
100
AcDbEntity
  8
0
  6
Continuous
 62
     7
370
     0
100
AcDbLine
 10
9.16641857902897
 20
4.000000000019099
 30
0.0
 11
9.165172938646563
 21
4.000000000019099
 31
0.0
  0
LINE
  5
3BDD
330
A
100
AcDbEntity
  8
0
  6
Continuous
 62
     7
370
     0
100
AcDbLine
 10
5.249980637549867
 20
4.000000000015006
 30
0.0
 11
3.749999999877971
 21
4.000000000014097
 31
0.0
  0
LINE
  5
3BDE
330
A
100
AcDbEntity
  8
0
  6
Continuous
 62
     7
370
     0
100
AcDbLine
 10
3.749999999885773
 20
-3.999999999985902
 30
0.0
 11
5.249980637557854
 21
-3.999999999984993
 31
0.0
  0
LINE
  5
3BDF
330
A
100
AcDbEntity
  8
0
  6
Continuous
 62
     7
370
     0
100
AcDbLine
 10
9.165151389883348
 20
-3.9999999999809
 30
0.0
 11
9.165540134899558
 21
-3.9999999999809
 31
0.0
  0
LINE
  5
3BE0
330
A
100
AcDbEntity
  8
0
  6
Continuous
 62
     7
370
     0
100
AcDbLine
 10
9.16555949723147
 20
-3.9999999999809
 30
0.0
 11
9.166039239788275
 21
-3.9999999999809
 31
0.0
  0
LINE
  5
3BE1
330
A
100
AcDbEntity
  8
0
  6
Continuous
 62
     7
370
     0
100
AcDbLine
 10
9.166039239788275
 20
-3.9999999999809
 30
0.0
 11
9.166178457807674
 21
-3.9999999999809
 31
0.0
  0
LINE
  5
3BE2
330
A
100
AcDbEntity
  8
0
  6
Continuous
 62
     7
370
     0
100
AcDbLine
 10
9.166178457807674
 20
-3.9999999999809
 30
0.0
 11
10.74999999988587
 21
-3.999999999978854
 31
0.0
  0
ARC
  5
3BE3
330
A
100
AcDbEntity
  8
0
  6
Continuous
 62
     7
370
     0
100
AcDbCircle
 10
-14.00000000064459
 20
11.00000000005502
 30
0.0
 40
4.000000000000002
100
AcDbArc
 50
90.0
 51
180.0
  0
ARC
  5
3BE4
330
A
100
AcDbEntity
  8
0
  6
Continuous
 62
     7
370
     0
100
AcDbCircle
 10
-14.00000000064459
 20
-10.99999999994497
 30
0.0
 40
4.000000000000002
100
AcDbArc
 50
180.0
 51
269.9999999999992
  0
LINE
  5
3BE5
330
A
100
AcDbEntity
  8
0
  6
Continuous
 62
     7
370
     0
100
AcDbLine
 10
-14.00000000064459
 20
-14.99999999994497
 30
0.0
 11
47.99999999935458
 21
-14.99999999994497
 31
0.0
  0
LINE
  5
3BE6
330
A
100
AcDbEntity
  8
0
  6
Continuous
 62
     7
370
     0
100
AcDbLine
 10
47.99999999935458
 20
15.00000000005502
 30
0.0
 11
-14.00000000064459
 21
15.00000000005502
 31
0.0
  0
ARC
  5
3BE7
330
A
100
AcDbEntity
  8
0
  6
Continuous
 62
     7
370
     0
100
AcDbCircle
 10
47.99999999935458
 20
-10.99999999994497
 30
0.0
 40
4.000000000000002
100
AcDbArc
 50
270.0
 51
0.0
  0
ARC
  5
3BE8
330
A
100
AcDbEntity
  8
0
  6
Continuous
 62
     7
370
     0
100
AcDbCircle
 10
47.99999999935458
 20
11.00000000005502
 30
0.0
 40
4.000000000000002
100
AcDbArc
 50
0.0
 51
89.9999999999992
  0
LINE
  5
3BE9
330
A
100
AcDbEntity
  8
0
  6
Continuous
 62
     7
370
     0
100
AcDbLine
 10
1153.24999999936
 20
-4.000000000001136
 30
0.0
 11
1154.833821541424
 21
-3.99999999999909
 31
0.0
  0
LINE
  5
3BEA
330
A
100
AcDbEntity
  8
0
  6
Continuous
 62
     7
370
     0
100
AcDbLine
 10
1154.833821541424
 20
-3.99999999999909
 30
0.0
 11
1154.833960759445
 21
-3.99999999999909
 31
0.0
  0
LINE
  5
3BEB
330
A
100
AcDbEntity
  8
0
  6
Continuous
 62
     7
370
     0
100
AcDbLine
 10
1154.833960759445
 20
-3.99999999999909
 30
0.0
 11
1154.834440501997
 21
-3.99999999999909
 31
0.0
  0
LINE
  5
3BEC
330
A
100
AcDbEntity
  8
0
  6
Continuous
 62
     7
370
     0
100
AcDbLine
 10
1154.834459864329
 20
-3.99999999999909
 30
0.0
 11
1154.834848609445
 21
-3.99999999999909
 31
0.0
  0
LINE
  5
3BED
330
A
100
AcDbEntity
  8
0
  6
Continuous
 62
     7
370
     0
100
AcDbLine
 10
1158.750019361688
 20
-3.999999999994997
 30
0.0
 11
1160.24999999936
 21
-3.999999999994088
 31
0.0
  0
LINE
  5
3BEE
330
A
100
AcDbEntity
  8
0
  6
Continuous
 62
     7
370
     0
100
AcDbLine
 10
1160.249999999352
 20
4.000000000005911
 30
0.0
 11
1158.75001936168
 21
4.000000000005002
 31
0.0
  0
LINE
  5
3BEF
330
A
100
AcDbEntity
  8
0
  6
Continuous
 62
     7
370
     0
100
AcDbLine
 10
1154.834827060566
 20
4.000000000000909
 30
0.0
 11
1154.833581420183
 21
4.000000000000909
 31
0.0
  0
LINE
  5
3BF0
330
A
100
AcDbEntity
  8
0
  6
Continuous
 62
     7
370
     0
100
AcDbLine
 10
1154.833581420183
 20
4.000000000000909
 30
0.0
 11
1154.833120521028
 21
4.000000000000909
 31
0.0
  0
LINE
  5
3BF1
330
A
100
AcDbEntity
  8
0
  6
Continuous
 62
     7
370
     0
100
AcDbLine
 10
1154.833120521028
 20
4.000000000000909
 30
0.0
 11
1153.249999999352
 21
3.999999999998863
 31
0.0
  0
LINE
  5
3BF2
330
A
100
AcDbEntity
  8
0
  6
Continuous
 62
     7
370
     0
100
AcDbLine
 10
1160.24999999936
 20
-3.999999999994088
 30
0.0
 11
1160.874999999359
 21
-3.374999999992951
 31
0.0
  0
LINE
  5
3BF3
330
A
100
AcDbEntity
  8
0
  6
Continuous
 62
     7
370
     0
100
AcDbLine
 10
1160.874999999359
 20
-3.374999999992951
 30
0.0
 11
1161.249999999359
 21
-2.999999999992951
 31
0.0
  0
LINE
  5
3BF4
330
A
100
AcDbEntity
  8
0
  6
Continuous
 62
     7
370
     0
100
AcDbLine
 10
1161.249999999353
 20
3.000000000007048
 30
0.0
 11
1160.874999999353
 21
3.375000000007048
 31
0.0
  0
LINE
  5
3BF5
330
A
100
AcDbEntity
  8
0
  6
Continuous
 62
     7
370
     0
100
AcDbLine
 10
1160.874999999353
 20
3.375000000007048
 30
0.0
 11
1160.249999999352
 21
4.000000000005911
 31
0.0
  0
LINE
  5
3BF6
330
A
100
AcDbEntity
  8
0
  6
Continuous
 62
     7
370
     0
100
AcDbLine
 10
1111.999999999355
 20
10.00000000005502
 30
0.0
 11
51.99999999940835
 21
10.00000000005502
 31
0.0
  0
LINE
  5
3BF7
330
A
100
AcDbEntity
  8
0
  6
Continuous
 62
     7
370
     0
100
AcDbLine
 10
51.99999999940827
 20
-9.999999999944975
 30
0.0
 11
1111.999999999355
 21
-9.999999999944975
 31
0.0
  0
LINE
  5
3BF8
330
A
100
AcDbEntity
  8
0
  6
Continuous
 62
     7
370
     0
100
AcDbLine
 10
1177.999999999355
 20
15.00000000005502
 30
0.0
 11
1115.999999999355
 21
15.00000000005502
 31
0.0
  0
LINE
  5
3BF9
330
A
100
AcDbEntity
  8
0
  6
Continuous
 62
     7
370
     0
100
AcDbLine
 10
1115.999999999355
 20
-14.99999999994497
 30
0.0
 11
1177.999999999355
 21
-14.99999999994497
 31
0.0
  0
ARC
  5
3BFA
330
A
100
AcDbEntity
  8
0
  6
Continuous
 62
     7
370
     0
100
AcDbCircle
 10
1115.999999999355
 20
11.00000000005502
 30
0.0
 40
4.000000000000002
100
AcDbArc
 50
90.0
 51
180.0
  0
ARC
  5
3BFB
330
A
100
AcDbEntity
  8
0
  6
Continuous
 62
     7
370
     0
100
AcDbCircle
 10
1115.999999999355
 20
-10.99999999994497
 30
0.0
 40
4.000000000000002
100
AcDbArc
 50
180.0
 51
270.0
  0
ARC
  5
3BFC
330
A
100
AcDbEntity
  8
0
  6
Continuous
 62
     7
370
     0
100
AcDbCircle
 10
1177.999999999355
 20
-10.99999999994497
 30
0.0
 40
4.000000000000002
100
AcDbArc
 50
270.0
 51
0.0
  0
ARC
  5
3BFD
330
A
100
AcDbEntity
  8
0
  6
Continuous
 62
     7
370
     0
100
AcDbCircle
 10
1177.999999999355
 20
11.00000000005502
 30
0.0
 40
4.000000000000002
100
AcDbArc
 50
0.0
 51
90.0
  0
ARC
  5
3BFE
330
A
100
AcDbEntity
  8
0
  6
Continuous
 62
     9
370
     0
100
AcDbCircle
 10
19.99363848140876
 20
-160.023326628105
 30
0.0
 40
10.8298654105036
100
AcDbArc
 50
157.3367025859255
 51
179.0851502570621
  0
ARC
  5
3BFF
330
A
100
AcDbEntity
  8
0
  6
Continuous
 62
     9
370
     0
100
AcDbCircle
 10
19.93510939478068
 20
-159.6897130799059
 30
0.0
 40
10.77115464904085
100
AcDbArc
 50
180.8548490492285
 51
202.7232981104659
  0
ARC
  5
3C00
330
A
100
AcDbEntity
  8
0
  6
Continuous
 62
     9
370
     0
100
AcDbCircle
 10
39.97741280602595
 20
-144.7709420239212
 30
0.0
 40
15.22360730452903
100
AcDbArc
 50
78.54807000596257
 51
89.91499049419902
  0
ARC
  5
3C01
330
A
100
AcDbEntity
  8
0
  6
Continuous
 62
     9
370
     0
100
AcDbCircle
 10
40.02184961565034
 20
-144.7636407446111
 30
0.0
 40
15.21630495626987
100
AcDbArc
 50
90.08227301054049
 51
101.4546664919858
  0
ARC
  5
3C02
330
A
100
AcDbEntity
  8
0
  6
Continuous
 62
     9
370
     0
100
AcDbCircle
 10
1144.00636151775
 20
-159.6774973583779
 30
0.0
 40
10.82986541055881
100
AcDbArc
 50
337.336702585418
 51
359.0851502564367
  0
ARC
  5
3C03
330
A
100
AcDbEntity
  8
0
  6
Continuous
 62
     9
370
     0
100
AcDbCircle
 10
1144.064890604188
 20
-160.0111109065999
 30
0.0
 40
10.77115464928332
100
AcDbArc
 50
0.8548490486943773
 51
22.72329810942261
  0
ARC
  5
3C04
330
A
100
AcDbEntity
  8
0
  6
Continuous
 62
     9
370
     0
100
AcDbCircle
 10
1123.975179419946
 20
-144.7930502944798
 30
0.0
 40
15.24571902958124
100
AcDbArc
 50
78.55634013143272
 51
89.90672036716103
  0
ARC
  5
3C05
330
A
100
AcDbEntity
  8
0
  6
Continuous
 62
     9
370
     0
100
AcDbCircle
 10
1124.024625372061
 20
-144.791117944038
 30
0.0
 40
15.24378636510703
100
AcDbArc
 50
90.09255774811462
 51
101.4443817532101
  0
LINE
  5
3C06
330
A
100
AcDbEntity
  8
0
  6
Continuous
 62
     7
370
     0
100
AcDbLine
 10
37.99999999950485
 20
-129.8504119963149
 30
0.0
 11
41.30394819932668
 21
-129.8504119962758
 31
0.0
  0
LINE
  5
3C07
330
A
100
AcDbEntity
  8
0
  6
Continuous
 62
     7
370
     0
100
AcDbLine
 10
41.30394819932668
 20
-129.8504119962758
 30
0.0
 11
41.99999999950647
 21
-129.8504119962679
 31
0.0
  0
LINE
  5
3C08
330
A
100
AcDbEntity
  8
0
  6
Continuous
 62
     7
370
     0
100
AcDbLine
 10
10.74999999983527
 20
-155.8504119966148
 30
0.0
 11
10.74999999992846
 21
-163.8504119966149
 31
0.0
  0
LINE
  5
3C09
330
A
100
AcDbEntity
  8
0
  6
Continuous
 62
     7
370
     0
100
AcDbLine
 10
3.749999999835367
 20
-155.8504119966969
 30
0.0
 11
3.749999999928675
 21
-163.850411996696
 31
0.0
  0
LINE
  5
3C0A
330
A
100
AcDbEntity
  8
0
  6
Continuous
 62
     7
370
     0
100
AcDbLine
 10
2.749999999916767
 20
-162.8504119967081
 30
0.0
 11
2.749999999846977
 21
-156.8504119967081
 31
0.0
  0
LINE
  5
3C0B
330
A
100
AcDbEntity
  8
0
  6
Continuous
 62
     9
370
     0
100
AcDbLine
 10
-10.00000000003463
 20
-166.850411996877
 30
0.0
 11
-5.250000000034802
 21
-166.8504119968208
 31
0.0
  0
LINE
  5
3C0C
330
A
100
AcDbEntity
  8
0
  6
Continuous
 62
     9
370
     0
100
AcDbLine
 10
5.249999999964686
 20
-166.8504119966978
 30
0.0
 11
9.999999999964259
 21
-166.8504119966421
 31
0.0
  0
LINE
  5
3C0D
330
A
100
AcDbEntity
  8
0
  6
Continuous
 62
     7
370
     0
100
AcDbLine
 10
5.249999999964856
 20
-166.8504119967069
 30
0.0
 11
5.249999999788968
 21
-151.8504119967069
 31
0.0
  0
LINE
  5
3C0E
330
A
100
AcDbEntity
  8
0
  6
Continuous
 62
     7
370
     0
100
AcDbLine
 10
5.249999999788769
 20
-151.8504119966978
 30
0.0
 11
-5.250000000210476
 21
-151.8504119968208
 31
0.0
  0
LINE
  5
3C0F
330
A
100
AcDbEntity
  8
0
  6
Continuous
 62
     7
370
     0
100
AcDbLine
 10
-5.250000000210931
 20
-151.8504119968299
 30
0.0
 11
-5.250000000035058
 21
-166.8504119968299
 31
0.0
  0
LINE
  5
3C10
330
A
100
AcDbEntity
  8
0
  6
Continuous
 62
     7
370
     0
100
AcDbLine
 10
-5.249999999999786
 20
-169.8504119968208
 30
0.0
 11
-6.999999999999687
 21
-169.850411996842
 31
0.0
  0
LINE
  5
3C11
330
A
100
AcDbEntity
  8
0
  6
Continuous
 62
     7
370
     0
100
AcDbLine
 10
-5.250000000035058
 20
-166.8504119968299
 30
0.0
 11
-5.249999999999786
 21
-169.8504119968261
 31
0.0
  0
LINE
  5
3C12
330
A
100
AcDbEntity
  8
0
  6
Continuous
 62
     7
370
     0
100
AcDbLine
 10
6.999999999999673
 20
-169.8504119966769
 30
0.0
 11
5.249999999999772
 21
-169.8504119966978
 31
0.0
  0
LINE
  5
3C13
330
A
100
AcDbEntity
  8
0
  6
Continuous
 62
     7
370
     0
100
AcDbLine
 10
5.249999999999971
 20
-169.8504119967031
 30
0.0
 11
5.249999999964856
 21
-166.8504119967069
 31
0.0
  0
ARC
  5
3C19
330
A
100
AcDbEntity
  8
0
  6
Continuous
 62
     7
370
     0
100
AcDbCircle
 10
40.01504388470316
 20
-144.8198755882768
 30
0.0
 40
15.17927158908664
100
AcDbArc
 50
90.05678475835527
 51
99.53728346962652
  0
LINE
  5
3C1A
330
A
100
AcDbEntity
  8
0
  6
Continuous
 62
     9
370
     0
100
AcDbLine
 10
-14.00000000082045
 20
-99.85041199692501
 30
0.0
 11
-14.00000000046873
 21
-129.8504119969241
 31
0.0
  0
LINE
  5
3C1B
330
A
100
AcDbEntity
  8
0
  6
Continuous
 62
     9
370
     0
100
AcDbLine
 10
47.99999999953034
 20
-129.8504119961972
 30
0.0
 11
47.99999999917868
 21
-99.85041199619809
 31
0.0
  0
ARC
  5
3C21
330
A
100
AcDbEntity
  8
0
  6
Continuous
 62
     7
370
     0
100
AcDbCircle
 10
39.98740694169617
 20
-144.7906713383559
 30
0.0
 40
15.15006511812133
100
AcDbArc
 50
80.45355725634319
 51
89.95237451837189
  0
LINE
  5
3C22
330
A
100
AcDbEntity
  8
0
  6
Continuous
 62
     7
370
     0
100
AcDbLine
 10
-18.00000000051561
 20
-125.8504119969709
 30
0.0
 11
-18.00000000077361
 21
-103.8504119969718
 31
0.0
  0
LINE
  5
3C23
330
A
100
AcDbEntity
  8
0
  6
Continuous
 62
     7
370
     0
100
AcDbLine
 10
51.99999999922558
 20
-103.850411996151
 30
0.0
 11
51.99999999948357
 21
-125.8504119961501
 31
0.0
  0
LINE
  5
3C24
330
A
100
AcDbEntity
  8
0
  6
Continuous
 62
     7
370
     0
100
AcDbLine
 10
1160.249999999612
 20
-163.8504119894899
 30
0.0
 11
1160.249999999356
 21
-159.850411989496
 31
0.0
  0
LINE
  5
3C25
330
A
100
AcDbEntity
  8
0
  6
Continuous
 62
     7
370
     0
100
AcDbLine
 10
1161.249999999164
 20
-156.8504119894257
 30
0.0
 11
1161.249999999356
 21
-159.8504119894298
 31
0.0
  0
LINE
  5
3C26
330
A
100
AcDbEntity
  8
0
  6
Continuous
 62
     7
370
     0
100
AcDbLine
 10
1160.249999999356
 20
-159.850411989496
 30
0.0
 11
1160.2499999991
 21
-155.8504119894899
 31
0.0
  0
LINE
  5
3C27
330
A
100
AcDbEntity
  8
0
  6
Continuous
 62
     7
370
     0
100
AcDbLine
 10
1161.249999999356
 20
-159.8504119894298
 30
0.0
 11
1161.249999999548
 21
-162.8504119894257
 31
0.0
  0
LINE
  5
3C28
330
A
100
AcDbEntity
  8
0
  6
Continuous
 62
     7
370
     0
100
AcDbLine
 10
1153.249999999612
 20
-163.8504119899389
 30
0.0
 11
1153.249999999356
 21
-159.8504119899439
 31
0.0
  0
LINE
  5
3C29
330
A
100
AcDbEntity
  8
0
  6
Continuous
 62
     7
370
     0
100
AcDbLine
 10
1153.249999999356
 20
-159.8504119899439
 30
0.0
 11
1153.2499999991
 21
-155.8504119899389
 31
0.0
  0
LINE
  5
3C2A
330
A
100
AcDbEntity
  8
0
  6
Continuous
 62
     7
370
     0
100
AcDbLine
 10
1121.999999999355
 20
-129.8504119899498
 30
0.0
 11
1125.999999999355
 21
-129.8504119899498
 31
0.0
  0
LINE
  5
3C2B
330
A
100
AcDbEntity
  8
0
  6
Continuous
 62
     9
370
     0
100
AcDbLine
 10
1153.999999999355
 20
-166.8504119899498
 30
0.0
 11
1158.749999999355
 21
-166.8504119899498
 31
0.0
  0
LINE
  5
3C2C
330
A
100
AcDbEntity
  8
0
  6
Continuous
 62
     7
370
     0
100
AcDbLine
 10
1169.249999999355
 20
-151.8504119899498
 30
0.0
 11
1158.749999999355
 21
-151.8504119899498
 31
0.0
  0
LINE
  5
3C2D
330
A
100
AcDbEntity
  8
0
  6
Continuous
 62
     7
370
     0
100
AcDbLine
 10
1158.749999999355
 20
-151.8504119899589
 30
0.0
 11
1158.749999999355
 21
-166.850411989958
 31
0.0
  0
LINE
  5
3C2E
330
A
100
AcDbEntity
  8
0
  6
Continuous
 62
     9
370
     0
100
AcDbLine
 10
1169.249999999355
 20
-166.8504119899498
 30
0.0
 11
1173.999999999355
 21
-166.8504119899498
 31
0.0
  0
LINE
  5
3C2F
330
A
100
AcDbEntity
  8
0
  6
Continuous
 62
     7
370
     0
100
AcDbLine
 10
1169.249999999355
 20
-166.850411989958
 30
0.0
 11
1169.249999999355
 21
-151.8504119899589
 31
0.0
  0
LINE
  5
3C30
330
A
100
AcDbEntity
  8
0
  6
Continuous
 62
     7
370
     0
100
AcDbLine
 10
1158.749999999355
 20
-169.8504119899498
 30
0.0
 11
1156.999999999355
 21
-169.8504119899498
 31
0.0
  0
LINE
  5
3C31
330
A
100
AcDbEntity
  8
0
  6
Continuous
 62
     7
370
     0
100
AcDbLine
 10
1158.749999999355
 20
-166.850411989958
 30
0.0
 11
1158.749999999355
 21
-169.8504119899537
 31
0.0
  0
LINE
  5
3C32
330
A
100
AcDbEntity
  8
0
  6
Continuous
 62
     7
370
     0
100
AcDbLine
 10
1170.999999999355
 20
-169.8504119899498
 30
0.0
 11
1169.249999999355
 21
-169.8504119899498
 31
0.0
  0
LINE
  5
3C33
330
A
100
AcDbEntity
  8
0
  6
Continuous
 62
     7
370
     0
100
AcDbLine
 10
1169.249999999355
 20
-169.8504119899537
 30
0.0
 11
1169.249999999355
 21
-166.850411989958
 31
0.0
  0
LINE
  5
3C34
330
A
100
AcDbEntity
  8
0
  6
Continuous
 62
     7
370
     0
100
AcDbLine
 10
1111.999999999355
 20
-125.8504119899498
 30
0.0
 11
1111.999999999355
 21
-103.8504119899498
 31
0.0
  0
LINE
  5
3C35
330
A
100
AcDbEntity
  8
0
  6
Continuous
 62
     9
370
     0
100
AcDbLine
 10
1115.999999999355
 20
-99.85041198994986
 30
0.0
 11
1115.999999999355
 21
-129.8504119899498
 31
0.0
  0
LINE
  5
3C3C
330
A
100
AcDbEntity
  8
0
  6
Continuous
 62
     7
370
     0
100
AcDbLine
 10
1126.499999999355
 20
-129.8504119899498
 30
0.0
 11
1126.498439271462
 21
-129.8501519475758
 31
0.0
  0
LINE
  5
3C3D
330
A
100
AcDbEntity
  8
0
  6
Continuous
 62
     7
370
     0
100
AcDbLine
 10
1121.499999999355
 20
-129.8504119899498
 30
0.0
 11
1123.951159346413
 21
-129.640692089034
 31
0.0
  0
ARC
  5
3C3E
330
A
100
AcDbEntity
  8
0
  6
Continuous
 62
     7
370
     0
100
AcDbCircle
 10
1123.986704467958
 20
-144.8022799535149
 30
0.0
 40
15.16162953076038
100
AcDbArc
 50
80.45821490957344
 51
90.13432509403358
  0
LINE
  5
3C3F
330
A
100
AcDbEntity
  8
0
  6
Continuous
 62
     9
370
     0
100
AcDbLine
 10
1177.999999999355
 20
-129.8504119899498
 30
0.0
 11
1177.999999999355
 21
-99.85041198994986
 31
0.0
  0
LINE
  5
3C40
330
A
100
AcDbEntity
  8
0
  6
Continuous
 62
     7
370
     0
100
AcDbLine
 10
1181.999999999355
 20
-103.8504119899498
 30
0.0
 11
1181.999999999355
 21
-125.8504119899498
 31
0.0
  0
LINE
  5
3C41
330
A
100
AcDbEntity
  8
0
  6
Continuous
 62
     9
370
     0
100
AcDbLine
 10
10.74999999984257
 20
-156.4754119966148
 30
0.0
 11
10.00001999984306
 21
-156.4754119966228
 31
0.0
  0
LINE
  5
3C42
330
A
100
AcDbEntity
  8
0
  6
Continuous
 62
     9
370
     0
100
AcDbLine
 10
5.249979999843262
 20
-156.475411996679
 30
0.0
 11
3.124999999842572
 21
-156.475411996704
 31
0.0
  0
LINE
  5
3C43
330
A
100
AcDbEntity
  8
0
  6
Continuous
 62
     9
370
     0
100
AcDbLine
 10
3.124999999921172
 20
-163.225411996704
 30
0.0
 11
5.249979999922359
 21
-163.225411996679
 31
0.0
  0
LINE
  5
3C44
330
A
100
AcDbEntity
  8
0
  6
Continuous
 62
     9
370
     0
100
AcDbLine
 10
10.00001999992216
 20
-163.2254119966239
 30
0.0
 11
10.74999999992117
 21
-163.2254119966148
 31
0.0
  0
LINE
  5
3C45
330
A
100
AcDbEntity
  8
0
  6
Continuous
 62
     9
370
     0
100
AcDbLine
 10
1153.249999999572
 20
-163.225411989938
 30
0.0
 11
1153.999999999355
 21
-163.22541198989
 31
0.0
  0
LINE
  5
3C46
330
A
100
AcDbEntity
  8
0
  6
Continuous
 62
     9
370
     0
100
AcDbLine
 10
1158.749999999355
 20
-163.225411989586
 30
0.0
 11
1160.874999999572
 21
-163.2254119894498
 31
0.0
  0
LINE
  5
3C47
330
A
100
AcDbEntity
  8
0
  6
Continuous
 62
     9
370
     0
100
AcDbLine
 10
1160.874999999139
 20
-156.4754119894498
 30
0.0
 11
1158.749999999355
 21
-156.475411989586
 31
0.0
  0
LINE
  5
3C48
330
A
100
AcDbEntity
  8
0
  6
Continuous
 62
     9
370
     0
100
AcDbLine
 10
1153.999999999355
 20
-156.47541198989
 30
0.0
 11
1153.24999999914
 21
-156.475411989938
 31
0.0
  0
LINE
  5
3C49
330
A
100
AcDbEntity
  8
0
  6
Continuous
 62
     7
370
     0
100
AcDbLine
 10
37.88215657190626
 20
-129.7914902825171
 30
0.0
 11
37.99999999950525
 21
-129.8504119963149
 31
0.0
  0
LINE
  5
3C4A
330
A
100
AcDbEntity
  8
0
  6
Continuous
 62
     7
370
     0
100
AcDbLine
 10
41.99999999950576
 20
-129.8504119962679
 30
0.0
 11
42.11785530451694
 21
-129.7914843437609
 31
0.0
  0
LINE
  5
3C4B
330
A
100
AcDbEntity
  8
0
  6
Continuous
 62
     7
370
     0
100
AcDbLine
 10
10.74999999983527
 20
-155.8504119966148
 30
0.0
 11
10.00001936225666
 21
-155.8504119966239
 31
0.0
  0
LINE
  5
3C4C
330
A
100
AcDbEntity
  8
0
  6
Continuous
 62
     7
370
     0
100
AcDbLine
 10
5.24998063751147
 20
-155.850411996679
 30
0.0
 11
3.749999999835367
 21
-155.8504119966969
 31
0.0
  0
LINE
  5
3C4D
330
A
100
AcDbEntity
  8
0
  6
Continuous
 62
     7
370
     0
100
AcDbLine
 10
3.749999999928363
 20
-163.850411996696
 30
0.0
 11
5.249980637501849
 21
-163.850411996679
 31
0.0
  0
LINE
  5
3C4E
330
A
100
AcDbEntity
  8
0
  6
Continuous
 62
     7
370
     0
100
AcDbLine
 10
10.00001936226668
 20
-163.8504119966239
 30
0.0
 11
10.74999999992846
 21
-163.8504119966149
 31
0.0
  0
LINE
  5
3C4F
330
A
100
AcDbEntity
  8
0
  6
Continuous
 62
     7
370
     0
100
AcDbLine
 10
3.749999999835367
 20
-155.8504119966969
 30
0.0
 11
3.124999999842572
 21
-156.475411996704
 31
0.0
  0
LINE
  5
3C50
330
A
100
AcDbEntity
  8
0
  6
Continuous
 62
     7
370
     0
100
AcDbLine
 10
3.124999999842572
 20
-156.475411996704
 30
0.0
 11
2.749999999846977
 21
-156.8504119967081
 31
0.0
  0
LINE
  5
3C51
330
A
100
AcDbEntity
  8
0
  6
Continuous
 62
     7
370
     0
100
AcDbLine
 10
2.749999999916767
 20
-162.8504119967081
 30
0.0
 11
3.124999999921172
 21
-163.225411996704
 31
0.0
  0
LINE
  5
3C52
330
A
100
AcDbEntity
  8
0
  6
Continuous
 62
     7
370
     0
100
AcDbLine
 10
3.124999999921172
 20
-163.225411996704
 30
0.0
 11
3.749999999928363
 21
-163.850411996696
 31
0.0
  0
LINE
  5
3C53
330
A
100
AcDbEntity
  8
0
  6
Continuous
 62
     7
370
     0
100
AcDbLine
 10
9.99999999983585
 20
-155.8504119966239
 30
0.0
 11
9.999999999529066
 21
-129.6807082704031
 31
0.0
  0
LINE
  5
3C54
330
A
100
AcDbEntity
  8
0
  6
Continuous
 62
     7
370
     0
100
AcDbLine
 10
9.999999999964686
 20
-166.8504119966421
 30
0.0
 11
9.999999999929571
 21
-163.8504119966239
 31
0.0
  0
LINE
  5
3C55
330
A
100
AcDbEntity
  8
0
  6
Continuous
 62
     7
370
     0
100
AcDbLine
 10
-10.00000000047075
 20
-129.6807237807131
 30
0.0
 11
-10.00000000003488
 21
-166.850411996877
 31
0.0
  0
ARC
  5
3C56
330
A
100
AcDbEntity
  8
0
  6
Continuous
 62
     7
370
     0
100
AcDbCircle
 10
-7.000000000034972
 20
-166.850411996842
 30
0.0
 40
2.99999999999989
100
AcDbArc
 50
180.0000000006644
 51
270.0000000006685
  0
ARC
  5
3C57
330
A
100
AcDbEntity
  8
0
  6
Continuous
 62
     7
370
     0
100
AcDbCircle
 10
6.999999999964757
 20
-166.850411996678
 30
0.0
 40
3.000000000000113
100
AcDbArc
 50
270.0000000006701
 51
0.0000000006774327
  0
LINE
  5
3C58
330
A
100
AcDbEntity
  8
0
  6
Continuous
 62
     7
370
     0
100
AcDbLine
 10
42.49945151826857
 20
-129.8504119962622
 30
0.0
 11
42.49999999953057
 21
-129.8504119962622
 31
0.0
  0
LINE
  5
3C59
330
A
100
AcDbEntity
  8
0
  6
Continuous
 62
     7
370
     0
100
AcDbLine
 10
42.99999498953058
 20
-129.850411996256
 30
0.0
 11
47.99999999953034
 21
-129.8504119961981
 31
0.0
  0
LINE
  5
3C5A
330
A
100
AcDbEntity
  8
0
  6
Continuous
 62
     7
370
     0
100
AcDbLine
 10
10.24910798557757
 20
-129.8504119966398
 30
0.0
 11
10.24999999953085
 21
-129.8504119966398
 31
0.0
  0
LINE
  5
3C5B
330
A
100
AcDbEntity
  8
0
  6
Continuous
 62
     7
370
     0
100
AcDbLine
 10
10.24999999953085
 20
-129.8504119966398
 30
0.0
 11
37.00000500953065
 21
-129.850411996327
 31
0.0
  0
LINE
  5
3C5C
330
A
100
AcDbEntity
  8
0
  6
Continuous
 62
     7
370
     0
100
AcDbLine
 10
37.49999999953046
 20
-129.8504119963202
 30
0.0
 11
37.50041240216776
 21
-129.8504119963202
 31
0.0
  0
LINE
  5
3C5D
330
A
100
AcDbEntity
  8
0
  6
Continuous
 62
     7
370
     0
100
AcDbLine
 10
-14.00000000046873
 20
-129.8504119969241
 30
0.0
 11
-10.25000000046881
 21
-129.85041199688
 31
0.0
  0
LINE
  5
3C5E
330
A
100
AcDbEntity
  8
0
  6
Continuous
 62
     7
370
     0
100
AcDbLine
 10
-10.25000000046881
 20
-129.85041199688
 30
0.0
 11
-10.2491059092671
 21
-129.85041199688
 31
0.0
  0
LINE
  5
3C5F
330
A
100
AcDbEntity
  8
0
  6
Continuous
 62
     7
370
     0
100
AcDbLine
 10
47.99999999917868
 20
-99.85041199619809
 30
0.0
 11
-14.00000000082045
 21
-99.85041199692501
 31
0.0
  0
ARC
  5
3C60
330
A
100
AcDbEntity
  8
0
  6
Continuous
 62
     7
370
     0
100
AcDbCircle
 10
-14.00000000077361
 20
-103.8504119969241
 30
0.0
 40
4.000000000000002
100
AcDbArc
 50
90.00000000067092
 51
180.0000000006774
  0
ARC
  5
3C61
330
A
100
AcDbEntity
  8
0
  6
Continuous
 62
     7
370
     0
100
AcDbCircle
 10
-14.00000000051561
 20
-125.8504119969241
 30
0.0
 40
4.000000000000002
100
AcDbArc
 50
180.0000000006774
 51
270.0000000006701
  0
ARC
  5
3C62
330
A
100
AcDbEntity
  8
0
  6
Continuous
 62
     7
370
     0
100
AcDbCircle
 10
47.99999999948356
 20
-125.8504119961981
 30
0.0
 40
4.000000000000002
100
AcDbArc
 50
270.0000000006709
 51
0.0000000006774327
  0
ARC
  5
3C63
330
A
100
AcDbEntity
  8
0
  6
Continuous
 62
     7
370
     0
100
AcDbCircle
 10
47.99999999922557
 20
-103.8504119961981
 30
0.0
 40
4.000000000000002
100
AcDbArc
 50
0.0000000006774327
 51
90.00000000067009
  0
LINE
  5
3C64
330
A
100
AcDbEntity
  8
0
  6
Continuous
 62
     7
370
     0
100
AcDbLine
 10
1160.249999999612
 20
-163.8504119894899
 30
0.0
 11
1160.874999999572
 21
-163.2254119894498
 31
0.0
  0
LINE
  5
3C65
330
A
100
AcDbEntity
  8
0
  6
Continuous
 62
     7
370
     0
100
AcDbLine
 10
1160.874999999572
 20
-163.2254119894498
 30
0.0
 11
1161.249999999548
 21
-162.8504119894257
 31
0.0
  0
LINE
  5
3C66
330
A
100
AcDbEntity
  8
0
  6
Continuous
 62
     7
370
     0
100
AcDbLine
 10
1161.249999999164
 20
-156.8504119894257
 30
0.0
 11
1160.87499999914
 21
-156.4754119894498
 31
0.0
  0
LINE
  5
3C67
330
A
100
AcDbEntity
  8
0
  6
Continuous
 62
     7
370
     0
100
AcDbLine
 10
1160.87499999914
 20
-156.4754119894498
 30
0.0
 11
1160.2499999991
 21
-155.8504119894899
 31
0.0
  0
LINE
  5
3C68
330
A
100
AcDbEntity
  8
0
  6
Continuous
 62
     7
370
     0
100
AcDbLine
 10
1153.249999999612
 20
-163.8504119899389
 30
0.0
 11
1153.999999999355
 21
-163.8504119898909
 31
0.0
  0
LINE
  5
3C69
330
A
100
AcDbEntity
  8
0
  6
Continuous
 62
     7
370
     0
100
AcDbLine
 10
1158.749999999355
 20
-163.850411989586
 30
0.0
 11
1160.249999999612
 21
-163.8504119894899
 31
0.0
  0
LINE
  5
3C6A
330
A
100
AcDbEntity
  8
0
  6
Continuous
 62
     7
370
     0
100
AcDbLine
 10
1160.2499999991
 20
-155.8504119894899
 30
0.0
 11
1158.749999999355
 21
-155.850411989586
 31
0.0
  0
LINE
  5
3C6B
330
A
100
AcDbEntity
  8
0
  6
Continuous
 62
     7
370
     0
100
AcDbLine
 10
1153.999999999355
 20
-155.850411989891
 30
0.0
 11
1153.2499999991
 21
-155.8504119899389
 31
0.0
  0
LINE
  5
3C6C
330
A
100
AcDbEntity
  8
0
  6
Continuous
 62
     7
370
     0
100
AcDbLine
 10
1121.882144694353
 20
-129.791484337449
 30
0.0
 11
1121.999999999355
 21
-129.8504119899498
 31
0.0
  0
LINE
  5
3C6D
330
A
100
AcDbEntity
  8
0
  6
Continuous
 62
     7
370
     0
100
AcDbLine
 10
1125.999999999355
 20
-129.8504119899498
 30
0.0
 11
1126.117865658058
 21
-129.7914791605981
 31
0.0
  0
LINE
  5
3C6E
330
A
100
AcDbEntity
  8
0
  6
Continuous
 62
     7
370
     0
100
AcDbLine
 10
1111.999999999355
 20
-104.8504119837489
 30
0.0
 11
51.99999999923734
 21
-104.850411996151
 31
0.0
  0
LINE
  5
3C6F
330
A
100
AcDbEntity
  8
0
  6
Continuous
 62
     7
370
     0
100
AcDbLine
 10
51.99999999947177
 20
-124.850411996151
 30
0.0
 11
1111.999999999355
 21
-124.850411983748
 31
0.0
  0
LINE
  5
3C70
330
A
100
AcDbEntity
  8
0
  6
Continuous
 62
     7
370
     0
100
AcDbLine
 10
1173.999999999355
 20
-166.8504119899498
 30
0.0
 11
1173.999999999355
 21
-129.6807118668871
 31
0.0
  0
LINE
  5
3C71
330
A
100
AcDbEntity
  8
0
  6
Continuous
 62
     7
370
     0
100
AcDbLine
 10
1153.999999999355
 20
-163.85041198989
 30
0.0
 11
1153.999999999355
 21
-166.8504119899498
 31
0.0
  0
LINE
  5
3C72
330
A
100
AcDbEntity
  8
0
  6
Continuous
 62
     7
370
     0
100
AcDbLine
 10
1153.999999999355
 20
-129.6807082637149
 30
0.0
 11
1153.999999999355
 21
-155.850411989891
 31
0.0
  0
ARC
  5
3C73
330
A
100
AcDbEntity
  8
0
  6
Continuous
 62
     7
370
     0
100
AcDbCircle
 10
1156.999999999355
 20
-166.8504119899498
 30
0.0
 40
3.000000000000113
100
AcDbArc
 50
180.0
 51
270.0
  0
ARC
  5
3C74
330
A
100
AcDbEntity
  8
0
  6
Continuous
 62
     7
370
     0
100
AcDbCircle
 10
1170.999999999355
 20
-166.8504119899498
 30
0.0
 40
2.99999999999989
100
AcDbArc
 50
270.0
 51
0.0
  0
ARC
  5
3C75
330
A
100
AcDbEntity
  8
0
  6
Continuous
 62
     7
370
     0
100
AcDbCircle
 10
1115.999999999355
 20
-103.8504119899498
 30
0.0
 40
4.000000000000002
100
AcDbArc
 50
90.0
 51
180.0
  0
ARC
  5
3C76
330
A
100
AcDbEntity
  8
0
  6
Continuous
 62
     7
370
     0
100
AcDbCircle
 10
1115.999999999355
 20
-125.8504119899498
 30
0.0
 40
4.000000000000002
100
AcDbArc
 50
180.0
 51
270.0
  0
LINE
  5
3C77
330
A
100
AcDbEntity
  8
0
  6
Continuous
 62
     7
370
     0
100
AcDbLine
 10
1177.999999999355
 20
-99.85041198994986
 30
0.0
 11
1115.999999999355
 21
-99.85041198994986
 31
0.0
  0
LINE
  5
3C78
330
A
100
AcDbEntity
  8
0
  6
Continuous
 62
     7
370
     0
100
AcDbLine
 10
1174.249105908153
 20
-129.8504119899498
 30
0.0
 11
1174.249999999355
 21
-129.8504119899498
 31
0.0
  0
LINE
  5
3C79
330
A
100
AcDbEntity
  8
0
  6
Continuous
 62
     7
370
     0
100
AcDbLine
 10
1174.249999999355
 20
-129.8504119899498
 30
0.0
 11
1177.999999999355
 21
-129.8504119899498
 31
0.0
  0
LINE
  5
3C7A
330
A
100
AcDbEntity
  8
0
  6
Continuous
 62
     7
370
     0
100
AcDbLine
 10
1126.499587596718
 20
-129.8504119899498
 30
0.0
 11
1126.499999999355
 21
-129.8504119899498
 31
0.0
  0
LINE
  5
3C7B
330
A
100
AcDbEntity
  8
0
  6
Continuous
 62
     7
370
     0
100
AcDbLine
 10
1126.999994989355
 20
-129.8504119899498
 30
0.0
 11
1153.749999999355
 21
-129.8504119899498
 31
0.0
  0
LINE
  5
3C7C
330
A
100
AcDbEntity
  8
0
  6
Continuous
 62
     7
370
     0
100
AcDbLine
 10
1153.749999999355
 20
-129.8504119899498
 30
0.0
 11
1153.750892013309
 21
-129.8504119899498
 31
0.0
  0
LINE
  5
3C7D
330
A
100
AcDbEntity
  8
0
  6
Continuous
 62
     7
370
     0
100
AcDbLine
 10
1115.999999999355
 20
-129.8504119899498
 30
0.0
 11
1121.000005009355
 21
-129.8504119899498
 31
0.0
  0
LINE
  5
3C7E
330
A
100
AcDbEntity
  8
0
  6
Continuous
 62
     7
370
     0
100
AcDbLine
 10
1121.499999999355
 20
-129.8504119899498
 30
0.0
 11
1121.500548480617
 21
-129.8504119899498
 31
0.0
  0
ARC
  5
3C7F
330
A
100
AcDbEntity
  8
0
  6
Continuous
 62
     7
370
     0
100
AcDbCircle
 10
1177.999999999355
 20
-125.8504119899498
 30
0.0
 40
4.000000000000002
100
AcDbArc
 50
270.0
 51
0.0
  0
ARC
  5
3C80
330
A
100
AcDbEntity
  8
0
  6
Continuous
 62
     7
370
     0
100
AcDbCircle
 10
1177.999999999355
 20
-103.8504119899498
 30
0.0
 40
4.000000000000002
100
AcDbArc
 50
0.0
 51
90.0
  0
TEXT
  5
5ED8
330
A
100
AcDbEntity
  8
0
  6
Continuous
 62
     7
370
     0
100
AcDbText
 10
-120.6895751887606
 20
-79.99267935572811
 30
0.0
 40
10.0
  1
5F04
100
AcDbText
  0
ARC
  5
5F4F
330
A
100
AcDbEntity
  8
0
  6
Continuous
 62
     7
370
     0
100
AcDbCircle
 10
740.228462765339
 20
-355.1212609658376
 30
0.0
 40
10.97996073602752
100
AcDbArc
 50
315.7466619568517
 51
34.34655893347559
  0
ARC
  5
5F50
330
A
100
AcDbEntity
  8
0
  6
Continuous
 62
     7
370
     0
100
AcDbCircle
 10
738.591758548721
 20
-354.7420073941085
 30
0.0
 40
12.1802460865741
100
AcDbArc
 50
28.5197955146409
 51
107.2580083329619
  0
ARC
  5
5F51
330
A
100
AcDbEntity
  8
0
  6
Continuous
 62
     7
370
     0
100
AcDbCircle
 10
738.3004794639308
 20
-351.6724985980472
 30
0.0
 40
9.184319892215802
100
AcDbArc
 50
111.2068278251269
 51
125.7459313899389
  0
ARC
  5
5F52
330
A
100
AcDbEntity
  8
0
  6
Continuous
 62
     7
370
     0
100
AcDbCircle
 10
731.9964554996771
 20
-395.0895143382863
 30
0.0
 40
5.077653119994266
100
AcDbArc
 50
197.9920831438358
 51
262.3429839122374
  0
ARC
  5
5F53
330
A
100
AcDbEntity
  8
0
  6
Continuous
 62
     7
370
     0
100
AcDbCircle
 10
735.105991887663
 20
-385.3114377368465
 30
0.0
 40
15.28672922812137
100
AcDbArc
 50
255.6601972242291
 51
280.235289415089
  0
ARC
  5
5F54
330
A
100
AcDbEntity
  8
0
  6
Continuous
 62
     7
370
     0
100
AcDbCircle
 10
335.980269193962
 20
-685.2231704559413
 30
0.0
 40
10.94976588039208
100
AcDbArc
 50
315.5338950388248
 51
33.83599160192213
  0
ARC
  5
5F55
330
A
100
AcDbEntity
  8
0
  6
Continuous
 62
     7
370
     0
100
AcDbCircle
 10
333.5203253321648
 20
-685.7791961724396
 30
0.0
 40
13.33363066915408
100
AcDbArc
 50
29.93170735015943
 51
77.30598818251021
  0
ARC
  5
5F56
330
A
100
AcDbEntity
  8
0
  6
Continuous
 62
     7
370
     0
100
AcDbCircle
 10
313.2467042762031
 20
-700.7354349093252
 30
0.0
 40
10.75248742015349
100
AcDbArc
 50
132.0862980504734
 51
211.3895748228265
  0
ARC
  5
5F57
330
A
100
AcDbEntity
  8
0
  6
Continuous
 62
     7
370
     0
100
AcDbCircle
 10
315.9307442964181
 20
-700.1856011743816
 30
0.0
 40
13.3623966318342
100
AcDbArc
 50
207.4045455995872
 51
257.2799893068056
  0
ARC
  5
5F58
330
A
100
AcDbEntity
  8
0
  6
Continuous
 62
     7
370
     0
100
AcDbCircle
 10
315.551137485833
 20
-735.1157126131051
 30
0.0
 40
5.077616474527113
100
AcDbArc
 50
197.990646945308
 51
262.343131943902
  0
ARC
  5
5F59
330
A
100
AcDbEntity
  8
0
  6
Continuous
 62
     7
370
     0
100
AcDbCircle
 10
318.660691390046
 20
-725.3376040663447
 30
0.0
 40
15.28672659327324
100
AcDbArc
 50
255.6601961243719
 51
280.2354120431049
  0
ARC
  5
5F5A
330
A
100
AcDbEntity
  8
0
  6
Continuous
 62
     7
370
     0
100
AcDbCircle
 10
741.0194065378951
 20
-395.1544771974886
 30
0.0
 40
2.219073327498663
100
AcDbArc
 50
250.3698183014408
 51
328.1386094551868
  0
ARC
  5
5F5B
330
A
100
AcDbEntity
  8
0
  6
Continuous
 62
     7
370
     0
100
AcDbCircle
 10
741.348195666029
 20
-395.6341366305485
 30
0.0
 40
1.702759537379296
100
AcDbArc
 50
336.03169078598
 51
0.4575404159516957
  0
ARC
  5
5F5C
330
A
100
AcDbEntity
  8
0
  6
Continuous
 62
     7
370
     0
100
AcDbCircle
 10
737.6442493892681
 20
-398.7100980661503
 30
0.0
 40
1.650208170916557
100
AcDbArc
 50
324.0144705444456
 51
0.7747211721498771
  0
LINE
  5
5F5D
330
A
100
AcDbEntity
  8
0
  6
Continuous
 62
     7
370
     0
100
AcDbLine
 10
738.9795407750258
 20
-399.6797288837724
 30
0.0
 11
738.8752430408239
 21
-399.8060981649573
 31
0.0
  0
LINE
  5
5F5E
330
A
100
AcDbEntity
  8
0
  6
Continuous
 62
     7
370
     0
100
AcDbLine
 10
738.8752430408239
 20
-399.8060981649573
 30
0.0
 11
738.8049102370652
 21
-399.8779789248893
 31
0.0
  0
ARC
  5
5F5F
330
A
100
AcDbEntity
  8
0
  6
Continuous
 62
     7
370
     0
100
AcDbCircle
 10
737.5273661131663
 20
-398.4965655966325
 30
0.0
 40
1.881600853528229
100
AcDbArc
 50
279.0077421995055
 51
312.762941783985
  0
ARC
  5
5F60
330
A
100
AcDbEntity
  8
0
  6
Continuous
 62
     7
370
     0
100
AcDbCircle
 10
324.5653530852199
 20
-734.980794871551
 30
0.0
 40
2.405545186840539
100
AcDbArc
 50
252.1655864260308
 51
313.5328663567898
  0
LINE
  5
5F61
330
A
100
AcDbEntity
  8
0
  6
Continuous
 62
     7
370
     0
100
AcDbLine
 10
326.2222217813329
 20
-736.72476556218
 30
0.0
 11
326.3378408409252
 21
-736.5714987331134
 31
0.0
  0
LINE
  5
5F62
330
A
100
AcDbEntity
  8
0
  6
Continuous
 62
     7
370
     0
100
AcDbLine
 10
326.3378408409252
 20
-736.5714987331134
 30
0.0
 11
326.4318703740281
 21
-736.4087273438622
 31
0.0
  0
ARC
  5
5F63
330
A
100
AcDbEntity
  8
0
  6
Continuous
 62
     7
370
     0
100
AcDbCircle
 10
324.9193000226422
 20
-735.6630672508345
 30
0.0
 40
1.686380159461069
100
AcDbArc
 50
333.7578329964425
 51
0.555995849889063
  0
ARC
  5
5F64
330
A
100
AcDbEntity
  8
0
  6
Continuous
 62
     7
370
     0
100
AcDbCircle
 10
1166.969790662881
 20
-147.6794216678179
 30
0.0
 40
22.19541509593756
100
AcDbArc
 50
100.4695470116601
 51
126.5560638918242
  0
ARC
  5
5F65
330
A
100
AcDbEntity
  8
0
  6
Continuous
 62
     7
370
     0
100
AcDbCircle
 10
1163.21389910851
 20
-142.6786050222451
 30
0.0
 40
16.82736592729797
100
AcDbArc
 50
52.80708233968355
 51
90.94423151643447
  0
ARC
  5
5F66
330
A
100
AcDbEntity
  8
0
  6
Continuous
 62
     7
370
     0
100
AcDbCircle
 10
1148.200110861719
 20
-167.949011884883
 30
0.0
 40
46.15300681469495
100
AcDbArc
 50
55.63766087838779
 51
56.92712326267375
  0
ARC
  5
5F67
330
A
100
AcDbEntity
  8
0
  6
Continuous
 62
     7
370
     0
100
AcDbCircle
 10
-1.723324025850104
 20
-145.1368327290499
 30
0.0
 40
19.41147118547474
100
AcDbArc
 50
52.20430726936249
 51
84.90665291582645
  0
LINE
  5
5F68
330
A
100
AcDbEntity
  8
0
  6
Continuous
 62
     7
370
     0
100
AcDbLine
 10
10.17295049655305
 20
-129.7978671162029
 30
0.0
 11
10.24999999953085
 21
-129.8504119966398
 31
0.0
  0
ARC
  5
5F69
330
A
100
AcDbEntity
  8
0
  6
Continuous
 62
     7
370
     0
100
AcDbCircle
 10
2.133187438854264
 20
-146.061992211208
 30
0.0
 40
20.39996725985087
100
AcDbArc
 50
96.80357840164207
 51
127.374337640917
  0
LINE
  5
5F6A
330
A
100
AcDbEntity
  8
0
  6
Continuous
 62
     7
370
     0
100
AcDbLine
 10
-0.2835147485576073
 20
-125.8056792510381
 30
0.0
 11
-0.0000000005169198
 21
-125.8020100536751
 31
0.0
  0
ENDSEC
  0
SECTION
  2
OBJECTS
  0
DICTIONARY
  5
19
330
0
100
AcDbDictionary
281
     1
  3
ACAD_COLOR
350
3176
  3
ACAD_GROUP
350
1A
  3
ACAD_LAYOUT
350
1E
  3
ACAD_MATERIAL
350
314C
  3
ACAD_MLEADERSTYLE
350
319B
  3
ACAD_MLINESTYLE
350
1B
  3
ACAD_PLOTSETTINGS
350
22
  3
ACAD_PLOTSTYLENAME
350
1F
  3
ACAD_SCALELIST
350
3179
  3
ACAD_TABLESTYLE
350
3177
  3
ACAD_VISUALSTYLE
350
3165
  3
ACAD_WIPEOUT_VARS
350
23
  3
ACDB_RECOMPOSE_DATA
350
630A
  3
AcDbVariableDictionary
350
630B
  3
ASE_INDEX_DICTIONARY
350
5E44
  3
DWGPROPS
350
633A
  0
DICTIONARY
  5
5E41
330
14
100
AcDbDictionary
280
     1
281
     1
  3
ADSK_XREC_LAYER_RECONCILED
360
5E42
  0
DICTIONARY
  5
31A7
330
A
100
AcDbDictionary
280
     1
281
     1
  3
ACAD_SORTENTS
360
31A8
  0
DICTIONARY
  5
3176
102
{ACAD_REACTORS
330
19
102
}
330
19
100
AcDbDictionary
281
     1
  0
DICTIONARY
  5
1A
102
{ACAD_REACTORS
330
19
102
}
330
19
100
AcDbDictionary
281
     1
  0
DICTIONARY
  5
1E
102
{ACAD_REACTORS
330
19
102
}
330
19
100
AcDbDictionary
281
     1
  3
Layout1
350
21
  3
Model
350
20
  0
DICTIONARY
  5
314C
102
{ACAD_REACTORS
330
19
102
}
330
19
100
AcDbDictionary
281
     1
  3
ByBlock
350
3155
  3
ByLayer
350
314D
  3
Global
350
315D
  0
DICTIONARY
  5
319B
102
{ACAD_REACTORS
330
19
102
}
330
19
100
AcDbDictionary
281
     1
  3
Standard
350
319C
  0
DICTIONARY
  5
1B
102
{ACAD_REACTORS
330
19
102
}
330
19
100
AcDbDictionary
281
     1
  3
Standard
350
1C
  0
DICTIONARY
  5
22
102
{ACAD_REACTORS
330
19
102
}
330
19
100
AcDbDictionary
281
     1
  0
ACDBDICTIONARYWDFLT
  5
1F
102
{ACAD_REACTORS
330
19
102
}
330
19
100
AcDbDictionary
281
     1
  3
Normal
350
1D
100
AcDbDictionaryWithDefault
340
1D
  0
DICTIONARY
  5
3179
102
{ACAD_REACTORS
330
19
102
}
330
19
100
AcDbDictionary
281
     1
  3
A0
350
317A
  3
A1
350
317B
  3
A2
350
317C
  3
A3
350
317D
  3
A4
350
317E
  3
A5
350
317F
  3
A6
350
3180
  3
A7
350
3181
  3
A8
350
3182
  3
A9
350
3183
  3
B0
350
3184
  3
B1
350
3185
  3
B2
350
3186
  3
B3
350
3187
  3
B4
350
3188
  3
B5
350
3189
  3
B6
350
318A
  3
B7
350
318B
  3
B8
350
318C
  3
B9
350
318D
  3
C0
350
318E
  3
C1
350
318F
  3
C2
350
3190
  3
C3
350
3191
  3
C4
350
3192
  3
C5
350
3193
  3
C6
350
3194
  3
C7
350
3195
  3
C8
350
3196
  3
C9
350
3197
  3
D0
350
3198
  3
D1
350
3199
  3
D2
350
319A
  0
DICTIONARY
  5
3177
102
{ACAD_REACTORS
330
19
102
}
330
19
100
AcDbDictionary
281
     1
  3
Standard
350
3178
  0
DICTIONARY
  5
3165
102
{ACAD_REACTORS
330
19
102
}
330
19
100
AcDbDictionary
281
     1
  3
2dWireframe
350
316B
  3
3D Hidden
350
316D
  3
3dWireframe
350
316C
  3
Basic
350
316A
  3
Brighten
350
3171
  3
ColorChange
350
3175
  3
Conceptual
350
316E
  3
Dim
350
3170
  3
Facepattern
350
3174
  3
Flat
350
3166
  3
FlatWithEdges
350
3167
  3
Gouraud
350
3168
  3
GouraudWithEdges
350
3169
  3
Linepattern
350
3173
  3
Realistic
350
316F
  3
Thicken
350
3172
  0
WIPEOUTVARIABLES
  5
23
330
19
100
AcDbWipeoutVariables
 70
     1
  0
XRECORD
  5
630A
102
{ACAD_REACTORS
330
19
102
}
330
19
100
AcDbXrecord
280
     1
 90
        1
330
3178
  0
DICTIONARY
  5
630B
102
{ACAD_REACTORS
330
19
102
}
330
19
100
AcDbDictionary
281
     1
  3
CANNOSCALE
350
630F
  3
CMLEADERSTYLE
350
630D
  3
CTABLESTYLE
350
630C
  3
DIMASSOC
350
6318
  3
INDEXCTL
350
6317
  3
LIGHTINGUNITS
350
6310
  3
MSLTSCALE
350
630E
  3
SORTENTS
350
6316
  0
DICTIONARY
  5
5E44
102
{ACAD_REACTORS
330
19
102
}
330
19
100
AcDbDictionary
281
     1
  3
ASEBlockHierarchyIndexRecord
350
5E46
1001
DCO15
1040
1685075681.336
  0
XRECORD
  5
633A
102
{ACAD_REACTORS
330
19
102
}
330
19
100
AcDbXrecord
280
     1
  1
DWGPROPS COOKIE
  2

  3

  4

  6

  7

  8
renzo.ceresoli
  9

300
=
301
=
302
=
303
=
304
=
305
=
306
=
307
=
308
=
309
=
 40
0.0021350925925926
 41
2455303.727916667
 42
2455306.477689248
  1

 90
        0
  0
XRECORD
  5
5E42
102
{ACAD_REACTORS
330
5E41
102
}
330
5E41
100
AcDbXrecord
280
     1
290
     1
  0
SORTENTSTABLE
  5
31A8
102
{ACAD_REACTORS
330
31A7
102
}
330
31A7
100
AcDbSortentsTable
330
A
331
2756
  5
5532
331
3B02
  5
5502
331
3ACC
  5
54DC
331
3AE7
  5
54F1
331
3B36
  5
5525
331
3B44
  5
54B9
331
3B5F
  5
54A3
331
3B7A
  5
548B
331
3BF7
  5
5473
331
3C12
  5
533E
331
3BAE
  5
5420
331
3BC1
  5
543D
331
3BDC
  5
5458
331
3B93
  5
53ED
331
3C59
  5
53B5
331
3C74
  5
53D0
331
3C3E
  5
535D
331
2754
  5
5530
331
3ACA
  5
54DA
331
3AE5
  5
54EF
331
3B00
  5
5500
331
3B42
  5
54B7
331
3B5D
  5
54A1
331
3B78
  5
5489
331
3BF5
  5
5471
331
3C10
  5
533C
331
3BAC
  5
5413
331
3BBF
  5
543B
331
3BDA
  5
5456
331
3B76
  5
5487
331
3B91
  5
53EB
331
3C57
  5
53B3
331
3C72
  5
53CE
331
3C0E
  5
533A
331
3C3C
  5
535B
331
3AC8
  5
54D8
331
3AE3
  5
54ED
331
3B17
  5
5513
331
3B5B
  5
549F
331
3B40
  5
54B5
331
3BAA
  5
5404
331
3BBD
  5
5439
331
3BD8
  5
5454
331
3B74
  5
5485
331
3B8F
  5
53E9
331
3BF3
  5
546F
331
3C70
  5
53CC
331
3C55
  5
53B1
331
3C0C
  5
5338
331
3C27
  5
534B
331
3AC6
  5
54D6
331
3AE1
  5
54EB
331
3B15
  5
550D
331
3ADF
  5
54E9
331
3B59
  5
549D
331
3B3E
  5
54B3
331
3BA8
  5
5402
331
3BBB
  5
5437
331
3BD6
  5
5452
331
3B57
  5
549B
331
3B72
  5
5483
331
3B8D
  5
53E7
331
3BF1
  5
546D
331
3C6E
  5
53CA
331
3C53
  5
53A4
331
3C0A
  5
5336
331
3C25
  5
5349
331
3BEF
  5
546B
331
3AC4
  5
54D4
331
3B2E
  5
5522
331
3ADD
  5
54E7
331
3B3C
  5
54B1
331
3BB9
  5
5435
331
3BD4
  5
5450
331
3B55
  5
5499
331
3B70
  5
5481
331
3B8B
  5
53E5
331
3BA6
  5
5400
331
3C6C
  5
53C8
331
3C08
  5
5334
331
3C23
  5
5347
331
3BED
  5
5469
331
3C51
  5
53A2
331
3AC2
  5
54D2
331
3B2C
  5
5520
331
3ADB
  5
54E5
331
3B3A
  5
54AF
331
3BB7
  5
5433
331
3BD2
  5
544E
331
3B53
  5
5497
331
3B6E
  5
547F
331
3B89
  5
53E3
331
3BA4
  5
53FE
331
3C6A
  5
53C6
331
3C06
  5
5332
331
3C21
  5
5345
331
3C34
  5
5358
331
3BEB
  5
5467
331
3C4F
  5
5395
331
3AC0
  5
54CB
331
3B2A
  5
551E
331
3B38
  5
54AD
331
3BB5
  5
5431
331
3BD0
  5
544C
331
3B6C
  5
547D
331
3B87
  5
53E1
331
3BA2
  5
53FC
331
3B51
  5
5495
331
3C68
  5
53C4
331
3C32
  5
5356
331
3C4D
  5
5393
331
3BCE
  5
544A
331
3BE9
  5
5465
331
3C04
  5
5330
331
3C66
  5
53C2
331
3AF2
  5
54FC
331
3BB3
  5
542F
331
3B6A
  5
547B
331
3B85
  5
53DF
331
3BA0
  5
53FA
331
3B4F
  5
54C9
331
3C30
  5
5354
331
3C4B
  5
5391
331
3BCC
  5
5448
331
3BE7
  5
5463
331
3C02
  5
532E
331
3C7F
  5
53DB
331
3C64
  5
53C0
331
2761
  5
553D
331
275F
  5
553B
331
3AF0
  5
54FA
331
3BB1
  5
5423
331
3B68
  5
54AC
331
3B83
  5
53DD
331
3B9E
  5
53F8
331
3B4D
  5
54C7
331
3C1B
  5
5343
331
3C2E
  5
5352
331
3C49
  5
538F
331
3BCA
  5
5446
331
3BE5
  5
5461
331
3C00
  5
532C
331
3C7D
  5
53D9
331
3C47
  5
538D
331
3C62
  5
53BE
331
275D
  5
5539
331
3B24
  5
551C
331
3AEE
  5
54F8
331
3B09
  5
5509
331
3B66
  5
54AA
331
3B81
  5
5492
331
3B9C
  5
53F6
331
3B4B
  5
54C5
331
3C19
  5
5341
331
3C2C
  5
5350
331
3BC8
  5
5444
331
3BE3
  5
545F
331
3BFE
  5
532A
331
3C7B
  5
53D7
331
3C45
  5
538B
331
3C60
  5
53BC
331
275B
  5
5537
331
3AD1
  5
54E1
331
3AEC
  5
54F6
331
3B07
  5
5507
331
3B22
  5
551A
331
3B64
  5
54A8
331
3B7F
  5
5490
331
3B9A
  5
53F4
331
3B49
  5
54BE
331
3C2A
  5
534E
331
3BC6
  5
5442
331
3BE1
  5
545D
331
3BFC
  5
5478
331
3C79
  5
53D5
331
3C43
  5
5362
331
3C5E
  5
53BA
331
2759
  5
5535
331
3ACF
  5
54DF
331
3AEA
  5
54F4
331
3B05
  5
5505
331
3B20
  5
5518
331
3B1E
  5
5516
331
3B7D
  5
548E
331
3B98
  5
53F2
331
3B47
  5
54BC
331
3B62
  5
54A6
331
3C28
  5
534C
331
3BC4
  5
5440
331
3BDF
  5
545B
331
3B96
  5
53F0
331
3BFA
  5
5476
331
3C77
  5
53D3
331
3C41
  5
5360
331
3C5C
  5
53B8
331
2757
  5
5533
331
3AE8
  5
54F2
331
3B03
  5
5503
331
3ACD
  5
54DD
331
3B37
  5
5526
331
3B7B
  5
548C
331
3B45
  5
54BA
331
3B60
  5
54A4
331
3BC2
  5
543E
331
3BDD
  5
5459
331
3BF8
  5
5474
331
3B94
  5
53EE
331
3BAF
  5
5421
331
3C13
  5
533F
331
3C75
  5
53D1
331
3C3F
  5
535E
331
3C5A
  5
53B6
331
2755
  5
5531
331
3AE6
  5
54F0
331
3B01
  5
5501
331
3ACB
  5
54DB
331
3AFF
  5
54FF
331
3B79
  5
548A
331
3B43
  5
54B8
331
3B5E
  5
54A2
331
3BDB
  5
5457
331
3BF6
  5
5472
331
3C11
  5
533D
331
3B77
  5
5488
331
3B92
  5
53EC
331
3BAD
  5
541F
331
3BC0
  5
543C
331
3C3D
  5
535C
331
3C58
  5
53B4
331
3C0F
  5
533B
331
3C73
  5
53CF
331
2753
  5
552F
331
3AE4
  5
54EE
331
3AC9
  5
54D9
331
3B18
  5
5514
331
3B41
  5
54B6
331
3B5C
  5
54A0
331
3BD9
  5
5455
331
3BF4
  5
5470
331
3B75
  5
5486
331
3B90
  5
53EA
331
3BAB
  5
540B
331
3BBE
  5
543A
331
3C56
  5
53B2
331
3C0D
  5
5339
331
3C71
  5
53CD
331
3AE2
  5
54EC
331
3AC7
  5
54D7
331
3B16
  5
550E
331
3B3F
  5
54B4
331
3B5A
  5
549E
331
3BD7
  5
5453
331
3BF2
  5
546E
331
3B8E
  5
53E8
331
3BA9
  5
5403
331
3BBC
  5
5438
331
3B73
  5
5484
331
3C54
  5
53B0
331
3C6F
  5
53CB
331
3C0B
  5
5337
331
3C26
  5
534A
331
3AE0
  5
54EA
331
3AC5
  5
54D5
331
3B14
  5
550C
331
3B2F
  5
5523
331
3ADE
  5
54E8
331
3B3D
  5
54B2
331
3B58
  5
549C
331
3BD5
  5
5451
331
3BF0
  5
546C
331
3B8C
  5
53E6
331
3BA7
  5
5401
331
3BBA
  5
5436
331
3B56
  5
549A
331
3B71
  5
5482
331
3C52
  5
53A3
331
3C6D
  5
53C9
331
3BEE
  5
546A
331
3C09
  5
5335
331
3C24
  5
5348
331
3AC3
  5
54D3
331
3B2D
  5
5521
331
3ADC
  5
54E6
331
3B3B
  5
54B0
331
3BD3
  5
544F
331
3B8A
  5
53E4
331
3BA5
  5
53FF
331
3BB8
  5
5434
331
3B54
  5
5498
331
3B6F
  5
5480
331
3C35
  5
5359
331
3C50
  5
53A1
331
3C6B
  5
53C7
331
3BEC
  5
5468
331
3C07
  5
5333
331
3C22
  5
5346
331
3AC1
  5
54D1
331
3B2B
  5
551F
331
3ADA
  5
54E4
331
3B39
  5
54AE
331
3B88
  5
53E2
331
3BA3
  5
53FD
331
3BB6
  5
5432
331
3B52
  5
5496
331
3B6D
  5
547E
331
3BD1
  5
544D
331
3C4E
  5
5394
331
3C69
  5
53C5
331
3C33
  5
5357
331
3BEA
  5
5466
331
3C05
  5
5331
331
3BCF
  5
544B
331
3C67
  5
53C3
331
3B86
  5
53E0
331
3BA1
  5
53FB
331
3BB4
  5
5430
331
3B50
  5
5494
331
3B6B
  5
547C
331
3C4C
  5
5392
331
3C31
  5
5355
331
3BE8
  5
5464
331
3C03
  5
532F
331
3BCD
  5
5449
331
3C65
  5
53C1
331
3C80
  5
53DC
331
3AF1
  5
54FB
331
3B9F
  5
53F9
331
3BB2
  5
542E
331
3B4E
  5
54C8
331
3B69
  5
547A
331
3B84
  5
53DE
331
3C4A
  5
5390
331
3BE6
  5
5462
331
3C01
  5
532D
331
3BCB
  5
5447
331
3C2F
  5
5353
331
3C63
  5
53BF
331
3C7E
  5
53DA
331
2760
  5
553C
331
275E
  5
553A
331
3AEF
  5
54F9
331
3B9D
  5
53F7
331
3BB0
  5
5422
331
3B4C
  5
54C6
331
3B67
  5
54AB
331
3B82
  5
5493
331
3C48
  5
538E
331
3BE4
  5
5460
331
3BFF
  5
532B
331
3C1A
  5
5342
331
3BC9
  5
5445
331
3C2D
  5
5351
331
3C46
  5
538C
331
3C61
  5
53BD
331
3C7C
  5
53D8
331
275C
  5
5538
331
3B08
  5
5508
331
3B23
  5
551B
331
3ABF
  5
54CA
331
3AD2
  5
54E2
331
3AED
  5
54F7
331
3B9B
  5
53F5
331
3B4A
  5
54C4
331
3B65
  5
54A9
331
3B80
  5
5491
331
3BFD
  5
5479
331
3C2B
  5
534F
331
3BC7
  5
5443
331
3BE2
  5
545E
331
3C5F
  5
53BB
331
3C7A
  5
53D6
331
3C44
  5
5363
331
275A
  5
5536
331
3B06
  5
5506
331
3B21
  5
5519
331
3AD0
  5
54E0
331
3AEB
  5
54F5
331
3B1F
  5
5517
331
3B99
  5
53F3
331
3B48
  5
54BD
331
3B63
  5
54A7
331
3B7E
  5
548F
331
3BFB
  5
5477
331
3C29
  5
534D
331
3B97
  5
53F1
331
3BC5
  5
5441
331
3BE0
  5
545C
331
3C5D
  5
53B9
331
3C78
  5
53D4
331
3C42
  5
5361
331
2758
  5
5534
331
3B04
  5
5504
331
3ACE
  5
54DE
331
3AE9
  5
54F3
331
3B46
  5
54BB
331
3B61
  5
54A5
331
3B7C
  5
548D
331
3BF9
  5
5475
331
3BC3
  5
543F
331
3BDE
  5
545A
331
3B95
  5
53EF
331
3C5B
  5
53B7
331
3C76
  5
53D2
331
3C40
  5
535F
  0
LAYOUT
  5
21
102
{ACAD_XDICTIONARY
360
633D
102
}
102
{ACAD_REACTORS
330
1E
102
}
330
1E
100
AcDbPlotSettings
  1

  2

  4

  6

 40
0.0
 41
0.0
 42
0.0
 43
0.0
 44
0.0
 45
0.0
 46
0.0
 47
0.0
 48
0.0
 49
0.0
140
0.0
141
0.0
142
1.0
143
1.0
 70
     0
 72
     0
 73
     0
 74
     0
  7

 75
     0
147
1.0
148
0.0
149
0.0
100
AcDbLayout
  1
Layout1
 70
     0
 71
     1
 10
0.0
 20
0.0
 11
12.0
 21
9.0
 12
0.0
 22
0.0
 32
0.0
 14
1.000000000000000E+20
 24
1.000000000000000E+20
 34
1.000000000000000E+20
 15
-1.000000000000000E+20
 25
-1.000000000000000E+20
 35
-1.000000000000000E+20
146
0.0
 13
0.0
 23
0.0
 33
0.0
 16
1.0
 26
0.0
 36
0.0
 17
0.0
 27
1.0
 37
0.0
 76
     0
330
B
  0
LAYOUT
  5
20
102
{ACAD_XDICTIONARY
360
633B
102
}
102
{ACAD_REACTORS
330
1E
102
}
330
1E
100
AcDbPlotSettings
  1

  2

  4

  6

 40
0.0
 41
0.0
 42
0.0
 43
0.0
 44
0.0
 45
0.0
 46
0.0
 47
0.0
 48
0.0
 49
0.0
140
0.0
141
0.0
142
1.0
143
1.0
 70
  1024
 72
     0
 73
     0
 74
     0
  7

 75
     0
147
1.0
148
0.0
149
0.0
100
AcDbLayout
  1
Model
 70
     0
 71
     0
 10
0.0
 20
0.0
 11
0.0
 21
0.0
 12
0.0
 22
0.0
 32
0.0
 14
0.0
 24
0.0
 34
0.0
 15
0.0
 25
0.0
 35
0.0
146
0.0
 13
0.0
 23
0.0
 33
0.0
 16
0.0
 26
0.0
 36
0.0
 17
0.0
 27
0.0
 37
0.0
 76
     0
330
A
331
15
  0
MATERIAL
  5
3155
102
{ACAD_XDICTIONARY
360
3156
102
}
102
{ACAD_REACTORS
330
314C
102
}
330
314C
100
AcDbMaterial
  1
ByBlock
 72
     0
 43
0.0208333333333333
 43
0.0
 43
0.0
 43
0.0
 43
0.0
 43
0.0208333333333333
 43
0.0
 43
0.0
 43
0.0
 43
0.0
 43
1.0
 43
0.0
 43
0.0
 43
0.0
 43
0.0
 43
1.0
 77
     0
 47
0.0208333333333333
 47
0.0
 47
0.0
 47
0.0
 47
0.0
 47
0.0208333333333333
 47
0.0
 47
0.0
 47
0.0
 47
0.0
 47
1.0
 47
0.0
 47
0.0
 47
0.0
 47
0.0
 47
1.0
171
     0
 49
0.0208333333333333
 49
0.0
 49
0.0
 49
0.0
 49
0.0
 49
0.0208333333333333
 49
0.0
 49
0.0
 49
0.0
 49
0.0
 49
1.0
 49
0.0
 49
0.0
 49
0.0
 49
0.0
 49
1.0
175
     0
142
0.0208333333333333
142
0.0
142
0.0
142
0.0
142
0.0
142
0.0208333333333333
142
0.0
142
0.0
142
0.0
142
0.0
142
1.0
142
0.0
142
0.0
142
0.0
142
0.0
142
1.0
179
     0
144
0.0208333333333333
144
0.0
144
0.0
144
0.0
144
0.0
144
0.0208333333333333
144
0.0
144
0.0
144
0.0
144
0.0
144
1.0
144
0.0
144
0.0
144
0.0
144
0.0
144
1.0
147
0.0208333333333333
147
0.0
147
0.0
147
0.0
147
0.0
147
0.0208333333333333
147
0.0
147
0.0
147
0.0
147
0.0
147
1.0
147
0.0
147
0.0
147
0.0
147
0.0
147
1.0
  0
MATERIAL
  5
314D
102
{ACAD_XDICTIONARY
360
314E
102
}
102
{ACAD_REACTORS
330
314C
102
}
330
314C
100
AcDbMaterial
  1
ByLayer
 72
     0
 43
0.0208333333333333
 43
0.0
 43
0.0
 43
0.0
 43
0.0
 43
0.0208333333333333
 43
0.0
 43
0.0
 43
0.0
 43
0.0
 43
1.0
 43
0.0
 43
0.0
 43
0.0
 43
0.0
 43
1.0
 77
     0
 47
0.0208333333333333
 47
0.0
 47
0.0
 47
0.0
 47
0.0
 47
0.0208333333333333
 47
0.0
 47
0.0
 47
0.0
 47
0.0
 47
1.0
 47
0.0
 47
0.0
 47
0.0
 47
0.0
 47
1.0
171
     0
 49
0.0208333333333333
 49
0.0
 49
0.0
 49
0.0
 49
0.0
 49
0.0208333333333333
 49
0.0
 49
0.0
 49
0.0
 49
0.0
 49
1.0
 49
0.0
 49
0.0
 49
0.0
 49
0.0
 49
1.0
175
     0
142
0.0208333333333333
142
0.0
142
0.0
142
0.0
142
0.0
142
0.0208333333333333
142
0.0
142
0.0
142
0.0
142
0.0
142
1.0
142
0.0
142
0.0
142
0.0
142
0.0
142
1.0
179
     0
144
0.0208333333333333
144
0.0
144
0.0
144
0.0
144
0.0
144
0.0208333333333333
144
0.0
144
0.0
144
0.0
144
0.0
144
1.0
144
0.0
144
0.0
144
0.0
144
0.0
144
1.0
147
0.0208333333333333
147
0.0
147
0.0
147
0.0
147
0.0
147
0.0208333333333333
147
0.0
147
0.0
147
0.0
147
0.0
147
1.0
147
0.0
147
0.0
147
0.0
147
0.0
147
1.0
  0
MATERIAL
  5
315D
102
{ACAD_XDICTIONARY
360
315E
102
}
102
{ACAD_REACTORS
330
314C
102
}
330
314C
100
AcDbMaterial
  1
Global
 72
     0
 43
0.0208333333333333
 43
0.0
 43
0.0
 43
0.0
 43
0.0
 43
0.0208333333333333
 43
0.0
 43
0.0
 43
0.0
 43
0.0
 43
1.0
 43
0.0
 43
0.0
 43
0.0
 43
0.0
 43
1.0
 77
     0
 47
0.0208333333333333
 47
0.0
 47
0.0
 47
0.0
 47
0.0
 47
0.0208333333333333
 47
0.0
 47
0.0
 47
0.0
 47
0.0
 47
1.0
 47
0.0
 47
0.0
 47
0.0
 47
0.0
 47
1.0
171
     0
 49
0.0208333333333333
 49
0.0
 49
0.0
 49
0.0
 49
0.0
 49
0.0208333333333333
 49
0.0
 49
0.0
 49
0.0
 49
0.0
 49
1.0
 49
0.0
 49
0.0
 49
0.0
 49
0.0
 49
1.0
175
     0
142
0.0208333333333333
142
0.0
142
0.0
142
0.0
142
0.0
142
0.0208333333333333
142
0.0
142
0.0
142
0.0
142
0.0
142
1.0
142
0.0
142
0.0
142
0.0
142
0.0
142
1.0
179
     0
144
0.0208333333333333
144
0.0
144
0.0
144
0.0
144
0.0
144
0.0208333333333333
144
0.0
144
0.0
144
0.0
144
0.0
144
1.0
144
0.0
144
0.0
144
0.0
144
0.0
144
1.0
147
0.0208333333333333
147
0.0
147
0.0
147
0.0
147
0.0
147
0.0208333333333333
147
0.0
147
0.0
147
0.0
147
0.0
147
1.0
147
0.0
147
0.0
147
0.0
147
0.0
147
1.0
  0
MLEADERSTYLE
  5
319C
102
{ACAD_REACTORS
330
319B
102
}
330
319B
100
AcDbMLeaderStyle
170
     2
171
     1
172
     0
 90
        2
 40
0.0
 41
0.0
173
     1
 91
-1056964608
340
11
 92
       -2
290
     1
 42
2.0
291
     1
 43
0.36
  3
Standard
 44
4.0
300

342
17
174
     1
178
     6
175
     1
176
     0
 93
-1056964608
 45
4.0
292
     0
297
     0
 46
4.0
 94
-1056964608
 47
1.0
 49
1.0
140
1.0
293
     1
141
0.0
294
     1
177
     0
142
1.0
295
     0
296
     0
143
0.125
1001
ACAD_MLEADERVER
1070
     2
  0
MLINESTYLE
  5
1C
102
{ACAD_REACTORS
330
1B
102
}
330
1B
100
AcDbMlineStyle
  2
STANDARD
 70
     0
  3

 62
     0
 51
90.0
 52
90.0
 71
     2
 49
0.5
 62
   256
  6
BYLAYER
 49
-0.5
 62
   256
  6
BYLAYER
  0
ACDBPLACEHOLDER
  5
1D
102
{ACAD_REACTORS
330
1F
102
}
330
1F
  0
SCALE
  5
317A
102
{ACAD_REACTORS
330
3179
102
}
330
3179
100
AcDbScale
 70
     0
300
1:1
140
1.0
141
1.0
290
     1
  0
SCALE
  5
317B
102
{ACAD_REACTORS
330
3179
102
}
330
3179
100
AcDbScale
 70
     0
300
1:2
140
1.0
141
2.0
290
     0
  0
SCALE
  5
317C
102
{ACAD_REACTORS
330
3179
102
}
330
3179
100
AcDbScale
 70
     0
300
1:4
140
1.0
141
4.0
290
     0
  0
SCALE
  5
317D
102
{ACAD_REACTORS
330
3179
102
}
330
3179
100
AcDbScale
 70
     0
300
1:5
140
1.0
141
5.0
290
     0
  0
SCALE
  5
317E
102
{ACAD_REACTORS
330
3179
102
}
330
3179
100
AcDbScale
 70
     0
300
1:8
140
1.0
141
8.0
290
     0
  0
SCALE
  5
317F
102
{ACAD_REACTORS
330
3179
102
}
330
3179
100
AcDbScale
 70
     0
300
1:10
140
1.0
141
10.0
290
     0
  0
SCALE
  5
3180
102
{ACAD_REACTORS
330
3179
102
}
330
3179
100
AcDbScale
 70
     0
300
1:16
140
1.0
141
16.0
290
     0
  0
SCALE
  5
3181
102
{ACAD_REACTORS
330
3179
102
}
330
3179
100
AcDbScale
 70
     0
300
1:20
140
1.0
141
20.0
290
     0
  0
SCALE
  5
3182
102
{ACAD_REACTORS
330
3179
102
}
330
3179
100
AcDbScale
 70
     0
300
1:30
140
1.0
141
30.0
290
     0
  0
SCALE
  5
3183
102
{ACAD_REACTORS
330
3179
102
}
330
3179
100
AcDbScale
 70
     0
300
1:40
140
1.0
141
40.0
290
     0
  0
SCALE
  5
3184
102
{ACAD_REACTORS
330
3179
102
}
330
3179
100
AcDbScale
 70
     0
300
1:50
140
1.0
141
50.0
290
     0
  0
SCALE
  5
3185
102
{ACAD_REACTORS
330
3179
102
}
330
3179
100
AcDbScale
 70
     0
300
1:100
140
1.0
141
100.0
290
     0
  0
SCALE
  5
3186
102
{ACAD_REACTORS
330
3179
102
}
330
3179
100
AcDbScale
 70
     0
300
2:1
140
2.0
141
1.0
290
     0
  0
SCALE
  5
3187
102
{ACAD_REACTORS
330
3179
102
}
330
3179
100
AcDbScale
 70
     0
300
4:1
140
4.0
141
1.0
290
     0
  0
SCALE
  5
3188
102
{ACAD_REACTORS
330
3179
102
}
330
3179
100
AcDbScale
 70
     0
300
8:1
140
8.0
141
1.0
290
     0
  0
SCALE
  5
3189
102
{ACAD_REACTORS
330
3179
102
}
330
3179
100
AcDbScale
 70
     0
300
10:1
140
10.0
141
1.0
290
     0
  0
SCALE
  5
318A
102
{ACAD_REACTORS
330
3179
102
}
330
3179
100
AcDbScale
 70
     0
300
100:1
140
100.0
141
1.0
290
     0
  0
SCALE
  5
318B
102
{ACAD_REACTORS
330
3179
102
}
330
3179
100
AcDbScale
 70
     0
300
1/128" = 1'-0"
140
0.0078125
141
12.0
290
     0
  0
SCALE
  5
318C
102
{ACAD_REACTORS
330
3179
102
}
330
3179
100
AcDbScale
 70
     0
300
1/64" = 1'-0"
140
0.015625
141
12.0
290
     0
  0
SCALE
  5
318D
102
{ACAD_REACTORS
330
3179
102
}
330
3179
100
AcDbScale
 70
     0
300
1/32" = 1'-0"
140
0.03125
141
12.0
290
     0
  0
SCALE
  5
318E
102
{ACAD_REACTORS
330
3179
102
}
330
3179
100
AcDbScale
 70
     0
300
1/16" = 1'-0"
140
0.0625
141
12.0
290
     0
  0
SCALE
  5
318F
102
{ACAD_REACTORS
330
3179
102
}
330
3179
100
AcDbScale
 70
     0
300
3/32" = 1'-0"
140
0.09375
141
12.0
290
     0
  0
SCALE
  5
3190
102
{ACAD_REACTORS
330
3179
102
}
330
3179
100
AcDbScale
 70
     0
300
1/8" = 1'-0"
140
0.125
141
12.0
290
     0
  0
SCALE
  5
3191
102
{ACAD_REACTORS
330
3179
102
}
330
3179
100
AcDbScale
 70
     0
300
3/16" = 1'-0"
140
0.1875
141
12.0
290
     0
  0
SCALE
  5
3192
102
{ACAD_REACTORS
330
3179
102
}
330
3179
100
AcDbScale
 70
     0
300
1/4" = 1'-0"
140
0.25
141
12.0
290
     0
  0
SCALE
  5
3193
102
{ACAD_REACTORS
330
3179
102
}
330
3179
100
AcDbScale
 70
     0
300
3/8" = 1'-0"
140
0.375
141
12.0
290
     0
  0
SCALE
  5
3194
102
{ACAD_REACTORS
330
3179
102
}
330
3179
100
AcDbScale
 70
     0
300
1/2" = 1'-0"
140
0.5
141
12.0
290
     0
  0
SCALE
  5
3195
102
{ACAD_REACTORS
330
3179
102
}
330
3179
100
AcDbScale
 70
     0
300
3/4" = 1'-0"
140
0.75
141
12.0
290
     0
  0
SCALE
  5
3196
102
{ACAD_REACTORS
330
3179
102
}
330
3179
100
AcDbScale
 70
     0
300
1" = 1'-0"
140
1.0
141
12.0
290
     0
  0
SCALE
  5
3197
102
{ACAD_REACTORS
330
3179
102
}
330
3179
100
AcDbScale
 70
     0
300
1-1/2" = 1'-0"
140
1.5
141
12.0
290
     0
  0
SCALE
  5
3198
102
{ACAD_REACTORS
330
3179
102
}
330
3179
100
AcDbScale
 70
     0
300
3" = 1'-0"
140
3.0
141
12.0
290
     0
  0
SCALE
  5
3199
102
{ACAD_REACTORS
330
3179
102
}
330
3179
100
AcDbScale
 70
     0
300
6" = 1'-0"
140
6.0
141
12.0
290
     0
  0
SCALE
  5
319A
102
{ACAD_REACTORS
330
3179
102
}
330
3179
100
AcDbScale
 70
     0
300
1'-0" = 1'-0"
140
12.0
141
12.0
290
     0
  0
TABLESTYLE
  5
3178
102
{ACAD_XDICTIONARY
360
6308
102
}
102
{ACAD_REACTORS
330
3177
102
}
330
3177
100
AcDbTableStyle
  3
Standard
 70
     0
 71
     0
 40
1.5
 41
1.5
280
     0
281
     0
  7
Standard
140
4.5
170
     2
 62
     0
 63
     7
283
     0
274
    -2
284
     1
 64
     0
275
    -2
285
     1
 65
     0
276
    -2
286
     1
 66
     0
277
    -2
287
     1
 67
     0
278
    -2
288
     1
 68
     0
279
    -2
289
     1
 69
     0
  7
Standard
140
6.0
170
     5
 62
     0
 63
     7
283
     0
274
    -2
284
     1
 64
     0
275
    -2
285
     1
 65
     0
276
    -2
286
     1
 66
     0
277
    -2
287
     1
 67
     0
278
    -2
288
     1
 68
     0
279
    -2
289
     1
 69
     0
  7
Standard
140
4.5
170
     5
 62
     0
 63
     7
283
     0
274
    -2
284
     1
 64
     0
275
    -2
285
     1
 65
     0
276
    -2
286
     1
 66
     0
277
    -2
287
     1
 67
     0
278
    -2
288
     1
 68
     0
279
    -2
289
     1
 69
     0
  0
VISUALSTYLE
  5
316B
102
{ACAD_REACTORS
330
3165
102
}
330
3165
100
AcDbVisualStyle
  2
2dWireframe
 70
     4
 71
     0
 72
     2
 73
     0
 90
        0
 40
-0.6
 41
-30.0
 62
     5
 63
     7
 74
     1
 91
        4
 64
     7
 65
   257
 75
     1
175
     1
 42
1.0
 92
        0
 66
   257
 43
1.0
 76
     1
 77
     6
 78
     2
 67
     7
 79
     5
170
     0
171
     0
290
     0
174
     0
 93
        1
 44
0.0
173
     0
291
     0
 45
0.0
1001
ACAD
1000
AcDbSavedByObjectVersion
1070
     0
1000
AcDbSavedByObjectVersion
1070
     0
  0
VISUALSTYLE
  5
316D
102
{ACAD_REACTORS
330
3165
102
}
330
3165
100
AcDbVisualStyle
  2
3D Hidden
 70
     6
 71
     1
 72
     2
 73
     2
 90
        0
 40
-0.6
 41
-30.0
 62
     5
 63
     7
 74
     2
 91
        2
 64
     7
 65
   257
 75
     2
175
     1
 42
40.0
 92
        0
 66
   257
 43
1.0
 76
     1
 77
     6
 78
     2
 67
     7
 79
     3
170
     0
171
     0
290
     0
174
     0
 93
        1
 44
0.0
173
     0
291
     0
 45
0.0
1001
ACAD
1000
AcDbSavedByObjectVersion
1070
     0
1000
AcDbSavedByObjectVersion
1070
     0
  0
VISUALSTYLE
  5
316C
102
{ACAD_REACTORS
330
3165
102
}
330
3165
100
AcDbVisualStyle
  2
3dWireframe
 70
     5
 71
     0
 72
     2
 73
     0
 90
        0
 40
-0.6
 41
-30.0
 62
     5
 63
     7
 74
     1
 91
        4
 64
     7
 65
   257
 75
     1
175
     1
 42
1.0
 92
        0
 66
   257
 43
1.0
 76
     1
 77
     6
 78
     2
 67
     7
 79
     5
170
     0
171
     0
290
     0
174
     0
 93
        1
 44
0.0
173
     0
291
     0
 45
0.0
1001
ACAD
1000
AcDbSavedByObjectVersion
1070
     0
1000
AcDbSavedByObjectVersion
1070
     0
  0
VISUALSTYLE
  5
316A
102
{ACAD_REACTORS
330
3165
102
}
330
3165
100
AcDbVisualStyle
  2
Basic
 70
     7
 71
     1
 72
     0
 73
     1
 90
        0
 40
-0.6
 41
-30.0
 62
     5
 63
     7
 74
     0
 91
        4
 64
     7
 65
   257
 75
     1
175
     1
 42
1.0
 92
        8
 66
     7
 43
1.0
 76
     1
 77
     6
 78
     2
 67
     7
 79
     5
170
     0
171
     0
290
     0
174
     0
 93
        1
 44
0.0
173
     0
291
     1
 45
0.0
1001
ACAD
1000
AcDbSavedByObjectVersion
1070
     0
1000
AcDbSavedByObjectVersion
1070
     0
  0
VISUALSTYLE
  5
3171
102
{ACAD_REACTORS
330
3165
102
}
330
3165
100
AcDbVisualStyle
  2
Brighten
 70
    12
 71
     2
 72
     2
 73
     0
 90
        0
 40
-0.6
 41
-30.0
 62
     5
 63
     7
 74
     1
 91
        4
 64
     7
 65
   257
 75
     1
175
     1
 42
1.0
 92
        8
 66
     7
 43
1.0
 76
     1
 77
     6
 78
     2
 67
     7
 79
     5
170
     0
171
     0
290
     0
174
     0
 93
        1
 44
50.0
173
     0
291
     1
 45
0.0
1001
ACAD
1000
AcDbSavedByObjectVersion
1070
     0
1000
AcDbSavedByObjectVersion
1070
     0
  0
VISUALSTYLE
  5
3175
102
{ACAD_REACTORS
330
3165
102
}
330
3165
100
AcDbVisualStyle
  2
ColorChange
 70
    16
 71
     2
 72
     2
 73
     3
 90
        0
 40
-0.6
 41
-30.0
 62
     5
 63
     8
 74
     1
 91
        4
 64
     7
 65
   257
 75
     1
175
     1
 42
1.0
 92
        8
 66
     8
 43
1.0
 76
     1
 77
     6
 78
     2
 67
     7
 79
     5
170
     0
171
     0
290
     0
174
     0
 93
        1
 44
0.0
173
     0
291
     1
 45
0.0
1001
ACAD
1000
AcDbSavedByObjectVersion
1070
     0
1000
AcDbSavedByObjectVersion
1070
     0
  0
VISUALSTYLE
  5
316E
102
{ACAD_REACTORS
330
3165
102
}
330
3165
100
AcDbVisualStyle
  2
Conceptual
 70
     9
 71
     3
 72
     2
 73
     0
 90
        0
 40
-0.6
 41
-30.0
 62
     5
 63
     7
 74
     2
 91
        2
 64
     7
 65
   257
 75
     1
175
     1
 42
40.0
 92
        8
 66
     7
 43
1.0
 76
     1
 77
     6
 78
     2
 67
     7
 79
     3
170
     0
171
     0
290
     0
174
     0
 93
        1
 44
0.0
173
     0
291
     0
 45
0.0
1001
ACAD
1000
AcDbSavedByObjectVersion
1070
     0
1000
AcDbSavedByObjectVersion
1070
     0
  0
VISUALSTYLE
  5
3170
102
{ACAD_REACTORS
330
3165
102
}
330
3165
100
AcDbVisualStyle
  2
Dim
 70
    11
 71
     2
 72
     2
 73
     0
 90
        0
 40
-0.6
 41
-30.0
 62
     5
 63
     7
 74
     1
 91
        4
 64
     7
 65
   257
 75
     1
175
     1
 42
1.0
 92
        8
 66
     7
 43
1.0
 76
     1
 77
     6
 78
     2
 67
     7
 79
     5
170
     0
171
     0
290
     0
174
     0
 93
        1
 44
-50.0
173
     0
291
     1
 45
0.0
1001
ACAD
1000
AcDbSavedByObjectVersion
1070
     0
1000
AcDbSavedByObjectVersion
1070
     0
  0
VISUALSTYLE
  5
3174
102
{ACAD_REACTORS
330
3165
102
}
330
3165
100
AcDbVisualStyle
  2
Facepattern
 70
    15
 71
     2
 72
     2
 73
     0
 90
        0
 40
-0.6
 41
-30.0
 62
     5
 63
     7
 74
     1
 91
        4
 64
     7
 65
   257
 75
     1
175
     1
 42
1.0
 92
        8
 66
     7
 43
1.0
 76
     1
 77
     6
 78
     2
 67
     7
 79
     5
170
     0
171
     0
290
     0
174
     0
 93
        1
 44
0.0
173
     0
291
     1
 45
0.0
1001
ACAD
1000
AcDbSavedByObjectVersion
1070
     0
1000
AcDbSavedByObjectVersion
1070
     0
  0
VISUALSTYLE
  5
3166
102
{ACAD_REACTORS
330
3165
102
}
330
3165
100
AcDbVisualStyle
  2
Flat
 70
     0
 71
     2
 72
     1
 73
     1
 90
        2
 40
-0.6
 41
30.0
 62
     5
 63
     7
 74
     0
 91
        4
 64
     7
 65
   257
 75
     1
175
     1
 42
1.0
 92
        8
 66
     7
 43
1.0
 76
     1
 77
     6
 78
     2
 67
     7
 79
     5
170
     0
171
     0
290
     0
174
     0
 93
       13
 44
0.0
173
     0
291
     1
 45
0.0
1001
ACAD
1000
AcDbSavedByObjectVersion
1070
     0
1000
AcDbSavedByObjectVersion
1070
     0
  0
VISUALSTYLE
  5
3167
102
{ACAD_REACTORS
330
3165
102
}
330
3165
100
AcDbVisualStyle
  2
FlatWithEdges
 70
     1
 71
     2
 72
     1
 73
     1
 90
        2
 40
-0.6
 41
30.0
 62
     5
 63
     7
 74
     1
 91
        4
 64
     7
 65
   257
 75
     1
175
     1
 42
1.0
 92
        0
 66
   257
 43
1.0
 76
     1
 77
     6
 78
     2
 67
     7
 79
     5
170
     0
171
     0
290
     0
174
     0
 93
       13
 44
0.0
173
     0
291
     1
 45
0.0
1001
ACAD
1000
AcDbSavedByObjectVersion
1070
     0
1000
AcDbSavedByObjectVersion
1070
     0
  0
VISUALSTYLE
  5
3168
102
{ACAD_REACTORS
330
3165
102
}
330
3165
100
AcDbVisualStyle
  2
Gouraud
 70
     2
 71
     2
 72
     2
 73
     1
 90
        2
 40
-0.6
 41
30.0
 62
     5
 63
     7
 74
     0
 91
        4
 64
     7
 65
   257
 75
     1
175
     1
 42
1.0
 92
        0
 66
     7
 43
1.0
 76
     1
 77
     6
 78
     2
 67
     7
 79
     5
170
     0
171
     0
290
     0
174
     0
 93
       13
 44
0.0
173
     0
291
     1
 45
0.0
1001
ACAD
1000
AcDbSavedByObjectVersion
1070
     0
1000
AcDbSavedByObjectVersion
1070
     0
  0
VISUALSTYLE
  5
3169
102
{ACAD_REACTORS
330
3165
102
}
330
3165
100
AcDbVisualStyle
  2
GouraudWithEdges
 70
     3
 71
     2
 72
     2
 73
     1
 90
        2
 40
-0.6
 41
30.0
 62
     5
 63
     7
 74
     1
 91
        4
 64
     7
 65
   257
 75
     1
175
     1
 42
1.0
 92
        0
 66
   257
 43
1.0
 76
     1
 77
     6
 78
     2
 67
     7
 79
     5
170
     0
171
     0
290
     0
174
     0
 93
       13
 44
0.0
173
     0
291
     1
 45
0.0
1001
ACAD
1000
AcDbSavedByObjectVersion
1070
     0
1000
AcDbSavedByObjectVersion
1070
     0
  0
VISUALSTYLE
  5
3173
102
{ACAD_REACTORS
330
3165
102
}
330
3165
100
AcDbVisualStyle
  2
Linepattern
 70
    14
 71
     2
 72
     2
 73
     0
 90
        0
 40
-0.6
 41
-30.0
 62
     5
 63
     7
 74
     1
 91
        4
 64
     7
 65
   257
 75
     7
175
     7
 42
1.0
 92
        8
 66
     7
 43
1.0
 76
     1
 77
     6
 78
     2
 67
     7
 79
     5
170
     0
171
     0
290
     0
174
     0
 93
        1
 44
0.0
173
     0
291
     1
 45
0.0
1001
ACAD
1000
AcDbSavedByObjectVersion
1070
     0
1000
AcDbSavedByObjectVersion
1070
     0
  0
VISUALSTYLE
  5
316F
102
{ACAD_REACTORS
330
3165
102
}
330
3165
100
AcDbVisualStyle
  2
Realistic
 70
     8
 71
     2
 72
     2
 73
     0
 90
        0
 40
-0.6
 41
-30.0
 62
     5
 63
     7
 74
     1
 91
        0
 64
     7
 65
   257
 75
     1
175
     1
 42
1.0
 92
        8
 66
     8
 43
1.0
 76
     1
 77
     6
 78
     2
 67
     7
 79
     5
170
     0
171
     0
290
     0
174
     0
 93
       13
 44
0.0
173
     0
291
     0
 45
0.0
1001
ACAD
1000
AcDbSavedByObjectVersion
1070
     0
1000
AcDbSavedByObjectVersion
1070
     0
  0
VISUALSTYLE
  5
3172
102
{ACAD_REACTORS
330
3165
102
}
330
3165
100
AcDbVisualStyle
  2
Thicken
 70
    13
 71
     2
 72
     2
 73
     0
 90
        0
 40
-0.6
 41
-30.0
 62
     5
 63
     7
 74
     1
 91
        4
 64
     7
 65
   257
 75
     1
175
     1
 42
1.0
 92
       12
 66
     7
 43
1.0
 76
     1
 77
     6
 78
     2
 67
     7
 79
     5
170
     0
171
     0
290
     0
174
     0
 93
        1
 44
0.0
173
     0
291
     1
 45
0.0
1001
ACAD
1000
AcDbSavedByObjectVersion
1070
     0
1000
AcDbSavedByObjectVersion
1070
     0
  0
DICTIONARYVAR
  5
630F
102
{ACAD_REACTORS
330
630B
102
}
330
630B
100
DictionaryVariables
280
     0
  1
1:1
  0
DICTIONARYVAR
  5
630D
102
{ACAD_REACTORS
330
630B
102
}
330
630B
100
DictionaryVariables
280
     0
  1
STANDARD
  0
DICTIONARYVAR
  5
630C
102
{ACAD_REACTORS
330
630B
102
}
330
630B
100
DictionaryVariables
280
     0
  1
STANDARD
  0
DICTIONARYVAR
  5
6318
102
{ACAD_REACTORS
330
630B
102
}
330
630B
100
DictionaryVariables
280
     0
  1
1
  0
DICTIONARYVAR
  5
6317
102
{ACAD_REACTORS
330
630B
102
}
330
630B
100
DictionaryVariables
280
     0
  1
0
  0
DICTIONARYVAR
  5
6310
102
{ACAD_REACTORS
330
630B
102
}
330
630B
100
DictionaryVariables
280
     0
  1
0
  0
DICTIONARYVAR
  5
630E
102
{ACAD_REACTORS
330
630B
102
}
330
630B
100
DictionaryVariables
280
     0
  1
0
  0
DICTIONARYVAR
  5
6316
102
{ACAD_REACTORS
330
630B
102
}
330
630B
100
DictionaryVariables
280
     0
  1
127
  0
XRECORD
  5
5E46
102
{ACAD_REACTORS
330
5E44
102
}
330
5E44
100
AcDbXrecord
280
     1
  0
DICTIONARY
  5
633D
330
21
100
AcDbDictionary
280
     1
281
     1
  3
ACAD_XREC_ROUNDTRIP
360
633E
  0
DICTIONARY
  5
633B
330
20
100
AcDbDictionary
280
     1
281
     1
  3
ACAD_XREC_ROUNDTRIP
360
633C
  0
DICTIONARY
  5
3156
330
3155
100
AcDbDictionary
280
     1
281
     1
  3
ACAD_XREC_ROUNDTRIP
360
6320
  3
BUMPTILE
360
3158
  3
DIFFUSETILE
360
3157
  3
OPACITYTILE
360
315B
  3
REFLECTIONTILE
360
315A
  3
REFRACTIONTILE
360
315C
  3
SPECULARTILE
360
3159
  0
DICTIONARY
  5
314E
330
314D
100
AcDbDictionary
280
     1
281
     1
  3
ACAD_XREC_ROUNDTRIP
360
631F
  3
BUMPTILE
360
3150
  3
DIFFUSETILE
360
314F
  3
OPACITYTILE
360
3153
  3
REFLECTIONTILE
360
3152
  3
REFRACTIONTILE
360
3154
  3
SPECULARTILE
360
3151
  0
DICTIONARY
  5
315E
330
315D
100
AcDbDictionary
280
     1
281
     1
  3
ACAD_XREC_ROUNDTRIP
360
6321
  3
BUMPTILE
360
3160
  3
DIFFUSETILE
360
315F
  3
OPACITYTILE
360
3163
  3
REFLECTIONTILE
360
3162
  3
REFRACTIONTILE
360
3164
  3
SPECULARTILE
360
3161
  0
DICTIONARY
  5
6308
330
3178
100
AcDbDictionary
280
     1
281
     1
  3
ACAD_ROUNDTRIP_2008_TABLESTYLE_CELLSTYLEMAP
360
6339
  3
ACAD_XREC_ROUNDTRIP
360
633F
  0
XRECORD
  5
633E
102
{ACAD_REACTORS
330
633D
102
}
330
633D
100
AcDbXrecord
280
     1
102
SHADEPLOT
 70
     0
102
SHADEPLOTRESLEVEL
 70
     2
102
SHADEPLOTCUSTOMDPI
 70
   300
  0
XRECORD
  5
633C
102
{ACAD_REACTORS
330
633B
102
}
330
633B
100
AcDbXrecord
280
     1
102
SHADEPLOT
 70
     0
102
SHADEPLOTRESLEVEL
 70
     2
102
SHADEPLOTCUSTOMDPI
 70
   300
  0
XRECORD
  5
6320
102
{ACAD_REACTORS
330
3156
102
}
330
3156
100
AcDbXrecord
280
     1
102
MATERIAL
148
0.0
149
0.0
149
0.0
 93
        0
 94
      127
282
     0
 72
     0
 77
     0
171
     0
175
     0
179
     0
273
     0
  0
XRECORD
  5
3158
102
{ACAD_REACTORS
330
3156
102
}
330
3156
100
AcDbXrecord
280
     1
270
     1
271
     1
  0
XRECORD
  5
3157
102
{ACAD_REACTORS
330
3156
102
}
330
3156
100
AcDbXrecord
280
     1
270
     1
271
     1
  0
XRECORD
  5
315B
102
{ACAD_REACTORS
330
3156
102
}
330
3156
100
AcDbXrecord
280
     1
270
     1
271
     1
  0
XRECORD
  5
315A
102
{ACAD_REACTORS
330
3156
102
}
330
3156
100
AcDbXrecord
280
     1
270
     1
271
     1
  0
XRECORD
  5
315C
102
{ACAD_REACTORS
330
3156
102
}
330
3156
100
AcDbXrecord
280
     1
270
     1
271
     1
  0
XRECORD
  5
3159
102
{ACAD_REACTORS
330
3156
102
}
330
3156
100
AcDbXrecord
280
     1
270
     1
271
     1
  0
XRECORD
  5
631F
102
{ACAD_REACTORS
330
314E
102
}
330
314E
100
AcDbXrecord
280
     1
102
MATERIAL
148
0.0
149
0.0
149
0.0
 93
        0
 94
      127
282
     0
 72
     0
 77
     0
171
     0
175
     0
179
     0
273
     0
  0
XRECORD
  5
3150
102
{ACAD_REACTORS
330
314E
102
}
330
314E
100
AcDbXrecord
280
     1
270
     1
271
     1
  0
XRECORD
  5
314F
102
{ACAD_REACTORS
330
314E
102
}
330
314E
100
AcDbXrecord
280
     1
270
     1
271
     1
  0
XRECORD
  5
3153
102
{ACAD_REACTORS
330
314E
102
}
330
314E
100
AcDbXrecord
280
     1
270
     1
271
     1
  0
XRECORD
  5
3152
102
{ACAD_REACTORS
330
314E
102
}
330
314E
100
AcDbXrecord
280
     1
270
     1
271
     1
  0
XRECORD
  5
3154
102
{ACAD_REACTORS
330
314E
102
}
330
314E
100
AcDbXrecord
280
     1
270
     1
271
     1
  0
XRECORD
  5
3151
102
{ACAD_REACTORS
330
314E
102
}
330
314E
100
AcDbXrecord
280
     1
270
     1
271
     1
  0
XRECORD
  5
6321
102
{ACAD_REACTORS
330
315E
102
}
330
315E
100
AcDbXrecord
280
     1
102
MATERIAL
148
0.0
149
0.0
149
0.0
 93
        0
 94
      127
282
     0
 72
     0
 77
     0
171
     0
175
     0
179
     0
273
     0
  0
XRECORD
  5
3160
102
{ACAD_REACTORS
330
315E
102
}
330
315E
100
AcDbXrecord
280
     1
270
     1
271
     1
  0
XRECORD
  5
315F
102
{ACAD_REACTORS
330
315E
102
}
330
315E
100
AcDbXrecord
280
     1
270
     1
271
     1
  0
XRECORD
  5
3163
102
{ACAD_REACTORS
330
315E
102
}
330
315E
100
AcDbXrecord
280
     1
270
     1
271
     1
  0
XRECORD
  5
3162
102
{ACAD_REACTORS
330
315E
102
}
330
315E
100
AcDbXrecord
280
     1
270
     1
271
     1
  0
XRECORD
  5
3164
102
{ACAD_REACTORS
330
315E
102
}
330
315E
100
AcDbXrecord
280
     1
270
     1
271
     1
  0
XRECORD
  5
3161
102
{ACAD_REACTORS
330
315E
102
}
330
315E
100
AcDbXrecord
280
     1
270
     1
271
     1
  0
CELLSTYLEMAP
  5
6339
102
{ACAD_REACTORS
330
6308
102
}
330
6308
100
AcDbCellStyleMap
 90
        3
300
CELLSTYLE
  1
TABLEFORMAT_BEGIN
 90
        5
170
     1
 91
        0
 92
    32768
 62
   257
 93
        1
300
CONTENTFORMAT
  1
CONTENTFORMAT_BEGIN
 90
        0
 91
        0
 92
      512
 93
        0
300

 40
0.0
140
1.0
 94
        5
 62
     0
340
17
144
6.0
309
CONTENTFORMAT_END
171
     1
301
MARGIN
  1
CELLMARGIN_BEGIN
 40
1.5
 40
1.5
 40
1.5
 40
1.5
 40
0.18
 40
0.18
309
CELLMARGIN_END
 94
        6
 95
        1
302
GRIDFORMAT
  1
GRIDFORMAT_BEGIN
 90
        0
 91
        1
 62
     0
 92
       -2
340
0
 93
        0
 40
1.125
309
GRIDFORMAT_END
 95
        2
302
GRIDFORMAT
  1
GRIDFORMAT_BEGIN
 90
        0
 91
        1
 62
     0
 92
       -2
340
0
 93
        0
 40
1.125
309
GRIDFORMAT_END
 95
        4
302
GRIDFORMAT
  1
GRIDFORMAT_BEGIN
 90
        0
 91
        1
 62
     0
 92
       -2
340
0
 93
        0
 40
1.125
309
GRIDFORMAT_END
 95
        8
302
GRIDFORMAT
  1
GRIDFORMAT_BEGIN
 90
        0
 91
        1
 62
     0
 92
       -2
340
0
 93
        0
 40
1.125
309
GRIDFORMAT_END
 95
       16
302
GRIDFORMAT
  1
GRIDFORMAT_BEGIN
 90
        0
 91
        1
 62
     0
 92
       -2
340
0
 93
        0
 40
1.125
309
GRIDFORMAT_END
 95
       32
302
GRIDFORMAT
  1
GRIDFORMAT_BEGIN
 90
        0
 91
        1
 62
     0
 92
       -2
340
0
 93
        0
 40
1.125
309
GRIDFORMAT_END
309
TABLEFORMAT_END
  1
CELLSTYLE_BEGIN
 90
        1
 91
        1
300
_TITLE
309
CELLSTYLE_END
300
CELLSTYLE
  1
TABLEFORMAT_BEGIN
 90
        5
170
     1
 91
        0
 92
        0
 62
   257
 93
        1
300
CONTENTFORMAT
  1
CONTENTFORMAT_BEGIN
 90
        0
 91
        0
 92
      512
 93
        0
300

 40
0.0
140
1.0
 94
        5
 62
     0
340
17
144
4.5
309
CONTENTFORMAT_END
171
     1
301
MARGIN
  1
CELLMARGIN_BEGIN
 40
1.5
 40
1.5
 40
1.5
 40
1.5
 40
0.18
 40
0.18
309
CELLMARGIN_END
 94
        6
 95
        1
302
GRIDFORMAT
  1
GRIDFORMAT_BEGIN
 90
        0
 91
        1
 62
     0
 92
       -2
340
0
 93
        0
 40
1.125
309
GRIDFORMAT_END
 95
        2
302
GRIDFORMAT
  1
GRIDFORMAT_BEGIN
 90
        0
 91
        1
 62
     0
 92
       -2
340
0
 93
        0
 40
1.125
309
GRIDFORMAT_END
 95
        4
302
GRIDFORMAT
  1
GRIDFORMAT_BEGIN
 90
        0
 91
        1
 62
     0
 92
       -2
340
0
 93
        0
 40
1.125
309
GRIDFORMAT_END
 95
        8
302
GRIDFORMAT
  1
GRIDFORMAT_BEGIN
 90
        0
 91
        1
 62
     0
 92
       -2
340
0
 93
        0
 40
1.125
309
GRIDFORMAT_END
 95
       16
302
GRIDFORMAT
  1
GRIDFORMAT_BEGIN
 90
        0
 91
        1
 62
     0
 92
       -2
340
0
 93
        0
 40
1.125
309
GRIDFORMAT_END
 95
       32
302
GRIDFORMAT
  1
GRIDFORMAT_BEGIN
 90
        0
 91
        1
 62
     0
 92
       -2
340
0
 93
        0
 40
1.125
309
GRIDFORMAT_END
309
TABLEFORMAT_END
  1
CELLSTYLE_BEGIN
 90
        2
 91
        1
300
_HEADER
309
CELLSTYLE_END
300
CELLSTYLE
  1
TABLEFORMAT_BEGIN
 90
        5
170
     1
 91
        0
 92
        0
 62
   257
 93
        1
300
CONTENTFORMAT
  1
CONTENTFORMAT_BEGIN
 90
        0
 91
        0
 92
      512
 93
        0
300

 40
0.0
140
1.0
 94
        2
 62
     0
340
17
144
4.5
309
CONTENTFORMAT_END
171
     1
301
MARGIN
  1
CELLMARGIN_BEGIN
 40
1.5
 40
1.5
 40
1.5
 40
1.5
 40
0.18
 40
0.18
309
CELLMARGIN_END
 94
        6
 95
        1
302
GRIDFORMAT
  1
GRIDFORMAT_BEGIN
 90
        0
 91
        1
 62
     0
 92
       -2
340
0
 93
        0
 40
1.125
309
GRIDFORMAT_END
 95
        2
302
GRIDFORMAT
  1
GRIDFORMAT_BEGIN
 90
        0
 91
        1
 62
     0
 92
       -2
340
0
 93
        0
 40
1.125
309
GRIDFORMAT_END
 95
        4
302
GRIDFORMAT
  1
GRIDFORMAT_BEGIN
 90
        0
 91
        1
 62
     0
 92
       -2
340
0
 93
        0
 40
1.125
309
GRIDFORMAT_END
 95
        8
302
GRIDFORMAT
  1
GRIDFORMAT_BEGIN
 90
        0
 91
        1
 62
     0
 92
       -2
340
0
 93
        0
 40
1.125
309
GRIDFORMAT_END
 95
       16
302
GRIDFORMAT
  1
GRIDFORMAT_BEGIN
 90
        0
 91
        1
 62
     0
 92
       -2
340
0
 93
        0
 40
1.125
309
GRIDFORMAT_END
 95
       32
302
GRIDFORMAT
  1
GRIDFORMAT_BEGIN
 90
        0
 91
        1
 62
     0
 92
       -2
340
0
 93
        0
 40
1.125
309
GRIDFORMAT_END
309
TABLEFORMAT_END
  1
CELLSTYLE_BEGIN
 90
        3
 91
        2
300
_DATA
309
CELLSTYLE_END
  0
XRECORD
  5
633F
102
{ACAD_REACTORS
330
6308
102
}
330
6308
100
AcDbXrecord
280
     1
102
ACAD_ROUNDTRIP_PRE2007_TABLESTYLE
 90
      512
 91
        0
  1

 92
      512
 93
        0
  2

 94
      512
 95
        0
  3

  0
ENDSEC
  0
EOF
