  0
SECTION
  2
HEADER
  9
$ACADVER
  1
AC1015
  9
$ACADMAINTVER
 70
     6
  9
$DWGCODEPAGE
  3
ANSI_1252
  9
$INSBASE
 10
0.0
 20
0.0
 30
0.0
  9
$EXTMIN
 10
113.5043309604835
 20
-113.393127940038
 30
0.0
  9
$EXTMAX
 10
736.183309180518
 20
86.54309005279788
 30
0.0
  9
$LIMMIN
 10
-66.34999999999982
 20
-2008.85
  9
$LIMMAX
 10
3734.350000000001
 20
346.85
  9
$ORTHOMODE
 70
     1
  9
$REGENMODE
 70
     1
  9
$FILLMODE
 70
     1
  9
$QTEXTMODE
 70
     0
  9
$MIRRTEXT
 70
     1
  9
$LTSCALE
 40
10.0
  9
$ATTMODE
 70
     1
  9
$TEXTSIZE
 40
0.0
  9
$TRACEWID
 40
0.05
  9
$TEXTSTYLE
  7
Standard
  9
$CLAYER
  8
0
  9
$CELTYPE
  6
Continuous
  9
$CECOLOR
 62
   256
  9
$CELTSCALE
 40
1.0
  9
$DISPSILH
 70
     0
  9
$DIMSCALE
 40
1.0
  9
$DIMASZ
 40
1.25
  9
$DIMEXO
 40
0.0
  9
$DIMDLI
 40
0.38
  9
$DIMRND
 40
0.0
  9
$DIMDLE
 40
0.0
  9
$DIMEXE
 40
0.75
  9
$DIMTP
 40
0.0
  9
$DIMTM
 40
0.0
  9
$DIMTXT
 40
2.5
  9
$DIMCEN
 40
0.09
  9
$DIMTSZ
 40
0.0
  9
$DIMTOL
 70
     0
  9
$DIMLIM
 70
     0
  9
$DIMTIH
 70
     0
  9
$DIMTOH
 70
     0
  9
$DIMSE1
 70
     0
  9
$DIMSE2
 70
     0
  9
$DIMTAD
 70
     1
  9
$DIMZIN
 70
     0
  9
$DIMBLK
  1

  9
$DIMASO
 70
     1
  9
$DIMSHO
 70
     1
  9
$DIMPOST
  1

  9
$DIMAPOST
  1

  9
$DIMALT
 70
     0
  9
$DIMALTD
 70
     2
  9
$DIMALTF
 40
25.4
  9
$DIMLFAC
 40
1.0
  9
$DIMTOFL
 70
     0
  9
$DIMTVP
 40
0.0
  9
$DIMTIX
 70
     0
  9
$DIMSOXD
 70
     0
  9
$DIMSAH
 70
     0
  9
$DIMBLK1
  1

  9
$DIMBLK2
  1

  9
$DIMSTYLE
  2
Standard
  9
$DIMCLRD
 70
     7
  9
$DIMCLRE
 70
     7
  9
$DIMCLRT
 70
     7
  9
$DIMTFAC
 40
0.8
  9
$DIMGAP
 40
1.25
  9
$DIMJUST
 70
     0
  9
$DIMSD1
 70
     0
  9
$DIMSD2
 70
     0
  9
$DIMTOLJ
 70
     1
  9
$DIMTZIN
 70
     0
  9
$DIMALTZ
 70
     0
  9
$DIMALTTZ
 70
     0
  9
$DIMUPT
 70
     0
  9
$DIMDEC
 70
     2
  9
$DIMTDEC
 70
     4
  9
$DIMALTU
 70
     2
  9
$DIMALTTD
 70
     2
  9
$DIMTXSTY
  7
Standard
  9
$DIMAUNIT
 70
     0
  9
$DIMADEC
 70
     0
  9
$DIMALTRND
 40
0.0
  9
$DIMAZIN
 70
     0
  9
$DIMDSEP
 70
     0
  9
$DIMATFIT
 70
     3
  9
$DIMFRAC
 70
     0
  9
$DIMLDRBLK
  1

  9
$DIMLUNIT
 70
     2
  9
$DIMLWD
 70
     0
  9
$DIMLWE
 70
     0
  9
$DIMTMOVE
 70
     0
  9
$LUNITS
 70
     2
  9
$LUPREC
 70
     4
  9
$SKETCHINC
 40
0.1
  9
$FILLETRAD
 40
0.0
  9
$AUNITS
 70
     0
  9
$AUPREC
 70
     0
  9
$MENU
  1
acad
  9
$ELEVATION
 40
0.0
  9
$PELEVATION
 40
0.0
  9
$THICKNESS
 40
0.0
  9
$LIMCHECK
 70
     0
  9
$CHAMFERA
 40
0.0
  9
$CHAMFERB
 40
0.0
  9
$CHAMFERC
 40
0.0
  9
$CHAMFERD
 40
0.0
  9
$SKPOLY
 70
     0
  9
$TDCREATE
 40
2455303.68625
  9
$TDUCREATE
 40
2455303.644583333
  9
$TDUPDATE
 40
2457015.460147859
  9
$TDUUPDATE
 40
2457015.418481192
  9
$TDINDWG
 40
0.0083894097
  9
$TDUSRTIMER
 40
2457015.41809691
  9
$USRTIMER
 70
     1
  9
$ANGBASE
 50
0.0
  9
$ANGDIR
 70
     0
  9
$PDMODE
 70
     0
  9
$PDSIZE
 40
0.0
  9
$PLINEWID
 40
0.0
  9
$SPLFRAME
 70
     0
  9
$SPLINETYPE
 70
     6
  9
$SPLINESEGS
 70
     8
  9
$HANDSEED
  5
66A9
  9
$SURFTAB1
 70
     6
  9
$SURFTAB2
 70
     6
  9
$SURFTYPE
 70
     6
  9
$SURFU
 70
     6
  9
$SURFV
 70
     6
  9
$UCSBASE
  2

  9
$UCSNAME
  2

  9
$UCSORG
 10
0.0
 20
0.0
 30
0.0
  9
$UCSXDIR
 10
1.0
 20
0.0
 30
0.0
  9
$UCSYDIR
 10
0.0
 20
1.0
 30
0.0
  9
$UCSORTHOREF
  2

  9
$UCSORTHOVIEW
 70
     0
  9
$UCSORGTOP
 10
0.0
 20
0.0
 30
0.0
  9
$UCSORGBOTTOM
 10
0.0
 20
0.0
 30
0.0
  9
$UCSORGLEFT
 10
0.0
 20
0.0
 30
0.0
  9
$UCSORGRIGHT
 10
0.0
 20
0.0
 30
0.0
  9
$UCSORGFRONT
 10
0.0
 20
0.0
 30
0.0
  9
$UCSORGBACK
 10
0.0
 20
0.0
 30
0.0
  9
$PUCSBASE
  2

  9
$PUCSNAME
  2

  9
$PUCSORG
 10
0.0
 20
0.0
 30
0.0
  9
$PUCSXDIR
 10
1.0
 20
0.0
 30
0.0
  9
$PUCSYDIR
 10
0.0
 20
1.0
 30
0.0
  9
$PUCSORTHOREF
  2

  9
$PUCSORTHOVIEW
 70
     0
  9
$PUCSORGTOP
 10
0.0
 20
0.0
 30
0.0
  9
$PUCSORGBOTTOM
 10
0.0
 20
0.0
 30
0.0
  9
$PUCSORGLEFT
 10
0.0
 20
0.0
 30
0.0
  9
$PUCSORGRIGHT
 10
0.0
 20
0.0
 30
0.0
  9
$PUCSORGFRONT
 10
0.0
 20
0.0
 30
0.0
  9
$PUCSORGBACK
 10
0.0
 20
0.0
 30
0.0
  9
$USERI1
 70
     0
  9
$USERI2
 70
     0
  9
$USERI3
 70
     0
  9
$USERI4
 70
     0
  9
$USERI5
 70
     0
  9
$USERR1
 40
0.0
  9
$USERR2
 40
0.0
  9
$USERR3
 40
0.0
  9
$USERR4
 40
0.0
  9
$USERR5
 40
0.0
  9
$WORLDVIEW
 70
     1
  9
$SHADEDGE
 70
     3
  9
$SHADEDIF
 70
    70
  9
$TILEMODE
 70
     1
  9
$MAXACTVP
 70
    16
  9
$PINSBASE
 10
0.0
 20
0.0
 30
0.0
  9
$PLIMCHECK
 70
     0
  9
$PEXTMIN
 10
1.000000000000000E+20
 20
1.000000000000000E+20
 30
1.000000000000000E+20
  9
$PEXTMAX
 10
-1.000000000000000E+20
 20
-1.000000000000000E+20
 30
-1.000000000000000E+20
  9
$PLIMMIN
 10
0.0
 20
0.0
  9
$PLIMMAX
 10
0.0
 20
0.0
  9
$UNITMODE
 70
     0
  9
$VISRETAIN
 70
     0
  9
$PLINEGEN
 70
     1
  9
$PSLTSCALE
 70
     0
  9
$TREEDEPTH
 70
  3020
  9
$CMLSTYLE
  2
Standard
  9
$CMLJUST
 70
     0
  9
$CMLSCALE
 40
1.0
  9
$PROXYGRAPHICS
 70
     0
  9
$MEASUREMENT
 70
     1
  9
$CELWEIGHT
370
     0
  9
$ENDCAPS
280
     0
  9
$JOINSTYLE
280
     0
  9
$LWDISPLAY
290
     0
  9
$INSUNITS
 70
     0
  9
$HYPERLINKBASE
  1

  9
$STYLESHEET
  1

  9
$XEDIT
290
     1
  9
$CEPSNTYPE
380
     0
  9
$PSTYLEMODE
290
     1
  9
$FINGERPRINTGUID
  2

  9
$VERSIONGUID
  2
{63E3F681-14DC-4BB7-AD95-8F9A020593E1}
  9
$EXTNAMES
290
     1
  9
$PSVPSCALE
 40
0.0
  9
$OLESTARTUP
290
     0
  0
ENDSEC
  0
SECTION
  2
CLASSES
  0
CLASS
  1
IMAGE
  2
AcDbRasterImage
  3
ISM
 90
      127
280
     0
281
     1
  0
CLASS
  1
DICTIONARYVAR
  2
AcDbDictionaryVar
  3
ObjectDBX Classes
 90
        0
280
     0
281
     0
  0
CLASS
  1
RASTERVARIABLES
  2
AcDbRasterVariables
  3
ISM
 90
        0
280
     0
281
     0
  0
CLASS
  1
IMAGEDEF
  2
AcDbRasterImageDef
  3
ISM
 90
        0
280
     0
281
     0
  0
CLASS
  1
IMAGEDEF_REACTOR
  2
AcDbRasterImageDefReactor
  3
ISM
 90
        1
280
     0
281
     0
  0
CLASS
  1
IDBUFFER
  2
AcDbIdBuffer
  3
ObjectDBX Classes
 90
        0
280
     0
281
     0
  0
CLASS
  1
SPATIAL_FILTER
  2
AcDbSpatialFilter
  3
ObjectDBX Classes
 90
        0
280
     0
281
     0
  0
CLASS
  1
SORTENTSTABLE
  2
AcDbSortentsTable
  3
ObjectDBX Classes
 90
        0
280
     0
281
     0
  0
CLASS
  1
LAYER_INDEX
  2
AcDbLayerIndex
  3
ObjectDBX Classes
 90
        0
280
     0
281
     0
  0
CLASS
  1
SPATIAL_INDEX
  2
AcDbSpatialIndex
  3
AutoCAD 2000
 90
        0
280
     0
281
     0
  0
CLASS
  1
OBJECT_PTR
  2
CAseDLPNTableRecord
  3
ASE-LPNTableRecord
 90
        1
280
     0
281
     0
  0
CLASS
  1
LAYOUT
  2
AcDbLayout
  3
ObjectDBX Classes
 90
        0
280
     0
281
     0
  0
CLASS
  1
PLOTSETTINGS
  2
AcDbPlotSettings
  3
ObjectDBX Classes
 90
        0
280
     0
281
     0
  0
CLASS
  1
ACDBDICTIONARYWDFLT
  2
AcDbDictionaryWithDefault
  3
ObjectDBX Classes
 90
        0
280
     0
281
     0
  0
CLASS
  1
ACDBPLACEHOLDER
  2
AcDbPlaceHolder
  3
ObjectDBX Classes
 90
        0
280
     0
281
     0
  0
CLASS
  1
VBA_PROJECT
  2
AcDbVbaProject
  3
ObjectDBX Classes
 90
        0
280
     0
281
     0
  0
CLASS
  1
WIPEOUT
  2
AcDbWipeout
  3
WipeOut|AutoCAD Express Tool|expresstools@autodesk.com
 90
      127
280
     0
281
     1
  0
CLASS
  1
WIPEOUTVARIABLES
  2
AcDbWipeoutVariables
  3
WipeOut|AutoCAD Express Tool|expresstools@autodesk.com
 90
        0
280
     0
281
     0
  0
CLASS
  1
RTEXT
  2
RText
  3
RText|AutoCAD Express Tool|expresstools@autodesk.com
 90
        0
280
     0
281
     1
  0
CLASS
  1
ARCALIGNEDTEXT
  2
AcDbArcAlignedText
  3
ATEXT|AutoCAD Express Tool|expresstools@autodesk.com
 90
        0
280
     0
281
     1
  0
CLASS
  1
MATERIAL
  2
AcDbMaterial
  3
ObjectDBX Classes
 90
     1153
280
     0
281
     0
  0
CLASS
  1
VISUALSTYLE
  2
AcDbVisualStyle
  3
ObjectDBX Classes
 90
     4095
280
     0
281
     0
  0
CLASS
  1
TABLESTYLE
  2
AcDbTableStyle
  3
ObjectDBX Classes
 90
     4095
280
     0
281
     0
  0
CLASS
  1
SCALE
  2
AcDbScale
  3
ObjectDBX Classes
 90
     1153
280
     0
281
     0
  0
CLASS
  1
MLEADERSTYLE
  2
AcDbMLeaderStyle
  3
ACDB_MLEADERSTYLE_CLASS
 90
     4095
280
     0
281
     0
  0
CLASS
  1
CELLSTYLEMAP
  2
AcDbCellStyleMap
  3
ObjectDBX Classes
 90
     1152
280
     0
281
     0
  0
CLASS
  1
SUN
  2
AcDbSun
  3
SCENEOE
 90
     1153
280
     0
281
     0
  0
ENDSEC
  0
SECTION
  2
TABLES
  0
TABLE
  2
VPORT
  5
7
330
0
100
AcDbSymbolTable
 70
     1
  0
VPORT
  5
15
330
7
100
AcDbSymbolTableRecord
100
AcDbViewportTableRecord
  2
*ACTIVE
 70
     0
 10
0.0
 20
0.0
 11
1.0
 21
1.0
 12
388.0963766034249
 22
-28.55129218471865
 13
0.0
 23
0.0
 14
1.0
 24
1.0
 15
0.0
 25
0.0
 16
0.0
 26
0.0
 36
1.0
 17
0.0
 27
0.0
 37
0.0
 40
349.5280087914881
 41
2.271393643031785
 42
50.0
 43
0.0
 44
0.0
 50
0.0
 51
0.0
 71
    16
 72
   100
 73
     1
 74
     1
 75
     0
 76
     0
 77
     0
 78
     0
281
     0
 65
     0
110
0.0
120
0.0
130
0.0
111
1.0
121
0.0
131
0.0
112
0.0
122
1.0
132
0.0
 79
     0
146
0.0
  0
ENDTAB
  0
TABLE
  2
LTYPE
  5
4
330
0
100
AcDbSymbolTable
 70
     2
  0
LTYPE
  5
11
330
4
100
AcDbSymbolTableRecord
100
AcDbLinetypeTableRecord
  2
ByBlock
 70
     0
  3

 72
    65
 73
     0
 40
0.0
  0
LTYPE
  5
12
330
4
100
AcDbSymbolTableRecord
100
AcDbLinetypeTableRecord
  2
ByLayer
 70
     0
  3

 72
    65
 73
     0
 40
0.0
  0
LTYPE
  5
13
330
4
100
AcDbSymbolTableRecord
100
AcDbLinetypeTableRecord
  2
Continuous
 70
     0
  3
Solid line
 72
    65
 73
     0
 40
0.0
  0
LTYPE
  5
1E4
330
4
100
AcDbSymbolTableRecord
100
AcDbLinetypeTableRecord
  2
CENTER
 70
     0
  3
____ _ ____ _ ____ _ ____ _ ____ _ ____ _ ____
 72
    65
 73
     4
 40
2.0
 49
1.25
 74
     0
 49
-0.25
 74
     0
 49
0.25
 74
     0
 49
-0.25
 74
     0
  0
ENDTAB
  0
TABLE
  2
LAYER
  5
2
330
0
100
AcDbSymbolTable
 70
     2
  0
LAYER
  5
14
102
{ACAD_XDICTIONARY
360
5E41
102
}
330
2
100
AcDbSymbolTableRecord
100
AcDbLayerTableRecord
  2
0
 70
     0
 62
     7
  6
Continuous
370
    -3
390
1D
  0
LAYER
  5
6692
330
2
100
AcDbSymbolTableRecord
100
AcDbLayerTableRecord
  2
Defpoints
 70
     0
 62
     7
  6
Continuous
290
     0
370
    -3
390
1D
  0
ENDTAB
  0
TABLE
  2
STYLE
  5
3
330
0
100
AcDbSymbolTable
 70
     7
  0
STYLE
  5
17
330
3
100
AcDbSymbolTableRecord
100
AcDbTextStyleTableRecord
  2
Standard
 70
     0
 40
0.0
 41
1.0
 50
0.0
 71
     0
 42
0.0
  3
I011000D.TTF
  4

1001
ACAD
1000
IsonormD
1071
        0
  0
STYLE
  5
639F
330
3
100
AcDbSymbolTableRecord
100
AcDbTextStyleTableRecord
  2
SLDTEXTSTYLE0
 70
     0
 40
0.0
 41
0.605
 50
0.0
 71
     0
 42
0.0
  3
TXT
  4

  0
STYLE
  5
63A0
330
3
100
AcDbSymbolTableRecord
100
AcDbTextStyleTableRecord
  2
SLDTEXTSTYLE1
 70
     0
 40
0.0
 41
0.609090909090909
 50
0.0
 71
     0
 42
0.0
  3
TXT
  4

  0
STYLE
  5
63A1
330
3
100
AcDbSymbolTableRecord
100
AcDbTextStyleTableRecord
  2
SLDTEXTSTYLE2
 70
     0
 40
0.0
 41
0.7
 50
0.0
 71
     0
 42
0.0
  3
TXT
  4

  0
STYLE
  5
63A2
330
3
100
AcDbSymbolTableRecord
100
AcDbTextStyleTableRecord
  2
SLDTEXTSTYLE3
 70
     0
 40
0.0
 41
0.57
 50
0.0
 71
     0
 42
0.0
  3
TXT
  4

  0
STYLE
  5
63A3
330
3
100
AcDbSymbolTableRecord
100
AcDbTextStyleTableRecord
  2
SLDTEXTSTYLE4
 70
     0
 40
0.0
 41
0.75
 50
0.0
 71
     0
 42
0.0
  3
TXT
  4

  0
STYLE
  5
63A4
330
3
100
AcDbSymbolTableRecord
100
AcDbTextStyleTableRecord
  2
SLDTEXTSTYLE5
 70
     0
 40
0.0
 41
1.164546139600452
 50
0.0
 71
     0
 42
0.0
  3
TXT
  4

  0
ENDTAB
  0
TABLE
  2
VIEW
  5
5
330
0
100
AcDbSymbolTable
 70
     0
  0
ENDTAB
  0
TABLE
  2
UCS
  5
6
330
0
100
AcDbSymbolTable
 70
     0
  0
ENDTAB
  0
TABLE
  2
APPID
  5
8
330
0
100
AcDbSymbolTable
 70
     5
  0
APPID
  5
16
330
8
100
AcDbSymbolTableRecord
100
AcDbRegAppTableRecord
  2
ACAD
 70
     0
  0
APPID
  5
26
330
8
100
AcDbSymbolTableRecord
100
AcDbRegAppTableRecord
  2
TopSolid'Draft
 70
     0
  0
APPID
  5
319D
330
8
100
AcDbSymbolTableRecord
100
AcDbRegAppTableRecord
  2
ACAD_MLEADERVER
 70
     0
  0
APPID
  5
5E45
330
8
100
AcDbSymbolTableRecord
100
AcDbRegAppTableRecord
  2
DCO15
 70
     0
  0
APPID
  5
633B
330
8
100
AcDbSymbolTableRecord
100
AcDbRegAppTableRecord
  2
ACAD_EXEMPT_FROM_CAD_STANDARDS
 70
     0
  0
ENDTAB
  0
TABLE
  2
DIMSTYLE
  5
9
330
0
100
AcDbSymbolTable
 70
     2
100
AcDbDimStyleTable
  0
DIMSTYLE
105
18
330
9
100
AcDbSymbolTableRecord
100
AcDbDimStyleTableRecord
  2
Standard
 70
     0
 41
1.25
 42
0.0
 44
0.75
 73
     0
 74
     0
 77
     1
140
2.5
146
0.8
147
1.25
176
     7
177
     7
271
     2
178
     7
271
     2
340
17
  0
DIMSTYLE
105
639D
330
9
100
AcDbSymbolTableRecord
100
AcDbDimStyleTableRecord
  2
ISO-25
 70
     0
 41
2.5
 42
0.625
 43
3.75
 44
1.25
 73
     0
 74
     0
 77
     1
 78
     8
140
2.5
141
2.5
143
0.03937007874016
147
0.625
171
     3
172
     1
178
     0
271
     2
272
     2
274
     3
278
    44
283
     0
284
     8
340
17
  0
ENDTAB
  0
TABLE
  2
BLOCK_RECORD
  5
1
330
0
100
AcDbSymbolTable
 70
     7
  0
BLOCK_RECORD
  5
A
102
{ACAD_XDICTIONARY
360
31A7
102
}
330
1
100
AcDbSymbolTableRecord
100
AcDbBlockTableRecord
  2
*MODEL_SPACE
340
20
  0
BLOCK_RECORD
  5
B
330
1
100
AcDbSymbolTableRecord
100
AcDbBlockTableRecord
  2
*PAPER_SPACE
340
21
  0
BLOCK_RECORD
  5
642E
330
1
100
AcDbSymbolTableRecord
100
AcDbBlockTableRecord
  2
SW_NOTE_0
340
0
  0
BLOCK_RECORD
  5
643A
330
1
100
AcDbSymbolTableRecord
100
AcDbBlockTableRecord
  2
SW_NOTE_1
340
0
  0
BLOCK_RECORD
  5
6454
330
1
100
AcDbSymbolTableRecord
100
AcDbBlockTableRecord
  2
SW_NOTE_2
340
0
  0
BLOCK_RECORD
  5
6460
330
1
100
AcDbSymbolTableRecord
100
AcDbBlockTableRecord
  2
SW_NOTE_3
340
0
  0
BLOCK_RECORD
  5
6468
330
1
100
AcDbSymbolTableRecord
100
AcDbBlockTableRecord
  2
SW_NOTE_4
340
0
  0
ENDTAB
  0
ENDSEC
  0
SECTION
  2
BLOCKS
  0
BLOCK
  5
D
330
A
100
AcDbEntity
  8
0
100
AcDbBlockBegin
  2
*MODEL_SPACE
 70
     0
 10
0.0
 20
0.0
 30
0.0
  3
*MODEL_SPACE
  1
*MODEL_SPACE
  0
ENDBLK
  5
E
330
A
100
AcDbEntity
  8
0
100
AcDbBlockEnd
  0
BLOCK
  5
F
330
B
100
AcDbEntity
 67
     1
  8
0
100
AcDbBlockBegin
  2
*PAPER_SPACE
 70
     0
 10
0.0
 20
0.0
 30
0.0
  3
*PAPER_SPACE
  1
*PAPER_SPACE
  0
ENDBLK
  5
10
330
B
100
AcDbEntity
 67
     1
  8
0
100
AcDbBlockEnd
  0
BLOCK
  5
642F
330
642E
100
AcDbEntity
  8
0
100
AcDbBlockBegin
  2
SW_NOTE_0
 70
     0
 10
0.0
 20
0.0
 30
0.0
  3
SW_NOTE_0
  1
SW_NOTE_0
  0
MTEXT
  5
6430
330
642E
100
AcDbEntity
  8
0
  6
Continuous
 62
     0
370
     0
100
AcDbMText
 10
0.0
 20
2.387460876369325
 30
0.0
 40
1.852083333333333
 41
0.0
 71
     1
 72
     1
  1
FINITURA
  7
SLDTEXTSTYLE0
 73
     1
 44
1.0
  0
MTEXT
  5
6431
330
642E
100
AcDbEntity
  8
0
  6
Continuous
 62
     0
370
     0
100
AcDbMText
 10
0.0
 20
-0.0819835382314046
 30
0.0
 40
1.852083333333333
 41
0.0
 71
     1
 72
     1
  1
SPECIFICA:
  7
SLDTEXTSTYLE0
 73
     1
 44
1.0
  0
ENDBLK
  5
6432
330
642E
100
AcDbEntity
  8
0
100
AcDbBlockEnd
  0
BLOCK
  5
643B
330
643A
100
AcDbEntity
  8
0
100
AcDbBlockBegin
  2
SW_NOTE_1
 70
     0
 10
0.0
 20
0.0
 30
0.0
  3
SW_NOTE_1
  1
SW_NOTE_1
  0
MTEXT
  5
643C
330
643A
100
AcDbEntity
  8
0
  6
Continuous
 62
     0
370
     0
100
AcDbMText
 10
0.0
 20
2.387460876369325
 30
0.0
 40
1.852083333333333
 41
0.0
 71
     1
 72
     1
  1
CROMATURA
  7
SLDTEXTSTYLE0
 73
     1
 44
1.0
  0
MTEXT
  5
643D
330
643A
100
AcDbEntity
  8
0
  6
Continuous
 62
     0
370
     0
100
AcDbMText
 10
0.0
 20
-0.0819835382314046
 30
0.0
 40
1.852083333333333
 41
0.0
 71
     1
 72
     1
  1
A KANBAN
  7
SLDTEXTSTYLE0
 73
     1
 44
1.0
  0
ENDBLK
  5
643E
330
643A
100
AcDbEntity
  8
0
100
AcDbBlockEnd
  0
BLOCK
  5
6455
330
6454
100
AcDbEntity
  8
0
100
AcDbBlockBegin
  2
SW_NOTE_2
 70
     0
 10
0.0
 20
0.0
 30
0.0
  3
SW_NOTE_2
  1
SW_NOTE_2
  0
MTEXT
  5
6456
330
6454
100
AcDbEntity
  8
0
  6
Continuous
 62
     0
370
     0
100
AcDbMText
 10
0.0
 20
4.433855913257321
 30
0.0
 40
3.439583333333333
 41
0.0
 71
     1
 72
     1
  1
ACCESSORIO A "T" PER
  7
SLDTEXTSTYLE0
 73
     1
 44
1.0
  0
MTEXT
  5
6457
330
6454
100
AcDbEntity
  8
0
  6
Continuous
 62
     0
370
     0
100
AcDbMText
 10
0.0
 20
-0.1522553752603927
 30
0.0
 40
3.439583333333333
 41
0.0
 71
     1
 72
     1
  1
FERMAVETRO
  7
SLDTEXTSTYLE0
 73
     1
 44
1.0
  0
ENDBLK
  5
6458
330
6454
100
AcDbEntity
  8
0
100
AcDbBlockEnd
  0
BLOCK
  5
6461
330
6460
100
AcDbEntity
  8
0
100
AcDbBlockBegin
  2
SW_NOTE_3
 70
     0
 10
0.0
 20
0.0
 30
0.0
  3
SW_NOTE_3
  1
SW_NOTE_3
  0
MTEXT
  5
6462
330
6460
100
AcDbEntity
  8
0
  6
Continuous
 62
     0
370
     0
100
AcDbMText
 10
0.0
 20
2.728526715850658
 30
0.0
 40
2.116666666666666
 41
0.0
 71
     1
 72
     1
  1
Approvato:
  7
SLDTEXTSTYLE0
 73
     1
 44
1.0
  0
MTEXT
  5
6463
330
6460
100
AcDbEntity
  8
0
  6
Continuous
 62
     0
370
     0
100
AcDbMText
 10
15.84560198038815
 20
2.728526715850658
 30
0.0
 40
2.116666666666666
 41
0.0
 71
     1
 72
     1
  1
A. Biasotti
  7
SLDTEXTSTYLE0
 73
     1
 44
1.0
  0
ENDBLK
  5
6464
330
6460
100
AcDbEntity
  8
0
100
AcDbBlockEnd
  0
BLOCK
  5
6469
330
6468
100
AcDbEntity
  8
0
100
AcDbBlockBegin
  2
SW_NOTE_4
 70
     0
 10
0.0
 20
0.0
 30
0.0
  3
SW_NOTE_4
  1
SW_NOTE_4
  0
MTEXT
  5
646A
330
6468
100
AcDbEntity
  8
0
  6
Continuous
 62
     0
370
     0
100
AcDbMText
 10
0.0
 20
2.449228705566728
 30
0.0
 40
1.9
 41
0.0
 71
     1
 72
     1
  1
Dimensioni in mm   -
  7
SLDTEXTSTYLE0
 73
     1
 44
1.0
  0
MTEXT
  5
646B
330
6468
100
AcDbEntity
  8
0
  6
Continuous
 62
     0
370
     0
100
AcDbMText
 10
25.96666663885117
 20
2.449228705566728
 30
0.0
 40
1.9
 41
0.0
 71
     1
 72
     1
  1
NB
  7
SLDTEXTSTYLE0
 73
     1
 44
1.0
  0
MTEXT
  5
646C
330
6468
100
AcDbEntity
  8
0
  6
Continuous
 62
     0
370
     0
100
AcDbMText
 10
29.73500080406666
 20
2.449228705566728
 30
0.0
 40
1.9
 41
0.0
 71
     1
 72
     1
  1
:  LE QUOTE INDICATE A DISEGNO SI RIFERISCONO ALLA LAVORAZIONE MECCANICA. - PRIMA DEI TRATTAMENTI SUPERFICIALI
  7
SLDTEXTSTYLE0
 73
     1
 44
1.0
  0
ENDBLK
  5
646D
330
6468
100
AcDbEntity
  8
0
100
AcDbBlockEnd
  0
ENDSEC
  0
SECTION
  2
ENTITIES
  0
TEXT
  5
5F80
330
A
100
AcDbEntity
  8
0
  6
Continuous
 62
     7
370
     0
100
AcDbText
 10
313.2420265893221
 20
76.53308004278787
 30
0.0
 40
10.0
  1
5F01T
100
AcDbText
  0
LINE
  5
65C9
330
A
100
AcDbEntity
  8
0
  6
Continuous
 62
     7
370
    15
100
AcDbLine
 10
449.5254533415354
 20
-10.18972444147309
 30
0.0
 11
448.0254533415352
 21
-10.18972444147309
 31
0.0
  0
LINE
  5
65CA
330
A
100
AcDbEntity
  8
0
  6
Continuous
 62
     7
370
    15
100
AcDbLine
 10
448.0254533415352
 20
-18.18972444147309
 30
0.0
 11
449.5254533415354
 21
-18.18972444147309
 31
0.0
  0
LINE
  5
65CB
330
A
100
AcDbEntity
  8
0
  6
Continuous
 62
     7
370
    15
100
AcDbLine
 10
449.5254533415354
 20
-18.18972444144032
 30
0.0
 11
450.5254533415167
 21
-17.18972444151584
 31
0.0
  0
LINE
  5
65CC
330
A
100
AcDbEntity
  8
0
  6
Continuous
 62
     7
370
    15
100
AcDbLine
 10
450.5254533415167
 20
-11.18972444143034
 30
0.0
 11
449.5254533415354
 21
-10.18972444150583
 31
0.0
  0
LINE
  5
65CD
330
A
100
AcDbEntity
  8
0
  6
Continuous
 62
     7
370
    15
100
AcDbLine
 10
410.2754533415352
 20
15.81027555852691
 30
0.0
 11
410.7754533415352
 21
15.31027555852691
 31
0.0
  0
LINE
  5
65CE
330
A
100
AcDbEntity
  8
0
  6
Continuous
 62
     7
370
    15
100
AcDbLine
 10
415.7754533415352
 20
15.31027555852691
 30
0.0
 11
416.2754533415352
 21
15.81027555852691
 31
0.0
  0
LINE
  5
65CF
330
A
100
AcDbEntity
  8
0
  6
Continuous
 62
     7
370
    15
100
AcDbLine
 10
443.2754533415352
 20
-17.5435852707754
 30
0.0
 11
443.2754533415352
 21
-21.18972444147309
 31
0.0
  0
LINE
  5
65D0
330
A
100
AcDbEntity
  8
0
  6
Continuous
 62
     7
370
    15
100
AcDbLine
 10
443.2754533415352
 20
15.97957919384066
 30
0.0
 11
443.2754533415352
 21
-10.78972444147308
 31
0.0
  0
LINE
  5
65D1
330
A
100
AcDbEntity
  8
0
  6
Continuous
 62
     7
370
    15
100
AcDbLine
 10
463.2754533415352
 20
-21.18972444147309
 30
0.0
 11
463.2754533415352
 21
15.97946870251306
 31
0.0
  0
ARC
  5
65D2
330
A
100
AcDbEntity
  8
0
  6
Continuous
 62
     7
370
    15
100
AcDbCircle
 10
446.2754533415352
 20
-21.18972444147309
 30
0.0
 40
3.0
100
AcDbArc
 50
180.0
 51
270.0000000000011
  0
ARC
  5
65D3
330
A
100
AcDbEntity
  8
0
  6
Continuous
 62
     7
370
    15
100
AcDbCircle
 10
460.2754533415352
 20
-21.18972444147309
 30
0.0
 40
3.0
100
AcDbArc
 50
270.0000000000011
 51
0.0
  0
LINE
  5
65D4
330
A
100
AcDbEntity
  8
0
  6
Continuous
 62
     7
370
    15
100
AcDbLine
 10
463.5254533415352
 20
15.81027555852691
 30
0.0
 11
467.2754533415352
 21
15.81027555852691
 31
0.0
  0
LINE
  5
65D5
330
A
100
AcDbEntity
  8
0
  6
Continuous
 62
     7
370
    15
100
AcDbLine
 10
416.2754533415352
 20
15.81027555852691
 30
0.0
 11
443.0387403083043
 21
15.81027555852691
 31
0.0
  0
LINE
  5
65D6
330
A
100
AcDbEntity
  8
0
  6
Continuous
 62
     7
370
    15
100
AcDbLine
 10
405.2754533415352
 20
15.81027555852691
 30
0.0
 11
410.2754533415352
 21
15.81027555852691
 31
0.0
  0
LINE
  5
65D7
330
A
100
AcDbEntity
  8
0
  6
Continuous
 62
     7
370
    15
100
AcDbLine
 10
467.2754533415352
 20
45.81027555852691
 30
0.0
 11
405.2754533415352
 21
45.81027555852691
 31
0.0
  0
ARC
  5
65D8
330
A
100
AcDbEntity
  8
0
  6
Continuous
 62
     7
370
    15
100
AcDbCircle
 10
467.2754533415352
 20
41.81027555852691
 30
0.0
 40
4.0
100
AcDbArc
 50
0.0
 51
90.0
  0
ARC
  5
65D9
330
A
100
AcDbEntity
  8
0
  6
Continuous
 62
     7
370
    15
100
AcDbCircle
 10
467.2754533415352
 20
19.81027555852691
 30
0.0
 40
4.0
100
AcDbArc
 50
270.0000000000008
 51
0.0
  0
ARC
  5
65DA
330
A
100
AcDbEntity
  8
0
  6
Continuous
 62
     7
370
    15
100
AcDbCircle
 10
405.2754533415352
 20
19.81027555852691
 30
0.0
 40
4.0
100
AcDbArc
 50
180.0
 51
270.0000000000008
  0
ARC
  5
65DB
330
A
100
AcDbEntity
  8
0
  6
Continuous
 62
     7
370
    15
100
AcDbCircle
 10
405.2754533415352
 20
41.81027555852691
 30
0.0
 40
4.0
100
AcDbArc
 50
90.0
 51
180.0
  0
LINE
  5
65DC
330
A
100
AcDbEntity
  8
0
  6
Continuous
 62
     7
370
    15
100
AcDbLine
 10
401.2754533415352
 20
40.810275558527
 30
0.0
 11
270.3554533415353
 21
40.810275558527
 31
0.0
  0
LINE
  5
65DD
330
A
100
AcDbEntity
  8
0
  6
Continuous
 62
     7
370
    15
100
AcDbLine
 10
270.3554533415353
 20
20.81027555852683
 30
0.0
 11
401.2754533415352
 21
20.81027555852683
 31
0.0
  0
LINE
  5
65DE
330
A
100
AcDbEntity
  8
0
  6
Continuous
 62
     7
370
    15
100
AcDbLine
 10
204.3554533415353
 20
15.81027555852691
 30
0.0
 11
266.3554533415352
 21
15.81027555852691
 31
0.0
  0
LINE
  5
65DF
330
A
100
AcDbEntity
  8
0
  6
Continuous
 62
     7
370
    15
100
AcDbLine
 10
266.3554533415352
 20
45.81027555852691
 30
0.0
 11
204.3554533415353
 21
45.81027555852691
 31
0.0
  0
ARC
  5
65E0
330
A
100
AcDbEntity
  8
0
  6
Continuous
 62
     7
370
    15
100
AcDbCircle
 10
204.3554533415352
 20
19.81027555852691
 30
0.0
 40
4.0
100
AcDbArc
 50
180.0
 51
270.0000000000016
  0
ARC
  5
65E1
330
A
100
AcDbEntity
  8
0
  6
Continuous
 62
     7
370
    15
100
AcDbCircle
 10
204.3554533415352
 20
41.81027555852694
 30
0.0
 40
4.0
100
AcDbArc
 50
89.99999999999919
 51
180.0000000000013
  0
ARC
  5
65E2
330
A
100
AcDbEntity
  8
0
  6
Continuous
 62
     7
370
    15
100
AcDbCircle
 10
266.3554533415353
 20
19.81027555852691
 30
0.0
 40
4.0
100
AcDbArc
 50
270.0
 51
0.0
  0
ARC
  5
65E3
330
A
100
AcDbEntity
  8
0
  6
Continuous
 62
     7
370
    15
100
AcDbCircle
 10
266.3554533415353
 20
41.81027555852691
 30
0.0
 40
4.0
100
AcDbArc
 50
0.0
 51
90.00000000000082
  0
LINE
  5
65E4
330
A
100
AcDbEntity
  8
0
  6
Continuous
 62
     7
370
    15
100
AcDbLine
 10
449.5254533415354
 20
-13.87234113618669
 30
0.0
 11
449.5254533415354
 21
-10.18972444147309
 31
0.0
  0
LINE
  5
65E5
330
A
100
AcDbEntity
  8
0
  6
Continuous
 62
     7
370
    15
100
AcDbLine
 10
449.5254533415354
 20
-18.18972444147309
 30
0.0
 11
449.5254533415354
 21
-13.87234113618669
 31
0.0
  0
LINE
  5
65E6
330
A
100
AcDbEntity
  8
0
  6
Continuous
 62
     7
370
    15
100
AcDbLine
 10
450.5254533415167
 20
-13.95168696250488
 30
0.0
 11
450.5254533415167
 21
-11.18972444143034
 31
0.0
  0
LINE
  5
65E7
330
A
100
AcDbEntity
  8
0
  6
Continuous
 62
     7
370
    15
100
AcDbLine
 10
450.5254533415167
 20
-17.18972444151584
 30
0.0
 11
450.5254533415167
 21
-13.95168696250488
 31
0.0
  0
LINE
  5
65E8
330
A
100
AcDbEntity
  8
0
  6
Continuous
 62
     7
370
    15
100
AcDbLine
 10
410.2754533415352
 20
15.81027555852691
 30
0.0
 11
416.2754533415352
 21
15.81027555852691
 31
0.0
  0
LINE
  5
65E9
330
A
100
AcDbEntity
  8
0
  6
Continuous
 62
     7
370
    15
100
AcDbLine
 10
415.7754533415352
 20
15.31027555852691
 30
0.0
 11
410.7754533415352
 21
15.31027555852691
 31
0.0
  0
LINE
  5
65EA
330
A
100
AcDbEntity
  8
0
  6
Continuous
 62
     7
370
    15
100
AcDbLine
 10
258.3554533415345
 20
32.54232636609453
 30
0.0
 11
256.8554533415345
 21
31.67630096231028
 31
0.0
  0
LINE
  5
65EB
330
A
100
AcDbEntity
  8
0
  6
Continuous
 62
     7
370
    15
100
AcDbLine
 10
256.8554533415345
 20
31.67630096231028
 30
0.0
 11
256.8554533415344
 21
29.94425015474135
 31
0.0
  0
LINE
  5
65EC
330
A
100
AcDbEntity
  8
0
  6
Continuous
 62
     7
370
    15
100
AcDbLine
 10
256.8554533415344
 20
29.94425015474135
 30
0.0
 11
258.3554533415342
 21
29.07822475095676
 31
0.0
  0
LINE
  5
65ED
330
A
100
AcDbEntity
  8
0
  6
Continuous
 62
     7
370
    15
100
AcDbLine
 10
258.3554533415342
 20
29.07822475095676
 30
0.0
 11
259.8554533415344
 21
29.94425015474116
 31
0.0
  0
LINE
  5
65EE
330
A
100
AcDbEntity
  8
0
  6
Continuous
 62
     7
370
    15
100
AcDbLine
 10
259.8554533415346
 20
31.67630096230994
 30
0.0
 11
258.3554533415345
 21
32.54232636609453
 31
0.0
  0
CIRCLE
  5
65EF
330
A
100
AcDbEntity
  8
0
  6
Continuous
 62
     7
370
    15
100
AcDbCircle
 10
258.3554533415353
 20
30.81027555852691
 30
0.0
 40
2.499999999999984
  0
LINE
  5
65F0
330
A
100
AcDbEntity
  8
0
  6
Continuous
 62
     7
370
    15
100
AcDbLine
 10
259.8554533415346
 20
31.67630096230994
 30
0.0
 11
259.8554533415344
 21
29.94425015474116
 31
0.0
  0
CIRCLE
  5
65F1
330
A
100
AcDbEntity
  8
0
  6
Continuous
 62
     7
370
    15
100
AcDbCircle
 10
258.3554533415353
 20
30.81027555852691
 30
0.0
 40
3.0
  0
LINE
  5
65F2
330
A
100
AcDbEntity
  8
0
  6
Continuous
 62
     7
370
    15
100
AcDbLine
 10
449.5254533415353
 20
-6.189724441473089
 30
0.0
 11
457.0254533415353
 21
-6.189724441473089
 31
0.0
  0
SPLINE
  5
65F3
330
A
100
AcDbEntity
  8
0
  6
Continuous
 62
     7
370
    15
100
AcDbSpline
210
0.0
220
0.0
230
1.0
 70
     8
 71
     3
 72
    12
 73
     8
 74
     0
 42
0.000000001
 43
0.00000001
 40
0.0
 40
0.0
 40
0.0
 40
0.0
 40
0.1826145510158061
 40
0.3647284432145936
 40
0.5595253271502038
 40
0.7811798177217558
 40
1.0
 40
1.0
 40
1.0
 40
1.0
 10
448.0254533415352
 20
-7.689724441473089
 30
0.0
 10
448.0390648082695
 20
-7.537862413680756
 30
0.0
 10
448.0662504243346
 20
-7.234554705329913
 30
0.0
 10
448.2741682944111
 20
-6.824852868171547
 30
0.0
 10
448.5925353691451
 20
-6.48408377124855
 30
0.0
 10
449.0211792328666
 20
-6.23932363090853
 30
0.0
 10
449.3580845967032
 20
-6.206186428987024
 30
0.0
 10
449.5254533415353
 20
-6.189724441473089
 30
0.0
  0
LINE
  5
65F4
330
A
100
AcDbEntity
  8
0
  6
Continuous
 62
     7
370
    15
100
AcDbLine
 10
448.0254533415352
 20
-21.18972444147309
 30
0.0
 11
448.0254533415352
 21
-7.689724441473089
 31
0.0
  0
LINE
  5
65F5
330
A
100
AcDbEntity
  8
0
  6
Continuous
 62
     7
370
    15
100
AcDbLine
 10
458.5254533415353
 20
-7.689724441473089
 30
0.0
 11
458.5254533415353
 21
-21.18972444147309
 31
0.0
  0
SPLINE
  5
65F6
330
A
100
AcDbEntity
  8
0
  6
Continuous
 62
     7
370
    15
100
AcDbSpline
210
0.0
220
0.0
230
1.0
 70
     8
 71
     3
 72
    12
 73
     8
 74
     0
 42
0.000000001
 43
0.00000001
 40
0.0
 40
0.0
 40
0.0
 40
0.0
 40
0.2398427278405552
 40
0.4795769054097415
 40
0.7190751971162391
 40
0.9340365121302744
 40
1.0
 40
1.0
 40
1.0
 40
1.0
 10
457.0254533415353
 20
-6.189724441473089
 30
0.0
 10
457.2087543627046
 20
-6.20950615079758
 30
0.0
 10
457.5752734449475
 20
-6.249060616455068
 30
0.0
 10
458.0487288548188
 20
-6.549077230032196
 30
0.0
 10
458.3867721331362
 20
-6.98392583872527
 30
0.0
 10
458.5157944340841
 20
-7.402814401684111
 30
0.0
 10
458.5236166256775
 20
-7.635166281299348
 30
0.0
 10
458.5254533415353
 20
-7.689724441473089
 30
0.0
  0
SPLINE
  5
65F7
330
A
100
AcDbEntity
  8
0
  6
Continuous
 62
     7
370
    15
100
AcDbSpline
210
0.0
220
0.0
230
1.0
 70
     8
 71
     3
 72
    17
 73
    13
 74
     0
 42
0.000000001
 43
0.00000001
 40
0.0
 40
0.0
 40
0.0
 40
0.0
 40
0.1032887519665771
 40
0.2064499145293313
 40
0.3129666094609654
 40
0.4226346116825844
 40
0.5284336570076755
 40
0.6292166910750412
 40
0.7317170024420747
 40
0.8397887202615044
 40
0.9489539995787978
 40
0.9999999999999999
 40
0.9999999999999999
 40
0.9999999999999999
 40
0.9999999999999999
 10
443.2754533415352
 20
-10.78972444147308
 30
0.0
 10
443.28779705224
 20
-10.82519185801991
 30
0.0
 10
443.3124692258452
 20
-10.89608287930969
 30
0.0
 10
443.4865205150871
 20
-11.44621009231841
 30
0.0
 10
443.6928363479061
 20
-12.27145073560456
 30
0.0
 10
443.8555320523068
 20
-13.33481818135814
 30
0.0
 10
443.8890940152203
 20
-14.4843942989466
 30
0.0
 10
443.7884066207254
 20
-15.56800042306435
 30
0.0
 10
443.600060549956
 20
-16.5111498616258
 30
0.0
 10
443.4029507587127
 20
-17.21060019648203
 30
0.0
 10
443.2784183390643
 20
-17.58116249359423
 30
0.0
 10
443.2879949444972
 20
-17.5526650380165
 30
0.0
 10
443.291046211585
 20
-17.5435852707754
 30
0.0
  0
LINE
  5
65F8
330
A
100
AcDbEntity
  8
0
  6
Continuous
 62
     7
370
    15
100
AcDbLine
 10
446.2754533415353
 20
-24.18972444147309
 30
0.0
 11
448.0254533415352
 21
-24.18972444147309
 31
0.0
  0
SPLINE
  5
65F9
330
A
100
AcDbEntity
  8
0
  6
Continuous
 62
     7
370
    15
100
AcDbSpline
210
0.0
220
0.0
230
1.0
 70
    24
 71
     3
 72
    13
 73
     9
 74
     0
 42
0.000000001
 43
0.00000001
 40
0.0
 40
0.0
 40
0.0
 40
0.0
 40
0.1437740144139571
 40
0.3852958557245459
 40
0.6288243722485318
 40
0.8015154138095912
 40
0.9747212958608771
 40
1.0
 40
1.0
 40
1.0
 40
1.0
 10
448.0254533415352
 20
-24.18972444147309
 30
0.0
 10
448.0254533415352
 20
-24.18079439444838
 30
0.0
 10
448.0254533415352
 20
-24.1568630176688
 30
0.0
 10
448.0254533415352
 20
-23.85813907918831
 30
0.0
 10
448.0254533415352
 20
-23.1696294198677
 30
0.0
 10
448.0254533415353
 20
-22.26730192172283
 30
0.0
 10
448.0254533415352
 20
-21.59583086853843
 30
0.0
 10
448.0254533415352
 20
-21.23560258441452
 30
0.0
 10
448.0254533415352
 20
-21.18972444147309
 30
0.0
  0
SPLINE
  5
65FA
330
A
100
AcDbEntity
  8
0
  6
Continuous
 62
     7
370
    15
100
AcDbSpline
210
0.0
220
0.0
230
1.0
 70
    24
 71
     3
 72
    13
 73
     9
 74
     0
 42
0.000000001
 43
0.00000001
 40
0.0
 40
0.0
 40
0.0
 40
0.0
 40
0.0938940676375429
 40
0.2515371958632561
 40
0.4149931170513858
 40
0.5949626912139699
 40
0.8586769883880853
 40
0.9999999999999999
 40
0.9999999999999999
 40
0.9999999999999999
 40
0.9999999999999999
 10
458.5254533415353
 20
-21.18972444147309
 30
0.0
 10
458.5254533415353
 20
-21.36054364875559
 30
0.0
 10
458.5254533415352
 20
-21.81815918805989
 30
0.0
 10
458.5254533415353
 20
-22.53528654882507
 30
0.0
 10
458.5254533415354
 20
-23.25053388392931
 30
0.0
 10
458.5254533415354
 20
-23.86551435115462
 30
0.0
 10
458.5254533415352
 20
-24.1564937125116
 30
0.0
 10
458.5254533415354
 20
-24.18112889285882
 30
0.0
 10
458.5254533415353
 20
-24.18972444147309
 30
0.0
  0
LINE
  5
65FB
330
A
100
AcDbEntity
  8
0
  6
Continuous
 62
     7
370
    15
100
AcDbLine
 10
458.5254533415353
 20
-24.18972444147309
 30
0.0
 11
460.2754533415352
 21
-24.18972444147309
 31
0.0
  0
SPLINE
  5
65FC
330
A
100
AcDbEntity
  8
0
  6
Continuous
 62
     7
370
    15
100
AcDbSpline
210
0.0
220
0.0
230
1.0
 70
     8
 71
     3
 72
    28
 73
    24
 74
     0
 42
0.000000001
 43
0.00000001
 40
0.0
 40
0.0
 40
0.0
 40
0.0
 40
0.0452537144491528
 40
0.0919767856051025
 40
0.1371975430150912
 40
0.1835433895240179
 40
0.2328061293187995
 40
0.2831263308425022
 40
0.3403366931971174
 40
0.3993130647055855
 40
0.4393588450745958
 40
0.4804661209124922
 40
0.5205588441231479
 40
0.5619681485344916
 40
0.6001370663754954
 40
0.6390781486644495
 40
0.6960062183209254
 40
0.7545718207435053
 40
0.8119223131452565
 40
0.8711090099735508
 40
0.9157754483713861
 40
0.961681881579367
 40
1.0
 40
1.0
 40
1.0
 40
1.0
 10
463.5254533415352
 20
15.81027555852691
 30
0.0
 10
463.5038151623489
 20
15.82510378349863
 30
0.0
 10
463.4598362273128
 20
15.85524169561759
 30
0.0
 10
463.1099435423264
 20
16.09232675386727
 30
0.0
 10
462.5684792324303
 20
16.44982230206557
 30
0.0
 10
461.8282068344663
 20
16.9198517638311
 30
0.0
 10
460.887915739772
 20
17.48195113474679
 30
0.0
 10
459.7053342533793
 20
18.12675745112557
 30
0.0
 10
458.2698635581798
 20
18.80262148798482
 30
0.0
 10
456.7512620297685
 20
19.35173062447203
 30
0.0
 10
455.2778455428343
 20
19.70218098633356
 30
0.0
 10
453.9429963867547
 20
19.86642229451377
 30
0.0
 10
452.5712440583806
 20
19.86430576769652
 30
0.0
 10
451.2548815173141
 20
19.69779991037913
 30
0.0
 10
450.0094690338682
 20
19.40075809290946
 30
0.0
 10
448.6847615465588
 20
18.95870622555745
 30
0.0
 10
447.2912175301362
 20
18.35236555926687
 30
0.0
 10
445.9268433868688
 20
17.63539977134786
 30
0.0
 10
444.7625283509006
 20
16.94725166672822
 30
0.0
 10
443.9196878666359
 20
16.40940782185851
 30
0.0
 10
443.371791519227
 20
16.04579662883097
 30
0.0
 10
443.0712001935789
 20
15.84160323472415
 30
0.0
 10
443.0488902562969
 20
15.82630064768787
 30
0.0
 10
443.0387403083043
 20
15.81933870688962
 30
0.0
  0
LWPOLYLINE
  5
65FD
330
A
100
AcDbEntity
  8
0
  6
Continuous
 62
     7
370
    15
100
AcDbPolyline
 90
       13
 70
   128
 43
0.0
 10
410.3615390845936
 20
15.81027658277768
 10
410.3615338638244
 20
15.81027555855096
 10
410.5842272435008
 20
15.85396362470613
 10
411.2159562643376
 20
15.95953068314319
 10
412.160401168458
 20
16.06574750679943
 10
412.7055367940503
 20
16.09844197423971
 10
413.2767382491541
 20
16.1100204508283
 10
413.8450552903961
 20
16.09845474858201
 10
414.3926747135813
 20
16.0655753435872
 10
415.335771374952
 20
15.95941129128619
 10
415.9666455551459
 20
15.85397001734393
 10
416.1893728193642
 20
15.81027555852691
 10
416.1893728193642
 20
15.81027555852691
  0
LINE
  5
65FE
330
A
100
AcDbEntity
  8
0
  6
Continuous
 62
     7
370
    15
100
AcDbLine
 10
471.2754533415352
 20
41.81027555852691
 30
0.0
 11
471.2754533415352
 21
19.81027564598517
 31
0.0
  0
LINE
  5
65FF
330
A
100
AcDbEntity
  8
0
  6
Continuous
 62
     7
370
    15
100
AcDbLine
 10
401.2754533415352
 20
19.81027555852691
 30
0.0
 11
401.2754533415352
 21
41.81027547106868
 31
0.0
  0
SPLINE
  5
6600
330
A
100
AcDbEntity
  8
0
  6
Continuous
 62
     7
370
    15
100
AcDbSpline
210
0.0
220
0.0
230
1.0
 70
    11
 71
     3
 72
    27
 73
    23
 74
     0
 42
0.000000001
 43
0.00000001
 40
0.0
 40
0.0
 40
0.0
 40
0.0
 40
0.0640941256385399
 40
0.1273011983416522
 40
0.1890409864777387
 40
0.2195251169498235
 40
0.2500241954038504
 40
0.2804588586014511
 40
0.311020202562279
 40
0.3727598398276942
 40
0.4359079021544615
 40
0.500171105495593
 40
0.5642000236999882
 40
0.6272999307829074
 40
0.6890294724328944
 40
0.7196618234276025
 40
0.7500986659479931
 40
0.7804958493236355
 40
0.8111669695864985
 40
0.8729013429011963
 40
0.9359795302126616
 40
1.0
 40
1.0
 40
1.0
 40
1.0
 10
261.4996687487224
 20
30.81027555852691
 30
0.0
 10
261.4524868325362
 20
30.37355736072703
 30
0.0
 10
261.3587759906968
 20
29.5061650784599
 30
0.0
 10
260.640324255715
 20
28.40147825466275
 30
0.0
 10
259.7708553926357
 20
27.775684109742
 30
0.0
 10
258.9757090045321
 20
27.51939974095296
 30
0.0
 10
258.3554037500481
 20
27.45398125245919
 30
0.0
 10
257.734402512291
 20
27.51952961914989
 30
0.0
 10
256.9400247594451
 20
27.77598247130933
 30
0.0
 10
256.0642782149574
 20
28.40221016426545
 30
0.0
 10
255.3730575978451
 20
29.50759641296654
 30
0.0
 10
255.1292648855699
 20
30.81234996894372
 30
0.0
 10
255.3747008681823
 20
32.11614166764915
 30
0.0
 10
256.065401915742
 20
33.21943756164856
 30
0.0
 10
256.9414501702726
 20
33.84538136060678
 30
0.0
 10
257.7364237502307
 20
34.10150536096455
 30
0.0
 10
258.3572934276547
 20
34.16649625098987
 30
0.0
 10
258.9781138896836
 20
34.10070303214033
 30
0.0
 10
259.773645118186
 20
33.84359403997226
 30
0.0
 10
260.6425276156629
 20
33.21642559288699
 30
0.0
 10
261.3591514758517
 20
32.11249153116685
 30
0.0
 10
261.4525987250728
 20
31.24648767236022
 30
0.0
 10
261.4996687487224
 20
30.81027555852691
 30
0.0
  0
SPLINE
  5
6601
330
A
100
AcDbEntity
  8
0
  6
Continuous
 62
     7
370
    15
100
AcDbSpline
210
0.0
220
0.0
230
1.0
 70
    11
 71
     3
 72
    49
 73
    45
 74
     0
 42
0.000000001
 43
0.00000001
 40
0.0
 40
0.0
 40
0.0
 40
0.0
 40
0.0229879354367381
 40
0.0459853205281008
 40
0.0688690154878089
 40
0.0917677266469189
 40
0.1166592983285784
 40
0.1415594208249614
 40
0.1706254521607244
 40
0.1996532380982544
 40
0.2199502743249852
 40
0.2402278849745906
 40
0.2605966843304764
 40
0.2809748771379817
 40
0.3002447093096875
 40
0.3195297039620272
 40
0.3483960874035232
 40
0.3772770419414571
 40
0.4064255301889001
 40
0.4355441441994926
 40
0.4581931699369431
 40
0.4808287521814909
 40
0.5035408204992989
 40
0.5262543970420855
 40
0.5477136769150617
 40
0.569184459449058
 40
0.5923527717302826
 40
0.6155334371779466
 40
0.6426262217831314
 40
0.6697147874700888
 40
0.6931971948394728
 40
0.7166499303683226
 40
0.7360927349999026
 40
0.7555255561888925
 40
0.7749549443304002
 40
0.7943994972839977
 40
0.8199762289326037
 40
0.845583944964719
 40
0.8717358967245226
 40
0.8978831907532909
 40
0.9275612346874067
 40
0.9571985380901252
 40
0.9786026270073306
 40
1.0
 40
1.0
 40
1.0
 40
1.0
 10
228.6054533415353
 20
30.81027555852694
 30
0.0
 10
228.5825503435743
 20
31.32244698199608
 30
0.0
 10
228.5367349329132
 20
32.34700036733068
 30
0.0
 10
228.1863756732669
 20
33.83271465885704
 30
0.0
 10
227.6449484130715
 20
35.22445755007641
 30
0.0
 10
226.9022641386509
 20
36.53598486575504
 30
0.0
 10
225.9639290414034
 20
37.736170867531
 30
0.0
 10
224.7740887431571
 20
38.86073277330735
 30
0.0
 10
223.3409035936585
 20
39.82689411515031
 30
0.0
 10
221.8165660346141
 20
40.50330265151663
 30
0.0
 10
220.35128721962
 20
40.89239298334306
 30
0.0
 10
219.0098318009123
 20
41.07032059062718
 30
0.0
 10
217.644101521264
 20
41.06402164754445
 30
0.0
 10
216.3238095461355
 20
40.88583682875631
 30
0.0
 10
215.0859154254856
 20
40.55068210858116
 30
0.0
 10
213.7533638406529
 20
40.01235256591809
 30
0.0
 10
212.3643788896574
 20
39.19086298540185
 30
0.0
 10
210.9938789411783
 20
38.01930581674122
 30
0.0
 10
209.8375035826443
 20
36.60738520748302
 30
0.0
 10
208.9934914258682
 20
35.09725159665072
 30
0.0
 10
208.4477958946961
 20
33.56882513534396
 30
0.0
 10
208.1473573720902
 20
32.09189382939272
 30
0.0
 10
208.0727252104256
 20
30.57170807175595
 30
0.0
 10
208.2151663485675
 20
29.08520168306765
 30
0.0
 10
208.5628795412547
 20
27.679220925517
 30
0.0
 10
209.0911896454659
 20
26.34512357311738
 30
0.0
 10
209.8085166832911
 20
25.09060103906052
 30
0.0
 10
210.7531035879699
 20
23.87512228877301
 30
0.0
 10
211.9214370982678
 20
22.77277936593038
 30
0.0
 10
213.2622539454487
 20
21.86750265024435
 30
0.0
 10
214.6806813439134
 20
21.20335311112765
 30
0.0
 10
216.0587482841325
 20
20.78689307791944
 30
0.0
 10
217.4223332366788
 20
20.57682380184906
 30
0.0
 10
218.725506676136
 20
20.53868323036201
 30
0.0
 10
220.0170380792199
 20
20.66980669796527
 30
0.0
 10
221.393547971501
 20
20.98353569931487
 30
0.0
 10
222.8042401411318
 20
21.52971576745753
 30
0.0
 10
224.2049559357349
 20
22.34149130466685
 30
0.0
 10
225.4590032360312
 20
23.36228779526661
 30
0.0
 10
226.5993932855008
 20
24.63452015314022
 30
0.0
 10
227.5617797098731
 20
26.17501715790817
 30
0.0
 10
228.2030289453911
 20
27.81101569124792
 30
0.0
 10
228.5460113963858
 20
29.38007939899589
 30
0.0
 10
228.5856414325854
 20
30.33359337691687
 30
0.0
 10
228.6054533415352
 20
30.81027555852694
 30
0.0
  0
LINE
  5
6602
330
A
100
AcDbEntity
  8
0
  6
Continuous
 62
     7
370
    15
100
AcDbLine
 10
200.3554533415352
 20
30.81027555852694
 30
0.0
 11
200.3554533415352
 21
41.81027555852688
 31
0.0
  0
LINE
  5
6603
330
A
100
AcDbEntity
  8
0
  6
Continuous
 62
     7
370
    15
100
AcDbLine
 10
200.3554533415352
 20
19.81027555852691
 30
0.0
 11
200.3554533415352
 21
30.81027555852694
 31
0.0
  0
LINE
  5
6604
330
A
100
AcDbEntity
  8
0
  6
Continuous
 62
     7
370
    15
100
AcDbLine
 10
270.3554533415353
 20
30.81027555852694
 30
0.0
 11
270.3554533415353
 21
41.81027555852688
 31
0.0
  0
LINE
  5
6605
330
A
100
AcDbEntity
  8
0
  6
Continuous
 62
     7
370
    15
100
AcDbLine
 10
270.3554533415353
 20
19.81027555852694
 30
0.0
 11
270.3554533415353
 21
30.81027555852694
 31
0.0
  0
LINE
  5
6606
330
A
100
AcDbEntity
  8
0
  6
Continuous
 62
     7
370
     0
100
AcDbLine
 10
443.2754533415352
 20
-21.18972444147309
 30
0.0
 11
448.0254533415352
 21
-21.18972444147309
 31
0.0
  0
LINE
  5
6607
330
A
100
AcDbEntity
  8
0
  6
Continuous
 62
     7
370
     0
100
AcDbLine
 10
458.5254533415353
 20
-21.18972444147309
 30
0.0
 11
463.2754533415352
 21
-21.18972444147309
 31
0.0
  0
LINE
  5
6608
330
A
100
AcDbEntity
  8
0
  6
Continuous
 62
     7
370
     0
100
AcDbLine
 10
405.2754533415352
 20
45.81027555852691
 30
0.0
 11
405.2754533415352
 21
15.81027555852691
 31
0.0
  0
LINE
  5
6609
330
A
100
AcDbEntity
  8
0
  6
Continuous
 62
     7
370
     0
100
AcDbLine
 10
467.2754533415352
 20
15.81027555852691
 30
0.0
 11
467.2754533415352
 21
45.81027555852691
 31
0.0
  0
LINE
  5
660A
330
A
100
AcDbEntity
  8
0
  6
Continuous
 62
     7
370
     0
100
AcDbLine
 10
204.3554533415353
 20
30.81027555852694
 30
0.0
 11
204.3554533415353
 21
45.81027555852691
 31
0.0
  0
LINE
  5
660B
330
A
100
AcDbEntity
  8
0
  6
Continuous
 62
     7
370
     0
100
AcDbLine
 10
204.3554533415353
 20
15.81027555852691
 30
0.0
 11
204.3554533415353
 21
30.81027555852694
 31
0.0
  0
LINE
  5
660C
330
A
100
AcDbEntity
  8
0
  6
Continuous
 62
     7
370
     0
100
AcDbLine
 10
266.3554533415352
 20
30.81027555852694
 30
0.0
 11
266.3554533415352
 21
45.81027555852691
 31
0.0
  0
LINE
  5
660D
330
A
100
AcDbEntity
  8
0
  6
Continuous
 62
     7
370
     0
100
AcDbLine
 10
266.3554533415352
 20
15.81027555852691
 30
0.0
 11
266.3554533415352
 21
30.81027555852694
 31
0.0
  0
LINE
  5
660E
330
A
100
AcDbEntity
  8
0
  6
Continuous
 62
     7
370
    15
100
AcDbLine
 10
118.9043309604836
 20
27.81027555852694
 30
0.0
 11
119.2073925037845
 21
27.81027555852694
 31
0.0
  0
LINE
  5
660F
330
A
100
AcDbEntity
  8
0
  6
Continuous
 62
     7
370
    15
100
AcDbLine
 10
119.2073925037845
 20
33.81027555852691
 30
0.0
 11
118.9043309604836
 21
33.81027555852691
 31
0.0
  0
LINE
  5
6610
330
A
100
AcDbEntity
  8
0
  6
Continuous
 62
     7
370
    15
100
AcDbLine
 10
118.9043309604836
 20
33.81027555852691
 30
0.0
 11
118.4043309604836
 21
33.31027555852691
 31
0.0
  0
LINE
  5
6611
330
A
100
AcDbEntity
  8
0
  6
Continuous
 62
     7
370
    15
100
AcDbLine
 10
118.4043309604836
 20
28.31027555852694
 30
0.0
 11
118.9043309604836
 21
27.81027555852694
 31
0.0
  0
LINE
  5
6612
330
A
100
AcDbEntity
  8
0
  6
Continuous
 62
     7
370
    15
100
AcDbLine
 10
123.9043309604986
 20
19.62993567101449
 30
0.0
 11
123.9043309604986
 21
-6.189724441473089
 31
0.0
  0
LINE
  5
6613
330
A
100
AcDbEntity
  8
0
  6
Continuous
 62
     7
370
    15
100
AcDbLine
 10
143.9043309604986
 20
-6.189724441473089
 30
0.0
 11
143.9043309604986
 21
19.62993567104141
 31
0.0
  0
LINE
  5
6614
330
A
100
AcDbEntity
  8
0
  6
Continuous
 62
     7
370
    15
100
AcDbLine
 10
118.9043309604836
 20
33.81027555852694
 30
0.0
 11
118.9043309604836
 21
27.81027555852691
 31
0.0
  0
LINE
  5
6615
330
A
100
AcDbEntity
  8
0
  6
Continuous
 62
     7
370
    15
100
AcDbLine
 10
118.4043309604836
 20
28.31027555852694
 30
0.0
 11
118.4043309604836
 21
33.31027555852691
 31
0.0
  0
LINE
  5
6616
330
A
100
AcDbEntity
  8
0
  6
Continuous
 62
     7
370
    15
100
AcDbLine
 10
132.1722801529159
 20
30.81027555852611
 30
0.0
 11
133.0383055567002
 21
29.31027555852611
 31
0.0
  0
LINE
  5
6617
330
A
100
AcDbEntity
  8
0
  6
Continuous
 62
     7
370
    15
100
AcDbLine
 10
133.0383055567002
 20
29.31027555852611
 30
0.0
 11
134.7703563642691
 21
29.31027555852609
 31
0.0
  0
LINE
  5
6618
330
A
100
AcDbEntity
  8
0
  6
Continuous
 62
     7
370
    15
100
AcDbLine
 10
134.7703563642691
 20
29.31027555852609
 30
0.0
 11
135.6363817680537
 21
30.81027555852589
 31
0.0
  0
LINE
  5
6619
330
A
100
AcDbEntity
  8
0
  6
Continuous
 62
     7
370
    15
100
AcDbLine
 10
135.6363817680537
 20
30.81027555852589
 30
0.0
 11
134.7703563642692
 21
32.31027555852597
 31
0.0
  0
LINE
  5
661A
330
A
100
AcDbEntity
  8
0
  6
Continuous
 62
     7
370
    15
100
AcDbLine
 10
133.0383055567005
 20
32.31027555852626
 30
0.0
 11
134.7703563642692
 21
32.31027555852597
 31
0.0
  0
LINE
  5
661B
330
A
100
AcDbEntity
  8
0
  6
Continuous
 62
     7
370
    15
100
AcDbLine
 10
133.0383055567005
 20
32.31027555852626
 30
0.0
 11
132.1722801529159
 21
30.81027555852611
 31
0.0
  0
LINE
  5
661C
330
A
100
AcDbEntity
  8
0
  6
Continuous
 62
     7
370
    15
100
AcDbLine
 10
123.9043309604986
 20
-6.189724441473089
 30
0.0
 11
124.634082851629
 21
-6.189724441473089
 31
0.0
  0
LINE
  5
661D
330
A
100
AcDbEntity
  8
0
  6
Continuous
 62
     7
370
    15
100
AcDbLine
 10
143.1745790693681
 20
-6.189724441473089
 30
0.0
 11
143.9043309604986
 21
-6.189724441473089
 31
0.0
  0
SPLINE
  5
661E
330
A
100
AcDbEntity
  8
0
  6
Continuous
 62
     7
370
    15
100
AcDbSpline
210
0.0
220
0.0
230
1.0
 70
     8
 71
     3
 72
    12
 73
     8
 74
     0
 42
0.000000001
 43
0.00000001
 40
0.0
 40
0.0
 40
0.0
 40
0.0
 40
0.1826145510158044
 40
0.3647284432145996
 40
0.559525327150208
 40
0.7811798177217579
 40
1.0
 40
1.0
 40
1.0
 40
1.0
 10
142.4153532257732
 20
-7.689724441473089
 30
0.0
 10
142.423817816498
 20
-7.537862413680728
 30
0.0
 10
142.4407237912976
 20
-7.234554705329884
 30
0.0
 10
142.5656478750538
 20
-6.824852868171547
 30
0.0
 10
142.7431219830403
 20
-6.48408377124855
 30
0.0
 10
142.9610314276028
 20
-6.239323630908558
 30
0.0
 10
143.1037025358525
 20
-6.206186428987024
 30
0.0
 10
143.1745790693681
 20
-6.189724441473089
 30
0.0
  0
LINE
  5
661F
330
A
100
AcDbEntity
  8
0
  6
Continuous
 62
     7
370
    15
100
AcDbLine
 10
142.4153532257732
 20
-21.18972444147309
 30
0.0
 11
142.4153532257732
 21
-7.689724441473089
 31
0.0
  0
LINE
  5
6620
330
A
100
AcDbEntity
  8
0
  6
Continuous
 62
     7
370
    15
100
AcDbLine
 10
125.393308695224
 20
-7.689724441473089
 30
0.0
 11
125.393308695224
 21
-21.18972444147309
 31
0.0
  0
SPLINE
  5
6621
330
A
100
AcDbEntity
  8
0
  6
Continuous
 62
     7
370
    15
100
AcDbSpline
210
0.0
220
0.0
230
1.0
 70
     8
 71
     3
 72
    12
 73
     8
 74
     0
 42
0.000000001
 43
0.00000001
 40
0.0
 40
0.0
 40
0.0
 40
0.0
 40
0.2398427278405521
 40
0.4795769054097352
 40
0.7190751971162426
 40
0.9340365121302752
 40
1.0
 40
1.0
 40
1.0
 40
1.0
 10
124.634082851629
 20
-6.189724441473089
 30
0.0
 10
124.7120739125453
 20
-6.20950615079758
 30
0.0
 10
124.8680207364521
 20
-6.24906061645504
 30
0.0
 10
125.1132660927104
 20
-6.549077230032225
 30
0.0
 10
125.3076247641745
 20
-6.983925838725213
 30
0.0
 10
125.3873719506495
 20
-7.40281440168414
 30
0.0
 10
125.3921797773874
 20
-7.635166281299348
 30
0.0
 10
125.393308695224
 20
-7.689724441473089
 30
0.0
  0
SPLINE
  5
6622
330
A
100
AcDbEntity
  8
0
  6
Continuous
 62
     7
370
    15
100
AcDbSpline
210
0.0
220
0.0
230
1.0
 70
     8
 71
     3
 72
    13
 73
     9
 74
     0
 42
0.000000001
 43
0.00000001
 40
0.0
 40
0.0
 40
0.0
 40
0.0
 40
0.0938940676375429
 40
0.2515371958632561
 40
0.4149931170513858
 40
0.5949626912139699
 40
0.8586769883880853
 40
0.9999999999999999
 40
0.9999999999999999
 40
0.9999999999999999
 40
0.9999999999999999
 10
125.393308695224
 20
-21.18972444147309
 30
0.0
 10
125.4035742220912
 20
-21.36054364875559
 30
0.0
 10
125.4310750206743
 20
-21.81815918805989
 30
0.0
 10
125.7180332194465
 20
-22.53528654882507
 30
0.0
 10
126.3009698284168
 20
-23.25053388392931
 30
0.0
 10
127.2348931492388
 20
-23.86551435115462
 30
0.0
 10
128.2816329386858
 20
-24.1564937125116
 30
0.0
 10
129.0175090190808
 20
-24.18112889285882
 30
0.0
 10
129.2742661661355
 20
-24.18972444147309
 30
0.0
  0
SPLINE
  5
6623
330
A
100
AcDbEntity
  8
0
  6
Continuous
 62
     7
370
    15
100
AcDbSpline
210
0.0
220
0.0
230
1.0
 70
     8
 71
     3
 72
    13
 73
     9
 74
     0
 42
0.000000001
 43
0.00000001
 40
0.0
 40
0.0
 40
0.0
 40
0.0
 40
0.143774014413944
 40
0.3852958557245365
 40
0.6288243722485262
 40
0.8015154138095882
 40
0.9747212958608766
 40
1.0
 40
1.0
 40
1.0
 40
1.0
 10
138.5343957548616
 20
-24.18972444147309
 30
0.0
 10
138.7954812575288
 20
-24.18079439444838
 30
0.0
 10
139.4951568044451
 20
-24.15686301766877
 30
0.0
 10
140.6158852804933
 20
-23.85813907918836
 30
0.0
 10
141.6311737544066
 20
-23.1696294198677
 30
0.0
 10
142.2401668163072
 20
-22.26730192172283
 30
0.0
 10
142.4084157751608
 20
-21.59583086853846
 30
0.0
 10
142.4145694968547
 20
-21.23560258441452
 30
0.0
 10
142.4153532257732
 20
-21.18972444147309
 30
0.0
  0
LINE
  5
6624
330
A
100
AcDbEntity
  8
0
  6
Continuous
 62
     7
370
    15
100
AcDbLine
 10
129.2742661661355
 20
-24.18972444147309
 30
0.0
 11
138.5343957548616
 21
-24.18972444147309
 31
0.0
  0
CIRCLE
  5
6625
330
A
100
AcDbEntity
  8
0
  6
Continuous
 62
     7
370
    15
100
AcDbCircle
 10
133.9043309604835
 20
30.81027555852691
 30
0.0
 40
15.0
  0
CIRCLE
  5
6626
330
A
100
AcDbEntity
  8
0
  6
Continuous
 62
     7
370
    15
100
AcDbCircle
 10
133.9043309604835
 20
30.81027555852691
 30
0.0
 40
3.0
  0
CIRCLE
  5
6627
330
A
100
AcDbEntity
  8
0
  6
Continuous
 62
     7
370
    15
100
AcDbCircle
 10
133.9043309604835
 20
30.81027555852691
 30
0.0
 40
2.5
  0
LINE
  5
6628
330
A
100
AcDbEntity
  8
0
  6
Continuous
 62
     7
370
     0
100
AcDbLine
 10
125.393308695224
 20
-21.18972444147309
 30
0.0
 11
142.4153532257732
 21
-21.18972444147309
 31
0.0
  0
CIRCLE
  5
6629
330
A
100
AcDbEntity
  8
0
  6
Continuous
 62
     7
370
     0
100
AcDbCircle
 10
133.9043309604835
 20
30.81027555852691
 30
0.0
 40
11.0
  0
LINE
  5
662A
330
A
100
AcDbEntity
  8
0
  6
Continuous
 62
     7
370
    15
100
AcDbLine
 10
255.3554533415353
 20
-95.67403071021626
 30
0.0
 11
255.8554533415353
 21
-96.17403071021626
 31
0.0
  0
LINE
  5
662B
330
A
100
AcDbEntity
  8
0
  6
Continuous
 62
     7
370
    15
100
AcDbLine
 10
260.8554533415353
 20
-96.17403071021626
 30
0.0
 11
261.3554533415353
 21
-95.67403071021626
 31
0.0
  0
LINE
  5
662C
330
A
100
AcDbEntity
  8
0
  6
Continuous
 62
     7
370
    15
100
AcDbLine
 10
405.2754533415352
 20
-95.67403071021626
 30
0.0
 11
467.2754533415352
 21
-95.67403071021626
 31
0.0
  0
LINE
  5
662D
330
A
100
AcDbEntity
  8
0
  6
Continuous
 62
     7
370
    15
100
AcDbLine
 10
467.2754533415352
 20
-65.67403071021627
 30
0.0
 11
405.2754533415352
 21
-65.67403071021627
 31
0.0
  0
ARC
  5
662E
330
A
100
AcDbEntity
  8
0
  6
Continuous
 62
     7
370
    15
100
AcDbCircle
 10
405.2754533415352
 20
-91.67403071021626
 30
0.0
 40
4.0
100
AcDbArc
 50
180.0
 51
270.0000000000008
  0
ARC
  5
662F
330
A
100
AcDbEntity
  8
0
  6
Continuous
 62
     7
370
    15
100
AcDbCircle
 10
405.2754533415352
 20
-69.67403071021627
 30
0.0
 40
4.0
100
AcDbArc
 50
90.0
 51
180.0
  0
ARC
  5
6630
330
A
100
AcDbEntity
  8
0
  6
Continuous
 62
     7
370
    15
100
AcDbCircle
 10
467.2754533415352
 20
-69.67403071021627
 30
0.0
 40
4.0
100
AcDbArc
 50
0.0
 51
90.0
  0
ARC
  5
6631
330
A
100
AcDbEntity
  8
0
  6
Continuous
 62
     7
370
    15
100
AcDbCircle
 10
467.2754533415352
 20
-91.67403071021626
 30
0.0
 40
4.0
100
AcDbArc
 50
270.0000000000008
 51
0.0
  0
LINE
  5
6632
330
A
100
AcDbEntity
  8
0
  6
Continuous
 62
     7
370
    15
100
AcDbLine
 10
401.2754533415352
 20
-70.67403071021617
 30
0.0
 11
270.3554533415353
 21
-70.67403071021617
 31
0.0
  0
LINE
  5
6633
330
A
100
AcDbEntity
  8
0
  6
Continuous
 62
     7
370
    15
100
AcDbLine
 10
270.3554533415353
 20
-90.67403071021636
 30
0.0
 11
401.2754533415352
 21
-90.67403071021636
 31
0.0
  0
LINE
  5
6634
330
A
100
AcDbEntity
  8
0
  6
Continuous
 62
     7
370
    15
100
AcDbLine
 10
261.4996687487224
 20
-95.67403071021626
 30
0.0
 11
266.3554533415352
 21
-95.67403071021626
 31
0.0
  0
LINE
  5
6635
330
A
100
AcDbEntity
  8
0
  6
Continuous
 62
     7
370
    15
100
AcDbLine
 10
228.6054533415352
 20
-95.67403071021627
 30
0.0
 11
255.2119067887029
 21
-95.67403071021627
 31
0.0
  0
LINE
  5
6636
330
A
100
AcDbEntity
  8
0
  6
Continuous
 62
     7
370
    15
100
AcDbLine
 10
204.3554533415353
 20
-95.67403071021627
 30
0.0
 11
208.1187403083022
 21
-95.67403071021627
 31
0.0
  0
LINE
  5
6637
330
A
100
AcDbEntity
  8
0
  6
Continuous
 62
     7
370
    15
100
AcDbLine
 10
208.1054533415353
 20
-65.67403071021627
 30
0.0
 11
204.3554533415353
 21
-65.67403071021627
 31
0.0
  0
LINE
  5
6638
330
A
100
AcDbEntity
  8
0
  6
Continuous
 62
     7
370
    15
100
AcDbLine
 10
266.3554533415352
 20
-65.67403071021627
 30
0.0
 11
228.5921663747683
 21
-65.67403071021627
 31
0.0
  0
ARC
  5
6639
330
A
100
AcDbEntity
  8
0
  6
Continuous
 62
     7
370
    15
100
AcDbCircle
 10
204.3554533415352
 20
-91.67403071021627
 30
0.0
 40
4.000000000000028
100
AcDbArc
 50
180.0
 51
270.0000000000016
  0
ARC
  5
663A
330
A
100
AcDbEntity
  8
0
  6
Continuous
 62
     7
370
    15
100
AcDbCircle
 10
204.3554533415352
 20
-69.67403071021626
 30
0.0
 40
4.000000000000043
100
AcDbArc
 50
89.99999999999919
 51
180.0
  0
ARC
  5
663B
330
A
100
AcDbEntity
  8
0
  6
Continuous
 62
     7
370
    15
100
AcDbCircle
 10
266.3554533415353
 20
-91.67403071021626
 30
0.0
 40
4.000000000000028
100
AcDbArc
 50
270.0
 51
0.0000000000006107
  0
ARC
  5
663C
330
A
100
AcDbEntity
  8
0
  6
Continuous
 62
     7
370
    15
100
AcDbCircle
 10
266.3554533415353
 20
-69.67403071021627
 30
0.0
 40
4.000000000000057
100
AcDbArc
 50
0.0000000000002036
 51
90.00000000000082
  0
LINE
  5
663D
330
A
100
AcDbEntity
  8
0
  6
Continuous
 62
     7
370
    15
100
AcDbLine
 10
255.3554533415353
 20
-95.67403071021626
 30
0.0
 11
261.3554533415353
 21
-95.67403071021626
 31
0.0
  0
LINE
  5
663E
330
A
100
AcDbEntity
  8
0
  6
Continuous
 62
     7
370
    15
100
AcDbLine
 10
260.8554533415353
 20
-96.17403071021626
 30
0.0
 11
255.8554533415353
 21
-96.17403071021626
 31
0.0
  0
LINE
  5
663F
330
A
100
AcDbEntity
  8
0
  6
Continuous
 62
     7
370
    15
100
AcDbLine
 10
401.2754533415352
 20
-91.67403071021626
 30
0.0
 11
401.2754533415352
 21
-69.67403071021627
 31
0.0
  0
LINE
  5
6640
330
A
100
AcDbEntity
  8
0
  6
Continuous
 62
     7
370
    15
100
AcDbLine
 10
471.2754533415352
 20
-80.67403071021626
 30
0.0
 11
471.2754533415352
 21
-91.67403071021626
 31
0.0
  0
LINE
  5
6641
330
A
100
AcDbEntity
  8
0
  6
Continuous
 62
     7
370
    15
100
AcDbLine
 10
471.2754533415352
 20
-69.67403071021627
 30
0.0
 11
471.2754533415352
 21
-80.67403071021626
 31
0.0
  0
SPLINE
  5
6642
330
A
100
AcDbEntity
  8
0
  6
Continuous
 62
     7
370
    15
100
AcDbSpline
210
0.0
220
0.0
230
1.0
 70
     8
 71
     3
 72
    28
 73
    24
 74
     0
 42
0.000000001
 43
0.00000001
 40
0.0
 40
0.0
 40
0.0
 40
0.0
 40
0.0452537144490915
 40
0.091976785604977
 40
0.1371975430149044
 40
0.1835433895237683
 40
0.2328061293184762
 40
0.2831263308421028
 40
0.3403366931966627
 40
0.3993130647050691
 40
0.4393588450740402
 40
0.4804661209118937
 40
0.520558844122511
 40
0.561968148533819
 40
0.6001370663747129
 40
0.6390781486635547
 40
0.696006218319935
 40
0.7545718207424159
 40
0.8119223131440912
 40
0.8711090099722987
 40
0.9157754483701456
 40
0.9616818815781372
 40
1.0
 40
1.0
 40
1.0
 40
1.0
 10
228.6054533415353
 20
-95.67403071021627
 30
0.0
 10
228.5838151623497
 20
-95.6592024852446
 30
0.0
 10
228.5398362273152
 20
-95.62906457312559
 30
0.0
 10
228.189943542331
 20
-95.39197951487598
 30
0.0
 10
227.6484792324372
 20
-95.03448396667751
 30
0.0
 10
226.9082068344757
 20
-94.56445450491171
 30
0.0
 10
225.9679157397838
 20
-94.00235513399538
 30
0.0
 10
224.7853342533936
 20
-93.35754881761558
 30
0.0
 10
223.3498635581967
 20
-92.68168478075422
 30
0.0
 10
221.8312620297874
 20
-92.1325756442643
 30
0.0
 10
220.3578455428545
 20
-91.78212528239968
 30
0.0
 10
219.0229963867755
 20
-91.61788397421664
 30
0.0
 10
217.6512440584011
 20
-91.62000050103121
 30
0.0
 10
216.3348815173345
 20
-91.78650635834674
 30
0.0
 10
215.089469033889
 20
-92.08354817581491
 30
0.0
 10
213.7647615465798
 20
-92.52560004316595
 30
0.0
 10
212.3712175301567
 20
-93.13194070945629
 30
0.0
 10
211.0068433868875
 20
-93.84890649737665
 30
0.0
 10
209.8425283509166
 20
-94.53705460199878
 30
0.0
 10
208.9996878666482
 20
-95.07489844687223
 30
0.0
 10
208.4517915192345
 20
-95.43850963990434
 30
0.0
 10
208.1512001935803
 20
-95.64270303401668
 30
0.0
 10
208.128890256296
 20
-95.65800562105547
 30
0.0
 10
208.1187403083022
 20
-95.66496756185497
 30
0.0
  0
SPLINE
  5
6643
330
A
100
AcDbEntity
  8
0
  6
Continuous
 62
     7
370
    15
100
AcDbSpline
210
0.0
220
0.0
230
1.0
 70
     8
 71
     3
 72
    28
 73
    24
 74
     0
 42
0.000000001
 43
0.00000001
 40
0.0
 40
0.0
 40
0.0
 40
0.0
 40
0.0452537144490909
 40
0.0919767856049759
 40
0.1371975430149031
 40
0.1835433895237668
 40
0.2328061293184752
 40
0.283126330842102
 40
0.3403366931966619
 40
0.3993130647050679
 40
0.439358845074039
 40
0.4804661209118924
 40
0.5205588441225096
 40
0.5619681485338176
 40
0.6001370663747115
 40
0.6390781486635532
 40
0.696006218319933
 40
0.7545718207424137
 40
0.8119223131440897
 40
0.8711090099722973
 40
0.9157754483701439
 40
0.9616818815781348
 40
1.0
 40
1.0
 40
1.0
 40
1.0
 10
208.1054533415353
 20
-65.67403071021616
 30
0.0
 10
208.1270915207208
 20
-65.68885893518787
 30
0.0
 10
208.1710704557553
 20
-65.71899684730693
 30
0.0
 10
208.5209631407395
 20
-65.95608190555645
 30
0.0
 10
209.0624274506332
 20
-66.313577453755
 30
0.0
 10
209.8026998485949
 20
-66.78360691552066
 30
0.0
 10
210.7429909432867
 20
-67.34570628643716
 30
0.0
 10
211.9255724296768
 20
-67.99051260281699
 30
0.0
 10
213.3610431248739
 20
-68.6663766396783
 30
0.0
 10
214.8796446532832
 20
-69.21548577616815
 30
0.0
 10
216.353061140216
 20
-69.56593613803288
 30
0.0
 10
217.687910296295
 20
-69.73017744621586
 30
0.0
 10
219.0596626246694
 20
-69.72806091940132
 30
0.0
 10
220.376025165736
 20
-69.5615550620858
 30
0.0
 10
221.6214376491815
 20
-69.26451324461759
 30
0.0
 10
222.9461451364906
 20
-68.8224613772666
 30
0.0
 10
224.3396891529138
 20
-68.21612071097623
 30
0.0
 10
225.704063296183
 20
-67.49915492305593
 30
0.0
 10
226.8683783321539
 20
-66.8110068184337
 30
0.0
 10
227.7112188164223
 20
-66.27316297356018
 30
0.0
 10
228.259115163836
 20
-65.90955178052822
 30
0.0
 10
228.5597064894901
 20
-65.70535838641572
 30
0.0
 10
228.5820164267745
 20
-65.69005579937698
 30
0.0
 10
228.5921663747683
 20
-65.68309385857752
 30
0.0
  0
LWPOLYLINE
  5
6644
330
A
100
AcDbEntity
  8
0
  6
Continuous
 62
     7
370
    15
100
AcDbPolyline
 90
       13
 70
   128
 43
0.0
 10
255.2119067887029
 20
-95.67387876379703
 10
255.2112397309306
 20
-95.6740302866712
 10
255.4524780024934
 20
-95.6192399451447
 10
256.1335011112363
 20
-95.48733229222854
 10
257.1512871973736
 20
-95.35435966657015
 10
257.7425166024931
 20
-95.31314883539586
 10
258.3575106457761
 20
-95.29871016053958
 10
258.9716191615847
 20
-95.31330129384487
 10
259.5633542761333
 20
-95.35470474382817
 10
260.580261665052
 20
-95.48781441628418
 10
261.2597882848057
 20
-95.61953703158643
 10
261.4996687487224
 20
-95.67403071021631
 10
261.4996687487224
 20
-95.67403071021631
  0
LINE
  5
6645
330
A
100
AcDbEntity
  8
0
  6
Continuous
 62
     7
370
    15
100
AcDbLine
 10
200.3554533415352
 20
-91.67403071021629
 30
0.0
 11
200.3554533415352
 21
-69.6740307976745
 31
0.0
  0
LINE
  5
6646
330
A
100
AcDbEntity
  8
0
  6
Continuous
 62
     7
370
    15
100
AcDbLine
 10
270.3554533415353
 20
-91.67403071021627
 30
0.0
 11
270.3554533415353
 21
-69.6740307976745
 31
0.0
  0
LINE
  5
6647
330
A
100
AcDbEntity
  8
0
  6
Continuous
 62
     7
370
     0
100
AcDbLine
 10
405.2754533415352
 20
-65.67403071021627
 30
0.0
 11
405.2754533415352
 21
-95.67403071021626
 31
0.0
  0
LINE
  5
6648
330
A
100
AcDbEntity
  8
0
  6
Continuous
 62
     7
370
     0
100
AcDbLine
 10
467.2754533415352
 20
-80.67403071021626
 30
0.0
 11
467.2754533415352
 21
-65.67403071021627
 31
0.0
  0
LINE
  5
6649
330
A
100
AcDbEntity
  8
0
  6
Continuous
 62
     7
370
     0
100
AcDbLine
 10
467.2754533415352
 20
-95.67403071021626
 30
0.0
 11
467.2754533415352
 21
-80.67403071021626
 31
0.0
  0
LINE
  5
664A
330
A
100
AcDbEntity
  8
0
  6
Continuous
 62
     7
370
     0
100
AcDbLine
 10
204.3554533415353
 20
-95.67403071021631
 30
0.0
 11
204.3554533415353
 21
-65.67403071021627
 31
0.0
  0
LINE
  5
664B
330
A
100
AcDbEntity
  8
0
  6
Continuous
 62
     7
370
     0
100
AcDbLine
 10
266.3554533415352
 20
-95.67403071021631
 30
0.0
 11
266.3554533415352
 21
-65.67403071021627
 31
0.0
  0
LINE
  5
664C
330
A
100
AcDbEntity
  8
0
  6
Continuous
 62
     7
370
    15
100
AcDbLine
 10
708.5959430795015
 20
-101.8625438851025
 30
0.0
 11
711.2799420539131
 21
-103.4403700834608
 31
0.0
  0
LINE
  5
664D
330
A
100
AcDbEntity
  8
0
  6
Continuous
 62
     7
370
    15
100
AcDbLine
 10
539.3883672016127
 20
35.11251718948716
 30
0.0
 11
540.6310682592571
 21
35.83014647183549
 31
0.0
  0
LINE
  5
664E
330
A
100
AcDbEntity
  8
0
  6
Continuous
 62
     7
370
    15
100
AcDbLine
 10
563.9600405360118
 20
10.72249071037484
 30
0.0
 11
563.9600405360118
 21
10.31428665446347
 31
0.0
  0
LINE
  5
664F
330
A
100
AcDbEntity
  8
0
  6
Continuous
 62
     7
370
    15
100
AcDbLine
 10
565.7275201771325
 20
7.252590373530296
 30
0.0
 11
566.0810161053566
 21
7.048455173255007
 31
0.0
  0
LINE
  5
6650
330
A
100
AcDbEntity
  8
0
  6
Continuous
 62
     7
370
    15
100
AcDbLine
 10
567.5812389785256
 20
6.89973195549868
 30
0.0
 11
567.8993250123411
 21
7.083359114206644
 31
0.0
  0
LINE
  5
6651
330
A
100
AcDbEntity
  8
0
  6
Continuous
 62
     7
370
    15
100
AcDbLine
 10
564.8995692573701
 20
12.27965254419283
 30
0.0
 11
564.5814827806173
 21
12.09602512978279
 31
0.0
  0
LINE
  5
6652
330
A
100
AcDbEntity
  8
0
  6
Continuous
 62
     7
370
    15
100
AcDbLine
 10
704.5172163862617
 20
-75.49335699255332
 30
0.0
 11
704.5172163862617
 21
-106.4063174149831
 31
0.0
  0
LINE
  5
6653
330
A
100
AcDbEntity
  8
0
  6
Continuous
 62
     7
370
    15
100
AcDbLine
 10
724.5172163862619
 20
-106.4063174149831
 30
0.0
 11
724.5172163862619
 21
-83.00923455866986
 31
0.0
  0
SPLINE
  5
6654
330
A
100
AcDbEntity
  8
0
  6
Continuous
 62
     7
370
    15
100
AcDbSpline
210
0.0
220
0.0
230
1.0
 70
     8
 71
     3
 72
    19
 73
    15
 74
     0
 42
0.000000001
 43
0.00000001
 40
0.0
 40
0.0
 40
0.0
 40
0.0
 40
0.0840745566370035
 40
0.1753835292048442
 40
0.2671468626665576
 40
0.3597951087822959
 40
0.4537891867211573
 40
0.5493585180749565
 40
0.6357355711428554
 40
0.7186538701548942
 40
0.7979266071007626
 40
0.8743747162469951
 40
0.9573425424256476
 40
1.0
 40
1.0
 40
1.0
 40
1.0
 10
713.3024880043015
 20
-113.393127940038
 30
0.0
 10
713.7539337753062
 20
-113.4199497894489
 30
0.0
 10
714.6956711537773
 20
-113.4759014447134
 30
0.0
 10
716.13471504122
 20
-113.3827386271491
 30
0.0
 10
717.5825696612017
 20
-113.1547803851964
 30
0.0
 10
718.9785835438356
 20
-112.7769403679648
 30
0.0
 10
720.2971486278047
 20
-112.2496180331434
 30
0.0
 10
721.4662157267419
 20
-111.5904627527615
 30
0.0
 10
722.4554344251555
 20
-110.8240539931684
 30
0.0
 10
723.246122792719
 20
-109.9853276507465
 30
0.0
 10
723.8574823002236
 20
-109.0719654070065
 30
0.0
 10
724.2854340097224
 20
-108.0664063929655
 30
0.0
 10
724.5102539009092
 20
-107.156671071461
 30
0.0
 10
724.4945483868169
 20
-106.5808893831229
 30
0.0
 10
724.4892154054214
 20
-106.3853763286755
 30
0.0
  0
SPLINE
  5
6655
330
A
100
AcDbEntity
  8
0
  6
Continuous
 62
     7
370
    15
100
AcDbSpline
210
0.0
220
0.0
230
1.0
 70
     8
 71
     3
 72
    10
 73
     6
 74
     0
 42
0.000000001
 43
0.00000001
 40
0.0
 40
0.0
 40
0.0
 40
0.0
 40
0.2299096862080492
 40
0.7125359770532557
 40
1.0
 40
1.0
 40
1.0
 40
1.0
 10
704.5452173671022
 20
-106.4272585012909
 30
0.0
 10
704.5399592370184
 20
-106.5969658527471
 30
0.0
 10
704.5236632430629
 20
-107.1229227859993
 30
0.0
 10
704.6908649943648
 20
-107.8526138199339
 30
0.0
 10
704.8963090124271
 20
-108.3807903631377
 30
0.0
 10
704.972998412183
 20
-108.5779513340216
 30
0.0
  0
SPLINE
  5
6656
330
A
100
AcDbEntity
  8
0
  6
Continuous
 62
     7
370
    15
100
AcDbSpline
210
0.0
220
0.0
230
1.0
 70
     8
 71
     3
 72
    34
 73
    30
 74
     0
 42
0.000000001
 43
0.00000001
 40
0.0
 40
0.0
 40
0.0
 40
0.0
 40
0.0293909258621223
 40
0.063832939615179
 40
0.0983310592414885
 40
0.1334104311282098
 40
0.1695249566185632
 40
0.2069752554457427
 40
0.2457973847722487
 40
0.2857106645096337
 40
0.3262356550688076
 40
0.366868768330236
 40
0.4073696791868558
 40
0.4477017992873268
 40
0.4879168815511419
 40
0.5281083706466739
 40
0.568379630388113
 40
0.6088205660188217
 40
0.6495524617251673
 40
0.6906835933522337
 40
0.7322742811936153
 40
0.7742628614849288
 40
0.816203617745668
 40
0.8528354548854852
 40
0.8881548801881526
 40
0.9223451555362472
 40
0.9592507100222601
 40
0.9949321662474393
 40
1.0
 40
1.0
 40
1.0
 40
1.0
 10
716.9569094796695
 20
-82.65793967612308
 30
0.0
 10
717.2781104740452
 20
-82.83061761473164
 30
0.0
 10
717.9757136654009
 20
-83.20564970728235
 30
0.0
 10
719.1539528325723
 20
-83.5450765362536
 30
0.0
 10
720.4334696374844
 20
-83.72198065819602
 30
0.0
 10
721.751600268788
 20
-83.69767240433738
 30
0.0
 10
723.0986538091788
 20
-83.47994029625495
 30
0.0
 10
724.4691051315897
 20
-83.064655349434
 30
0.0
 10
725.850800859721
 20
-82.45023389303647
 30
0.0
 10
727.2242931235426
 20
-81.63993116898415
 30
0.0
 10
728.5639172254657
 20
-80.64664905814007
 30
0.0
 10
729.8441557044525
 20
-79.49120742635519
 30
0.0
 10
731.044088354033
 20
-78.19748128646692
 30
0.0
 10
732.1483540015197
 20
-76.78777409146349
 30
0.0
 10
733.1445979815633
 20
-75.28245151722224
 30
0.0
 10
734.0215419826507
 20
-73.70085117912107
 30
0.0
 10
734.7681466950817
 20
-72.06194495923606
 30
0.0
 10
735.3735373786815
 20
-70.38407010186272
 30
0.0
 10
735.8266249795056
 20
-68.68479809385154
 30
0.0
 10
736.1154776640442
 20
-66.98104078567236
 30
0.0
 10
736.2265136288838
 20
-65.29091096239438
 30
0.0
 10
736.1448528612052
 20
-63.6386883462408
 30
0.0
 10
735.8684027056863
 20
-62.1153251983345
 30
0.0
 10
735.4207335057731
 20
-60.75027476408715
 30
0.0
 10
734.8351826454245
 20
-59.56152343662856
 30
0.0
 10
734.0848801876962
 20
-58.46855393227719
 30
0.0
 10
733.1557947016029
 20
-57.52690193721372
 30
0.0
 10
732.3970901751297
 20
-56.91605094215548
 30
0.0
 10
731.9427509783325
 20
-56.69614294100265
 30
0.0
 10
731.8862465455461
 20
-56.66879382175888
 30
0.0
  0
LINE
  5
6657
330
A
100
AcDbEntity
  8
0
  6
Continuous
 62
     7
370
    15
100
AcDbLine
 10
673.0767003945266
 20
-57.34313344889544
 30
0.0
 11
716.9173208280924
 21
-82.65178491539945
 31
0.0
  0
LINE
  5
6658
330
A
100
AcDbEntity
  8
0
  6
Continuous
 62
     7
370
    15
100
AcDbLine
 10
731.9161018176335
 20
-56.67031904397903
 30
0.0
 11
688.0754813840674
 21
-31.36166757747503
 31
0.0
  0
SPLINE
  5
6659
330
A
100
AcDbEntity
  8
0
  6
Continuous
 62
     7
370
    15
100
AcDbSpline
210
0.0
220
0.0
230
1.0
 70
     8
 71
     3
 72
    34
 73
    30
 74
     0
 42
0.000000001
 43
0.00000001
 40
0.0
 40
0.0
 40
0.0
 40
0.0
 40
0.0302567514913932
 40
0.0646404162918663
 40
0.0990800919154327
 40
0.1341000350875169
 40
0.1701533781873603
 40
0.2075402316618321
 40
0.2462965915882246
 40
0.2861422533842329
 40
0.3265985896896367
 40
0.3671628655243118
 40
0.4075951629211003
 40
0.447858955513773
 40
0.4880059085460923
 40
0.5281293083798214
 40
0.5683323437182983
 40
0.60870476749449
 40
0.649367658424628
 40
0.690429108921369
 40
0.7319493370884086
 40
0.7738667836272641
 40
0.8157364871552598
 40
0.8523062655158313
 40
0.8875658554242326
 40
0.9216982082951637
 40
0.9585412402915177
 40
0.9941622477980967
 40
1.0
 40
1.0
 40
1.0
 40
1.0
 10
688.0664078760317
 20
-31.37065517572921
 30
0.0
 10
687.7352593861569
 20
-31.19241416343834
 30
0.0
 10
687.0277949299673
 20
-30.81162069861296
 30
0.0
 10
685.838929496422
 20
-30.46819171757531
 30
0.0
 10
684.5593107123702
 20
-30.29152210988329
 30
0.0
 10
683.2412080288764
 20
-30.31576609413099
 30
0.0
 10
681.8941466864828
 20
-30.53351614392946
 30
0.0
 10
680.5236975661417
 20
-30.94879602680624
 30
0.0
 10
679.1420012162935
 20
-31.56321891292276
 30
0.0
 10
677.7685091261508
 20
-32.37352123757776
 30
0.0
 10
676.4288849765414
 20
-33.36680345808247
 30
0.0
 10
675.1486465104222
 20
-34.52224506027645
 30
0.0
 10
673.9487138574011
 20
-35.81597120807501
 30
0.0
 10
672.8444482108439
 20
-37.22567840094834
 30
0.0
 10
671.8482042305052
 20
-38.73100097584208
 30
0.0
 10
670.9712602296722
 20
-40.31260131345422
 30
0.0
 10
670.2246555165152
 20
-41.95150753464802
 30
0.0
 10
669.6192648355825
 20
-43.62938238724396
 30
0.0
 10
669.1661772247107
 20
-45.32865441324468
 30
0.0
 10
668.8773245782186
 20
-47.03241165330738
 30
0.0
 10
668.7662884691119
 20
-48.72254173487374
 30
0.0
 10
668.8479497811832
 20
-50.37476337637415
 30
0.0
 10
669.1243979891876
 20
-51.89813001101264
 30
0.0
 10
669.5720735045727
 20
-53.26316913835407
 30
0.0
 10
670.1576025288414
 20
-54.45195956004122
 30
0.0
 10
670.9079854987046
 20
-55.54478491948039
 30
0.0
 10
671.8367529049156
 20
-56.48700638890719
 30
0.0
 10
672.6039223522594
 20
-57.10247727956192
 30
0.0
 10
673.0672636827048
 20
-57.32604337733866
 30
0.0
 10
673.1325061523557
 20
-57.35752341892082
 30
0.0
  0
LINE
  5
665A
330
A
100
AcDbEntity
  8
0
  6
Continuous
 62
     7
370
    15
100
AcDbLine
 10
678.816369180201
 20
-31.78984218285225
 30
0.0
 11
589.0477462164333
 21
20.03248078497103
 31
0.0
  0
LINE
  5
665B
330
A
100
AcDbEntity
  8
0
  6
Continuous
 62
     7
370
    15
100
AcDbLine
 10
579.0485588900727
 20
2.711503537357203
 30
0.0
 11
668.8189610005556
 21
-49.11184651000279
 31
0.0
  0
SPLINE
  5
665C
330
A
100
AcDbEntity
  8
0
  6
Continuous
 62
     7
370
    15
100
AcDbSpline
210
0.0
220
0.0
230
1.0
 70
     8
 71
     3
 72
    15
 73
    11
 74
     0
 42
0.000000001
 43
0.00000001
 40
0.0
 40
0.0
 40
0.0
 40
0.0
 40
0.0571162339491038
 40
0.1913803907936741
 40
0.3249179206190913
 40
0.4597624014850521
 40
0.5978363692511167
 40
0.740640875170227
 40
0.8888560017451186
 40
1.0
 40
1.0
 40
1.0
 40
1.0
 10
574.832828147067
 20
-0.5967789522113378
 30
0.0
 10
574.9870587003494
 20
-0.6942127545790697
 30
0.0
 10
575.5038417849242
 20
-1.020685945900993
 30
0.0
 10
576.4895387171692
 20
-1.372472424986569
 30
0.0
 10
577.7457583924688
 20
-1.649094968843031
 30
0.0
 10
579.0485129225754
 20
-1.716115069695832
 30
0.0
 10
580.3821520814295
 20
-1.59276009422851
 30
0.0
 10
581.7415404405629
 20
-1.267229835370699
 30
0.0
 10
582.9936465923811
 20
-0.8125229313337172
 30
0.0
 10
583.7706766424951
 20
-0.388466415156671
 30
0.0
 10
584.1036598239834
 20
-0.2067441151416176
 30
0.0
  0
SPLINE
  5
665D
330
A
100
AcDbEntity
  8
0
  6
Continuous
 62
     7
370
    15
100
AcDbSpline
210
0.0
220
0.0
230
1.0
 70
     8
 71
     3
 72
    15
 73
    11
 74
     0
 42
0.000000001
 43
0.00000001
 40
0.0
 40
0.0
 40
0.0
 40
0.0
 40
0.0456492084273736
 40
0.2092368265962903
 40
0.354436803862934
 40
0.4945474713551846
 40
0.6297775105980659
 40
0.7611759290718075
 40
0.9024569388938894
 40
1.0
 40
1.0
 40
1.0
 40
1.0
 10
594.1006843966316
 20
17.1154816636147
 30
0.0
 10
594.1034144765636
 20
17.27250541291812
 30
0.0
 10
594.1159280180023
 20
17.99223642548907
 30
0.0
 10
593.9469974117028
 20
19.15929676072307
 30
0.0
 10
593.5992873880198
 20
20.58416242930284
 30
0.0
 10
593.0913916963342
 20
21.84130262531906
 30
0.0
 10
592.4394955753046
 20
22.96959222404914
 30
0.0
 10
591.6207623171429
 20
23.98070192081522
 30
0.0
 10
590.751012164267
 20
24.79004162104795
 30
0.0
 10
590.0934364941379
 20
25.17387725838259
 30
0.0
 10
589.8248624616963
 20
25.33064748209461
 30
0.0
  0
LINE
  5
665E
330
A
100
AcDbEntity
  8
0
  6
Continuous
 62
     7
370
    15
100
AcDbLine
 10
531.0048059185257
 20
24.67322546481401
 30
0.0
 11
574.8454263520915
 21
-0.6354260016899786
 31
0.0
  0
LINE
  5
665F
330
A
100
AcDbEntity
  8
0
  6
Continuous
 62
     7
370
    15
100
AcDbLine
 10
589.8442073416325
 20
25.34603986973045
 30
0.0
 11
546.0035869080666
 21
50.65469133623444
 31
0.0
  0
SPLINE
  5
6660
330
A
100
AcDbEntity
  8
0
  6
Continuous
 62
     7
370
    15
100
AcDbSpline
210
0.0
220
0.0
230
1.0
 70
     8
 71
     3
 72
    27
 73
    23
 74
     0
 42
0.000000001
 43
0.00000001
 40
0.0
 40
0.0
 40
0.0
 40
0.0
 40
0.0138380533555661
 40
0.0608564625545603
 40
0.1075685395398516
 40
0.1546661534057837
 40
0.2028312176962929
 40
0.2526090687848856
 40
0.3042734187507082
 40
0.3576883576586707
 40
0.4123241578737616
 40
0.4675030788882183
 40
0.5226214390325227
 40
0.5775190099578128
 40
0.6322070752621297
 40
0.6867855318416759
 40
0.7413944256258143
 40
0.7961576585178188
 40
0.8512216857281438
 40
0.9067472061530909
 40
0.9628618998630804
 40
1.0
 40
1.0
 40
1.0
 40
1.0
 10
545.9842420281306
 20
50.63929894859857
 30
0.0
 10
545.8782898874564
 20
50.70802805918666
 30
0.0
 10
545.4123376096443
 20
51.01028231688019
 30
0.0
 10
544.4815638200394
 20
51.35225908833067
 30
0.0
 10
543.2315255999135
 20
51.65100272948453
 30
0.0
 10
541.9318876352361
 20
51.73729969794914
 30
0.0
 10
540.6016276254584
 20
51.63242602325883
 30
0.0
 10
539.2434239093479
 20
51.33093518008303
 30
0.0
 10
537.8663798599032
 20
50.83137845937048
 30
0.0
 10
536.4853433470212
 20
50.13296839121571
 30
0.0
 10
535.122820496859
 20
49.24288708836727
 30
0.0
 10
533.8053721440981
 20
48.17790670599535
 30
0.0
 10
532.5568676140782
 20
46.96077757825844
 30
0.0
 10
531.3958924064202
 20
45.61526731001578
 30
0.0
 10
530.3360330563098
 20
44.1625834089065
 30
0.0
 10
529.3890519381932
 20
42.62255864301952
 30
0.0
 10
528.5660385805556
 20
41.01436666735302
 30
0.0
 10
527.8781805161844
 20
39.3567893787091
 30
0.0
 10
527.3354168330707
 20
37.6676012851338
 30
0.0
 10
526.9527593319494
 20
35.96499234442911
 30
0.0
 10
526.7549181359709
 20
34.46033285719835
 30
0.0
 10
526.7342521056133
 20
33.54017026465158
 30
0.0
 10
526.7260218202439
 20
33.1737137854993
 30
0.0
  0
SPLINE
  5
6661
330
A
100
AcDbEntity
  8
0
  6
Continuous
 62
     7
370
    15
100
AcDbSpline
210
0.0
220
0.0
230
1.0
 70
     8
 71
     3
 72
    15
 73
    11
 74
     0
 42
0.000000001
 43
0.00000001
 40
0.0
 40
0.0
 40
0.0
 40
0.0
 40
0.0878062938277007
 40
0.2467794598665806
 40
0.3882197824646345
 40
0.5246519638449715
 40
0.6563955924064714
 40
0.7845341155174436
 40
0.9221727680848842
 40
1.0
 40
1.0
 40
1.0
 40
1.0
 10
526.7260218202439
 20
33.1737137854993
 30
0.0
 10
526.7319507586385
 20
32.86781386163855
 30
0.0
 10
526.7486140312901
 20
32.00808257481629
 30
0.0
 10
526.9254446742614
 20
30.69833487354859
 30
0.0
 10
527.2996205693869
 20
29.29021887381305
 30
0.0
 10
527.8224271982868
 20
28.0466426210545
 30
0.0
 10
528.4903750323306
 20
26.93327610640239
 30
0.0
 10
529.3241573270999
 20
25.94087305241138
 30
0.0
 10
530.1599598689787
 20
25.18250454614997
 30
0.0
 10
530.7713653466496
 20
24.83675777835856
 30
0.0
 10
530.9922077135011
 20
24.71187251429262
 30
0.0
  0
LWPOLYLINE
  5
6662
330
A
100
AcDbEntity
  8
0
  6
Continuous
 62
     7
370
    15
100
AcDbPolyline
 90
        3
 70
   128
 43
0.0
 10
711.8722541622715
 20
-101.4107625224048
 10
712.005332258796
 20
-100.6538489254844
 10
712.0445865656689
 20
-100.5207244566436
  0
ARC
  5
6663
330
A
100
AcDbEntity
  8
0
  6
Continuous
 62
     7
370
    15
100
AcDbCircle
 10
713.6377684253112
 20
-101.676147978787
 30
0.0
 40
1.785348720405997
100
AcDbArc
 50
171.4515150020196
 51
216.9679868190047
  0
LWPOLYLINE
  5
6664
330
A
100
AcDbEntity
  8
0
  6
Continuous
 62
     7
370
    15
100
AcDbPolyline
 90
        3
 70
   128
 43
0.0
 10
710.4602700017758
 20
-101.3446864106694
 10
710.6046620292159
 20
-100.4597717133287
 10
710.9007596298288
 20
-99.58300594229195
  0
LWPOLYLINE
  5
6665
330
A
100
AcDbEntity
  8
0
  6
Continuous
 62
     7
370
    15
100
AcDbPolyline
 90
        7
 70
   128
 43
0.0
 10
712.2113254288863
 20
-103.6171381024489
 10
712.1950633619765
 20
-103.6187963265947
 10
711.5795234157747
 20
-103.5678668183259
 10
711.0708168136543
 20
-103.2912580807923
 10
710.7009074623193
 20
-102.8063504582687
 10
710.493038126745
 20
-102.1436124800438
 10
710.4602700017758
 20
-101.3446864106694
  0
LWPOLYLINE
  5
6666
330
A
100
AcDbEntity
  8
0
  6
Continuous
 62
     7
370
    15
100
AcDbPolyline
 90
       19
 70
   128
 43
0.0
 10
563.9600405360118
 20
10.72249071037484
 10
563.9696460387746
 20
10.94979698798414
 10
564.111995096956
 20
11.54520189942343
 10
564.4138904585755
 20
11.97474484839699
 10
564.8508743568757
 20
12.20362681976928
 10
565.3875449552595
 20
12.21330515743324
 10
565.980424393549
 20
12.0029957800306
 10
566.5814811056435
 20
11.58973670256051
 10
567.1420210513513
 20
11.00700771773322
 10
567.6166326179302
 20
10.30201806227672
 10
567.9668655988801
 20
9.531881805341186
 10
568.164346201
 20
8.758990806286846
 10
568.1930757203681
 20
8.045960097297353
 10
568.0507266621869
 20
7.450555185858065
 10
567.7488313005673
 20
7.021012236884502
 10
567.3118474022672
 20
6.792130265512213
 10
566.7751768038833
 20
6.782451927848257
 10
566.1822973655939
 20
6.992761305250895
 10
566.0810161053566
 20
7.048455173255007
  0
LWPOLYLINE
  5
6667
330
A
100
AcDbEntity
  8
0
  6
Continuous
 62
     7
370
    15
100
AcDbPolyline
 90
       21
 70
   128
 43
0.0
 10
564.8439240124949
 20
8.036168868774666
 10
565.3602680728152
 20
7.509208913224825
 10
565.9125894519871
 20
7.156934868319524
 10
566.446823085168
 20
7.01382977201169
 10
566.9106744621178
 20
7.093901748199727
 10
567.2587385782176
 20
7.389312793960158
 10
567.4569444926788
 20
7.871146017884115
 10
567.4858904296118
 20
8.492236226884472
 10
567.3427429590313
 20
9.191786783914324
 10
567.041514352725
 20
9.901320806396257
 10
566.6116909654613
 20
10.55138416059549
 10
566.0953469051411
 20
11.07834411614533
 10
565.5430255259693
 20
11.43061816105063
 10
565.0087918927882
 20
11.57372325735849
 10
564.5449405158386
 20
11.4936512811704
 10
564.1968763997386
 20
11.19824023541
 10
563.9986704852774
 20
10.71640701148601
 10
563.9697245483446
 20
10.09531680248566
 10
564.112872018925
 20
9.395766245455803
 10
564.4141006252312
 20
8.6862322229739
 10
564.8439240124949
 20
8.036168868774666
  0
LINE
  5
6668
330
A
100
AcDbEntity
  8
0
  6
Continuous
 62
     7
370
    15
100
AcDbLine
 10
565.7278074889775
 20
10.70806668732408
 30
0.0
 11
564.6671473171978
 21
10.61322768487145
 31
0.0
  0
LINE
  5
6669
330
A
100
AcDbEntity
  8
0
  6
Continuous
 62
     7
370
    15
100
AcDbLine
 10
564.6671473171978
 20
10.61322768487145
 30
0.0
 11
564.6671473171978
 21
9.198937512231737
 31
0.0
  0
LINE
  5
666A
330
A
100
AcDbEntity
  8
0
  6
Continuous
 62
     7
370
    15
100
AcDbLine
 10
564.6671473171978
 20
9.198937512231737
 30
0.0
 11
565.7278074889773
 21
7.879486342044913
 31
0.0
  0
LINE
  5
666B
330
A
100
AcDbEntity
  8
0
  6
Continuous
 62
     7
370
    15
100
AcDbLine
 10
565.7278074889773
 20
7.879486342044913
 30
0.0
 11
566.7884676607574
 21
7.974325344497657
 31
0.0
  0
LINE
  5
666C
330
A
100
AcDbEntity
  8
0
  6
Continuous
 62
     7
370
    15
100
AcDbLine
 10
566.7884676607563
 20
9.3886155171366
 30
0.0
 11
566.7884676607574
 21
7.974325344497657
 31
0.0
  0
LINE
  5
666D
330
A
100
AcDbEntity
  8
0
  6
Continuous
 62
     7
370
    15
100
AcDbLine
 10
566.7884676607563
 20
9.3886155171366
 30
0.0
 11
565.7278074889775
 21
10.70806668732408
 31
0.0
  0
LINE
  5
666E
330
A
100
AcDbEntity
  8
0
  6
Continuous
 62
     7
370
    15
100
AcDbLine
 10
566.788467660757
 20
8.491792425911996
 30
0.0
 11
565.7278074889773
 21
7.879486342044913
 31
0.0
  0
LINE
  5
666F
330
A
100
AcDbEntity
  8
0
  6
Continuous
 62
     7
370
    15
100
AcDbLine
 10
566.2202216015673
 20
10.09550821255465
 30
0.0
 11
564.6671473171978
 21
9.198937512231737
 31
0.0
  0
ARC
  5
6670
330
A
100
AcDbEntity
  8
0
  6
Continuous
 62
     7
370
    15
100
AcDbCircle
 10
712.3319612141026
 20
-90.37282209686663
 30
0.0
 40
9.261075575170356
100
AcDbArc
 50
220.697047666942
 51
259.308328865759
  0
SPLINE
  5
6671
330
A
100
AcDbEntity
  8
0
  6
Continuous
 62
     7
370
    15
100
AcDbSpline
210
0.0
220
0.0
230
1.0
 70
     8
 71
     3
 72
    12
 73
     8
 74
     0
 42
0.000000001
 43
0.00000001
 40
0.0
 40
0.0
 40
0.0
 40
0.0
 40
0.1826145510158061
 40
0.3647284432145936
 40
0.5595253271502038
 40
0.7811798177217558
 40
1.0
 40
1.0
 40
1.0
 40
1.0
 10
704.7867042264272
 20
-96.71417896962787
 30
0.0
 10
704.7903436173551
 20
-96.59918896235298
 30
0.0
 10
704.7976124214024
 20
-96.36952420614759
 30
0.0
 10
704.8562978905056
 20
-96.17085337093513
 30
0.0
 10
704.9559242627142
 20
-96.09500587774251
 30
0.0
 10
705.1049359995311
 20
-96.15907491683637
 30
0.0
 10
705.2422803587954
 20
-96.32778210010102
 30
0.0
 10
705.3105106557489
 20
-96.41159290437447
 30
0.0
  0
LINE
  5
6672
330
A
100
AcDbEntity
  8
0
  6
Continuous
 62
     7
370
    15
100
AcDbLine
 10
704.7867042264272
 20
-107.7374799300855
 30
0.0
 11
704.7867042264272
 21
-96.71417896962787
 31
0.0
  0
LINE
  5
6673
330
A
100
AcDbEntity
  8
0
  6
Continuous
 62
     7
370
    15
100
AcDbLine
 10
712.2113254288863
 20
-101.0003215566974
 30
0.0
 11
712.2113254288863
 21
-112.023622517155
 31
0.0
  0
SPLINE
  5
6674
330
A
100
AcDbEntity
  8
0
  6
Continuous
 62
     7
370
    15
100
AcDbSpline
210
0.0
220
0.0
230
1.0
 70
     8
 71
     3
 72
    12
 73
     8
 74
     0
 42
0.000000001
 43
0.00000001
 40
0.0
 40
0.0
 40
0.0
 40
0.0
 40
0.2398427278405182
 40
0.4795769054096677
 40
0.7190751971162822
 40
0.9340365121302844
 40
1.0
 40
1.0
 40
1.0
 40
1.0
 10
710.613811514648
 20
-99.47312332370963
 30
0.0
 10
710.798572917761
 20
-99.53226384960507
 30
0.0
 10
711.1680121029383
 20
-99.65051813502197
 30
0.0
 10
711.6762102883124
 20
-99.98865021373614
 30
0.0
 10
712.0526753173203
 20
-100.4023744890153
 30
0.0
 10
712.2002976375818
 20
-100.7645283978869
 30
0.0
 10
712.2092284091905
 20
-100.9554836662711
 30
0.0
 10
712.2113254288863
 20
-101.0003215566974
 30
0.0
  0
SPLINE
  5
6675
330
A
100
AcDbEntity
  8
0
  6
Continuous
 62
     7
370
    15
100
AcDbSpline
210
0.0
220
0.0
230
1.0
 70
     8
 71
     3
 72
    11
 73
     7
 74
     0
 42
0.000000001
 43
0.00000001
 40
0.0
 40
0.0
 40
0.0
 40
0.0
 40
0.1695973125155797
 40
0.454342148438949
 40
0.7495864130210159
 40
1.0
 40
1.0
 40
1.0
 40
1.0
 10
712.2113254288863
 20
-112.023622517155
 30
0.0
 10
712.2185225771273
 20
-112.1590630901358
 30
0.0
 10
712.2378033531368
 20
-112.5219011563832
 30
0.0
 10
712.4426316353686
 20
-112.9856575800369
 30
0.0
 10
712.8130658250245
 20
-113.3220779847888
 30
0.0
 10
713.1490795663831
 20
-113.3585685722032
 30
0.0
 10
713.3032831685252
 20
-113.3753148516881
 30
0.0
  0
SPLINE
  5
6676
330
A
100
AcDbEntity
  8
0
  6
Continuous
 62
     7
370
    15
100
AcDbSpline
210
0.0
220
0.0
230
1.0
 70
     8
 71
     3
 72
    13
 73
     9
 74
     0
 42
0.000000001
 43
0.00000001
 40
0.0
 40
0.0
 40
0.0
 40
0.0
 40
0.1437740144139571
 40
0.3852958557245459
 40
0.6288243722485318
 40
0.8015154138095912
 40
0.9747212958608771
 40
1.0
 40
1.0
 40
1.0
 40
1.0
 10
707.5309555716053
 20
-108.6028797852971
 30
0.0
 10
707.3463402421999
 20
-108.7021641985778
 30
0.0
 10
706.851594918345
 20
-108.9682336488259
 30
0.0
 10
706.0591202130622
 20
-109.1817992710675
 30
0.0
 10
705.3412028482976
 20
-109.0340479078262
 30
0.0
 10
704.9105797245322
 20
-108.5458541177939
 30
0.0
 10
704.7916097447992
 20
-108.0662505062757
 30
0.0
 10
704.7872584064598
 20
-107.7746213848475
 30
0.0
 10
704.7867042264272
 20
-107.7374799300855
 30
0.0
  0
LINE
  5
6677
330
A
100
AcDbEntity
  8
0
  6
Continuous
 62
     7
370
    15
100
AcDbLine
 10
712.2113254288863
 20
-105.9009597786733
 30
0.0
 11
707.5309555716053
 21
-108.6028797852971
 31
0.0
  0
LWPOLYLINE
  5
6678
330
A
100
AcDbEntity
  8
0
  6
Continuous
 62
     7
370
    15
100
AcDbPolyline
 90
       23
 70
   128
 43
0.0
 10
727.245138447609
 20
-68.8442457676774
 10
727.8427834518798
 20
-68.59845957115824
 10
728.3920108122363
 20
-68.57103935180565
 10
728.8483253943232
 20
-68.76420653271727
 10
729.1747593045072
 20
-69.16231185770503
 10
729.3448668087626
 20
-69.73310320096205
 10
729.3448668087626
 20
-70.43033844248437
 10
729.1747593045072
 20
-71.19753172962157
 10
728.8483253943232
 20
-71.97252962492396
 10
728.3920108122363
 20
-72.69254640800403
 10
727.8427834518798
 20
-73.2992506012014
 10
727.245138447609
 20
-73.74349063899191
 10
726.6474934433384
 20
-73.98927683551108
 10
726.0982660829818
 20
-74.01669705486367
 10
725.6419515008947
 20
-73.82352987395205
 10
725.3155175907107
 20
-73.42542454896426
 10
725.1454100864555
 20
-72.85463320570727
 10
725.1454100864555
 20
-72.15739796418492
 10
725.3155175907107
 20
-71.39020467704772
 10
725.6419515008947
 20
-70.61520678174536
 10
726.0982660829818
 20
-69.8951899986653
 10
726.6474934433384
 20
-69.28848580546794
 10
727.245138447609
 20
-68.8442457676774
  0
LWPOLYLINE
  5
6679
330
A
100
AcDbEntity
  8
0
  6
Continuous
 62
     7
370
    15
100
AcDbPolyline
 90
       16
 70
   128
 43
0.0
 10
725.1318842711848
 20
-72.30040594532417
 10
725.2103387771058
 20
-72.69114146244405
 10
725.4614315499716
 20
-73.11525283919508
 10
725.8525177125721
 20
-73.34109546889637
 10
726.3453150264547
 20
-73.34656230141466
 10
726.8915850570156
 20
-73.13111820509336
 10
727.4378550875767
 20
-72.7158523491677
 10
727.9306524014594
 20
-72.14141384894303
 10
728.3217385640598
 20
-71.46403274716971
 10
728.5728313369257
 20
-70.750015825681
 10
728.6593520099821
 20
-70.06925603560059
 10
728.5728313369257
 20
-69.48839088831392
 10
728.3217385640598
 20
-69.06427951156289
 10
727.9306524014594
 20
-68.8384368818616
 10
727.4378550875767
 20
-68.83297004934334
 10
727.05997964779
 20
-68.960484897809
  0
SPLINE
  5
667A
330
A
100
AcDbEntity
  8
0
  6
Continuous
 62
     7
370
    15
100
AcDbSpline
210
0.0
220
0.0
230
1.0
 70
    11
 71
     3
 72
    60
 73
    56
 74
     0
 42
0.000000001
 43
0.00000001
 40
0.0
 40
0.0
 40
0.0
 40
0.0
 40
0.0226192255226724
 40
0.0459728816026772
 40
0.0685756341637263
 40
0.0917407415363477
 40
0.1163638036395642
 40
0.1415154182741959
 40
0.1557770171202674
 40
0.1701353491798495
 40
0.1848247901732034
 40
0.1996478893165187
 40
0.2196640260784223
 40
0.2402107315614627
 40
0.2602503318276288
 40
0.2809480006625272
 40
0.3000260226792779
 40
0.3194899967002199
 40
0.3336776384992901
 40
0.3479700936425987
 40
0.3625688481732883
 40
0.3772680648753029
 40
0.391563022019282
 40
0.4059592190318415
 40
0.4207008439708574
 40
0.4355766987975687
 40
0.4579023853343502
 40
0.4808478601603159
 40
0.5031905487214797
 40
0.5262614139898488
 40
0.5474532024734271
 40
0.5691781841789418
 40
0.5920989076733827
 40
0.6155116841609962
 40
0.6422719216956981
 40
0.65594119237991
 40
0.6696956193804365
 40
0.6928626001544718
 40
0.7047054820704921
 40
0.7166383808497284
 40
0.7357992051048112
 40
0.7555036431051332
 40
0.7746721026623354
 40
0.7943665379503778
 40
0.8069414160251225
 40
0.819613893901026
 40
0.8455576206771056
 40
0.8714093996697023
 40
0.8978387945923496
 40
0.9123389135783011
 40
0.9269592334934837
 40
0.9420015017051715
 40
0.9572110630500239
 40
0.9783153838443002
 40
1.0
 40
1.0
 40
1.0
 40
1.0
 10
545.0449341392716
 20
21.64194920600357
 30
0.0
 10
545.0401187866614
 20
22.06854698434495
 30
0.0
 10
545.0303317302829
 20
22.93559387487605
 30
0.0
 10
544.9505645040044
 20
24.38359532406994
 30
0.0
 10
544.8204796493596
 20
25.89413449059512
 30
0.0
 10
544.6293863039311
 20
27.45513519472192
 30
0.0
 10
544.3619753316351
 20
29.05326559626974
 30
0.0
 10
544.0512252249735
 20
30.40926708769322
 30
0.0
 10
543.727243119313
 20
31.4962733783394
 30
0.0
 10
543.423443116505
 20
32.33569255854755
 30
0.0
 10
543.0648559067458
 20
33.14069109086802
 30
0.0
 10
542.5930345781003
 20
33.98603135700461
 30
0.0
 10
541.9649456609021
 20
34.82992282532473
 30
0.0
 10
541.1372526564194
 20
35.58562085528027
 30
0.0
 10
540.1657718367946
 20
36.14290598647466
 30
0.0
 10
539.1172095890859
 20
36.46634187489641
 30
0.0
 10
538.0265978741114
 20
36.57985864665406
 30
0.0
 10
537.0431096203911
 20
36.51936023671072
 30
0.0
 10
536.1607701126475
 20
36.35089363583492
 30
0.0
 10
535.3861298155775
 20
36.12034993828155
 30
0.0
 10
534.6300216841055
 20
35.8119643542671
 30
0.0
 10
533.9106280958645
 20
35.43256079529533
 30
0.0
 10
533.2393569800472
 20
34.98921232075929
 30
0.0
 10
532.6202487965032
 20
34.48392779477882
 30
0.0
 10
532.0564217603267
 20
33.91217793584974
 30
0.0
 10
531.4792236706807
 20
33.17104214725961
 30
0.0
 10
530.9562863259783
 20
32.22390055991696
 30
0.0
 10
530.602679852138
 20
31.06294713215047
 30
0.0
 10
530.507390551039
 20
29.82659801171204
 30
0.0
 10
530.677963250272
 20
28.59884959057209
 30
0.0
 10
531.0883455633107
 20
27.39776088724014
 30
0.0
 10
531.7066504666205
 20
26.23913076667304
 30
0.0
 10
532.5365927342539
 20
25.10242571834087
 30
0.0
 10
533.5989701151536
 20
23.96002359732108
 30
0.0
 10
534.6525247815158
 20
23.03680756803018
 30
0.0
 10
535.6037453822007
 20
22.3025560753043
 30
0.0
 10
536.5196516858148
 20
21.64608829116878
 30
0.0
 10
537.4276413237399
 20
21.04836214802492
 30
0.0
 10
538.2988180311152
 20
20.5054510836255
 30
0.0
 10
539.0853324876001
 20
20.02925205445655
 30
0.0
 10
539.9847911316533
 20
19.49930516097206
 30
0.0
 10
540.9272307514482
 20
18.95361782383475
 30
0.0
 10
541.7597547677872
 20
18.47958209978967
 30
0.0
 10
542.3767211667077
 20
18.14344500046644
 30
0.0
 10
542.8371233532789
 20
17.91508111275763
 30
0.0
 10
543.2980237459853
 20
17.71564127481787
 30
0.0
 10
543.7695476176625
 20
17.58615116674406
 30
0.0
 10
544.2036968585505
 20
17.64304683515076
 30
0.0
 10
544.4823829757656
 20
17.89155243617583
 30
0.0
 10
544.665339745036
 20
18.2390305715123
 30
0.0
 10
544.785595327126
 20
18.59822354764742
 30
0.0
 10
544.8836515873229
 20
19.05089567426504
 30
0.0
 10
544.968408152914
 20
19.67439700264677
 30
0.0
 10
545.0318538372987
 20
20.50894005021479
 30
0.0
 10
545.0405347954504
 20
21.26088026438805
 30
0.0
 10
545.0449341392716
 20
21.64194920600357
 30
0.0
  0
SPLINE
  5
667B
330
A
100
AcDbEntity
  8
0
  6
Continuous
 62
     7
370
    15
100
AcDbSpline
210
0.0
220
0.0
230
1.0
 70
     8
 71
     3
 72
    12
 73
     8
 74
     0
 42
0.000000001
 43
0.00000001
 40
0.0
 40
0.0
 40
0.0
 40
0.0
 40
0.2627827563909639
 40
0.5219286394629751
 40
0.7750587281218217
 40
0.9000421607192594
 40
1.0
 40
1.0
 40
1.0
 40
1.0
 10
568.3046569155044
 20
8.214397060767908
 30
0.0
 10
568.2794031403873
 20
7.88187407950906
 30
0.0
 10
568.2292450985536
 20
7.221430184399026
 30
0.0
 10
567.8288613426752
 20
6.672858213155848
 30
0.0
 10
567.2992870060579
 20
6.572051289060141
 30
0.0
 10
566.805957158439
 20
6.693656079505445
 30
0.0
 10
566.5468690230343
 20
6.827845257344279
 30
0.0
 10
566.4317372378262
 20
6.887475311711967
 30
0.0
  0
LWPOLYLINE
  5
667C
330
A
100
AcDbEntity
  8
0
  6
Continuous
 62
     7
370
    15
100
AcDbPolyline
 90
       13
 70
   128
 43
0.0
 10
564.0372281001145
 20
9.81984589585042
 10
563.8580664135053
 20
10.7842701031515
 10
564.067390253246
 20
11.75116292490645
 10
564.6422191074503
 20
12.40752959106226
 10
565.4559283960705
 20
12.63506512051086
 10
565.903131175849
 20
12.56589825085442
 10
566.348207319146
 20
12.37298439797584
 10
566.7721301257534
 20
12.06355408276676
 10
567.1612733776691
 20
11.64896541834429
 10
567.786212736177
 20
10.58967366492882
 10
568.1735686624859
 20
9.377639789467196
 10
568.3046569155044
 20
8.214397060767908
 10
568.3046569155044
 20
8.214397060767908
  0
LWPOLYLINE
  5
667D
330
A
100
AcDbEntity
  8
0
  6
Continuous
 62
     7
370
    15
100
AcDbPolyline
 90
       18
 70
   128
 43
0.0
 10
577.925399464446
 20
6.538399137283363
 10
578.0146324574375
 20
7.899197279831384
 10
578.2801342239775
 20
9.329514276613082
 10
578.7153672294239
 20
10.79413097621773
 10
579.3096145927268
 20
12.25698365471692
 10
580.0482439716081
 20
13.68205202423627
 10
580.9130678593892
 20
15.03424617198749
 10
581.8827914217671
 20
16.28027059037785
 10
582.933536846308
 20
17.38944402290863
 10
584.0394312934355
 20
18.33445493853534
 10
585.1732439716083
 20
19.09203403220386
 10
586.3070566497809
 20
19.64352719236715
 10
587.4129510969085
 20
19.97535482712115
 10
588.4636965214493
 20
20.07934623882545
 10
589.4334200838272
 20
19.95294081379615
 10
590.2982439716083
 20
19.59925107311309
 10
591.0368733504895
 20
19.02698603202077
 10
591.2979290531437
 20
18.73347788339228
  0
LWPOLYLINE
  5
667E
330
A
100
AcDbEntity
  8
0
  6
Continuous
 62
     7
370
    15
100
AcDbPolyline
 90
        8
 70
   128
 43
0.0
 10
581.298741726783
 20
1.412500635778684
 10
580.9130678593892
 20
1.492040606953452
 10
580.0482439716081
 20
1.845730347636504
 10
579.3096145927268
 20
2.417995388728826
 10
578.7153672294238
 20
3.194744665679906
 10
578.2801342239775
 20
4.156852033408143
 10
578.0146324574375
 20
5.280627215468769
 10
577.925399464446
 20
6.538399137283363
  0
SPLINE
  5
667F
330
A
100
AcDbEntity
  8
0
  6
Continuous
 62
     7
370
    15
100
AcDbSpline
210
0.0
220
0.0
230
1.0
 70
     8
 71
     3
 72
     9
 73
     5
 74
     0
 42
0.000000001
 43
0.00000001
 40
0.0
 40
0.0
 40
0.0
 40
0.0
 40
0.6287183053292238
 40
1.0
 40
1.0
 40
1.0
 40
1.0
 10
539.3880798897793
 20
35.11268305107828
 30
0.0
 10
539.4051158249413
 20
35.34742714482357
 30
0.0
 10
539.4322121175378
 20
35.72079641331078
 30
0.0
 10
539.6315299627258
 20
36.1010353776486
 30
0.0
 10
539.7055330300655
 20
36.24221114470782
 30
0.0
  0
SPLINE
  5
6680
330
A
100
AcDbEntity
  8
0
  6
Continuous
 62
     7
370
    15
100
AcDbSpline
210
0.0
220
0.0
230
1.0
 70
     8
 71
     3
 72
    14
 73
    10
 74
     0
 42
0.000000001
 43
0.00000001
 40
0.0
 40
0.0
 40
0.0
 40
0.0
 40
0.0316839659596582
 40
0.2000584109354298
 40
0.3638458268377098
 40
0.5267950788685264
 40
0.6938220399260376
 40
0.8636050695333592
 40
1.0
 40
1.0
 40
1.0
 40
1.0
 10
542.074774522948
 20
34.6259438699669
 30
0.0
 10
542.0475040175904
 20
34.58217978357564
 30
0.0
 10
541.8753130117622
 20
34.30584526186112
 30
0.0
 10
541.4451676532296
 20
33.97207461631834
 30
0.0
 10
540.842494926065
 20
33.72095167582771
 30
0.0
 10
540.2482144210769
 20
33.75537632514056
 30
0.0
 10
539.7546233367569
 20
34.04598550403989
 30
0.0
 10
539.4410323025841
 20
34.5252172716346
 30
0.0
 10
539.4043991014096
 20
34.93163410783893
 30
0.0
 10
539.3880798897793
 20
35.11268305107828
 30
0.0
  0
LWPOLYLINE
  5
6681
330
A
100
AcDbEntity
  8
0
  6
Continuous
 62
     7
370
     0
100
AcDbPolyline
 90
        3
 70
   128
 43
0.0
 10
704.5172163862617
 20
-106.4063174149831
 10
704.546124393019
 20
-106.8449514159637
 10
704.7867042264272
 20
-107.7374799300855
  0
LWPOLYLINE
  5
6682
330
A
100
AcDbEntity
  8
0
  6
Continuous
 62
     7
370
     0
100
AcDbPolyline
 90
       13
 70
   128
 43
0.0
 10
712.2113254288863
 20
-112.023622517155
 10
713.7573976826977
 20
-112.1625062987571
 10
715.3220719553108
 20
-112.160466023949
 10
716.8670416084431
 20
-112.0175516431074
 10
718.3544824158669
 20
-111.7372620119288
 10
719.7479785829503
 20
-111.3264592318129
 10
721.0134142847226
 20
-110.7952006506556
 10
722.1198088956655
 20
-110.1564926370404
 10
723.0400754629864
 20
-109.4259721559729
 10
723.7516838542888
 20
-108.6215239418774
 10
724.2372123443479
 20
-107.7628426412972
 10
724.4847741369335
 20
-106.8709506449988
 10
724.5172163862619
 20
-106.4063174149831
  0
LINE
  5
6683
330
A
100
AcDbEntity
  8
0
  6
Continuous
 62
     7
370
     0
100
AcDbLine
 10
705.3106133198187
 20
-96.41173268776294
 30
0.0
 11
704.7867042264272
 21
-96.71417896962787
 31
0.0
  0
LWPOLYLINE
  5
6684
330
A
100
AcDbEntity
  8
0
  6
Continuous
 62
     7
370
     0
100
AcDbPolyline
 90
        8
 70
   128
 43
0.0
 10
724.4167113228627
 20
-57.41293980140301
 10
725.7730534456527
 20
-56.73049699220736
 10
727.1071244682848
 20
-56.26037353842167
 10
728.3970189814495
 20
-56.01028885415985
 10
729.6215569529015
 20
-55.98434932302349
 10
730.7606315030043
 20
-56.18298087139675
 10
731.795539059136
 20
-56.60292197474679
 10
731.9008784640512
 20
-56.66156639040538
  0
LWPOLYLINE
  5
6685
330
A
100
AcDbEntity
  8
0
  6
Continuous
 62
     7
370
     0
100
AcDbPolyline
 90
       20
 70
   128
 43
0.0
 10
716.9386908071658
 20
-82.66405144458275
 10
716.5648774474355
 20
-82.42823591479268
 10
715.7174708783643
 20
-81.6903656250185
 10
715.0129055968882
 20
-80.7549743377564
 10
714.4627505454505
 20
-79.63742115208287
 10
714.0760392547857
 20
-78.35605626041021
 10
713.8591215135955
 20
-76.93191963883454
 10
713.815559105193
 20
-75.38839557130962
 10
713.9460673231201
 20
-73.75082868035128
 10
714.2485032260463
 20
-72.04610776903607
 10
714.717900824807
 20
-70.30222430759818
 10
715.3465526238076
 20
-68.54781281426224
 10
716.1241361778887
 20
-66.81168067724539
 10
717.0378835865897
 20
-65.1223351382396
 10
718.0727911427216
 20
-63.50751520429078
 10
719.2118656928244
 20
-61.99373617407029
 10
720.4364036642764
 20
-60.60585425740371
 10
721.7262981774411
 20
-59.36665843699261
 10
723.060369200073
 20
-58.29649627394869
 10
724.4167113228627
 20
-57.41293980140301
  0
LWPOLYLINE
  5
6686
330
A
100
AcDbEntity
  8
0
  6
Continuous
 62
     7
370
     0
100
AcDbPolyline
 90
       43
 70
   128
 43
0.0
 10
727.245138447609
 20
-62.31191927259142
 10
726.0858616795467
 20
-63.08147645414459
 10
724.9524812388356
 20
-64.03448489680581
 10
723.8703149716664
 20
-65.1496559667651
 10
722.863536684222
 20
-66.40207858508421
 10
721.9546361397927
 20
-67.76377570003604
 10
721.1639166746281
 20
-69.2043292482093
 10
720.5090416549554
 20
-70.69155964378092
 10
720.0046399065654
 20
-72.192244617288
 10
719.6619789310191
 20
-73.67286134622967
 10
719.4887132082795
 20
-75.10033529952693
 10
719.4887132082795
 20
-76.4427790678928
 10
719.6619789310191
 20
-77.6702046758635
 10
720.0046399065657
 20
-78.75519346361676
 10
720.5090416549554
 20
-79.67350857452416
 10
721.1639166746281
 20
-80.40463636647806
 10
721.9546361397927
 20
-80.93224465275854
 10
722.863536684222
 20
-81.24454753609653
 10
723.8703149716664
 20
-81.33456868614323
 10
724.9524812388356
 20
-81.20029717916209
 10
726.0858616795467
 20
-80.84473241874211
 10
727.2451384476092
 20
-80.2758171340779
 10
728.4044152156714
 20
-79.5062599525247
 10
729.5377956563825
 20
-78.55325150986349
 10
730.6199619235517
 20
-77.43808043990423
 10
731.6267402109961
 20
-76.18565782158508
 10
732.5356407554254
 20
-74.82396070663323
 10
733.32636022059
 20
-73.38340715845993
 10
733.9812352402628
 20
-71.89617676288839
 10
734.4856369886527
 20
-70.39549178938127
 10
734.828297964199
 20
-68.9148750604396
 10
735.0015636869387
 20
-67.48740110714233
 10
735.0015636869387
 20
-66.14495733877649
 10
734.828297964199
 20
-64.91753173080579
 10
734.4856369886525
 20
-63.83254294305253
 10
733.9812352402628
 20
-62.91422783214513
 10
733.32636022059
 20
-62.18310004019123
 10
732.5356407554254
 20
-61.65549175391075
 10
731.6267402109959
 20
-61.34318887057279
 10
730.6199619235515
 20
-61.25316772052609
 10
729.5377956563825
 20
-61.38743922750723
 10
728.4044152156714
 20
-61.74300398792727
 10
727.245138447609
 20
-62.31191927259142
  0
LWPOLYLINE
  5
6687
330
A
100
AcDbEntity
  8
0
  6
Continuous
 62
     7
370
     0
100
AcDbPolyline
 90
       26
 70
   128
 43
0.0
 10
688.0754813840674
 20
-31.36166757747503
 10
687.4515913004941
 20
-31.05698309555416
 10
686.3623623095957
 20
-30.74705999945243
 10
685.1781229019459
 20
-30.66053621844628
 10
683.9183182558786
 20
-30.7988324706277
 10
682.6036343288529
 20
-31.15967793535935
 10
681.2556581946039
 20
-31.73714754008637
 10
679.8965235839898
 20
-32.52175924986417
 10
678.5485474497409
 20
-33.50062976210995
 10
677.2338635227152
 20
-34.65768605007503
 10
675.9740588766479
 20
-35.97392928149952
 10
674.7898194689983
 20
-37.42774677891293
 10
673.7005904780997
 20
-38.99526689920074
 10
672.7242570138696
 20
-40.6507510053242
 10
671.8768504447985
 20
-42.36701609402914
 10
671.1722851633224
 20
-44.1158811400077
 10
670.6221301118846
 20
-45.86862982755488
 10
670.2354188212198
 20
-47.59648207167855
 10
670.0185010800294
 20
-49.27106658629921
 10
669.9749386716271
 20
-50.86488673998322
 10
670.1054468895541
 20
-52.3517720498706
 10
670.4078827924805
 20
-53.70730790028018
 10
670.8772803912411
 20
-54.90923643002405
 10
671.5059321902418
 20
-55.93782200587289
 10
672.2835157443228
 20
-56.77617528110808
 10
673.0767003945266
 20
-57.34313344889544
  0
LWPOLYLINE
  5
6688
330
A
100
AcDbEntity
  8
0
  6
Continuous
 62
     7
370
     0
100
AcDbPolyline
 90
       20
 70
   128
 43
0.0
 10
571.7382151290636
 20
6.232246095349865
 10
571.8252951825491
 20
7.848770161547463
 10
572.0851054909347
 20
9.539291436959132
 10
572.5133799761396
 20
11.27605160897963
 10
573.103086382957
 20
13.03053312359964
 10
573.8445417484904
 20
14.77392744285439
 10
574.725571396136
 20
16.47760808022045
 10
575.7317088434374
 20
18.11360064673306
 10
576.8464333413258
 20
19.65504218967959
 10
578.0514411443639
 20
21.07662228154021
 10
579.3269460577403
 20
22.35499861650837
 10
580.6520043260405
 20
23.46918029050647
 10
582.0048585291324
 20
24.40087247125066
 10
583.3632948384027
 20
25.13477679889118
 10
584.7050077672092
 20
25.65884258465803
 10
586.0079664263546
 20
25.9644646828375
 10
587.250776270678
 20
26.04662478702684
 10
588.4130303968949
 20
25.90397383058672
 10
589.475644624385
 20
25.53885413827814
 10
589.8389620671414
 20
25.34906367011317
  0
ARC
  5
6689
330
A
100
AcDbEntity
  8
0
  6
Continuous
 62
     7
370
     0
100
AcDbCircle
 10
579.3177263178982
 20
5.522467088218718
 30
0.0
 40
7.612672073630457
100
AcDbArc
 50
174.6501710157412
 51
233.860032375605
  0
LWPOLYLINE
  5
668A
330
A
100
AcDbEntity
  8
0
  6
Continuous
 62
     7
370
     0
100
AcDbPolyline
 90
       20
 70
   128
 43
0.0
 10
577.3950693785562
 20
6.232246095349893
 10
577.4819451622371
 20
7.621088441063421
 10
577.7406318518309
 20
9.07921098856039
 10
578.1653508141587
 20
10.57404168960474
 10
578.746614529429
 20
12.07218849646844
 10
579.4714385267521
 20
13.54018528509926
 10
580.3236314357636
 20
14.94523943303088
 10
581.2841566750822
 20
16.25596435238054
 10
582.331557698082
 20
17.44308061435777
 10
583.442437296687
 20
18.48007000332052
 10
584.5919802563378
 20
19.34376788989277
 10
585.7545076868786
 20
20.01488069050626
 10
586.9040506465294
 20
20.47841685417583
 10
588.0149302451346
 20
20.72402174897556
 10
589.0623312681344
 20
20.74620896740547
 10
590.022856507453
 20
20.54448288366913
 10
590.8750494164642
 20
20.12334972513489
 10
591.5998734137875
 20
19.49221691066279
 10
592.1811371290578
 20
18.6651829044126
 10
592.4643116740585
 20
18.06013952874801
  0
LWPOLYLINE
  5
668B
330
A
100
AcDbEntity
  8
0
  6
Continuous
 62
     7
370
     0
100
AcDbPolyline
 90
       10
 70
   128
 43
0.0
 10
582.4651243476978
 20
0.7391622811343836
 10
582.3315576980817
 20
0.7209596717740396
 10
581.2841566750822
 20
0.6987724533441337
 10
580.3236314357634
 20
0.9004985370804945
 10
579.4714385267521
 20
1.321631695614741
 10
578.7466145294289
 20
1.952764510086837
 10
578.1653508141586
 20
2.779798516337081
 10
577.7406318518308
 20
3.784259141298321
 10
577.4819451622371
 20
4.943708394430217
 10
577.3950693785562
 20
6.232246095349893
  0
LWPOLYLINE
  5
668C
330
A
100
AcDbEntity
  8
0
  6
Continuous
 62
     7
370
     0
100
AcDbPolyline
 90
       20
 70
   128
 43
0.0
 10
527.8975946954978
 20
31.54089756185385
 10
527.9846747489833
 20
33.15742162805145
 10
528.2444850573688
 20
34.84794290346315
 10
528.6727595425738
 20
36.58470307548362
 10
529.2624659493912
 20
38.33918459010363
 10
530.0039213149245
 20
40.0825789093584
 10
530.8849509625702
 20
41.78625954672447
 10
531.8910884098716
 20
43.42225211323708
 10
533.0058129077598
 20
44.96369365618358
 10
534.2108207107981
 20
46.38527374804423
 10
535.4863256241745
 20
47.66365008301239
 10
536.8113838924747
 20
48.77783175701049
 10
538.1642380955666
 20
49.70952393775468
 10
539.5226744048368
 20
50.44342826539517
 10
540.8643873336433
 20
50.96749405116205
 10
542.1673459927888
 20
51.27311614934149
 10
543.4101558371121
 20
51.35527625353086
 10
544.572409963329
 20
51.21262529709074
 10
545.6350241908192
 20
50.84750560478216
 10
546.0035869080666
 20
50.65469133623444
  0
ARC
  5
668D
330
A
100
AcDbEntity
  8
0
  6
Continuous
 62
     7
370
     0
100
AcDbCircle
 10
535.4689711576477
 20
30.82974321107631
 30
0.0
 40
7.604701311835214
100
AcDbArc
 50
174.6341395753085
 51
234.0536800313197
  0
LINE
  5
668E
330
A
100
AcDbEntity
  8
0
  6
CENTER
 62
     1
100
AcDbLine
 10
133.9043309604835
 20
-26.6247887064328
 30
0.0
 11
133.9043309604835
 21
51.21027555852696
 31
0.0
  0
LINE
  5
668F
330
A
100
AcDbEntity
  8
0
  6
CENTER
 62
     1
100
AcDbLine
 10
113.5043309604835
 20
30.81027555852691
 30
0.0
 11
154.3043309604836
 21
30.81027555852691
 31
0.0
  0
LINE
  5
6691
330
A
100
AcDbEntity
  8
0
  6
CENTER
 62
     1
100
AcDbLine
 10
194.7973061229241
 20
30.78383385877225
 30
0.0
 11
475.0264112681128
 21
30.81027555852694
 31
0.0
  0
LINE
  5
6693
330
A
100
AcDbEntity
  8
0
  6
CENTER
 62
     1
100
AcDbLine
 10
258.3554533415353
 20
25.47901271064631
 30
0.0
 11
258.3554533415353
 21
36.33901338070115
 31
0.0
  0
LINE
  5
66A2
330
A
100
AcDbEntity
  8
0
  6
CENTER
 62
     1
100
AcDbLine
 10
218.3560237801709
 20
43.36909008996523
 30
0.0
 11
218.3560237801709
 21
17.57179018814201
 31
0.0
  0
LWPOLYLINE
  5
66A3
330
A
100
AcDbEntity
  8
0
  6
Continuous
 62
     7
370
    15
100
AcDbPolyline
 90
        3
 70
   128
 43
0.0
 10
707.985396267623
 20
-99.91597221497965
 10
708.129788295063
 20
-99.0310575176389
 10
708.2469097997771
 20
-98.68425252437632
  0
LWPOLYLINE
  5
66A6
330
A
100
AcDbEntity
  8
0
  6
Continuous
 62
     7
370
    15
100
AcDbPolyline
 90
        4
 70
   128
 43
0.0
 10
708.5959430795015
 20
-101.8625438851025
 10
708.2260337281664
 20
-101.3776362625789
 10
708.0181643925921
 20
-100.7148982843541
 10
707.985396267623
 20
-99.91597221497965
  0
LINE
  5
66A7
330
A
100
AcDbEntity
  8
0
  6
CENTER
 62
     1
100
AcDbLine
 10
194.7973061229241
 20
-80.70047245370009
 30
0.0
 11
475.0264112681128
 21
-80.6740307539454
 31
0.0
  0
ENDSEC
  0
SECTION
  2
OBJECTS
  0
DICTIONARY
  5
19
330
0
100
AcDbDictionary
281
     1
  3
ACAD_DETAILVIEWSTYLE
350
6399
  3
ACAD_GROUP
350
1A
  3
ACAD_IMAGE_VARS
350
6397
  3
ACAD_LAYOUT
350
1E
  3
ACAD_MLINESTYLE
350
1B
  3
ACAD_PLOTSETTINGS
350
22
  3
ACAD_PLOTSTYLENAME
350
1F
  3
ACAD_SCALELIST
350
3179
  3
ACAD_SECTIONVIEWSTYLE
350
639A
  3
ACAD_WIPEOUT_VARS
350
23
  3
AcDbVariableDictionary
350
630B
  3
APPDATA
350
6395
  3
ASE_INDEX_DICTIONARY
350
5E44
  3
DWGPROPS
350
66A8
  0
DICTIONARY
  5
5E41
330
14
100
AcDbDictionary
280
     1
281
     1
  3
ADSK_XREC_LAYER_RECONCILED
360
5E42
  0
DICTIONARY
  5
31A7
330
A
100
AcDbDictionary
280
     1
281
     1
  3
ACAD_SORTENTS
360
31A8
  0
DICTIONARY
  5
6399
102
{ACAD_REACTORS
330
19
102
}
330
19
100
AcDbDictionary
281
     1
  0
DICTIONARY
  5
1A
102
{ACAD_REACTORS
330
19
102
}
330
19
100
AcDbDictionary
281
     1
  0
RASTERVARIABLES
  5
6397
102
{ACAD_REACTORS
330
19
102
}
330
19
100
AcDbRasterVariables
 90
        0
 70
     1
 71
     1
 72
     0
  0
DICTIONARY
  5
1E
102
{ACAD_REACTORS
330
19
102
}
330
19
100
AcDbDictionary
281
     1
  3
Layout1
350
21
  3
Model
350
20
  0
DICTIONARY
  5
1B
102
{ACAD_REACTORS
330
19
102
}
330
19
100
AcDbDictionary
281
     1
  3
Standard
350
1C
  0
DICTIONARY
  5
22
102
{ACAD_REACTORS
330
19
102
}
330
19
100
AcDbDictionary
281
     1
  0
ACDBDICTIONARYWDFLT
  5
1F
102
{ACAD_REACTORS
330
19
102
}
330
19
100
AcDbDictionary
281
     1
  3
Normal
350
1D
100
AcDbDictionaryWithDefault
340
1D
  0
DICTIONARY
  5
3179
102
{ACAD_REACTORS
330
19
102
}
330
19
100
AcDbDictionary
281
     1
  3
A0
350
317A
  3
A1
350
317B
  3
A2
350
317C
  3
A3
350
317D
  3
A4
350
317E
  3
A5
350
317F
  3
A6
350
3180
  3
A7
350
3181
  3
A8
350
3182
  3
A9
350
3183
  3
B0
350
3184
  3
B1
350
3185
  3
B2
350
3186
  3
B3
350
3187
  3
B4
350
3188
  3
B5
350
3189
  3
B6
350
318A
  3
B7
350
318B
  3
B8
350
318C
  3
B9
350
318D
  3
C0
350
318E
  3
C1
350
318F
  3
C2
350
3190
  3
C3
350
3191
  3
C4
350
3192
  3
C5
350
3193
  3
C6
350
3194
  3
C7
350
3195
  3
C8
350
3196
  3
C9
350
3197
  3
D0
350
3198
  3
D1
350
3199
  3
D2
350
319A
  0
DICTIONARY
  5
639A
102
{ACAD_REACTORS
330
19
102
}
330
19
100
AcDbDictionary
281
     1
  0
WIPEOUTVARIABLES
  5
23
330
19
100
AcDbWipeoutVariables
 70
     1
  0
DICTIONARY
  5
630B
102
{ACAD_REACTORS
330
19
102
}
330
19
100
AcDbDictionary
281
     1
  3
DIMASSOC
350
6318
  3
INDEXCTL
350
6317
  3
SORTENTS
350
6316
  0
DICTIONARY
  5
6395
102
{ACAD_REACTORS
330
19
102
}
330
19
100
AcDbDictionary
281
     1
  0
DICTIONARY
  5
5E44
102
{ACAD_REACTORS
330
19
102
}
330
19
100
AcDbDictionary
281
     1
  3
ASEBlockHierarchyIndexRecord
350
5E46
1001
DCO15
1040
1685075681.336
  0
XRECORD
  5
66A8
102
{ACAD_REACTORS
330
19
102
}
330
19
100
AcDbXrecord
280
     1
  1
DWGPROPS COOKIE
  2

  3

  4

  6

  7

  8
renzo.ceresoli
  9

300
=
301
=
302
=
303
=
304
=
305
=
306
=
307
=
308
=
309
=
 40
0.0
 41
2455303.644583333
 42
2457015.418481192
  1

 90
        0
  0
XRECORD
  5
5E42
102
{ACAD_REACTORS
330
5E41
102
}
330
5E41
100
AcDbXrecord
280
     1
290
     1
  0
SORTENTSTABLE
  5
31A8
102
{ACAD_REACTORS
330
31A7
102
}
330
31A7
100
AcDbSortentsTable
330
A
331
0
  5
4B44
  0
LAYOUT
  5
21
102
{ACAD_REACTORS
330
1E
102
}
330
1E
100
AcDbPlotSettings
  1

  2

  4

  6

 40
0.0
 41
0.0
 42
0.0
 43
0.0
 44
0.0
 45
0.0
 46
0.0
 47
0.0
 48
0.0
 49
0.0
140
0.0
141
0.0
142
1.0
143
1.0
 70
     0
 72
     0
 73
     0
 74
     0
  7

 75
     0
147
1.0
148
0.0
149
0.0
100
AcDbLayout
  1
Layout1
 70
     0
 71
     1
 10
0.0
 20
0.0
 11
12.0
 21
9.0
 12
0.0
 22
0.0
 32
0.0
 14
1.000000000000000E+20
 24
1.000000000000000E+20
 34
1.000000000000000E+20
 15
-1.000000000000000E+20
 25
-1.000000000000000E+20
 35
-1.000000000000000E+20
146
0.0
 13
0.0
 23
0.0
 33
0.0
 16
1.0
 26
0.0
 36
0.0
 17
0.0
 27
1.0
 37
0.0
 76
     0
330
B
  0
LAYOUT
  5
20
102
{ACAD_REACTORS
330
1E
102
}
330
1E
100
AcDbPlotSettings
  1

  2

  4

  6

 40
0.0
 41
0.0
 42
0.0
 43
0.0
 44
0.0
 45
0.0
 46
0.0
 47
0.0
 48
0.0
 49
0.0
140
0.0
141
0.0
142
1.0
143
1.0
 70
  1024
 72
     0
 73
     0
 74
     0
  7

 75
     0
147
1.0
148
0.0
149
0.0
100
AcDbLayout
  1
Model
 70
     0
 71
     0
 10
0.0
 20
0.0
 11
0.0
 21
0.0
 12
0.0
 22
0.0
 32
0.0
 14
113.5043309604835
 24
-113.393127940038
 34
0.0
 15
736.183309180518
 25
86.54309005279788
 35
0.0
146
0.0
 13
0.0
 23
0.0
 33
0.0
 16
0.0
 26
0.0
 36
0.0
 17
0.0
 27
0.0
 37
0.0
 76
     0
330
A
331
15
  0
MLINESTYLE
  5
1C
102
{ACAD_REACTORS
330
1B
102
}
330
1B
100
AcDbMlineStyle
  2
STANDARD
 70
     0
  3

 62
     0
 51
90.0
 52
90.0
 71
     2
 49
0.5
 62
   256
  6
BYLAYER
 49
-0.5
 62
   256
  6
BYLAYER
  0
ACDBPLACEHOLDER
  5
1D
102
{ACAD_REACTORS
330
1F
102
}
330
1F
  0
SCALE
  5
317A
102
{ACAD_REACTORS
330
3179
102
}
330
3179
100
AcDbScale
 70
     0
300
1:1
140
1.0
141
1.0
290
     1
  0
SCALE
  5
317B
102
{ACAD_REACTORS
330
3179
102
}
330
3179
100
AcDbScale
 70
     0
300
1:2
140
1.0
141
2.0
290
     0
  0
SCALE
  5
317C
102
{ACAD_REACTORS
330
3179
102
}
330
3179
100
AcDbScale
 70
     0
300
1:4
140
1.0
141
4.0
290
     0
  0
SCALE
  5
317D
102
{ACAD_REACTORS
330
3179
102
}
330
3179
100
AcDbScale
 70
     0
300
1:5
140
1.0
141
5.0
290
     0
  0
SCALE
  5
317E
102
{ACAD_REACTORS
330
3179
102
}
330
3179
100
AcDbScale
 70
     0
300
1:8
140
1.0
141
8.0
290
     0
  0
SCALE
  5
317F
102
{ACAD_REACTORS
330
3179
102
}
330
3179
100
AcDbScale
 70
     0
300
1:10
140
1.0
141
10.0
290
     0
  0
SCALE
  5
3180
102
{ACAD_REACTORS
330
3179
102
}
330
3179
100
AcDbScale
 70
     0
300
1:16
140
1.0
141
16.0
290
     0
  0
SCALE
  5
3181
102
{ACAD_REACTORS
330
3179
102
}
330
3179
100
AcDbScale
 70
     0
300
1:20
140
1.0
141
20.0
290
     0
  0
SCALE
  5
3182
102
{ACAD_REACTORS
330
3179
102
}
330
3179
100
AcDbScale
 70
     0
300
1:30
140
1.0
141
30.0
290
     0
  0
SCALE
  5
3183
102
{ACAD_REACTORS
330
3179
102
}
330
3179
100
AcDbScale
 70
     0
300
1:40
140
1.0
141
40.0
290
     0
  0
SCALE
  5
3184
102
{ACAD_REACTORS
330
3179
102
}
330
3179
100
AcDbScale
 70
     0
300
1:50
140
1.0
141
50.0
290
     0
  0
SCALE
  5
3185
102
{ACAD_REACTORS
330
3179
102
}
330
3179
100
AcDbScale
 70
     0
300
1:100
140
1.0
141
100.0
290
     0
  0
SCALE
  5
3186
102
{ACAD_REACTORS
330
3179
102
}
330
3179
100
AcDbScale
 70
     0
300
2:1
140
2.0
141
1.0
290
     0
  0
SCALE
  5
3187
102
{ACAD_REACTORS
330
3179
102
}
330
3179
100
AcDbScale
 70
     0
300
4:1
140
4.0
141
1.0
290
     0
  0
SCALE
  5
3188
102
{ACAD_REACTORS
330
3179
102
}
330
3179
100
AcDbScale
 70
     0
300
8:1
140
8.0
141
1.0
290
     0
  0
SCALE
  5
3189
102
{ACAD_REACTORS
330
3179
102
}
330
3179
100
AcDbScale
 70
     0
300
10:1
140
10.0
141
1.0
290
     0
  0
SCALE
  5
318A
102
{ACAD_REACTORS
330
3179
102
}
330
3179
100
AcDbScale
 70
     0
300
100:1
140
100.0
141
1.0
290
     0
  0
SCALE
  5
318B
102
{ACAD_REACTORS
330
3179
102
}
330
3179
100
AcDbScale
 70
     0
300
1/128" = 1'-0"
140
0.0078125
141
12.0
290
     0
  0
SCALE
  5
318C
102
{ACAD_REACTORS
330
3179
102
}
330
3179
100
AcDbScale
 70
     0
300
1/64" = 1'-0"
140
0.015625
141
12.0
290
     0
  0
SCALE
  5
318D
102
{ACAD_REACTORS
330
3179
102
}
330
3179
100
AcDbScale
 70
     0
300
1/32" = 1'-0"
140
0.03125
141
12.0
290
     0
  0
SCALE
  5
318E
102
{ACAD_REACTORS
330
3179
102
}
330
3179
100
AcDbScale
 70
     0
300
1/16" = 1'-0"
140
0.0625
141
12.0
290
     0
  0
SCALE
  5
318F
102
{ACAD_REACTORS
330
3179
102
}
330
3179
100
AcDbScale
 70
     0
300
3/32" = 1'-0"
140
0.09375
141
12.0
290
     0
  0
SCALE
  5
3190
102
{ACAD_REACTORS
330
3179
102
}
330
3179
100
AcDbScale
 70
     0
300
1/8" = 1'-0"
140
0.125
141
12.0
290
     0
  0
SCALE
  5
3191
102
{ACAD_REACTORS
330
3179
102
}
330
3179
100
AcDbScale
 70
     0
300
3/16" = 1'-0"
140
0.1875
141
12.0
290
     0
  0
SCALE
  5
3192
102
{ACAD_REACTORS
330
3179
102
}
330
3179
100
AcDbScale
 70
     0
300
1/4" = 1'-0"
140
0.25
141
12.0
290
     0
  0
SCALE
  5
3193
102
{ACAD_REACTORS
330
3179
102
}
330
3179
100
AcDbScale
 70
     0
300
3/8" = 1'-0"
140
0.375
141
12.0
290
     0
  0
SCALE
  5
3194
102
{ACAD_REACTORS
330
3179
102
}
330
3179
100
AcDbScale
 70
     0
300
1/2" = 1'-0"
140
0.5
141
12.0
290
     0
  0
SCALE
  5
3195
102
{ACAD_REACTORS
330
3179
102
}
330
3179
100
AcDbScale
 70
     0
300
3/4" = 1'-0"
140
0.75
141
12.0
290
     0
  0
SCALE
  5
3196
102
{ACAD_REACTORS
330
3179
102
}
330
3179
100
AcDbScale
 70
     0
300
1" = 1'-0"
140
1.0
141
12.0
290
     0
  0
SCALE
  5
3197
102
{ACAD_REACTORS
330
3179
102
}
330
3179
100
AcDbScale
 70
     0
300
1-1/2" = 1'-0"
140
1.5
141
12.0
290
     0
  0
SCALE
  5
3198
102
{ACAD_REACTORS
330
3179
102
}
330
3179
100
AcDbScale
 70
     0
300
3" = 1'-0"
140
3.0
141
12.0
290
     0
  0
SCALE
  5
3199
102
{ACAD_REACTORS
330
3179
102
}
330
3179
100
AcDbScale
 70
     0
300
6" = 1'-0"
140
6.0
141
12.0
290
     0
  0
SCALE
  5
319A
102
{ACAD_REACTORS
330
3179
102
}
330
3179
100
AcDbScale
 70
     0
300
1'-0" = 1'-0"
140
12.0
141
12.0
290
     0
  0
DICTIONARYVAR
  5
6318
102
{ACAD_REACTORS
330
630B
102
}
330
630B
100
DictionaryVariables
280
     0
  1
1
  0
DICTIONARYVAR
  5
6317
102
{ACAD_REACTORS
330
630B
102
}
330
630B
100
DictionaryVariables
280
     0
  1
0
  0
DICTIONARYVAR
  5
6316
102
{ACAD_REACTORS
330
630B
102
}
330
630B
100
DictionaryVariables
280
     0
  1
127
  0
XRECORD
  5
5E46
102
{ACAD_REACTORS
330
5E44
102
}
330
5E44
100
AcDbXrecord
280
     1
  0
ENDSEC
  0
EOF
