  0
SECTION
  2
HEADER
  9
$ACADVER
  1
AC1015
  9
$ACADMAINTVER
 70
    20
  9
$DWGCODEPAGE
  3
ANSI_1252
  9
$INSBASE
 10
0.0
 20
0.0
 30
0.0
  9
$EXTMIN
 10
-110.2541892322424
 20
-642.204647645166
 30
-0.0000000000001846
  9
$EXTMAX
 10
1000.690210913923
 20
20.12478609168375
 30
0.0000000000041672
  9
$LIMMIN
 10
-66.34999999999982
 20
-2008.85
  9
$LIMMAX
 10
3734.350000000001
 20
346.85
  9
$ORTHOMODE
 70
     0
  9
$REGENMODE
 70
     1
  9
$FILLMODE
 70
     1
  9
$QTEXTMODE
 70
     0
  9
$MIRRTEXT
 70
     1
  9
$LTSCALE
 40
10.0
  9
$ATTMODE
 70
     1
  9
$TEXTSIZE
 40
0.0
  9
$TRACEWID
 40
0.05
  9
$TEXTSTYLE
  7
Standard
  9
$CLAYER
  8
0
  9
$CELTYPE
  6
Continuous
  9
$CECOLOR
 62
   256
  9
$CELTSCALE
 40
1.0
  9
$DISPSILH
 70
     0
  9
$DIMSCALE
 40
1.0
  9
$DIMASZ
 40
1.25
  9
$DIMEXO
 40
0.0
  9
$DIMDLI
 40
0.38
  9
$DIMRND
 40
0.0
  9
$DIMDLE
 40
0.0
  9
$DIMEXE
 40
0.75
  9
$DIMTP
 40
0.0
  9
$DIMTM
 40
0.0
  9
$DIMTXT
 40
2.5
  9
$DIMCEN
 40
0.09
  9
$DIMTSZ
 40
0.0
  9
$DIMTOL
 70
     0
  9
$DIMLIM
 70
     0
  9
$DIMTIH
 70
     0
  9
$DIMTOH
 70
     0
  9
$DIMSE1
 70
     0
  9
$DIMSE2
 70
     0
  9
$DIMTAD
 70
     1
  9
$DIMZIN
 70
     0
  9
$DIMBLK
  1

  9
$DIMASO
 70
     1
  9
$DIMSHO
 70
     1
  9
$DIMPOST
  1

  9
$DIMAPOST
  1

  9
$DIMALT
 70
     0
  9
$DIMALTD
 70
     2
  9
$DIMALTF
 40
25.4
  9
$DIMLFAC
 40
1.0
  9
$DIMTOFL
 70
     0
  9
$DIMTVP
 40
0.0
  9
$DIMTIX
 70
     0
  9
$DIMSOXD
 70
     0
  9
$DIMSAH
 70
     0
  9
$DIMBLK1
  1

  9
$DIMBLK2
  1

  9
$DIMSTYLE
  2
Standard
  9
$DIMCLRD
 70
     7
  9
$DIMCLRE
 70
     7
  9
$DIMCLRT
 70
     7
  9
$DIMTFAC
 40
0.8
  9
$DIMGAP
 40
1.25
  9
$DIMJUST
 70
     0
  9
$DIMSD1
 70
     0
  9
$DIMSD2
 70
     0
  9
$DIMTOLJ
 70
     1
  9
$DIMTZIN
 70
     0
  9
$DIMALTZ
 70
     0
  9
$DIMALTTZ
 70
     0
  9
$DIMUPT
 70
     0
  9
$DIMDEC
 70
     2
  9
$DIMTDEC
 70
     4
  9
$DIMALTU
 70
     2
  9
$DIMALTTD
 70
     2
  9
$DIMTXSTY
  7
Standard
  9
$DIMAUNIT
 70
     0
  9
$DIMADEC
 70
     0
  9
$DIMALTRND
 40
0.0
  9
$DIMAZIN
 70
     0
  9
$DIMDSEP
 70
     0
  9
$DIMATFIT
 70
     3
  9
$DIMFRAC
 70
     0
  9
$DIMLDRBLK
  1

  9
$DIMLUNIT
 70
     2
  9
$DIMLWD
 70
     0
  9
$DIMLWE
 70
     0
  9
$DIMTMOVE
 70
     0
  9
$LUNITS
 70
     2
  9
$LUPREC
 70
     4
  9
$SKETCHINC
 40
0.1
  9
$FILLETRAD
 40
0.0
  9
$AUNITS
 70
     0
  9
$AUPREC
 70
     0
  9
$MENU
  1
acad
  9
$ELEVATION
 40
0.0
  9
$PELEVATION
 40
0.0
  9
$THICKNESS
 40
0.0
  9
$LIMCHECK
 70
     0
  9
$CHAMFERA
 40
0.0
  9
$CHAMFERB
 40
0.0
  9
$CHAMFERC
 40
0.0
  9
$CHAMFERD
 40
0.0
  9
$SKPOLY
 70
     0
  9
$TDCREATE
 40
2455303.727916667
  9
$TDUCREATE
 40
2455303.644583334
  9
$TDUPDATE
 40
2455306.476309699
  9
$TDUUPDATE
 40
2455306.392976365
  9
$TDINDWG
 40
0.0026905671
  9
$TDUSRTIMER
 40
0.0026905671
  9
$USRTIMER
 70
     1
  9
$ANGBASE
 50
0.0
  9
$ANGDIR
 70
     0
  9
$PDMODE
 70
     0
  9
$PDSIZE
 40
0.0
  9
$PLINEWID
 40
0.0
  9
$SPLFRAME
 70
     0
  9
$SPLINETYPE
 70
     6
  9
$SPLINESEGS
 70
     8
  9
$HANDSEED
  5
634D
  9
$SURFTAB1
 70
     6
  9
$SURFTAB2
 70
     6
  9
$SURFTYPE
 70
     6
  9
$SURFU
 70
     6
  9
$SURFV
 70
     6
  9
$UCSBASE
  2

  9
$UCSNAME
  2

  9
$UCSORG
 10
0.0
 20
0.0
 30
0.0
  9
$UCSXDIR
 10
1.0
 20
0.0
 30
0.0
  9
$UCSYDIR
 10
0.0
 20
1.0
 30
0.0
  9
$UCSORTHOREF
  2

  9
$UCSORTHOVIEW
 70
     0
  9
$UCSORGTOP
 10
0.0
 20
0.0
 30
0.0
  9
$UCSORGBOTTOM
 10
0.0
 20
0.0
 30
0.0
  9
$UCSORGLEFT
 10
0.0
 20
0.0
 30
0.0
  9
$UCSORGRIGHT
 10
0.0
 20
0.0
 30
0.0
  9
$UCSORGFRONT
 10
0.0
 20
0.0
 30
0.0
  9
$UCSORGBACK
 10
0.0
 20
0.0
 30
0.0
  9
$PUCSBASE
  2

  9
$PUCSNAME
  2

  9
$PUCSORG
 10
0.0
 20
0.0
 30
0.0
  9
$PUCSXDIR
 10
1.0
 20
0.0
 30
0.0
  9
$PUCSYDIR
 10
0.0
 20
1.0
 30
0.0
  9
$PUCSORTHOREF
  2

  9
$PUCSORTHOVIEW
 70
     0
  9
$PUCSORGTOP
 10
0.0
 20
0.0
 30
0.0
  9
$PUCSORGBOTTOM
 10
0.0
 20
0.0
 30
0.0
  9
$PUCSORGLEFT
 10
0.0
 20
0.0
 30
0.0
  9
$PUCSORGRIGHT
 10
0.0
 20
0.0
 30
0.0
  9
$PUCSORGFRONT
 10
0.0
 20
0.0
 30
0.0
  9
$PUCSORGBACK
 10
0.0
 20
0.0
 30
0.0
  9
$USERI1
 70
     0
  9
$USERI2
 70
     0
  9
$USERI3
 70
     0
  9
$USERI4
 70
     0
  9
$USERI5
 70
     0
  9
$USERR1
 40
0.0
  9
$USERR2
 40
0.0
  9
$USERR3
 40
0.0
  9
$USERR4
 40
0.0
  9
$USERR5
 40
0.0
  9
$WORLDVIEW
 70
     1
  9
$SHADEDGE
 70
     3
  9
$SHADEDIF
 70
    70
  9
$TILEMODE
 70
     1
  9
$MAXACTVP
 70
    16
  9
$PINSBASE
 10
0.0
 20
0.0
 30
0.0
  9
$PLIMCHECK
 70
     0
  9
$PEXTMIN
 10
1.000000000000000E+20
 20
1.000000000000000E+20
 30
1.000000000000000E+20
  9
$PEXTMAX
 10
-1.000000000000000E+20
 20
-1.000000000000000E+20
 30
-1.000000000000000E+20
  9
$PLIMMIN
 10
0.0
 20
0.0
  9
$PLIMMAX
 10
12.0
 20
9.0
  9
$UNITMODE
 70
     0
  9
$VISRETAIN
 70
     0
  9
$PLINEGEN
 70
     1
  9
$PSLTSCALE
 70
     0
  9
$TREEDEPTH
 70
  3020
  9
$CMLSTYLE
  2
Standard
  9
$CMLJUST
 70
     0
  9
$CMLSCALE
 40
1.0
  9
$PROXYGRAPHICS
 70
     0
  9
$MEASUREMENT
 70
     1
  9
$CELWEIGHT
370
     0
  9
$ENDCAPS
280
     0
  9
$JOINSTYLE
280
     0
  9
$LWDISPLAY
290
     0
  9
$INSUNITS
 70
     0
  9
$HYPERLINKBASE
  1

  9
$STYLESHEET
  1

  9
$XEDIT
290
     1
  9
$CEPSNTYPE
380
     0
  9
$PSTYLEMODE
290
     1
  9
$FINGERPRINTGUID
  2

  9
$VERSIONGUID
  2
{615EE125-7161-4F32-99AC-F2AE98FA1726}
  9
$EXTNAMES
290
     1
  9
$PSVPSCALE
 40
0.0
  9
$OLESTARTUP
290
     0
  0
ENDSEC
  0
SECTION
  2
CLASSES
  0
CLASS
  1
IMAGE
  2
AcDbRasterImage
  3
ISM
 90
    34943
280
     0
281
     1
  0
CLASS
  1
DICTIONARYVAR
  2
AcDbDictionaryVar
  3
ObjectDBX Classes
 90
        0
280
     0
281
     0
  0
CLASS
  1
RASTERVARIABLES
  2
AcDbRasterVariables
  3
ISM
 90
    32768
280
     0
281
     0
  0
CLASS
  1
IMAGEDEF
  2
AcDbRasterImageDef
  3
ISM
 90
    32768
280
     0
281
     0
  0
CLASS
  1
IMAGEDEF_REACTOR
  2
AcDbRasterImageDefReactor
  3
ISM
 90
    32769
280
     0
281
     0
  0
CLASS
  1
IDBUFFER
  2
AcDbIdBuffer
  3
ObjectDBX Classes
 90
    32768
280
     0
281
     0
  0
CLASS
  1
SPATIAL_FILTER
  2
AcDbSpatialFilter
  3
ObjectDBX Classes
 90
    32768
280
     0
281
     0
  0
CLASS
  1
SORTENTSTABLE
  2
AcDbSortentsTable
  3
ObjectDBX Classes
 90
        0
280
     0
281
     0
  0
CLASS
  1
LAYER_INDEX
  2
AcDbLayerIndex
  3
ObjectDBX Classes
 90
    32768
280
     0
281
     0
  0
CLASS
  1
SPATIAL_INDEX
  2
AcDbSpatialIndex
  3
ObjectDBX Classes
 90
    32768
280
     0
281
     0
  0
CLASS
  1
OBJECT_PTR
  2
CAseDLPNTableRecord
  3
ASE-LPNTableRecord
 90
    32769
280
     0
281
     0
  0
CLASS
  1
LAYOUT
  2
AcDbLayout
  3
ObjectDBX Classes
 90
        0
280
     0
281
     0
  0
CLASS
  1
PLOTSETTINGS
  2
AcDbPlotSettings
  3
ObjectDBX Classes
 90
    32768
280
     0
281
     0
  0
CLASS
  1
ACDBDICTIONARYWDFLT
  2
AcDbDictionaryWithDefault
  3
ObjectDBX Classes
 90
        0
280
     0
281
     0
  0
CLASS
  1
ACDBPLACEHOLDER
  2
AcDbPlaceHolder
  3
ObjectDBX Classes
 90
        0
280
     0
281
     0
  0
CLASS
  1
VBA_PROJECT
  2
AcDbVbaProject
  3
acad
 90
    32768
280
     0
281
     0
  0
CLASS
  1
WIPEOUT
  2
AcDbWipeout
  3
"WipeOut|Product Desc: Object Enabler for WipeOut entity                        |Company: Autodesk, Inc.                        |WEB Address: www.autodesk.com"
 90
    34943
280
     0
281
     1
  0
CLASS
  1
WIPEOUTVARIABLES
  2
AcDbWipeoutVariables
  3
"WipeOut|Product Desc:     WipeOut Dbx Application|Company:          Autodesk, Inc.|WEB Address:      www.autodesk.com"
 90
        0
280
     0
281
     0
  0
CLASS
  1
RTEXT
  2
RText
  3
RText|AutoCAD Express Tool|expresstools@autodesk.com
 90
    35839
280
     0
281
     1
  0
CLASS
  1
ARCALIGNEDTEXT
  2
AcDbArcAlignedText
  3
ATEXT|AutoCAD Express Tool|expresstools@autodesk.com
 90
    32768
280
     0
281
     1
  0
CLASS
  1
MATERIAL
  2
AcDbMaterial
  3
ObjectDBX Classes
 90
     1153
280
     0
281
     0
  0
CLASS
  1
VISUALSTYLE
  2
AcDbVisualStyle
  3
ObjectDBX Classes
 90
     4095
280
     0
281
     0
  0
CLASS
  1
TABLESTYLE
  2
AcDbTableStyle
  3
ObjectDBX Classes
 90
     4095
280
     0
281
     0
  0
CLASS
  1
SCALE
  2
AcDbScale
  3
ObjectDBX Classes
 90
     1153
280
     0
281
     0
  0
CLASS
  1
MLEADERSTYLE
  2
AcDbMLeaderStyle
  3
ACDB_MLEADERSTYLE_CLASS
 90
     4095
280
     0
281
     0
  0
CLASS
  1
CELLSTYLEMAP
  2
AcDbCellStyleMap
  3
ObjectDBX Classes
 90
     1152
280
     0
281
     0
  0
ENDSEC
  0
SECTION
  2
TABLES
  0
TABLE
  2
VPORT
  5
7
330
0
100
AcDbSymbolTable
 70
     1
  0
VPORT
  5
15
330
7
100
AcDbSymbolTableRecord
100
AcDbViewportTableRecord
  2
*ACTIVE
 70
     0
 10
0.0
 20
0.0
 11
1.0
 21
1.0
 12
427.1367793688399
 22
-305.0472154968393
 13
0.0
 23
0.0
 14
1.0
 24
1.0
 15
0.0
 25
0.0
 16
0.0
 26
0.0
 36
1.0
 17
0.0
 27
0.0
 37
0.0
 40
777.7428304590503
 41
1.611330698287219
 42
50.0
 43
0.0
 44
0.0
 50
0.0
 51
0.0
 71
     0
 72
   100
 73
     1
 74
     1
 75
     0
 76
     0
 77
     0
 78
     0
281
     0
 65
     0
110
0.0
120
0.0
130
0.0
111
1.0
121
0.0
131
0.0
112
0.0
122
1.0
132
0.0
 79
     0
146
0.0
  0
ENDTAB
  0
TABLE
  2
LTYPE
  5
4
330
0
100
AcDbSymbolTable
 70
     4
  0
LTYPE
  5
11
330
4
100
AcDbSymbolTableRecord
100
AcDbLinetypeTableRecord
  2
ByBlock
 70
     0
  3

 72
    65
 73
     0
 40
0.0
  0
LTYPE
  5
12
330
4
100
AcDbSymbolTableRecord
100
AcDbLinetypeTableRecord
  2
ByLayer
 70
     0
  3

 72
    65
 73
     0
 40
0.0
  0
LTYPE
  5
13
330
4
100
AcDbSymbolTableRecord
100
AcDbLinetypeTableRecord
  2
Continuous
 70
     0
  3
Solid line
 72
    65
 73
     0
 40
0.0
  0
LTYPE
  5
1E4
330
4
100
AcDbSymbolTableRecord
100
AcDbLinetypeTableRecord
  2
CENTER
 70
     0
  3
____ _ ____ _ ____ _ ____ _ ____ _ ____ _ ____
 72
    65
 73
     4
 40
2.0
 49
1.25
 74
     0
 49
-0.25
 74
     0
 49
0.25
 74
     0
 49
-0.25
 74
     0
  0
ENDTAB
  0
TABLE
  2
LAYER
  5
2
330
0
100
AcDbSymbolTable
 70
     1
  0
LAYER
  5
14
102
{ACAD_XDICTIONARY
360
5E41
102
}
330
2
100
AcDbSymbolTableRecord
100
AcDbLayerTableRecord
  2
0
 70
     0
 62
     7
  6
Continuous
370
    -3
390
1D
  0
ENDTAB
  0
TABLE
  2
STYLE
  5
3
330
0
100
AcDbSymbolTable
 70
     1
  0
STYLE
  5
17
330
3
100
AcDbSymbolTableRecord
100
AcDbTextStyleTableRecord
  2
Standard
 70
     0
 40
0.0
 41
1.0
 50
0.0
 71
     0
 42
0.0
  3
I011000D.TTF
  4

1001
ACAD
1000
IsonormD
1071
        0
  0
ENDTAB
  0
TABLE
  2
VIEW
  5
5
330
0
100
AcDbSymbolTable
 70
     0
  0
ENDTAB
  0
TABLE
  2
UCS
  5
6
330
0
100
AcDbSymbolTable
 70
     0
  0
ENDTAB
  0
TABLE
  2
APPID
  5
8
330
0
100
AcDbSymbolTable
 70
     5
  0
APPID
  5
16
330
8
100
AcDbSymbolTableRecord
100
AcDbRegAppTableRecord
  2
ACAD
 70
     0
  0
APPID
  5
26
330
8
100
AcDbSymbolTableRecord
100
AcDbRegAppTableRecord
  2
TopSolid'Draft
 70
     0
  0
APPID
  5
319D
330
8
100
AcDbSymbolTableRecord
100
AcDbRegAppTableRecord
  2
ACAD_MLEADERVER
 70
     0
  0
APPID
  5
5E45
330
8
100
AcDbSymbolTableRecord
100
AcDbRegAppTableRecord
  2
DCO15
 70
     0
  0
APPID
  5
632F
330
8
100
AcDbSymbolTableRecord
100
AcDbRegAppTableRecord
  2
ACAD_EXEMPT_FROM_CAD_STANDARDS
 70
     0
  0
ENDTAB
  0
TABLE
  2
DIMSTYLE
  5
9
330
0
100
AcDbSymbolTable
 70
     2
100
AcDbDimStyleTable
 71
     1
340
18
  0
DIMSTYLE
105
18
330
9
100
AcDbSymbolTableRecord
100
AcDbDimStyleTableRecord
  2
Standard
 70
     0
 41
1.25
 42
0.0
 44
0.75
 73
     0
 74
     0
 77
     1
140
2.5
146
0.8
147
1.25
176
     7
177
     7
178
     7
271
     2
340
17
  0
ENDTAB
  0
TABLE
  2
BLOCK_RECORD
  5
1
330
0
100
AcDbSymbolTable
 70
     1
  0
BLOCK_RECORD
  5
A
102
{ACAD_XDICTIONARY
360
31A7
102
}
330
1
100
AcDbSymbolTableRecord
100
AcDbBlockTableRecord
  2
*MODEL_SPACE
340
20
  0
BLOCK_RECORD
  5
B
330
1
100
AcDbSymbolTableRecord
100
AcDbBlockTableRecord
  2
*PAPER_SPACE
340
21
  0
ENDTAB
  0
ENDSEC
  0
SECTION
  2
BLOCKS
  0
BLOCK
  5
D
330
A
100
AcDbEntity
  8
0
100
AcDbBlockBegin
  2
*MODEL_SPACE
 70
     0
 10
0.0
 20
0.0
 30
0.0
  3
*MODEL_SPACE
  1

  0
ENDBLK
  5
E
330
A
100
AcDbEntity
  8
0
100
AcDbBlockEnd
  0
BLOCK
  5
F
330
B
100
AcDbEntity
 67
     1
  8
0
100
AcDbBlockBegin
  2
*PAPER_SPACE
 70
     0
 10
0.0
 20
0.0
 30
0.0
  3
*PAPER_SPACE
  1

  0
ENDBLK
  5
10
330
B
100
AcDbEntity
 67
     1
  8
0
100
AcDbBlockEnd
  0
ENDSEC
  0
SECTION
  2
ENTITIES
  0
LINE
  5
2541
330
A
100
AcDbEntity
  8
0
  6
CENTER
 62
     1
100
AcDbLine
 10
884.0000000000001
 20
-0.0000000000550244
 30
0.0
 11
876.0000000000003
 21
-0.0000000000550244
 31
0.0
  0
LINE
  5
2542
330
A
100
AcDbEntity
  8
0
  6
CENTER
 62
     1
100
AcDbLine
 10
40.00000000000001
 20
-4.999999999487044
 30
0.0
 11
40.00000000000001
 21
5.000000000512955
 31
0.0
  0
LINE
  5
2543
330
A
100
AcDbEntity
  8
0
  6
CENTER
 62
     1
100
AcDbLine
 10
874.9999999999998
 20
-0.0000000000550244
 30
0.0
 11
-15.99999999999976
 21
-0.0000000000550244
 31
0.0
  0
LINE
  5
2544
330
A
100
AcDbEntity
  8
0
  6
CENTER
 62
     1
100
AcDbLine
 10
854.0000000000002
 20
-18.00000000005502
 30
0.0
 11
854.0000000000002
 21
-10.25000000005502
 31
0.0
  0
LINE
  5
2545
330
A
100
AcDbEntity
  8
0
  6
CENTER
 62
     1
100
AcDbLine
 10
958.4999999999999
 20
-107.350411996058
 30
0.0
 11
1000.5
 21
-107.350411996058
 31
0.0
  0
LINE
  5
2546
330
A
100
AcDbEntity
  8
0
  6
CENTER
 62
     1
100
AcDbLine
 10
979.4999999999999
 20
-161.350411990933
 30
0.0
 11
979.4999999999999
 21
-86.35041199605803
 31
0.0
  0
LINE
  5
2547
330
A
100
AcDbEntity
  8
0
  6
CENTER
 62
     1
100
AcDbLine
 10
884.0000000000001
 20
-265.000000000055
 30
0.0
 11
876.0000000000003
 21
-265.000000000055
 31
0.0
  0
LINE
  5
2548
330
A
100
AcDbEntity
  8
0
  6
CENTER
 62
     1
100
AcDbLine
 10
874.9999999999998
 20
-265.000000000055
 30
0.0
 11
-15.99999999999976
 21
-265.000000000055
 31
0.0
  0
LINE
  5
2549
330
A
100
AcDbEntity
  8
0
  6
CENTER
 62
     1
100
AcDbLine
 10
854.0000000000002
 20
-247.000000000055
 30
0.0
 11
854.0000000000002
 21
-254.750000000055
 31
0.0
  0
LINE
  5
254A
330
A
100
AcDbEntity
  8
0
  6
CENTER
 62
     1
100
AcDbLine
 10
884.0000000000001
 20
-107.350411996058
 30
0.0
 11
876.0000000000003
 21
-107.350411996058
 31
0.0
  0
LINE
  5
254B
330
A
100
AcDbEntity
  8
0
  6
CENTER
 62
     1
100
AcDbLine
 10
0.0
 20
-113.350411990933
 30
0.0
 11
0.0
 21
-161.350411990933
 31
0.0
  0
LINE
  5
254C
330
A
100
AcDbEntity
  8
0
  6
CENTER
 62
     1
100
AcDbLine
 10
874.9999999999998
 20
-107.350411996058
 30
0.0
 11
-15.99999999999976
 21
-107.350411996058
 31
0.0
  0
LINE
  5
254D
330
A
100
AcDbEntity
  8
0
  6
CENTER
 62
     1
100
AcDbLine
 10
0.0000000024984246
 20
-152.3504119902809
 30
0.0
 11
12.00000000249845
 21
-152.3504119910501
 31
0.0
  0
LINE
  5
254E
330
A
100
AcDbEntity
  8
0
  6
CENTER
 62
     1
100
AcDbLine
 10
40.00000000000001
 20
-125.350411990933
 30
0.0
 11
40.00000000000001
 21
-117.600411990933
 31
0.0
  0
LINE
  5
2CE6
330
A
100
AcDbEntity
  8
0
  6
CENTER
 62
     1
100
AcDbLine
 10
-110.0000000000001
 20
-107.350411996058
 30
0.0
 11
-66.00000000000017
 21
-107.350411996058
 31
0.0
  0
LINE
  5
2CE7
330
A
100
AcDbEntity
  8
0
  6
CENTER
 62
     1
100
AcDbLine
 10
-88.00000000000014
 20
-161.350411990933
 30
0.0
 11
-88.00000000000014
 21
-85.35041199605803
 31
0.0
  0
ELLIPSE
  5
3C8B
330
A
100
AcDbEntity
  8
0
  6
Continuous
 62
     7
370
     0
100
AcDbEllipse
 10
214.5191466838535
 20
-603.351557015303
 30
0.0
 11
-1.01192885135104
 21
1.239354670707014
 31
0.0000000000000001
210
0.0
220
-0.0000000000000001
230
1.0
 40
0.8164965809015733
 41
1.051294519709041
 42
2.090298133581272
  0
LINE
  5
3C8C
330
A
100
AcDbEntity
  8
0
  6
Continuous
 62
     7
370
     0
100
AcDbLine
 10
213.4458340546735
 20
-603.7649235243182
 30
0.0
 11
213.4458340546705
 21
-603.6771506592213
 31
0.0
  0
LINE
  5
3C8D
330
A
100
AcDbEntity
  8
0
  6
Continuous
 62
     7
370
     0
100
AcDbLine
 10
213.7840854439614
 20
-604.0332853426132
 30
0.0
 11
213.4458340546735
 21
-603.7649235243182
 31
0.0
  0
LINE
  5
3C8E
330
A
100
AcDbEntity
  8
0
  6
Continuous
 62
     7
370
     0
100
AcDbLine
 10
213.4458340546735
 20
-603.7649235243182
 30
0.0
 11
213.4974440399303
 21
-603.7227841478072
 31
0.0
  0
ELLIPSE
  5
3C8F
330
A
100
AcDbEntity
  8
0
  6
Continuous
 62
     7
370
     0
100
AcDbEllipse
 10
218.9197284635993
 20
-626.7794765413811
 30
0.0
 11
8.000000000000008
 21
0.0000000000077716
 31
-0.0000000000000004
210
0.0
220
0.0
230
1.0
 40
0.4082482904634535
 41
5.266822585081594
 42
6.283185307179585
  0
ELLIPSE
  5
3C90
330
A
100
AcDbEntity
  8
0
  6
Continuous
 62
     7
370
     0
100
AcDbEllipse
 10
218.9197284635993
 20
-626.7794765413811
 30
0.0
 11
8.000000000000008
 21
0.0000000000077716
 31
-0.0000000000000005
210
0.0000000000000001
220
0.0
230
1.0
 40
0.4082482904634535
 41
3.141592653589785
 42
3.230660157685359
  0
LINE
  5
3C91
330
A
100
AcDbEntity
  8
0
  6
Continuous
 62
     7
370
     0
100
AcDbLine
 10
226.8880173545235
 20
-637.4434188990323
 30
0.0
 11
226.8880173545133
 21
-627.0699853338213
 31
0.0
  0
LINE
  5
3C92
330
A
100
AcDbEntity
  8
0
  6
Continuous
 62
     7
370
     0
100
AcDbLine
 10
223.1314231523133
 20
-629.5562140709553
 30
0.0
 11
223.1314231523245
 21
-640.5106652210613
 31
0.0
  0
ELLIPSE
  5
3C93
330
A
100
AcDbEntity
  8
0
  6
Continuous
 62
     9
370
     0
100
AcDbEllipse
 10
218.9197284636104
 20
-637.7339276914872
 30
0.0
 11
-8.000000000000008
 21
-0.0000000000077716
 31
0.0000000000000005
210
0.0000000000000001
220
0.0000000000000001
230
1.0
 40
0.4082482904634538
 41
0.0890675040955755
 42
2.125229931491801
  0
LINE
  5
3C94
330
A
100
AcDbEntity
  8
0
  6
Continuous
 62
     7
370
     0
100
AcDbLine
 10
210.9514395726965
 20
-638.0244364839431
 30
0.0
 11
210.9514395726853
 21
-627.0699853338373
 31
0.0
  0
LINE
  5
3C95
330
A
100
AcDbEntity
  8
0
  6
Continuous
 62
     7
370
     0
100
AcDbLine
 10
211.0041508871495
 20
-638.4805048472092
 30
0.0
 11
210.9514395726965
 21
-638.0244364839422
 31
0.0
  0
LINE
  5
3CA1
330
A
100
AcDbEntity
  8
0
  6
Continuous
 62
     7
370
     0
100
AcDbLine
 10
223.1314231523224
 20
-638.8674975485492
 30
0.0
 11
224.1110302432476
 21
-639.0674590086462
 31
0.0
  0
ELLIPSE
  5
3CA2
330
A
100
AcDbEntity
  8
0
  6
Continuous
 62
     9
370
     0
100
AcDbEllipse
 10
521.5938898979443
 20
-352.6260790952001
 30
0.0
 11
-7.589466384404052
 21
9.295160030897694
 31
0.0000000000000004
210
0.0000000000000001
220
0.0
230
1.0
 40
0.8164965809277259
 41
3.141814302010546
 42
6.283087749478934
  0
ELLIPSE
  5
3CA3
330
A
100
AcDbEntity
  8
0
  6
Continuous
 62
     9
370
     0
100
AcDbEllipse
 10
520.1628063923444
 20
-353.7945538845443
 30
0.0
 11
5.565608681896262
 21
-6.816450689325126
 31
-0.0000000000000003
210
0.0000000000000001
220
0.0
230
1.0
 40
0.8164965809277259
 41
5.853485640944236
 42
9.854477626836882
  0
ELLIPSE
  5
3CA4
330
A
100
AcDbEntity
  8
0
  6
Continuous
 62
     7
370
     0
100
AcDbEllipse
 10
520.1628063923444
 20
-353.7945538845443
 30
0.0
 11
-5.18613536267609
 21
6.351692687780237
 31
0.0000000000000003
210
0.0
220
-0.0000000000000001
230
1.0
 40
0.8164965809277257
 41
3.141592653589797
 42
5.497787143782136
  0
ELLIPSE
  5
3CA5
330
A
100
AcDbEntity
  8
0
  6
Continuous
 62
     9
370
     0
100
AcDbEllipse
 10
531.2537035607433
 20
-344.7388742671253
 30
0.0
 11
7.589466384404052
 21
-9.295160030897694
 31
-0.0000000000000004
210
0.0000000000000001
220
0.0
230
1.0
 40
0.8164965809277259
 41
0.0
 42
3.141592653589792
  0
ELLIPSE
  5
3CA6
330
A
100
AcDbEntity
  8
0
  6
Continuous
 62
     7
370
     0
100
AcDbEllipse
 10
520.1628063923444
 20
-353.7945538845443
 30
0.0
 11
-5.18613536267609
 21
6.351692687780237
 31
0.0000000000000003
210
0.0000000000000001
220
0.0
230
1.0
 40
0.8164965809277259
 41
5.497787143782136
 42
6.283185307179585
  0
ELLIPSE
  5
3CA7
330
A
100
AcDbEntity
  8
0
  6
Continuous
 62
     7
370
     0
100
AcDbEllipse
 10
520.1628063923444
 20
-353.7945538845443
 30
0.0
 11
-5.18613536267609
 21
6.351692687780237
 31
0.0000000000000003
210
0.0000000000000001
220
0.0
230
1.0
 40
0.8164965809277259
 41
2.9202782110832
 42
3.141592653589794
  0
ELLIPSE
  5
3CA8
330
A
100
AcDbEntity
  8
0
  6
Continuous
 62
     7
370
     0
100
AcDbEllipse
 10
520.1628063923444
 20
-353.7945538845443
 30
0.0
 11
-5.18613536267609
 21
6.351692687780237
 31
0.0000000000000003
210
0.0000000000000001
220
0.0
230
1.0
 40
0.8164965809277259
 41
0.0
 42
0.2213144421889993
  0
ELLIPSE
  5
3CA9
330
A
100
AcDbEntity
  8
0
  6
Continuous
 62
     9
370
     0
100
AcDbEllipse
 10
532.6847870663434
 20
-343.5703994777812
 30
0.0
 11
-9.613324086911843
 21
11.77386937247049
 31
0.0
210
0.0000000000000001
220
0.0
230
1.0
 40
0.8164965809277264
 41
2.480747357766824
 42
6.944030603002548
  0
ELLIPSE
  5
3CAA
330
A
100
AcDbEntity
  8
0
  6
Continuous
 62
     9
370
     0
100
AcDbEllipse
 10
533.0425579427435
 20
-343.2782807804453
 30
0.0
 11
-10.11928851253873
 21
12.39354670786374
 31
0.0000000000000006
210
0.0000000000000001
220
0.0
230
1.0
 40
0.8164965809277259
 41
3.265964745221777
 42
6.158798844068757
  0
ELLIPSE
  5
3CAB
330
A
100
AcDbEntity
  8
0
  6
Continuous
 62
     7
370
     0
100
AcDbEllipse
 10
533.0425579427435
 20
-343.2782807804453
 30
0.0
 11
-10.11928851253873
 21
12.39354670786374
 31
0.0000000000000006
210
0.0000000000000001
220
0.0
230
1.0
 40
0.8164965809277259
 41
0.000000000000004
 42
0.1243922727450599
  0
ELLIPSE
  5
3CAC
330
A
100
AcDbEntity
  8
0
  6
Continuous
 62
     7
370
     0
100
AcDbEllipse
 10
533.0425579427435
 20
-343.2782807804453
 30
0.0
 11
-10.11928851253873
 21
12.39354670786374
 31
0.0000000000000006
210
0.0000000000000001
220
0.0
230
1.0
 40
0.8164965809277259
 41
3.141592653589788
 42
3.265964745221772
  0
ELLIPSE
  5
3CAD
330
A
100
AcDbEntity
  8
0
  6
Continuous
 62
     7
370
     0
100
AcDbEllipse
 10
534.4736414483434
 20
-342.1098059911003
 30
0.0
 11
10.11928851253873
 21
-12.39354670786374
 31
-0.0000000000000006
210
0.0000000000000001
220
0.0
230
1.0
 40
0.8164965809277259
 41
6.283185307179581
 42
8.639379797371931
  0
ELLIPSE
  5
3CAE
330
A
100
AcDbEntity
  8
0
  6
Continuous
 62
     7
370
     0
100
AcDbEllipse
 10
533.0425579427435
 20
-343.2782807804453
 30
0.0
 11
-10.11928851253873
 21
12.39354670786374
 31
0.0000000000000006
210
0.0000000000000001
220
0.0
230
1.0
 40
0.8164965809277259
 41
3.017243898538958
 42
3.14159265358979
  0
ELLIPSE
  5
3CAF
330
A
100
AcDbEntity
  8
0
  6
Continuous
 62
     7
370
     0
100
AcDbEllipse
 10
533.0425579427435
 20
-343.2782807804453
 30
0.0
 11
-10.11928851253873
 21
12.39354670786374
 31
0.0
210
0.0000000000000001
220
0.0
230
1.0
 40
0.8164965809277264
 41
6.158798844068757
 42
6.283185307179584
  0
ELLIPSE
  5
3CB0
330
A
100
AcDbEntity
  8
0
  6
Continuous
 62
     7
370
     0
100
AcDbEllipse
 10
534.4736414483434
 20
-342.1098059911003
 30
0.0
 11
10.11928851253873
 21
-12.39354670786374
 31
-0.0000000000000006
210
0.0000000000000001
220
0.0
230
1.0
 40
0.8164965809277259
 41
2.356194490192345
 42
3.14159265358979
  0
ELLIPSE
  5
3CB1
330
A
100
AcDbEntity
  8
0
  6
Continuous
 62
     9
370
     0
100
AcDbEllipse
 10
213.9109361939734
 20
-603.8481588004931
 30
0.0
 11
-7.589466384404052
 21
9.295160030897694
 31
0.0000000000000004
210
0.0000000000000001
220
0.0
230
1.0
 40
0.8164965809277259
 41
3.141814302010545
 42
6.28308774947893
  0
ELLIPSE
  5
3CB2
330
A
100
AcDbEntity
  8
0
  6
Continuous
 62
     9
370
     0
100
AcDbEllipse
 10
212.4798526883735
 20
-605.0166335898373
 30
0.0
 11
5.565608681896262
 21
-6.816450689325126
 31
-0.0000000000000003
210
0.0000000000000001
220
0.0
230
1.0
 40
0.8164965809277259
 41
0.0
 42
6.283185307179585
  0
ELLIPSE
  5
3CB3
330
A
100
AcDbEntity
  8
0
  6
Continuous
 62
     7
370
     0
100
AcDbEllipse
 10
212.4798526883735
 20
-605.0166335898373
 30
0.0
 11
-1.264911064067452
 21
1.549193338483022
 31
0.0000000000000001
210
0.0000000000000001
220
0.0
230
1.0
 40
0.8164965809277259
 41
3.141592653589797
 42
5.497787143782138
  0
ELLIPSE
  5
3CB4
330
A
100
AcDbEntity
  8
0
  6
Continuous
 62
     9
370
     0
100
AcDbEllipse
 10
236.0927305307714
 20
-585.7367995656564
 30
0.0
 11
7.589466384404052
 21
-9.295160030897694
 31
-0.0000000000000004
210
0.0000000000000001
220
0.0
230
1.0
 40
0.8164965809277259
 41
0.0
 42
2.356194490192345
  0
ELLIPSE
  5
3CB5
330
A
100
AcDbEntity
  8
0
  6
Continuous
 62
     9
370
     0
100
AcDbEllipse
 10
236.0927305307714
 20
-585.7367995656564
 30
0.0
 11
7.589466384404052
 21
-9.295160030897694
 31
-0.0000000000000004
210
0.0000000000000001
220
0.0
230
1.0
 40
0.8164965809277259
 41
2.356194490192345
 42
3.141592653589794
  0
ELLIPSE
  5
3CB6
330
A
100
AcDbEntity
  8
0
  6
Continuous
 62
     7
370
     0
100
AcDbEllipse
 10
212.4798526883735
 20
-605.0166335898373
 30
0.0
 11
-1.264911064067452
 21
1.549193338483022
 31
0.0
210
0.0000000000000001
220
0.0
230
1.0
 40
0.8164965809277264
 41
5.497787143782138
 42
6.283185307179585
  0
ELLIPSE
  5
3CB7
330
A
100
AcDbEntity
  8
0
  6
Continuous
 62
     7
370
     0
100
AcDbEllipse
 10
212.4798526883735
 20
-605.0166335898373
 30
0.0
 11
-1.264911064067452
 21
1.549193338483022
 31
0.0
210
0.0000000000000001
220
0.0
230
1.0
 40
0.8164965809277264
 41
0.0
 42
3.141592653589797
  0
LINE
  5
3CB8
330
A
100
AcDbEntity
  8
0
  6
Continuous
 62
     7
370
     0
100
AcDbLine
 10
247.1581675288685
 20
-587.0298636768843
 30
0.0
 11
526.3608706068055
 21
-359.0618112346383
 31
0.0
  0
LINE
  5
3CB9
330
A
100
AcDbEntity
  8
0
  6
Continuous
 62
     7
370
     0
100
AcDbLine
 10
516.2415820928963
 20
-346.6682645278932
 30
0.0
 11
237.0381147869434
 21
-574.6369409597011
 31
0.0
  0
LINE
  5
3CBA
330
A
100
AcDbEntity
  8
0
  6
Continuous
 62
     7
370
     0
100
AcDbLine
 10
226.9197284635993
 20
-626.7794765413741
 30
0.0
 11
226.9197284635814
 21
-608.7184577751891
 31
0.0
  0
LINE
  5
3CBB
330
A
100
AcDbEntity
  8
0
  6
Continuous
 62
     7
370
     0
100
AcDbLine
 10
210.9197284635864
 20
-614.2711160353142
 30
0.0
 11
210.9197284635993
 21
-626.7794765413894
 31
0.0
  0
ARC
  5
3CC1
330
A
100
AcDbEntity
  8
0
  6
Continuous
 62
     7
370
     0
100
AcDbCircle
 10
520.3145145316764
 20
-350.8294284041522
 30
0.0
 40
9.800234117336563
100
AcDbArc
 50
130.0749602772582
 51
182.9454880011883
  0
LINE
  5
3CC2
330
A
100
AcDbEntity
  8
0
  6
Continuous
 62
     7
370
     0
100
AcDbLine
 10
520.6480979192254
 20
-363.7279022872342
 30
0.0
 11
520.9538898979442
 21
-363.7946901427042
 31
0.0
  0
ARC
  5
3CC3
330
A
100
AcDbEntity
  8
0
  6
Continuous
 62
     7
370
     0
100
AcDbCircle
 10
523.1095292184955
 20
-354.2524813625732
 30
0.0
 40
9.782664733288582
100
AcDbArc
 50
257.2702339878487
 51
308.3939280750917
  0
LINE
  5
3CC4
330
A
100
AcDbEntity
  8
0
  6
Continuous
 62
     7
370
     0
100
AcDbLine
 10
529.1833562823485
 20
-361.9212391260983
 30
0.0
 11
538.8431699451473
 21
-354.0340342980233
 31
0.0
  0
LINE
  5
3CC5
330
A
100
AcDbEntity
  8
0
  6
Continuous
 62
     7
370
     0
100
AcDbLine
 10
523.6642371763394
 20
-335.4437142362274
 30
0.0
 11
514.0044235135404
 21
-343.3309190643022
 31
0.0
  0
ARC
  5
3CC6
330
A
100
AcDbEntity
  8
0
  6
Continuous
 62
     7
370
     0
100
AcDbCircle
 10
530.9597905809765
 20
-340.1415379285243
 30
0.0
 40
12.29534919994559
100
AcDbArc
 50
138.7415280500136
 51
177.0627331044545
  0
ARC
  5
3CC7
330
A
100
AcDbEntity
  8
0
  6
Continuous
 62
     7
370
     0
100
AcDbCircle
 10
535.6914561957714
 20
-345.9034801429202
 30
0.0
 40
12.33647467166049
100
AcDbArc
 50
261.4827814781013
 51
299.6573683580199
  0
LINE
  5
3CC8
330
A
100
AcDbEntity
  8
0
  6
Continuous
 62
     7
370
     0
100
AcDbLine
 10
543.1618464552825
 20
-355.6718274883092
 30
0.0
 11
544.5929299608827
 21
-354.5033526989641
 31
0.0
  0
LINE
  5
3CC9
330
A
100
AcDbEntity
  8
0
  6
Continuous
 62
     7
370
     0
100
AcDbLine
 10
524.3543529358044
 20
-329.7162592832374
 30
0.0
 11
522.9232694302045
 21
-330.8847340725813
 31
0.0
  0
ARC
  5
3CCF
330
A
100
AcDbEntity
  8
0
  6
Continuous
 62
     7
370
     0
100
AcDbCircle
 10
215.4265755145243
 20
-605.4745610678674
 30
0.0
 40
9.782664733288363
100
AcDbArc
 50
257.2702339878487
 51
308.3939280750917
  0
LINE
  5
3CD0
330
A
100
AcDbEntity
  8
0
  6
Continuous
 62
     7
370
     0
100
AcDbLine
 10
221.5004025783776
 20
-613.1433188313913
 30
0.0
 11
243.6821969151754
 21
-595.0319595965543
 31
0.0
  0
LINE
  5
3CD1
330
A
100
AcDbEntity
  8
0
  6
Continuous
 62
     7
370
     0
100
AcDbLine
 10
228.5032641463674
 20
-576.4416395347581
 30
0.0
 11
206.3214698095694
 21
-594.5529987695952
 31
0.0
  0
LINE
  5
3CD2
330
A
100
AcDbEntity
  8
0
  6
Continuous
 62
     7
370
     0
100
AcDbLine
 10
243.6813915438916
 20
-595.0326171024971
 30
0.0
 11
243.7283900306284
 21
-594.993988512592
 31
0.0
  0
LINE
  5
3CD3
330
A
100
AcDbEntity
  8
0
  6
Continuous
 62
     7
370
     0
100
AcDbLine
 10
243.7283900306284
 20
-594.993988512592
 30
0.0
 11
244.0771500857015
 21
-594.6900572189981
 31
0.0
  0
ARC
  5
3CD9
330
A
100
AcDbEntity
  8
0
  6
Continuous
 62
     7
370
     0
100
AcDbCircle
 10
234.5772266013655
 20
-584.1555349477824
 30
0.0
 40
9.826668242667233
100
AcDbArc
 50
77.32899682866636
 51
125.0077827415342
  0
LINE
  5
3CDA
330
A
100
AcDbEntity
  8
0
  6
Continuous
 62
     7
370
     0
100
AcDbLine
 10
228.9397878972054
 20
-576.1067652524632
 30
0.0
 11
228.5896668122964
 21
-576.3719691195612
 31
0.0
  0
LINE
  5
3CDB
330
A
100
AcDbEntity
  8
0
  6
Continuous
 62
     7
370
     0
100
AcDbLine
 10
228.5896668122964
 20
-576.3719691195612
 30
0.0
 11
228.5014232297085
 21
-576.4431430391291
 31
0.0
  0
LINE
  5
3CDC
330
A
100
AcDbEntity
  8
0
  6
Continuous
 62
     9
370
     0
100
AcDbLine
 10
964.8030605206427
 20
-110.350406986073
 30
0.0
 11
964.6850207207268
 21
-109.6991114137579
 31
0.0
  0
LINE
  5
3CDD
330
A
100
AcDbEntity
  8
0
  6
Continuous
 62
     9
370
     0
100
AcDbLine
 10
964.6850436806008
 20
-105.0015677580741
 30
0.0
 11
964.8030605206368
 21
-104.350417006073
 31
0.0
  0
ARC
  5
3CDE
330
A
100
AcDbEntity
  8
0
  6
Continuous
 62
     9
370
     0
100
AcDbCircle
 10
979.4999999999999
 20
-107.350411990933
 30
0.0
 40
3.000000000000113
100
AcDbArc
 50
90.0
 51
0.0
  0
CIRCLE
  5
3CDF
330
A
100
AcDbEntity
  8
0
  6
Continuous
 62
     7
370
     0
100
AcDbCircle
 10
979.4999999999999
 20
-107.3504119913179
 30
0.0
 40
2.0
  0
LINE
  5
3CE0
330
A
100
AcDbEntity
  8
0
  6
Continuous
 62
     7
370
     0
100
AcDbLine
 10
980.9999999999998
 20
-108.216437395102
 30
0.0
 11
979.4999999999999
 21
-109.0824627988861
 31
0.0
  0
LINE
  5
3CE1
330
A
100
AcDbEntity
  8
0
  6
Continuous
 62
     7
370
     0
100
AcDbLine
 10
980.9999999999998
 20
-106.484386587533
 30
0.0
 11
980.9999999999998
 21
-108.216437395102
 31
0.0
  0
LINE
  5
3CE2
330
A
100
AcDbEntity
  8
0
  6
Continuous
 62
     7
370
     0
100
AcDbLine
 10
979.4999999999999
 20
-105.6183611837491
 30
0.0
 11
980.9999999999998
 21
-106.484386587533
 31
0.0
  0
LINE
  5
3CE3
330
A
100
AcDbEntity
  8
0
  6
Continuous
 62
     7
370
     0
100
AcDbLine
 10
977.9999999999999
 20
-106.484386587533
 30
0.0
 11
979.4999999999999
 21
-105.6183611837491
 31
0.0
  0
LINE
  5
3CE4
330
A
100
AcDbEntity
  8
0
  6
Continuous
 62
     7
370
     0
100
AcDbLine
 10
977.9999999999999
 20
-108.216437395102
 30
0.0
 11
977.9999999999999
 21
-106.484386587533
 31
0.0
  0
LINE
  5
3CE5
330
A
100
AcDbEntity
  8
0
  6
Continuous
 62
     7
370
     0
100
AcDbLine
 10
979.4999999999999
 20
-109.0824627988861
 30
0.0
 11
977.9999999999999
 21
-108.216437395102
 31
0.0
  0
LINE
  5
3CE6
330
A
100
AcDbEntity
  8
0
  6
Continuous
 62
     7
370
     0
100
AcDbLine
 10
963.9999999998048
 20
-104.3504119964891
 30
0.0
 11
964.0000000001949
 21
-110.3504119964891
 31
0.0
  0
LINE
  5
3CE7
330
A
100
AcDbEntity
  8
0
  6
Continuous
 62
     7
370
     0
100
AcDbLine
 10
963.4999999998697
 20
-105.3504119965221
 30
0.0
 11
963.50000000013
 21
-109.3504119965221
 31
0.0
  0
LINE
  5
3CE8
330
A
100
AcDbEntity
  8
0
  6
Continuous
 62
     7
370
     0
100
AcDbLine
 10
989.5000000000367
 20
-144.350411990923
 30
0.0
 11
988.0110222653108
 21
-144.3504119909248
 31
0.0
  0
LINE
  5
3CE9
330
A
100
AcDbEntity
  8
0
  6
Continuous
 62
     7
370
     0
100
AcDbLine
 10
970.9889777347628
 20
-144.3504119909421
 30
0.0
 11
969.5000000000367
 21
-144.350411990943
 31
0.0
  0
LINE
  5
3CEA
330
A
100
AcDbEntity
  8
0
  6
Continuous
 62
     7
370
     0
100
AcDbLine
 10
988.0110222653108
 20
-144.3504119909248
 30
0.0
 11
988.011022265327
 21
-159.3504119909248
 31
0.0
  0
LINE
  5
3CEB
330
A
100
AcDbEntity
  8
0
  6
Continuous
 62
     9
370
     0
100
AcDbLine
 10
970.988977734777
 20
-159.3504119909421
 30
0.0
 11
988.011022265327
 21
-159.3504119909239
 31
0.0
  0
LINE
  5
3CEC
330
A
100
AcDbEntity
  8
0
  6
Continuous
 62
     7
370
     0
100
AcDbLine
 10
970.988977734777
 20
-159.3504119909421
 30
0.0
 11
970.9889777347628
 21
-144.3504119909421
 31
0.0
  0
LINE
  5
3CED
330
A
100
AcDbEntity
  8
0
  6
Continuous
 62
     7
370
     0
100
AcDbLine
 10
984.130064794418
 20
-162.3504119909291
 30
0.0
 11
974.8699352056918
 21
-162.350411990938
 31
0.0
  0
ARC
  5
3CEE
330
A
100
AcDbEntity
  8
0
  6
Continuous
 62
     7
370
     0
100
AcDbCircle
 10
974.4216941223788
 20
-158.919975036114
 30
0.0
 40
3.45959792024918
100
AcDbArc
 50
187.1471589646328
 51
277.4444273137053
  0
ARC
  5
3CEF
330
A
100
AcDbEntity
  8
0
  6
Continuous
 62
     7
370
     0
100
AcDbCircle
 10
984.6366343019989
 20
-158.9954317474219
 30
0.0
 40
3.393008267058573
100
AcDbArc
 50
261.4137504453489
 51
353.9946632765441
  0
ARC
  5
3CF0
330
A
100
AcDbEntity
  8
0
  6
Continuous
 62
     9
370
     0
100
AcDbCircle
 10
979.4999999999999
 20
-107.350411996058
 30
0.0
 40
18.99999999999978
100
AcDbArc
 50
301.7568638593545
 51
238.2431361407589
  0
ARC
  5
3CF1
330
A
100
AcDbEntity
  8
0
  6
Continuous
 62
     7
370
     0
100
AcDbCircle
 10
979.4999999999999
 20
-107.350411996058
 30
0.0
 40
20.00000000000002
100
AcDbArc
 50
300.0000000000564
 51
180.0
  0
ARC
  5
3CF2
330
A
100
AcDbEntity
  8
0
  6
Continuous
 62
     7
370
     0
100
AcDbCircle
 10
979.4999999999999
 20
-107.350411996058
 30
0.0
 40
19.99999999999988
100
AcDbArc
 50
180.0
 51
240.0000000000584
  0
ARC
  5
3CF3
330
A
100
AcDbEntity
  8
0
  6
Continuous
 62
     7
370
     0
100
AcDbCircle
 10
979.4999999999999
 20
-107.350411990933
 30
0.0
 40
14.9999999999999
100
AcDbArc
 50
270.0
 51
180.0
  0
CIRCLE
  5
3CF4
330
A
100
AcDbEntity
  8
0
  6
Continuous
 62
     9
370
     0
100
AcDbCircle
 10
979.4999999999999
 20
-107.350411990933
 30
0.0
 40
10.9999999999999
  0
ARC
  5
3CF5
330
A
100
AcDbEntity
  8
0
  6
Continuous
 62
     7
370
     0
100
AcDbCircle
 10
979.4999999999999
 20
-107.350411990933
 30
0.0
 40
14.9999999999999
100
AcDbArc
 50
180.0
 51
270.0
  0
CIRCLE
  5
3CF6
330
A
100
AcDbEntity
  8
0
  6
Continuous
 62
     7
370
     0
100
AcDbCircle
 10
979.4999999999999
 20
-107.350411990933
 30
0.0
 40
2.499999999999945
  0
LINE
  5
3CF7
330
A
100
AcDbEntity
  8
0
  6
Continuous
 62
     9
370
     0
100
AcDbLine
 10
964.7098005413189
 20
-104.850411996443
 30
0.0
 11
963.7499999998368
 21
-104.8504119965059
 31
0.0
  0
LINE
  5
3CF8
330
A
100
AcDbEntity
  8
0
  6
Continuous
 62
     9
370
     0
100
AcDbLine
 10
963.7500000001621
 20
-109.8504119965059
 30
0.0
 11
964.709800543182
 21
-109.8504119964429
 31
0.0
  0
LINE
  5
3CF9
330
A
100
AcDbEntity
  8
0
  6
Continuous
 62
     9
370
     0
100
AcDbLine
 10
964.8029145886658
 20
-110.350406986073
 30
0.0
 11
964.803060521689
 21
-110.350406986073
 31
0.0
  0
LINE
  5
3CFA
330
A
100
AcDbEntity
  8
0
  6
Continuous
 62
     9
370
     0
100
AcDbLine
 10
964.8030605195909
 20
-104.350417006073
 30
0.0
 11
964.8029303210149
 21
-104.350417006073
 31
0.0
  0
LINE
  5
3CFB
330
A
100
AcDbEntity
  8
0
  6
Continuous
 62
     7
370
     0
100
AcDbLine
 10
963.9999999998048
 20
-104.3504119964891
 30
0.0
 11
963.7499999998368
 21
-104.8504119965059
 31
0.0
  0
LINE
  5
3CFC
330
A
100
AcDbEntity
  8
0
  6
Continuous
 62
     7
370
     0
100
AcDbLine
 10
963.7499999998368
 20
-104.8504119965059
 30
0.0
 11
963.4999999998697
 21
-105.3504119965221
 31
0.0
  0
LINE
  5
3CFD
330
A
100
AcDbEntity
  8
0
  6
Continuous
 62
     7
370
     0
100
AcDbLine
 10
963.50000000013
 20
-109.3504119965221
 30
0.0
 11
963.7500000001621
 21
-109.8504119965059
 31
0.0
  0
LINE
  5
3CFE
330
A
100
AcDbEntity
  8
0
  6
Continuous
 62
     7
370
     0
100
AcDbLine
 10
963.7500000001621
 20
-109.8504119965059
 30
0.0
 11
964.0000000001949
 21
-110.3504119964891
 31
0.0
  0
LINE
  5
3CFF
330
A
100
AcDbEntity
  8
0
  6
Continuous
 62
     7
370
     0
100
AcDbLine
 10
964.8030615421768
 20
-104.350411996437
 30
0.0
 11
964.8024592294019
 21
-104.350411996437
 31
0.0
  0
LINE
  5
3D00
330
A
100
AcDbEntity
  8
0
  6
Continuous
 62
     7
370
     0
100
AcDbLine
 10
964.8024479413718
 20
-104.350411996437
 30
0.0
 11
963.9999999998048
 21
-104.3504119964891
 31
0.0
  0
LINE
  5
3D01
330
A
100
AcDbEntity
  8
0
  6
Continuous
 62
     7
370
     0
100
AcDbLine
 10
964.0000000001949
 20
-110.3504119964891
 30
0.0
 11
964.8024188031937
 21
-110.350411996437
 31
0.0
  0
LINE
  5
3D02
330
A
100
AcDbEntity
  8
0
  6
Continuous
 62
     7
370
     0
100
AcDbLine
 10
964.8024188031937
 20
-110.350411996437
 30
0.0
 11
964.8030615444239
 21
-110.350411996437
 31
0.0
  0
LINE
  5
3D03
330
A
100
AcDbEntity
  8
0
  6
Continuous
 62
     7
370
     0
100
AcDbLine
 10
989.5000000000367
 20
-144.350411990923
 30
0.0
 11
989.5000000000107
 21
-118.530751878422
 31
0.0
  0
LINE
  5
3D04
330
A
100
AcDbEntity
  8
0
  6
Continuous
 62
     7
370
     0
100
AcDbLine
 10
969.5000000000108
 20
-118.530751878442
 30
0.0
 11
969.5000000000367
 21
-144.350411990943
 31
0.0
  0
ARC
  5
3D05
330
A
100
AcDbEntity
  8
0
  6
Continuous
 62
     7
370
     0
100
AcDbCircle
 10
-88.00000000005514
 20
-152.350411990921
 30
0.0
 40
3.374999999999988
100
AcDbArc
 50
359.9999999999153
 51
89.89647039003173
  0
ARC
  5
3D06
330
A
100
AcDbEntity
  8
0
  6
Continuous
 62
     7
370
     0
100
AcDbCircle
 10
-88.00000000005514
 20
-152.350411990921
 30
0.0
 40
3.374999999999931
100
AcDbArc
 50
89.89647039003173
 51
180.0000000002149
  0
ARC
  5
3D07
330
A
100
AcDbEntity
  8
0
  6
Continuous
 62
     7
370
     0
100
AcDbCircle
 10
-88.00000000005514
 20
-152.350411990921
 30
0.0
 40
3.374999999999988
100
AcDbArc
 50
180.0000000002149
 51
267.4995776781086
  0
ARC
  5
3D08
330
A
100
AcDbEntity
  8
0
  6
Continuous
 62
     7
370
     0
100
AcDbCircle
 10
-88.00000000005514
 20
-152.350411990921
 30
0.0
 40
3.374999999999871
100
AcDbArc
 50
267.4995776781086
 51
269.9999999999132
  0
ARC
  5
3D09
330
A
100
AcDbEntity
  8
0
  6
Continuous
 62
     9
370
     0
100
AcDbCircle
 10
-88.00065098793998
 20
-152.3510688867579
 30
0.0
 40
4.000656948788638
100
AcDbArc
 50
0.5269496965422685
 51
89.99067681653647
  0
ARC
  5
3D0A
330
A
100
AcDbEntity
  8
0
  6
Continuous
 62
     9
370
     0
100
AcDbCircle
 10
-88.00051813630986
 20
-152.3498879845019
 30
0.0
 40
4.000527251273971
100
AcDbArc
 50
270.3636492513797
 51
358.9908869234571
  0
ARC
  5
3D0B
330
A
100
AcDbEntity
  8
0
  6
Continuous
 62
     9
370
     0
100
AcDbCircle
 10
-88.0000000000553
 20
-152.3504119909341
 30
0.0
 40
3.999999999999113
100
AcDbArc
 50
179.9999999999283
 51
270.3562752840106
  0
ARC
  5
3D0C
330
A
100
AcDbEntity
  8
0
  6
Continuous
 62
     7
370
     0
100
AcDbCircle
 10
-88.00000000005514
 20
-152.350411990921
 30
0.0
 40
4.000000000000002
100
AcDbArc
 50
359.9999999999153
 51
1.64660717858666
  0
ARC
  5
3D0D
330
A
100
AcDbEntity
  8
0
  6
Continuous
 62
     7
370
     0
100
AcDbCircle
 10
-88.00000000005514
 20
-152.350411990921
 30
0.0
 40
4.000000000000002
100
AcDbArc
 50
1.64660717858666
 51
90.00000000309404
  0
ARC
  5
3D0E
330
A
100
AcDbEntity
  8
0
  6
Continuous
 62
     7
370
     0
100
AcDbCircle
 10
-88.00000000005514
 20
-152.350411990921
 30
0.0
 40
4.000000000000002
100
AcDbArc
 50
90.0000000030924
 51
90.71727057958149
  0
ARC
  5
3D0F
330
A
100
AcDbEntity
  8
0
  6
Continuous
 62
     7
370
     0
100
AcDbCircle
 10
-88.00000000005514
 20
-152.350411990921
 30
0.0
 40
4.000000000000055
100
AcDbArc
 50
90.71727057958149
 51
179.9999999987168
  0
ARC
  5
3D10
330
A
100
AcDbEntity
  8
0
  6
Continuous
 62
     7
370
     0
100
AcDbCircle
 10
-88.00000000005514
 20
-152.350411990921
 30
0.0
 40
4.000000000000002
100
AcDbArc
 50
179.9999999987233
 51
270.356554348622
  0
ARC
  5
3D11
330
A
100
AcDbEntity
  8
0
  6
Continuous
 62
     7
370
     0
100
AcDbCircle
 10
-88.00000000005514
 20
-152.350411990921
 30
0.0
 40
3.999999999999857
100
AcDbArc
 50
270.3565543486204
 51
358.9982257955032
  0
ARC
  5
3D12
330
A
100
AcDbEntity
  8
0
  6
Continuous
 62
     7
370
     0
100
AcDbCircle
 10
-88.00000000005514
 20
-152.350411990921
 30
0.0
 40
3.999999999999996
100
AcDbArc
 50
358.9982257955032
 51
359.9999999999153
  0
LINE
  5
3D13
330
A
100
AcDbEntity
  8
0
  6
Continuous
 62
     7
370
     0
100
AcDbLine
 10
-89.00000000005913
 20
-155.0004119909201
 30
0.0
 11
-87.00000000005912
 21
-155.0004119909231
 31
0.0
  0
LINE
  5
3D14
330
A
100
AcDbEntity
  8
0
  6
Continuous
 62
     7
370
     0
100
AcDbLine
 10
-87.00000000005912
 20
-155.0004119909231
 30
0.0
 11
-87.00000000005113
 21
-149.7004119909231
 31
0.0
  0
LINE
  5
3D15
330
A
100
AcDbEntity
  8
0
  6
Continuous
 62
     7
370
     0
100
AcDbLine
 10
-87.00000000005113
 20
-149.7004119909231
 30
0.0
 11
-89.00000000005112
 21
-149.7004119909199
 31
0.0
  0
LINE
  5
3D16
330
A
100
AcDbEntity
  8
0
  6
Continuous
 62
     7
370
     0
100
AcDbLine
 10
-89.00000000005112
 20
-149.7004119909199
 30
0.0
 11
-89.00000000005913
 21
-155.0004119909201
 31
0.0
  0
LINE
  5
3D17
330
A
100
AcDbEntity
  8
0
  6
Continuous
 62
     7
370
     0
100
AcDbLine
 10
-78.00000000003723
 20
-144.350411990943
 30
0.0
 11
-79.48897773476261
 21
-144.3504119909421
 31
0.0
  0
LINE
  5
3D18
330
A
100
AcDbEntity
  8
0
  6
Continuous
 62
     7
370
     0
100
AcDbLine
 10
-79.48897773476256
 20
-144.3504119909421
 30
0.0
 11
-79.48897773477755
 21
-159.3504119909421
 31
0.0
  0
LINE
  5
3D19
330
A
100
AcDbEntity
  8
0
  6
Continuous
 62
     9
370
     0
100
AcDbLine
 10
-96.51102226532671
 20
-159.3504119909248
 30
0.0
 11
-79.4889777347776
 21
-159.3504119909421
 31
0.0
  0
LINE
  5
3D1A
330
A
100
AcDbEntity
  8
0
  6
Continuous
 62
     7
370
     0
100
AcDbLine
 10
-96.51102226532671
 20
-159.3504119909248
 30
0.0
 11
-96.51102226531172
 21
-144.3504119909248
 31
0.0
  0
LINE
  5
3D1B
330
A
100
AcDbEntity
  8
0
  6
Continuous
 62
     7
370
     0
100
AcDbLine
 10
-96.51102226531172
 20
-144.3504119909248
 30
0.0
 11
-98.00000000003707
 21
-144.350411990923
 31
0.0
  0
LINE
  5
3D1C
330
A
100
AcDbEntity
  8
0
  6
Continuous
 62
     7
370
     0
100
AcDbLine
 10
-88.00405432713629
 20
-155.7254095557391
 30
0.0
 11
-88.14723701716571
 21
-155.7221987962921
 31
0.0
  0
LINE
  5
3D1D
330
A
100
AcDbEntity
  8
0
  6
Continuous
 62
     7
370
     0
100
AcDbLine
 10
-83.36993520569214
 20
-162.350411990938
 30
0.0
 11
-92.63006479441813
 21
-162.3504119909291
 31
0.0
  0
ARC
  5
3D1E
330
A
100
AcDbEntity
  8
0
  6
Continuous
 62
     7
370
     0
100
AcDbCircle
 10
-93.1004434288371
 20
-158.94861333423
 30
0.0
 40
3.434165132959143
100
AcDbArc
 50
186.7190179153554
 51
277.8725683627544
  0
ARC
  5
3D1F
330
A
100
AcDbEntity
  8
0
  6
Continuous
 62
     7
370
     0
100
AcDbCircle
 10
-82.84763273837603
 20
-159.0157847299649
 30
0.0
 40
3.375283519496629
100
AcDbArc
 50
261.0980919342686
 51
354.3103217873937
  0
CIRCLE
  5
3D20
330
A
100
AcDbEntity
  8
0
  6
Continuous
 62
     7
370
     0
100
AcDbCircle
 10
-88.00000000000014
 20
-107.350411996058
 30
0.0
 40
19.99999999999999
  0
CIRCLE
  5
3D21
330
A
100
AcDbEntity
  8
0
  6
Continuous
 62
     7
370
     0
100
AcDbCircle
 10
-88.00000000000014
 20
-107.350411996058
 30
0.0
 40
3.000000000000001
  0
LINE
  5
3D22
330
A
100
AcDbEntity
  8
0
  6
Continuous
 62
     7
370
     0
100
AcDbLine
 10
-78.00000000003717
 20
-144.350411990943
 30
0.0
 11
-78.00000000001749
 21
-124.6709200717569
 31
0.0
  0
LINE
  5
3D23
330
A
100
AcDbEntity
  8
0
  6
Continuous
 62
     7
370
     0
100
AcDbLine
 10
-98.00000000001745
 20
-124.6709200717371
 30
0.0
 11
-98.00000000003713
 21
-144.350411990923
 31
0.0
  0
ARC
  5
3D24
330
A
100
AcDbEntity
  8
0
  6
Continuous
 62
     9
370
     0
100
AcDbCircle
 10
854.0000000000002
 20
-235.3014386071811
 30
0.0
 40
15.00158914782361
100
AcDbArc
 50
258.4642994159363
 51
281.5357005840805
  0
LINE
  5
3D25
330
A
100
AcDbEntity
  8
0
  6
Continuous
 62
     7
370
     0
100
AcDbLine
 10
856.9999999999998
 20
-249.500000000055
 30
0.0
 11
850.9999999999999
 21
-249.500000000055
 31
0.0
  0
LINE
  5
3D26
330
A
100
AcDbEntity
  8
0
  6
Continuous
 62
     7
370
     0
100
AcDbLine
 10
856.0000000000002
 20
-249.000000000055
 30
0.0
 11
852.0000000000003
 21
-249.000000000055
 31
0.0
  0
LINE
  5
3D27
330
A
100
AcDbEntity
  8
0
  6
Continuous
 62
     7
370
     0
100
AcDbLine
 10
881.9999999999998
 20
-285.000000000055
 30
0.0
 11
881.9999999999998
 21
-265.000000000055
 31
0.0
  0
LINE
  5
3D28
330
A
100
AcDbEntity
  8
0
  6
Continuous
 62
     9
370
     0
100
AcDbLine
 10
878.0000000000002
 20
-245.000000000055
 30
0.0
 11
878.0000000000002
 21
-285.000000000055
 31
0.0
  0
LINE
  5
3D29
330
A
100
AcDbEntity
  8
0
  6
Continuous
 62
     7
370
     0
100
AcDbLine
 10
881.9999999999998
 20
-265.000000000055
 30
0.0
 11
881.9999999999998
 21
-245.000000000055
 31
0.0
  0
LINE
  5
3D2A
330
A
100
AcDbEntity
  8
0
  6
Continuous
 62
     7
370
     0
100
AcDbLine
 10
876.9999999999999
 20
-246.000000000055
 30
0.0
 11
876.9999999999999
 21
-284.000000000055
 31
0.0
  0
LINE
  5
3D2B
330
A
100
AcDbEntity
  8
0
  6
Continuous
 62
     9
370
     0
100
AcDbLine
 10
873.0000000000002
 20
-280.0000000000551
 30
0.0
 11
873.0000000000002
 21
-250.000000000055
 31
0.0
  0
LINE
  5
3D2C
330
A
100
AcDbEntity
  8
0
  6
Continuous
 62
     9
370
     0
100
AcDbLine
 10
846.0000000000002
 20
-250.000000000055
 30
0.0
 11
846.0000000000002
 21
-280.0000000000551
 31
0.0
  0
LINE
  5
3D2D
330
A
100
AcDbEntity
  8
0
  6
Continuous
 62
     7
370
     0
100
AcDbLine
 10
841.9999999999998
 20
-276.000000000055
 30
0.0
 11
841.9999999999998
 21
-254.000000000055
 31
0.0
  0
LINE
  5
3D2E
330
A
100
AcDbEntity
  8
0
  6
Continuous
 62
     9
370
     0
100
AcDbLine
 10
-14.0
 20
-250.000000000055
 30
0.0
 11
-14.0
 21
-280.0000000000551
 31
0.0
  0
LINE
  5
3D2F
330
A
100
AcDbEntity
  8
0
  6
Continuous
 62
     9
370
     0
100
AcDbLine
 10
48.00000000000001
 20
-280.0000000000551
 30
0.0
 11
48.00000000000001
 21
-265.000000000055
 31
0.0
  0
LINE
  5
3D30
330
A
100
AcDbEntity
  8
0
  6
Continuous
 62
     9
370
     0
100
AcDbLine
 10
48.00000000000001
 20
-265.000000000055
 30
0.0
 11
48.00000000000001
 21
-250.000000000055
 31
0.0
  0
LINE
  5
3D31
330
A
100
AcDbEntity
  8
0
  6
Continuous
 62
     7
370
     0
100
AcDbLine
 10
-18.0
 20
-276.000000000055
 30
0.0
 11
-18.0
 21
-254.000000000055
 31
0.0
  0
LINE
  5
3D32
330
A
100
AcDbEntity
  8
0
  6
Continuous
 62
     7
370
     0
100
AcDbLine
 10
52.0
 20
-254.000000000055
 30
0.0
 11
52.0
 21
-265.000000000055
 31
0.0
  0
LINE
  5
3D33
330
A
100
AcDbEntity
  8
0
  6
Continuous
 62
     7
370
     0
100
AcDbLine
 10
52.0
 20
-265.000000000055
 30
0.0
 11
52.0
 21
-276.000000000055
 31
0.0
  0
LINE
  5
3D34
330
A
100
AcDbEntity
  8
0
  6
Continuous
 62
     9
370
     0
100
AcDbLine
 10
856.4999999999999
 20
-249.9999800000551
 30
0.0
 11
856.4999999999999
 21
-249.250000000055
 31
0.0
  0
LINE
  5
3D35
330
A
100
AcDbEntity
  8
0
  6
Continuous
 62
     9
370
     0
100
AcDbLine
 10
851.5000000000002
 20
-249.250000000055
 30
0.0
 11
851.5000000000002
 21
-249.9999800000551
 31
0.0
  0
LINE
  5
3D36
330
A
100
AcDbEntity
  8
0
  6
Continuous
 62
     7
370
     0
100
AcDbLine
 10
856.9999999999998
 20
-249.999980637723
 30
0.0
 11
856.9999999999998
 21
-249.500000000055
 31
0.0
  0
LINE
  5
3D37
330
A
100
AcDbEntity
  8
0
  6
Continuous
 62
     7
370
     0
100
AcDbLine
 10
850.9999999999999
 20
-249.500000000055
 30
0.0
 11
850.9999999999999
 21
-249.999980637723
 31
0.0
  0
LINE
  5
3D38
330
A
100
AcDbEntity
  8
0
  6
Continuous
 62
     7
370
     0
100
AcDbLine
 10
856.9999999999998
 20
-249.500000000055
 30
0.0
 11
856.4999999999999
 21
-249.250000000055
 31
0.0
  0
LINE
  5
3D39
330
A
100
AcDbEntity
  8
0
  6
Continuous
 62
     7
370
     0
100
AcDbLine
 10
856.4999999999999
 20
-249.250000000055
 30
0.0
 11
856.0000000000002
 21
-249.000000000055
 31
0.0
  0
LINE
  5
3D3A
330
A
100
AcDbEntity
  8
0
  6
Continuous
 62
     7
370
     0
100
AcDbLine
 10
852.0000000000003
 20
-249.000000000055
 30
0.0
 11
851.5000000000002
 21
-249.250000000055
 31
0.0
  0
LINE
  5
3D3B
330
A
100
AcDbEntity
  8
0
  6
Continuous
 62
     7
370
     0
100
AcDbLine
 10
851.5000000000002
 20
-249.250000000055
 30
0.0
 11
850.9999999999999
 21
-249.500000000055
 31
0.0
  0
LINE
  5
3D3C
330
A
100
AcDbEntity
  8
0
  6
Continuous
 62
     7
370
     0
100
AcDbLine
 10
52.0
 20
-275.000000000055
 30
0.0
 11
841.9999999999998
 21
-275.000000000055
 31
0.0
  0
LINE
  5
3D3D
330
A
100
AcDbEntity
  8
0
  6
Continuous
 62
     7
370
     0
100
AcDbLine
 10
841.9999999999998
 20
-255.000000000055
 30
0.0
 11
52.00000000000011
 21
-255.000000000055
 31
0.0
  0
LINE
  5
3D3E
330
A
100
AcDbEntity
  8
0
  6
Continuous
 62
     7
370
     0
100
AcDbLine
 10
878.0000000000002
 20
-285.000000000055
 30
0.0
 11
881.9999999999998
 21
-285.000000000055
 31
0.0
  0
LINE
  5
3D3F
330
A
100
AcDbEntity
  8
0
  6
Continuous
 62
     7
370
     0
100
AcDbLine
 10
881.9999999999998
 20
-245.000000000055
 30
0.0
 11
878.0000000000002
 21
-245.000000000055
 31
0.0
  0
ARC
  5
3D40
330
A
100
AcDbEntity
  8
0
  6
Continuous
 62
     7
370
     0
100
AcDbCircle
 10
878.0000000000002
 20
-246.000000000055
 30
0.0
 40
0.9999999999998896
100
AcDbArc
 50
90.0
 51
180.0
  0
ARC
  5
3D41
330
A
100
AcDbEntity
  8
0
  6
Continuous
 62
     7
370
     0
100
AcDbCircle
 10
878.0000000000002
 20
-284.000000000055
 30
0.0
 40
1.000000000000111
100
AcDbArc
 50
180.0
 51
270.0
  0
ARC
  5
3D42
330
A
100
AcDbEntity
  8
0
  6
Continuous
 62
     7
370
     0
100
AcDbCircle
 10
873.0000000000002
 20
-246.000000000055
 30
0.0
 40
4.000000000000002
100
AcDbArc
 50
270.0
 51
0.0
  0
ARC
  5
3D43
330
A
100
AcDbEntity
  8
0
  6
Continuous
 62
     7
370
     0
100
AcDbCircle
 10
873.0000000000002
 20
-284.000000000055
 30
0.0
 40
4.000000000000002
100
AcDbArc
 50
0.0
 51
90.0
  0
LINE
  5
3D44
330
A
100
AcDbEntity
  8
0
  6
Continuous
 62
     7
370
     0
100
AcDbLine
 10
846.0000000000002
 20
-280.0000000000551
 30
0.0
 11
873.0000000000002
 21
-280.0000000000551
 31
0.0
  0
LINE
  5
3D45
330
A
100
AcDbEntity
  8
0
  6
Continuous
 62
     7
370
     0
100
AcDbLine
 10
850.9999999999999
 20
-250.000000000055
 30
0.0
 11
846.0000000000002
 21
-250.000000000055
 31
0.0
  0
LINE
  5
3D46
330
A
100
AcDbEntity
  8
0
  6
Continuous
 62
     7
370
     0
100
AcDbLine
 10
873.0000000000002
 20
-250.000000000055
 30
0.0
 11
856.9999999999998
 21
-250.000000000055
 31
0.0
  0
ARC
  5
3D47
330
A
100
AcDbEntity
  8
0
  6
Continuous
 62
     7
370
     0
100
AcDbCircle
 10
846.0000000000002
 20
-254.000000000055
 30
0.0
 40
4.000000000000002
100
AcDbArc
 50
90.0
 51
180.0
  0
ARC
  5
3D48
330
A
100
AcDbEntity
  8
0
  6
Continuous
 62
     7
370
     0
100
AcDbCircle
 10
846.0000000000002
 20
-276.000000000055
 30
0.0
 40
4.000000000000002
100
AcDbArc
 50
180.0
 51
270.0
  0
LINE
  5
3D49
330
A
100
AcDbEntity
  8
0
  6
Continuous
 62
     7
370
     0
100
AcDbLine
 10
-14.0
 20
-280.0000000000551
 30
0.0
 11
48.00000000000001
 21
-280.0000000000551
 31
0.0
  0
LINE
  5
3D4A
330
A
100
AcDbEntity
  8
0
  6
Continuous
 62
     7
370
     0
100
AcDbLine
 10
48.00000000000001
 20
-250.000000000055
 30
0.0
 11
-14.0
 21
-250.000000000055
 31
0.0
  0
ARC
  5
3D4B
330
A
100
AcDbEntity
  8
0
  6
Continuous
 62
     7
370
     0
100
AcDbCircle
 10
-14.0
 20
-254.000000000055
 30
0.0
 40
4.000000000000002
100
AcDbArc
 50
90.0
 51
180.0
  0
ARC
  5
3D4C
330
A
100
AcDbEntity
  8
0
  6
Continuous
 62
     7
370
     0
100
AcDbCircle
 10
-14.0
 20
-276.000000000055
 30
0.0
 40
4.000000000000002
100
AcDbArc
 50
180.0
 51
270.0
  0
ARC
  5
3D4D
330
A
100
AcDbEntity
  8
0
  6
Continuous
 62
     7
370
     0
100
AcDbCircle
 10
48.00000000000001
 20
-276.000000000055
 30
0.0
 40
4.000000000000002
100
AcDbArc
 50
270.0
 51
0.0
  0
ARC
  5
3D4E
330
A
100
AcDbEntity
  8
0
  6
Continuous
 62
     7
370
     0
100
AcDbCircle
 10
48.00000000000001
 20
-254.000000000055
 30
0.0
 40
4.000000000000002
100
AcDbArc
 50
0.0
 51
90.0
  0
ARC
  5
3D4F
330
A
100
AcDbEntity
  8
0
  6
Continuous
 62
     7
370
     0
100
AcDbCircle
 10
40.00000000000001
 20
0.0000000005350103
 30
0.0
 40
2.499999999999945
100
AcDbArc
 50
180.0
 51
89.99999999999877
  0
ARC
  5
3D50
330
A
100
AcDbEntity
  8
0
  6
Continuous
 62
     9
370
     0
100
AcDbCircle
 10
853.9999999999995
 20
-29.69750266780011
 30
0.0
 40
15.00055181013008
100
AcDbArc
 50
78.46349072627538
 51
101.5365092737206
  0
LINE
  5
3D51
330
A
100
AcDbEntity
  8
0
  6
Continuous
 62
     7
370
     0
100
AcDbLine
 10
10.00000000249446
 20
4.0
 30
0.0
 11
10.00000000249842
 21
0.0000000000059117
 31
0.0
  0
LINE
  5
3D52
330
A
100
AcDbEntity
  8
0
  6
Continuous
 62
     7
370
     0
100
AcDbLine
 10
10.00000000249842
 20
0.0000000000059117
 30
0.0
 11
10.00000000250243
 21
-4.0
 31
0.0
  0
LINE
  5
3D53
330
A
100
AcDbEntity
  8
0
  6
Continuous
 62
     7
370
     0
100
AcDbLine
 10
3.000000002494417
 20
3.999999999992951
 30
0.0
 11
3.000000002502417
 21
-4.000000000007048
 31
0.0
  0
LINE
  5
3D54
330
A
100
AcDbEntity
  8
0
  6
Continuous
 62
     7
370
     0
100
AcDbLine
 10
2.000000002501423
 20
-3.000000000007958
 30
0.0
 11
2.000000002495426
 21
2.999999999992041
 31
0.0
  0
CIRCLE
  5
3D55
330
A
100
AcDbEntity
  8
0
  6
Continuous
 62
     7
370
     0
100
AcDbCircle
 10
40.00000000000001
 20
0.000000000512955
 30
0.0
 40
2.99999999999989
  0
CIRCLE
  5
3D56
330
A
100
AcDbEntity
  8
0
  6
Continuous
 62
     7
370
     0
100
AcDbCircle
 10
40.00000000000001
 20
0.0000000005570655
 30
0.0
 40
2.0
  0
LINE
  5
3D57
330
A
100
AcDbEntity
  8
0
  6
Continuous
 62
     7
370
     0
100
AcDbLine
 10
40.8660254037844
 20
1.500000000557065
 30
0.0
 11
41.73205080756891
 21
0.0000000005570655
 31
0.0
  0
LINE
  5
3D58
330
A
100
AcDbEntity
  8
0
  6
Continuous
 62
     7
370
     0
100
AcDbLine
 10
39.13397459621561
 20
1.500000000557065
 30
0.0
 11
40.8660254037844
 21
1.500000000557065
 31
0.0
  0
LINE
  5
3D59
330
A
100
AcDbEntity
  8
0
  6
Continuous
 62
     7
370
     0
100
AcDbLine
 10
38.26794919243111
 20
0.0000000005570655
 30
0.0
 11
39.13397459621561
 21
1.500000000557065
 31
0.0
  0
LINE
  5
3D5A
330
A
100
AcDbEntity
  8
0
  6
Continuous
 62
     7
370
     0
100
AcDbLine
 10
39.13397459621551
 20
-1.499999999442934
 30
0.0
 11
38.26794919243111
 21
0.0000000005570655
 31
0.0
  0
LINE
  5
3D5B
330
A
100
AcDbEntity
  8
0
  6
Continuous
 62
     7
370
     0
100
AcDbLine
 10
40.8660254037844
 20
-1.499999999442934
 30
0.0
 11
39.13397459621551
 21
-1.499999999442934
 31
0.0
  0
LINE
  5
3D5C
330
A
100
AcDbEntity
  8
0
  6
Continuous
 62
     7
370
     0
100
AcDbLine
 10
41.73205080756891
 20
0.0000000005570655
 30
0.0
 11
40.8660254037844
 21
-1.499999999442934
 31
0.0
  0
LINE
  5
3D5D
330
A
100
AcDbEntity
  8
0
  6
Continuous
 62
     7
370
     0
100
AcDbLine
 10
850.9999999999999
 20
-15.50000000005502
 30
0.0
 11
854.0000000000002
 21
-15.50000000005502
 31
0.0
  0
LINE
  5
3D5E
330
A
100
AcDbEntity
  8
0
  6
Continuous
 62
     7
370
     0
100
AcDbLine
 10
852.0000000000003
 20
-16.00000000005502
 30
0.0
 11
854.0000000000002
 21
-16.00000000005502
 31
0.0
  0
LINE
  5
3D5F
330
A
100
AcDbEntity
  8
0
  6
Continuous
 62
     7
370
     0
100
AcDbLine
 10
854.0000000000002
 20
-15.50000000005502
 30
0.0
 11
856.9999999999998
 21
-15.50000000005502
 31
0.0
  0
LINE
  5
3D60
330
A
100
AcDbEntity
  8
0
  6
Continuous
 62
     7
370
     0
100
AcDbLine
 10
854.0000000000002
 20
-16.00000000005502
 30
0.0
 11
856.0000000000002
 21
-16.00000000005502
 31
0.0
  0
ARC
  5
3D61
330
A
100
AcDbEntity
  8
0
  6
Continuous
 62
     9
370
     0
100
AcDbCircle
 10
0.0
 20
0.0
 30
0.0
 40
6.999999999999861
100
AcDbArc
 50
318.5903778907306
 51
41.40962210926987
  0
ARC
  5
3D62
330
A
100
AcDbEntity
  8
0
  6
Continuous
 62
     7
370
     0
100
AcDbCircle
 10
0.0
 20
-0.0000000000029559
 30
0.0
 40
9.999999999999834
100
AcDbArc
 50
301.6682432535412
 51
58.33175674645847
  0
LINE
  5
3D63
330
A
100
AcDbEntity
  8
0
  6
Continuous
 62
     7
370
     0
100
AcDbLine
 10
5.249999999999985
 20
-8.511022265277006
 30
0.0
 11
5.249999999999985
 21
-4.630064794363079
 31
0.0
  0
LINE
  5
3D64
330
A
100
AcDbEntity
  8
0
  6
Continuous
 62
     7
370
     0
100
AcDbLine
 10
5.249999999999985
 20
4.630064794363079
 30
0.0
 11
5.249999999999985
 21
8.511022265272004
 31
0.0
  0
ARC
  5
3D65
330
A
100
AcDbEntity
  8
0
  6
Continuous
 62
     9
370
     0
100
AcDbCircle
 10
0.0
 20
0.0
 30
0.0
 40
7.000000000000093
100
AcDbArc
 50
138.5903778907299
 51
221.4096221092697
  0
ARC
  5
3D66
330
A
100
AcDbEntity
  8
0
  6
Continuous
 62
     7
370
     0
100
AcDbCircle
 10
0.0
 20
-0.0000000000029559
 30
0.0
 40
10.00000000000007
100
AcDbArc
 50
121.6682432535412
 51
238.3317567464588
  0
LINE
  5
3D67
330
A
100
AcDbEntity
  8
0
  6
Continuous
 62
     7
370
     0
100
AcDbLine
 10
-5.25
 20
8.511022265272004
 30
0.0
 11
-5.25
 21
4.630064794363079
 31
0.0
  0
LINE
  5
3D68
330
A
100
AcDbEntity
  8
0
  6
Continuous
 62
     7
370
     0
100
AcDbLine
 10
-5.25
 20
-4.630064794363079
 30
0.0
 11
-5.25
 21
-8.511022265277006
 31
0.0
  0
LINE
  5
3D69
330
A
100
AcDbEntity
  8
0
  6
Continuous
 62
     7
370
     0
100
AcDbLine
 10
5.249999999999985
 20
-4.630064794363079
 30
0.0
 11
5.249999999999985
 21
4.630064794363079
 31
0.0
  0
LINE
  5
3D6A
330
A
100
AcDbEntity
  8
0
  6
Continuous
 62
     7
370
     0
100
AcDbLine
 10
-5.25
 20
4.630064794363079
 30
0.0
 11
-5.25
 21
-4.630064794363079
 31
0.0
  0
ARC
  5
3D6B
330
A
100
AcDbEntity
  8
0
  6
Continuous
 62
     7
370
     0
100
AcDbCircle
 10
0.0
 20
-0.0000000000181899
 30
0.0
 40
10.00000000000007
100
AcDbArc
 50
238.3317567464588
 51
301.6682432535412
  0
ARC
  5
3D6C
330
A
100
AcDbEntity
  8
0
  6
Continuous
 62
     7
370
     0
100
AcDbCircle
 10
0.0
 20
-0.0000000000181899
 30
0.0
 40
10.00000000000008
100
AcDbArc
 50
58.33175674645882
 51
121.6682432535412
  0
LINE
  5
3D6D
330
A
100
AcDbEntity
  8
0
  6
Continuous
 62
     7
370
     0
100
AcDbLine
 10
881.9999999999998
 20
-20.00000000005503
 30
0.0
 11
881.9999999999998
 21
19.99999999994497
 31
0.0
  0
LINE
  5
3D6E
330
A
100
AcDbEntity
  8
0
  6
Continuous
 62
     9
370
     0
100
AcDbLine
 10
878.0000000000002
 20
19.99999999994497
 30
0.0
 11
878.0000000000002
 21
-0.0000000000550244
 31
0.0
  0
LINE
  5
3D6F
330
A
100
AcDbEntity
  8
0
  6
Continuous
 62
     9
370
     0
100
AcDbLine
 10
878.0000000000002
 20
-0.0000000000550244
 30
0.0
 11
878.0000000000002
 21
-20.00000000005503
 31
0.0
  0
LINE
  5
3D70
330
A
100
AcDbEntity
  8
0
  6
Continuous
 62
     7
370
     0
100
AcDbLine
 10
876.9999999999999
 20
18.99999999994497
 30
0.0
 11
876.9999999999999
 21
-0.0000000000550244
 31
0.0
  0
LINE
  5
3D71
330
A
100
AcDbEntity
  8
0
  6
Continuous
 62
     7
370
     0
100
AcDbLine
 10
876.9999999999999
 20
-0.0000000000550244
 30
0.0
 11
876.9999999999999
 21
-19.00000000005502
 31
0.0
  0
LINE
  5
3D72
330
A
100
AcDbEntity
  8
0
  6
Continuous
 62
     9
370
     0
100
AcDbLine
 10
873.0000000000002
 20
-15.00000000005502
 30
0.0
 11
873.0000000000002
 21
-0.0000000000550244
 31
0.0
  0
LINE
  5
3D73
330
A
100
AcDbEntity
  8
0
  6
Continuous
 62
     9
370
     0
100
AcDbLine
 10
873.0000000000002
 20
-0.0000000000550244
 30
0.0
 11
873.0000000000002
 21
14.99999999994497
 31
0.0
  0
LINE
  5
3D74
330
A
100
AcDbEntity
  8
0
  6
Continuous
 62
     9
370
     0
100
AcDbLine
 10
846.0000000000002
 20
14.99999999994497
 30
0.0
 11
846.0000000000002
 21
-0.0000000000550244
 31
0.0
  0
LINE
  5
3D75
330
A
100
AcDbEntity
  8
0
  6
Continuous
 62
     9
370
     0
100
AcDbLine
 10
846.0000000000002
 20
-0.0000000000550244
 30
0.0
 11
846.0000000000002
 21
-15.00000000005502
 31
0.0
  0
LINE
  5
3D76
330
A
100
AcDbEntity
  8
0
  6
Continuous
 62
     7
370
     0
100
AcDbLine
 10
841.9999999999998
 20
-11.00000000005502
 30
0.0
 11
841.9999999999998
 21
-0.0000000000550244
 31
0.0
  0
LINE
  5
3D77
330
A
100
AcDbEntity
  8
0
  6
Continuous
 62
     7
370
     0
100
AcDbLine
 10
841.9999999999998
 20
-0.0000000000550244
 30
0.0
 11
841.9999999999998
 21
10.99999999994497
 31
0.0
  0
LINE
  5
3D78
330
A
100
AcDbEntity
  8
0
  6
Continuous
 62
     9
370
     0
100
AcDbLine
 10
-14.0
 20
14.99999999994497
 30
0.0
 11
-14.0
 21
-0.0000000000550244
 31
0.0
  0
LINE
  5
3D79
330
A
100
AcDbEntity
  8
0
  6
Continuous
 62
     7
370
     0
100
AcDbLine
 10
-18.0
 20
-11.00000000005502
 30
0.0
 11
-18.0
 21
-0.0000000000550244
 31
0.0
  0
LINE
  5
3D7A
330
A
100
AcDbEntity
  8
0
  6
Continuous
 62
     7
370
     0
100
AcDbLine
 10
-18.0
 20
-0.0000000000550244
 30
0.0
 11
-18.0
 21
10.99999999994497
 31
0.0
  0
LINE
  5
3D7B
330
A
100
AcDbEntity
  8
0
  6
Continuous
 62
     9
370
     0
100
AcDbLine
 10
-14.0
 20
-0.0000000000550244
 30
0.0
 11
-14.0
 21
-15.00000000005502
 31
0.0
  0
LINE
  5
3D7C
330
A
100
AcDbEntity
  8
0
  6
Continuous
 62
     9
370
     0
100
AcDbLine
 10
48.00000000000001
 20
-15.00000000005502
 30
0.0
 11
48.00000000000001
 21
14.99999999994497
 31
0.0
  0
ARC
  5
3D7D
330
A
100
AcDbEntity
  8
0
  6
Continuous
 62
     7
370
     0
100
AcDbCircle
 10
-0.0000253447937553
 20
-0.0000382725240797
 30
0.0
 40
10.25003827251128
100
AcDbArc
 50
22.97350950714268
 51
89.99985832738625
  0
ARC
  5
3D7E
330
A
100
AcDbEntity
  8
0
  6
Continuous
 62
     7
370
     0
100
AcDbCircle
 10
-0.00015769767721
 20
-0.0000000464949608
 30
0.0
 40
10.25015386239378
100
AcDbArc
 50
347.3548022623656
 51
12.67895443624994
  0
ARC
  5
3D7F
330
A
100
AcDbEntity
  8
0
  6
Continuous
 62
     7
370
     0
100
AcDbCircle
 10
0.0000000000000711
 20
-0.0000000000429736
 30
0.0
 40
10.24999999999894
100
AcDbArc
 50
90.0000000000004
 51
337.0221846138748
  0
LINE
  5
3D80
330
A
100
AcDbEntity
  8
0
  6
Continuous
 62
     7
370
     0
100
AcDbLine
 10
52.0
 20
10.99999999994497
 30
0.0
 11
52.0
 21
-11.00000000005502
 31
0.0
  0
LINE
  5
3D81
330
A
100
AcDbEntity
  8
0
  6
Continuous
 62
     9
370
     0
100
AcDbLine
 10
10.00000000249505
 20
3.375
 30
0.0
 11
9.413275281778751
 21
3.375
 31
0.0
  0
LINE
  5
3D82
330
A
100
AcDbEntity
  8
0
  6
Continuous
 62
     9
370
     0
100
AcDbLine
 10
5.249979999999993
 20
3.374999999994997
 30
0.0
 11
2.37500000249507
 21
3.374999999992951
 31
0.0
  0
LINE
  5
3D83
330
A
100
AcDbEntity
  8
0
  6
Continuous
 62
     9
370
     0
100
AcDbLine
 10
2.375000002501806
 20
-3.375000000007048
 30
0.0
 11
5.249979999999993
 21
-3.375000000005002
 31
0.0
  0
LINE
  5
3D84
330
A
100
AcDbEntity
  8
0
  6
Continuous
 62
     9
370
     0
100
AcDbLine
 10
9.41325528178298
 20
-3.375
 30
0.0
 11
9.413356908955236
 21
-3.375
 31
0.0
  0
LINE
  5
3D85
330
A
100
AcDbEntity
  8
0
  6
Continuous
 62
     9
370
     0
100
AcDbLine
 10
9.413376908955257
 20
-3.375
 30
0.0
 11
10.0000000025018
 21
-3.375
 31
0.0
  0
LINE
  5
3D86
330
A
100
AcDbEntity
  8
0
  6
Continuous
 62
     9
370
     0
100
AcDbLine
 10
851.5000000000002
 20
-15.00002000005497
 30
0.0
 11
851.5000000000002
 21
-15.75000000005502
 31
0.0
  0
LINE
  5
3D87
330
A
100
AcDbEntity
  8
0
  6
Continuous
 62
     9
370
     0
100
AcDbLine
 10
856.4999999999999
 20
-15.75000000005502
 30
0.0
 11
856.4999999999999
 21
-15.00002000005497
 31
0.0
  0
LINE
  5
3D88
330
A
100
AcDbEntity
  8
0
  6
Continuous
 62
     9
370
     0
100
AcDbLine
 10
9.165776095095381
 20
3.999994989999095
 30
0.0
 11
9.165153576452325
 21
3.999994989999095
 31
0.0
  0
LINE
  5
3D89
330
A
100
AcDbEntity
  8
0
  6
Continuous
 62
     7
370
     0
100
AcDbLine
 10
10.00000000249446
 20
4.0
 30
0.0
 11
9.167933091207785
 21
3.99999999999909
 31
0.0
  0
LINE
  5
3D8A
330
A
100
AcDbEntity
  8
0
  6
Continuous
 62
     7
370
     0
100
AcDbLine
 10
9.167933091207785
 20
3.99999999999909
 30
0.0
 11
9.166200254152826
 21
3.99999999999909
 31
0.0
  0
LINE
  5
3D8B
330
A
100
AcDbEntity
  8
0
  6
Continuous
 62
     7
370
     0
100
AcDbLine
 10
9.166200254152826
 20
3.99999999999909
 30
0.0
 11
9.165795457427392
 21
3.99999999999909
 31
0.0
  0
LINE
  5
3D8C
330
A
100
AcDbEntity
  8
0
  6
Continuous
 62
     7
370
     0
100
AcDbLine
 10
9.165776095095381
 20
3.99999999999909
 30
0.0
 11
9.165151389910676
 21
3.99999999999909
 31
0.0
  0
LINE
  5
3D8D
330
A
100
AcDbEntity
  8
0
  6
Continuous
 62
     7
370
     0
100
AcDbLine
 10
5.249980637667377
 20
3.999999999995907
 30
0.0
 11
3.000000002494417
 21
3.999999999992951
 31
0.0
  0
LINE
  5
3D8E
330
A
100
AcDbEntity
  8
0
  6
Continuous
 62
     7
370
     0
100
AcDbLine
 10
3.000000002502417
 20
-4.000000000007048
 30
0.0
 11
5.249980637675363
 21
-4.000000000004092
 31
0.0
  0
LINE
  5
3D8F
330
A
100
AcDbEntity
  8
0
  6
Continuous
 62
     7
370
     0
100
AcDbLine
 10
9.165172938789325
 20
-4.000000000000909
 30
0.0
 11
9.166417416831478
 21
-4.000000000000909
 31
0.0
  0
LINE
  5
3D90
330
A
100
AcDbEntity
  8
0
  6
Continuous
 62
     7
370
     0
100
AcDbLine
 10
9.166417416831478
 20
-4.000000000000909
 30
0.0
 11
9.167513226895096
 21
-4.000000000000909
 31
0.0
  0
LINE
  5
3D91
330
A
100
AcDbEntity
  8
0
  6
Continuous
 62
     7
370
     0
100
AcDbLine
 10
9.167513226895096
 20
-4.000000000000909
 30
0.0
 11
10.00000000250243
 21
-4.0
 31
0.0
  0
LINE
  5
3D92
330
A
100
AcDbEntity
  8
0
  6
Continuous
 62
     7
370
     0
100
AcDbLine
 10
3.000000002494417
 20
3.999999999992951
 30
0.0
 11
2.37500000249507
 21
3.374999999992951
 31
0.0
  0
LINE
  5
3D93
330
A
100
AcDbEntity
  8
0
  6
Continuous
 62
     7
370
     0
100
AcDbLine
 10
2.37500000249507
 20
3.374999999992951
 30
0.0
 11
2.000000002495426
 21
2.999999999992041
 31
0.0
  0
LINE
  5
3D94
330
A
100
AcDbEntity
  8
0
  6
Continuous
 62
     7
370
     0
100
AcDbLine
 10
2.000000002501423
 20
-3.000000000007958
 30
0.0
 11
2.375000002501806
 21
-3.375000000007048
 31
0.0
  0
LINE
  5
3D95
330
A
100
AcDbEntity
  8
0
  6
Continuous
 62
     7
370
     0
100
AcDbLine
 10
2.375000002501806
 20
-3.375000000007048
 30
0.0
 11
3.000000002502417
 21
-4.000000000007048
 31
0.0
  0
LINE
  5
3D96
330
A
100
AcDbEntity
  8
0
  6
Continuous
 62
     7
370
     0
100
AcDbLine
 10
850.9999999999999
 20
-15.50000000005502
 30
0.0
 11
851.5000000000002
 21
-15.75000000005502
 31
0.0
  0
LINE
  5
3D97
330
A
100
AcDbEntity
  8
0
  6
Continuous
 62
     7
370
     0
100
AcDbLine
 10
851.5000000000002
 20
-15.75000000005502
 30
0.0
 11
852.0000000000003
 21
-16.00000000005502
 31
0.0
  0
LINE
  5
3D98
330
A
100
AcDbEntity
  8
0
  6
Continuous
 62
     7
370
     0
100
AcDbLine
 10
856.0000000000002
 20
-16.00000000005502
 30
0.0
 11
856.4999999999999
 21
-15.75000000005502
 31
0.0
  0
LINE
  5
3D99
330
A
100
AcDbEntity
  8
0
  6
Continuous
 62
     7
370
     0
100
AcDbLine
 10
856.4999999999999
 20
-15.75000000005502
 30
0.0
 11
856.9999999999998
 21
-15.50000000005502
 31
0.0
  0
LINE
  5
3D9A
330
A
100
AcDbEntity
  8
0
  6
Continuous
 62
     7
370
     0
100
AcDbLine
 10
850.9999999999999
 20
-15.00001936238709
 30
0.0
 11
850.9999999999999
 21
-15.50000000005502
 31
0.0
  0
LINE
  5
3D9B
330
A
100
AcDbEntity
  8
0
  6
Continuous
 62
     7
370
     0
100
AcDbLine
 10
856.9999999999998
 20
-15.50000000005502
 30
0.0
 11
856.9999999999998
 21
-15.00001936238709
 31
0.0
  0
LINE
  5
3D9C
330
A
100
AcDbEntity
  8
0
  6
Continuous
 62
     7
370
     0
100
AcDbLine
 10
52.0
 20
-10.00000000005502
 30
0.0
 11
841.9999999999998
 21
-10.00000000005502
 31
0.0
  0
LINE
  5
3D9D
330
A
100
AcDbEntity
  8
0
  6
Continuous
 62
     7
370
     0
100
AcDbLine
 10
841.9999999999998
 20
9.999999999944975
 30
0.0
 11
52.00000000000011
 21
9.999999999944975
 31
0.0
  0
LINE
  5
3D9E
330
A
100
AcDbEntity
  8
0
  6
Continuous
 62
     7
370
     0
100
AcDbLine
 10
878.0000000000002
 20
-20.00000000005503
 30
0.0
 11
881.9999999999998
 21
-20.00000000005503
 31
0.0
  0
LINE
  5
3D9F
330
A
100
AcDbEntity
  8
0
  6
Continuous
 62
     7
370
     0
100
AcDbLine
 10
881.9999999999998
 20
19.99999999994497
 30
0.0
 11
878.0000000000002
 21
19.99999999994497
 31
0.0
  0
ARC
  5
3DA0
330
A
100
AcDbEntity
  8
0
  6
Continuous
 62
     7
370
     0
100
AcDbCircle
 10
878.0000000000002
 20
18.99999999994497
 30
0.0
 40
1.000000000000111
100
AcDbArc
 50
90.0
 51
180.0
  0
ARC
  5
3DA1
330
A
100
AcDbEntity
  8
0
  6
Continuous
 62
     7
370
     0
100
AcDbCircle
 10
878.0000000000002
 20
-19.00000000005502
 30
0.0
 40
1.000000000000111
100
AcDbArc
 50
180.0
 51
270.0
  0
ARC
  5
3DA2
330
A
100
AcDbEntity
  8
0
  6
Continuous
 62
     7
370
     0
100
AcDbCircle
 10
873.0000000000002
 20
18.99999999994497
 30
0.0
 40
4.000000000000002
100
AcDbArc
 50
270.0
 51
0.0
  0
ARC
  5
3DA3
330
A
100
AcDbEntity
  8
0
  6
Continuous
 62
     7
370
     0
100
AcDbCircle
 10
873.0000000000002
 20
-19.00000000005502
 30
0.0
 40
4.000000000000002
100
AcDbArc
 50
0.0
 51
90.0
  0
LINE
  5
3DA4
330
A
100
AcDbEntity
  8
0
  6
Continuous
 62
     7
370
     0
100
AcDbLine
 10
856.9999999999998
 20
-15.00000000005502
 30
0.0
 11
873.0000000000002
 21
-15.00000000005502
 31
0.0
  0
LINE
  5
3DA5
330
A
100
AcDbEntity
  8
0
  6
Continuous
 62
     7
370
     0
100
AcDbLine
 10
846.0000000000002
 20
-15.00000000005502
 30
0.0
 11
850.9999999999999
 21
-15.00000000005502
 31
0.0
  0
LINE
  5
3DA6
330
A
100
AcDbEntity
  8
0
  6
Continuous
 62
     7
370
     0
100
AcDbLine
 10
873.0000000000002
 20
14.99999999994497
 30
0.0
 11
846.0000000000002
 21
14.99999999994497
 31
0.0
  0
ARC
  5
3DA7
330
A
100
AcDbEntity
  8
0
  6
Continuous
 62
     7
370
     0
100
AcDbCircle
 10
846.0000000000002
 20
10.99999999994497
 30
0.0
 40
4.000000000000002
100
AcDbArc
 50
90.0
 51
180.0
  0
ARC
  5
3DA8
330
A
100
AcDbEntity
  8
0
  6
Continuous
 62
     7
370
     0
100
AcDbCircle
 10
846.0000000000002
 20
-11.00000000005502
 30
0.0
 40
4.000000000000002
100
AcDbArc
 50
180.0
 51
270.0
  0
ARC
  5
3DA9
330
A
100
AcDbEntity
  8
0
  6
Continuous
 62
     7
370
     0
100
AcDbCircle
 10
-14.0
 20
10.99999999994497
 30
0.0
 40
4.000000000000002
100
AcDbArc
 50
90.0
 51
180.0
  0
ARC
  5
3DAA
330
A
100
AcDbEntity
  8
0
  6
Continuous
 62
     7
370
     0
100
AcDbCircle
 10
-14.0
 20
-11.00000000005502
 30
0.0
 40
4.000000000000002
100
AcDbArc
 50
180.0
 51
270.0
  0
LINE
  5
3DAB
330
A
100
AcDbEntity
  8
0
  6
Continuous
 62
     7
370
     0
100
AcDbLine
 10
-14.0
 20
-15.00000000005502
 30
0.0
 11
48.00000000000001
 21
-15.00000000005502
 31
0.0
  0
LINE
  5
3DAC
330
A
100
AcDbEntity
  8
0
  6
Continuous
 62
     7
370
     0
100
AcDbLine
 10
48.00000000000001
 20
14.99999999994497
 30
0.0
 11
-14.0
 21
14.99999999994497
 31
0.0
  0
ARC
  5
3DAD
330
A
100
AcDbEntity
  8
0
  6
Continuous
 62
     7
370
     0
100
AcDbCircle
 10
48.00000000000001
 20
-11.00000000005502
 30
0.0
 40
4.000000000000002
100
AcDbArc
 50
270.0
 51
0.0
  0
ARC
  5
3DAE
330
A
100
AcDbEntity
  8
0
  6
Continuous
 62
     7
370
     0
100
AcDbCircle
 10
48.00000000000001
 20
10.99999999994497
 30
0.0
 40
4.000000000000002
100
AcDbArc
 50
0.0
 51
90.0
  0
ARC
  5
3DAF
330
A
100
AcDbEntity
  8
0
  6
Continuous
 62
     9
370
     0
100
AcDbCircle
 10
19.16576856610189
 20
-152.350411990933
 30
0.0
 40
10.00056365048306
100
AcDbArc
 50
156.4232622130045
 51
203.5767377870026
  0
ARC
  5
3DB0
330
A
100
AcDbEntity
  8
0
  6
Continuous
 62
     9
370
     0
100
AcDbCircle
 10
40.00000000000001
 20
-137.0475582103279
 30
0.0
 40
15.00020256310876
100
AcDbArc
 50
78.46321843394516
 51
101.5367815660556
  0
LINE
  5
3DB1
330
A
100
AcDbEntity
  8
0
  6
Continuous
 62
     7
370
     0
100
AcDbLine
 10
10.00000000275472
 20
-148.3504119909221
 30
0.0
 11
10.00000000275462
 21
-148.351782691019
 31
0.0
  0
LINE
  5
3DB2
330
A
100
AcDbEntity
  8
0
  6
Continuous
 62
     7
370
     0
100
AcDbLine
 10
10.00000000275462
 20
-148.351782691019
 30
0.0
 11
10.00000000224224
 21
-156.3504119909221
 31
0.0
  0
LINE
  5
3DB3
330
A
100
AcDbEntity
  8
0
  6
Continuous
 62
     7
370
     0
100
AcDbLine
 10
3.000000002754731
 20
-148.350411990473
 30
0.0
 11
3.000000002242245
 21
-156.350411990473
 31
0.0
  0
LINE
  5
3DB4
330
A
100
AcDbEntity
  8
0
  6
Continuous
 62
     7
370
     0
100
AcDbLine
 10
2.000000002306322
 20
-155.3504119904089
 30
0.0
 11
2.000000002690654
 21
-149.3504119904089
 31
0.0
  0
LINE
  5
3DB5
330
A
100
AcDbEntity
  8
0
  6
Continuous
 62
     7
370
     0
100
AcDbLine
 10
37.00000000000001
 20
-122.850411990933
 30
0.0
 11
40.00000000000001
 21
-122.850411990933
 31
0.0
  0
LINE
  5
3DB6
330
A
100
AcDbEntity
  8
0
  6
Continuous
 62
     7
370
     0
100
AcDbLine
 10
38.00000000000002
 20
-123.350411990933
 30
0.0
 11
40.00000000000001
 21
-123.350411990933
 31
0.0
  0
LINE
  5
3DB7
330
A
100
AcDbEntity
  8
0
  6
Continuous
 62
     7
370
     0
100
AcDbLine
 10
40.00000000000001
 20
-122.850411990933
 30
0.0
 11
43.00000000000001
 21
-122.850411990933
 31
0.0
  0
LINE
  5
3DB8
330
A
100
AcDbEntity
  8
0
  6
Continuous
 62
     7
370
     0
100
AcDbLine
 10
40.00000000000001
 20
-123.350411990933
 30
0.0
 11
42.00000000000001
 21
-123.350411990933
 31
0.0
  0
LINE
  5
3DB9
330
A
100
AcDbEntity
  8
0
  6
Continuous
 62
     9
370
     0
100
AcDbLine
 10
-9.999999999999857
 20
-159.350411990933
 30
0.0
 11
-5.249999999999957
 21
-159.350411990933
 31
0.0
  0
LINE
  5
3DBA
330
A
100
AcDbEntity
  8
0
  6
Continuous
 62
     9
370
     0
100
AcDbLine
 10
5.25
 20
-159.350411990933
 30
0.0
 11
9.999999999999957
 21
-159.350411990933
 31
0.0
  0
LINE
  5
3DBB
330
A
100
AcDbEntity
  8
0
  6
Continuous
 62
     7
370
     0
100
AcDbLine
 10
5.25
 20
-159.3504119909239
 30
0.0
 11
5.25
 21
-144.3504119909248
 31
0.0
  0
LINE
  5
3DBC
330
A
100
AcDbEntity
  8
0
  6
Continuous
 62
     7
370
     0
100
AcDbLine
 10
5.25
 20
-144.350411990933
 30
0.0
 11
-5.249999999999957
 21
-144.350411990933
 31
0.0
  0
LINE
  5
3DBD
330
A
100
AcDbEntity
  8
0
  6
Continuous
 62
     7
370
     0
100
AcDbLine
 10
-5.249999999999957
 20
-144.3504119909248
 30
0.0
 11
-5.249999999999957
 21
-159.3504119909248
 31
0.0
  0
LINE
  5
3DBE
330
A
100
AcDbEntity
  8
0
  6
Continuous
 62
     7
370
     0
100
AcDbLine
 10
-5.249999999999957
 20
-162.350411990933
 30
0.0
 11
-6.999999999999857
 21
-162.350411990933
 31
0.0
  0
LINE
  5
3DBF
330
A
100
AcDbEntity
  8
0
  6
Continuous
 62
     7
370
     0
100
AcDbLine
 10
-5.249999999999957
 20
-159.3504119909239
 30
0.0
 11
-5.249999999999957
 21
-162.3504119909291
 31
0.0
  0
LINE
  5
3DC0
330
A
100
AcDbEntity
  8
0
  6
Continuous
 62
     7
370
     0
100
AcDbLine
 10
7.000000000000042
 20
-162.350411990933
 30
0.0
 11
5.25
 21
-162.350411990933
 31
0.0
  0
LINE
  5
3DC1
330
A
100
AcDbEntity
  8
0
  6
Continuous
 62
     7
370
     0
100
AcDbLine
 10
5.25
 20
-162.3504119909291
 30
0.0
 11
5.25
 21
-159.3504119909248
 31
0.0
  0
LINE
  5
3DC2
330
A
100
AcDbEntity
  8
0
  6
Continuous
 62
     7
370
     0
100
AcDbLine
 10
882.0000000000002
 20
-127.350411996058
 30
0.0
 11
882.0000000000002
 21
-87.35041199605802
 31
0.0
  0
LINE
  5
3DC3
330
A
100
AcDbEntity
  8
0
  6
Continuous
 62
     9
370
     0
100
AcDbLine
 10
878.0000000000002
 20
-87.35041199605802
 30
0.0
 11
878.0000000000002
 21
-127.350411996058
 31
0.0
  0
LINE
  5
3DC4
330
A
100
AcDbEntity
  8
0
  6
Continuous
 62
     7
370
     0
100
AcDbLine
 10
877.0000000000003
 20
-88.35041199605802
 30
0.0
 11
877.0000000000003
 21
-126.350411996058
 31
0.0
  0
LINE
  5
3DC5
330
A
100
AcDbEntity
  8
0
  6
Continuous
 62
     9
370
     0
100
AcDbLine
 10
873.0000000000002
 20
-122.350411996058
 30
0.0
 11
873.0000000000002
 21
-92.35041199605802
 31
0.0
  0
LINE
  5
3DC6
330
A
100
AcDbEntity
  8
0
  6
Continuous
 62
     9
370
     0
100
AcDbLine
 10
846.0000000000002
 20
-92.35041199605802
 30
0.0
 11
846.0000000000002
 21
-122.350411996058
 31
0.0
  0
LINE
  5
3DC7
330
A
100
AcDbEntity
  8
0
  6
Continuous
 62
     7
370
     0
100
AcDbLine
 10
842.0000000000001
 20
-118.350411996058
 30
0.0
 11
842.0000000000001
 21
-96.35041199605803
 31
0.0
  0
LINE
  5
3DC8
330
A
100
AcDbEntity
  8
0
  6
Continuous
 62
     9
370
     0
100
AcDbLine
 10
48.0000000000001
 20
-122.350411990933
 30
0.0
 11
48.0000000000001
 21
-92.35041199093302
 31
0.0
  0
LINE
  5
3DC9
330
A
100
AcDbEntity
  8
0
  6
Continuous
 62
     7
370
     0
100
AcDbLine
 10
52.00000000000011
 20
-96.35041199093302
 30
0.0
 11
52.00000000000011
 21
-118.350411990933
 31
0.0
  0
LINE
  5
3DD0
330
A
100
AcDbEntity
  8
0
  6
Continuous
 62
     9
370
     0
100
AcDbLine
 10
-13.99999999999998
 20
-92.35041199093302
 30
0.0
 11
-13.99999999999998
 21
-122.350411990933
 31
0.0
  0
LINE
  5
3DD6
330
A
100
AcDbEntity
  8
0
  6
Continuous
 62
     7
370
     0
100
AcDbLine
 10
-17.99999999999998
 20
-118.350411990933
 30
0.0
 11
-17.99999999999998
 21
-96.35041199093302
 31
0.0
  0
LINE
  5
3DD7
330
A
100
AcDbEntity
  8
0
  6
Continuous
 62
     9
370
     0
100
AcDbLine
 10
5.25
 20
-148.9754119906169
 30
0.0
 11
2.375000002714642
 21
-148.975411990433
 31
0.0
  0
LINE
  5
3DD8
330
A
100
AcDbEntity
  8
0
  6
Continuous
 62
     9
370
     0
100
AcDbLine
 10
2.375000002282234
 20
-155.725411990433
 30
0.0
 11
5.25
 21
-155.7254119906169
 31
0.0
  0
LINE
  5
3DD9
330
A
100
AcDbEntity
  8
0
  6
Continuous
 62
     9
370
     0
100
AcDbLine
 10
37.50000000000002
 20
-122.350431990933
 30
0.0
 11
37.50000000000002
 21
-123.100411990933
 31
0.0
  0
LINE
  5
3DDA
330
A
100
AcDbEntity
  8
0
  6
Continuous
 62
     9
370
     0
100
AcDbLine
 10
42.50000000000001
 20
-123.100411990933
 30
0.0
 11
42.50000000000001
 21
-122.350431990933
 31
0.0
  0
LINE
  5
3DDB
330
A
100
AcDbEntity
  8
0
  6
Continuous
 62
     7
370
     0
100
AcDbLine
 10
5.25
 20
-148.350411990617
 30
0.0
 11
3.000000002754731
 21
-148.350411990473
 31
0.0
  0
LINE
  5
3DDC
330
A
100
AcDbEntity
  8
0
  6
Continuous
 62
     7
370
     0
100
AcDbLine
 10
3.000000002242245
 20
-156.350411990473
 30
0.0
 11
5.25
 21
-156.350411990617
 31
0.0
  0
LINE
  5
3DDD
330
A
100
AcDbEntity
  8
0
  6
Continuous
 62
     7
370
     0
100
AcDbLine
 10
3.000000002754731
 20
-148.350411990473
 30
0.0
 11
2.375000002714642
 21
-148.975411990433
 31
0.0
  0
LINE
  5
3DDE
330
A
100
AcDbEntity
  8
0
  6
Continuous
 62
     7
370
     0
100
AcDbLine
 10
2.375000002714642
 20
-148.975411990433
 30
0.0
 11
2.000000002690654
 21
-149.3504119904089
 31
0.0
  0
LINE
  5
3DDF
330
A
100
AcDbEntity
  8
0
  6
Continuous
 62
     7
370
     0
100
AcDbLine
 10
2.000000002306322
 20
-155.3504119904089
 30
0.0
 11
2.375000002282234
 21
-155.725411990433
 31
0.0
  0
LINE
  5
3DE0
330
A
100
AcDbEntity
  8
0
  6
Continuous
 62
     7
370
     0
100
AcDbLine
 10
2.375000002282234
 20
-155.725411990433
 30
0.0
 11
3.000000002242245
 21
-156.350411990473
 31
0.0
  0
LINE
  5
3DE1
330
A
100
AcDbEntity
  8
0
  6
Continuous
 62
     7
370
     0
100
AcDbLine
 10
37.00000000000001
 20
-122.850411990933
 30
0.0
 11
37.50000000000002
 21
-123.100411990933
 31
0.0
  0
LINE
  5
3DE2
330
A
100
AcDbEntity
  8
0
  6
Continuous
 62
     7
370
     0
100
AcDbLine
 10
37.50000000000002
 20
-123.100411990933
 30
0.0
 11
38.00000000000002
 21
-123.350411990933
 31
0.0
  0
LINE
  5
3DE3
330
A
100
AcDbEntity
  8
0
  6
Continuous
 62
     7
370
     0
100
AcDbLine
 10
42.00000000000001
 20
-123.350411990933
 30
0.0
 11
42.50000000000001
 21
-123.100411990933
 31
0.0
  0
LINE
  5
3DE4
330
A
100
AcDbEntity
  8
0
  6
Continuous
 62
     7
370
     0
100
AcDbLine
 10
42.50000000000001
 20
-123.100411990933
 30
0.0
 11
43.00000000000001
 21
-122.850411990933
 31
0.0
  0
LINE
  5
3DE5
330
A
100
AcDbEntity
  8
0
  6
Continuous
 62
     7
370
     0
100
AcDbLine
 10
37.00000000000001
 20
-122.3504313532651
 30
0.0
 11
37.00000000000001
 21
-122.850411990933
 31
0.0
  0
LINE
  5
3DE6
330
A
100
AcDbEntity
  8
0
  6
Continuous
 62
     7
370
     0
100
AcDbLine
 10
43.00000000000001
 20
-122.850411990933
 30
0.0
 11
43.00000000000001
 21
-122.3508768956619
 31
0.0
  0
LINE
  5
3DE7
330
A
100
AcDbEntity
  8
0
  6
Continuous
 62
     7
370
     0
100
AcDbLine
 10
43.00000000000001
 20
-122.3508768956619
 30
0.0
 11
43.00000000000001
 21
-122.3504313532651
 31
0.0
  0
LINE
  5
3DE8
330
A
100
AcDbEntity
  8
0
  6
Continuous
 62
     7
370
     0
100
AcDbLine
 10
52.00000000000011
 20
-117.350411986346
 30
0.0
 11
841.9999999999998
 21
-117.3504119955901
 31
0.0
  0
LINE
  5
3DE9
330
A
100
AcDbEntity
  8
0
  6
Continuous
 62
     7
370
     0
100
AcDbLine
 10
842.0000000000001
 20
-97.3504119955901
 30
0.0
 11
52.0000000000002
 21
-97.35041198634599
 31
0.0
  0
LINE
  5
3DEA
330
A
100
AcDbEntity
  8
0
  6
Continuous
 62
     7
370
     0
100
AcDbLine
 10
10.00000000000003
 20
-148.352111174727
 30
0.0
 11
10.00000000000003
 21
-148.3507298295219
 31
0.0
  0
LINE
  5
3DEB
330
A
100
AcDbEntity
  8
0
  6
Continuous
 62
     7
370
     0
100
AcDbLine
 10
10.00000000000003
 20
-148.3504119909221
 30
0.0
 11
10.00000000000003
 21
-122.180702337974
 31
0.0
  0
LINE
  5
3DEC
330
A
100
AcDbEntity
  8
0
  6
Continuous
 62
     7
370
     0
100
AcDbLine
 10
10.00000000000003
 20
-159.350411990933
 30
0.0
 11
10.00000000000003
 21
-156.3504119909221
 31
0.0
  0
LINE
  5
3DED
330
A
100
AcDbEntity
  8
0
  6
Continuous
 62
     7
370
     0
100
AcDbLine
 10
10.00000000000003
 20
-156.3500701752571
 30
0.0
 11
10.00000000000003
 21
-156.3489840916629
 31
0.0
  0
LINE
  5
3DEE
330
A
100
AcDbEntity
  8
0
  6
Continuous
 62
     7
370
     0
100
AcDbLine
 10
-9.999999999999971
 20
-122.180724169744
 30
0.0
 11
-9.999999999999971
 21
-159.350411990933
 31
0.0
  0
ARC
  5
3DEF
330
A
100
AcDbEntity
  8
0
  6
Continuous
 62
     7
370
     0
100
AcDbCircle
 10
-6.999999999999957
 20
-159.350411990933
 30
0.0
 40
3.000000000000001
100
AcDbArc
 50
180.0
 51
270.0
  0
ARC
  5
3DF0
330
A
100
AcDbEntity
  8
0
  6
Continuous
 62
     7
370
     0
100
AcDbCircle
 10
7.000000000000042
 20
-159.350411990933
 30
0.0
 40
2.99999999999989
100
AcDbArc
 50
270.0
 51
0.0
  0
LINE
  5
3DF1
330
A
100
AcDbEntity
  8
0
  6
Continuous
 62
     7
370
     0
100
AcDbLine
 10
878.0000000000002
 20
-127.350411996058
 30
0.0
 11
882.0000000000002
 21
-127.350411996058
 31
0.0
  0
LINE
  5
3DF2
330
A
100
AcDbEntity
  8
0
  6
Continuous
 62
     7
370
     0
100
AcDbLine
 10
882.0000000000002
 20
-87.35041199605802
 30
0.0
 11
878.0000000000002
 21
-87.35041199605802
 31
0.0
  0
ARC
  5
3DF3
330
A
100
AcDbEntity
  8
0
  6
Continuous
 62
     7
370
     0
100
AcDbCircle
 10
878.0000000000002
 20
-88.35041199605802
 30
0.0
 40
1.000000000000111
100
AcDbArc
 50
90.0
 51
180.0
  0
ARC
  5
3DF4
330
A
100
AcDbEntity
  8
0
  6
Continuous
 62
     7
370
     0
100
AcDbCircle
 10
878.0000000000002
 20
-126.350411996058
 30
0.0
 40
1.000000000000111
100
AcDbArc
 50
180.0
 51
270.0
  0
ARC
  5
3DF5
330
A
100
AcDbEntity
  8
0
  6
Continuous
 62
     7
370
     0
100
AcDbCircle
 10
873.0000000000002
 20
-88.35041199605802
 30
0.0
 40
4.000000000000002
100
AcDbArc
 50
270.0
 51
0.0
  0
ARC
  5
3DF6
330
A
100
AcDbEntity
  8
0
  6
Continuous
 62
     7
370
     0
100
AcDbCircle
 10
873.0000000000002
 20
-126.350411996058
 30
0.0
 40
4.000000000000002
100
AcDbArc
 50
0.0
 51
90.0
  0
LINE
  5
3DF7
330
A
100
AcDbEntity
  8
0
  6
Continuous
 62
     7
370
     0
100
AcDbLine
 10
846.0000000000002
 20
-122.350411996058
 30
0.0
 11
873.0000000000002
 21
-122.350411996058
 31
0.0
  0
LINE
  5
3DF8
330
A
100
AcDbEntity
  8
0
  6
Continuous
 62
     7
370
     0
100
AcDbLine
 10
873.0000000000002
 20
-92.35041199605802
 30
0.0
 11
846.0000000000002
 21
-92.35041199605802
 31
0.0
  0
ARC
  5
3DF9
330
A
100
AcDbEntity
  8
0
  6
Continuous
 62
     7
370
     0
100
AcDbCircle
 10
846.0000000000002
 20
-96.35041199605803
 30
0.0
 40
4.000000000000002
100
AcDbArc
 50
90.0
 51
180.0
  0
ARC
  5
3DFA
330
A
100
AcDbEntity
  8
0
  6
Continuous
 62
     7
370
     0
100
AcDbCircle
 10
846.0000000000002
 20
-118.350411996058
 30
0.0
 40
4.000000000000002
100
AcDbArc
 50
180.0
 51
270.0
  0
ARC
  5
3DFB
330
A
100
AcDbEntity
  8
0
  6
Continuous
 62
     7
370
     0
100
AcDbCircle
 10
48.0000000000001
 20
-118.350411990933
 30
0.0
 40
4.000000000000002
100
AcDbArc
 50
270.0
 51
0.0
  0
ARC
  5
3DFC
330
A
100
AcDbEntity
  8
0
  6
Continuous
 62
     7
370
     0
100
AcDbCircle
 10
48.0000000000001
 20
-96.35041199093302
 30
0.0
 40
4.000000000000002
100
AcDbArc
 50
0.0
 51
90.0
  0
LINE
  5
3DFD
330
A
100
AcDbEntity
  8
0
  6
Continuous
 62
     7
370
     0
100
AcDbLine
 10
43.00000000000001
 20
-122.350411990933
 30
0.0
 11
48.0000000000001
 21
-122.350411990933
 31
0.0
  0
LINE
  5
3DFE
330
A
100
AcDbEntity
  8
0
  6
Continuous
 62
     7
370
     0
100
AcDbLine
 10
10.24916077347763
 20
-122.350411990933
 30
0.0
 11
10.25000000000001
 21
-122.350411990933
 31
0.0
  0
LINE
  5
3DFF
330
A
100
AcDbEntity
  8
0
  6
Continuous
 62
     7
370
     0
100
AcDbLine
 10
10.25000000000001
 20
-122.350411990933
 30
0.0
 11
37.00000000000001
 21
-122.350411990933
 31
0.0
  0
LINE
  5
3E00
330
A
100
AcDbEntity
  8
0
  6
Continuous
 62
     7
370
     0
100
AcDbLine
 10
-13.99999999999998
 20
-122.350411990933
 30
0.0
 11
-10.24999999999995
 21
-122.350411990933
 31
0.0
  0
LINE
  5
3E01
330
A
100
AcDbEntity
  8
0
  6
Continuous
 62
     7
370
     0
100
AcDbLine
 10
-10.24999999999995
 20
-122.350411990933
 30
0.0
 11
-10.24869605532515
 21
-122.350411990933
 31
0.0
  0
LINE
  5
3E02
330
A
100
AcDbEntity
  8
0
  6
Continuous
 62
     7
370
     0
100
AcDbLine
 10
48.0000000000001
 20
-92.35041199093302
 30
0.0
 11
-13.99999999999998
 21
-92.35041199093302
 31
0.0
  0
ARC
  5
3E03
330
A
100
AcDbEntity
  8
0
  6
Continuous
 62
     7
370
     0
100
AcDbCircle
 10
-13.99999999999998
 20
-96.35041199093302
 30
0.0
 40
4.000000000000002
100
AcDbArc
 50
90.0
 51
180.0
  0
ARC
  5
3E04
330
A
100
AcDbEntity
  8
0
  6
Continuous
 62
     7
370
     0
100
AcDbCircle
 10
-13.99999999999998
 20
-118.350411990933
 30
0.0
 40
4.000000000000002
100
AcDbArc
 50
180.0
 51
270.0
  0
TEXT
  5
5ED9
330
A
100
AcDbEntity
  8
0
  6
Continuous
 62
     7
370
     0
100
AcDbText
 10
-101.9221759207117
 20
-69.99267935583794
 30
0.0
 40
10.0
  1
5F01
100
AcDbText
  0
ARC
  5
5F6B
330
A
100
AcDbEntity
  8
0
  6
Continuous
 62
     7
370
     0
100
AcDbCircle
 10
236.2626857663354
 20
-587.0198864100423
 30
0.0
 40
10.94976588047504
100
AcDbArc
 50
315.5338950387396
 51
33.83599160171481
  0
ARC
  5
5F6C
330
A
100
AcDbEntity
  8
0
  6
Continuous
 62
     7
370
     0
100
AcDbCircle
 10
233.8027419046887
 20
-587.5759121264591
 30
0.0
 40
13.33363066906807
100
AcDbArc
 50
29.9317073500334
 51
77.30598818261832
  0
ARC
  5
5F6D
330
A
100
AcDbEntity
  8
0
  6
Continuous
 62
     7
370
     0
100
AcDbCircle
 10
213.5291208487304
 20
-602.5321508629781
 30
0.0
 40
10.75248742022473
100
AcDbArc
 50
132.0862980496902
 51
211.3895748226503
  0
ARC
  5
5F6E
330
A
100
AcDbEntity
  8
0
  6
Continuous
 62
     7
370
     0
100
AcDbCircle
 10
216.2131608688075
 20
-601.9823171281111
 30
0.0
 40
13.36239663174911
100
AcDbArc
 50
207.4045455994415
 51
257.2799893069137
  0
ARC
  5
5F6F
330
A
100
AcDbEntity
  8
0
  6
Continuous
 62
     7
370
     0
100
AcDbCircle
 10
215.8335718779624
 20
-636.9123941212324
 30
0.0
 40
5.077652987470936
100
AcDbArc
 50
197.9920779506721
 51
262.3429844475846
  0
ARC
  5
5F70
330
A
100
AcDbEntity
  8
0
  6
Continuous
 62
     7
370
     0
100
AcDbCircle
 10
218.9431065364204
 20
-627.134330186295
 30
0.0
 40
15.2867163907568
100
AcDbArc
 50
255.6601918652427
 51
280.2358868808351
  0
ARC
  5
5F71
330
A
100
AcDbEntity
  8
0
  6
Continuous
 62
     7
370
     0
100
AcDbCircle
 10
224.8565229808644
 20
-636.9773568554083
 30
0.0
 40
2.219073327496905
100
AcDbArc
 50
250.3698183015726
 51
328.1386094553524
  0
ARC
  5
5F72
330
A
100
AcDbEntity
  8
0
  6
Continuous
 62
     7
370
     0
100
AcDbCircle
 10
225.1853121089975
 20
-637.4570162884642
 30
0.0
 40
1.702759537380751
100
AcDbArc
 50
336.0316907860746
 51
0.4575404160429117
  0
ARC
  5
5F73
330
A
100
AcDbEntity
  8
0
  6
Continuous
 62
     7
370
     0
100
AcDbCircle
 10
221.5043050474026
 20
-640.5386114631012
 30
0.0
 40
1.627358079774976
100
AcDbArc
 50
317.9312066396906
 51
0.9839754708269
  0
LINE
  5
5F74
330
A
100
AcDbEntity
  8
0
  6
Continuous
 62
     7
370
     0
100
AcDbLine
 10
222.7123594837956
 20
-641.6289778228713
 30
0.0
 11
222.5675745010114
 21
-641.7679392294322
 31
0.0
  0
ARC
  5
5F75
330
A
100
AcDbEntity
  8
0
  6
Continuous
 62
     7
370
     0
100
AcDbCircle
 10
221.3449774448284
 20
-640.2699339094802
 30
0.0
 40
1.933588244790096
100
AcDbArc
 50
279.3512952709567
 51
309.2196042141981
  0
ARC
  5
5F76
330
A
100
AcDbEntity
  8
0
  6
Continuous
 62
     7
370
     0
100
AcDbCircle
 10
-1.702872034250589
 20
-137.4935088706761
 30
0.0
 40
19.26689908190794
100
AcDbArc
 50
52.91247956935212
 51
84.92939392328237
  0
ARC
  5
5F77
330
A
100
AcDbEntity
  8
0
  6
Continuous
 62
     7
370
     0
100
AcDbCircle
 10
-17.13547040912026
 20
-162.423595600387
 30
0.0
 40
48.53683172731585
100
AcDbArc
 50
55.65182829633656
 51
56.1284141314228
  0
ARC
  5
5F78
330
A
100
AcDbEntity
  8
0
  6
Continuous
 62
     7
370
     0
100
AcDbCircle
 10
2.720393559344842
 20
-139.7510722668469
 30
0.0
 40
21.70285896194457
100
AcDbArc
 50
99.20774863355395
 51
126.7007220357204
  0
LINE
  5
5F79
330
A
100
AcDbEntity
  8
0
  6
Continuous
 62
     7
370
     0
100
AcDbLine
 10
-0.7523825966022458
 20
-118.327862589193
 30
0.0
 11
-0.376545247491606
 21
-118.3085200419468
 31
0.0
  0
LINE
  5
5F7A
330
A
100
AcDbEntity
  8
0
  6
Continuous
 62
     7
370
     0
100
AcDbLine
 10
-0.376545247491606
 20
-118.3085200419468
 30
0.0
 11
0.0000000000000426
 21
-118.3020100478279
 31
0.0
  0
LINE
  5
6335
330
A
100
AcDbEntity
  8
0
  6
Continuous
370
     0
100
AcDbLine
 10
0.0000000000000711
 20
-0.0000000000429736
 30
0.0
 11
0.0000000000000711
 21
-0.0000000000429736
 31
0.0
  0
ENDSEC
  0
SECTION
  2
OBJECTS
  0
DICTIONARY
  5
19
330
0
100
AcDbDictionary
281
     1
  3
ACAD_COLOR
350
3176
  3
ACAD_GROUP
350
1A
  3
ACAD_LAYOUT
350
1E
  3
ACAD_MATERIAL
350
314C
  3
ACAD_MLEADERSTYLE
350
319B
  3
ACAD_MLINESTYLE
350
1B
  3
ACAD_PLOTSETTINGS
350
22
  3
ACAD_PLOTSTYLENAME
350
1F
  3
ACAD_SCALELIST
350
3179
  3
ACAD_TABLESTYLE
350
3177
  3
ACAD_VISUALSTYLE
350
3165
  3
ACAD_WIPEOUT_VARS
350
23
  3
ACDB_RECOMPOSE_DATA
350
630A
  3
AcDbVariableDictionary
350
630B
  3
ASE_INDEX_DICTIONARY
350
5E44
  3
DWGPROPS
350
6347
  0
DICTIONARY
  5
5E41
330
14
100
AcDbDictionary
280
     1
281
     1
  3
ADSK_XREC_LAYER_RECONCILED
360
5E42
  0
DICTIONARY
  5
31A7
330
A
100
AcDbDictionary
280
     1
281
     1
  3
ACAD_SORTENTS
360
31A8
  0
DICTIONARY
  5
3176
102
{ACAD_REACTORS
330
19
102
}
330
19
100
AcDbDictionary
281
     1
  0
DICTIONARY
  5
1A
102
{ACAD_REACTORS
330
19
102
}
330
19
100
AcDbDictionary
281
     1
  0
DICTIONARY
  5
1E
102
{ACAD_REACTORS
330
19
102
}
330
19
100
AcDbDictionary
281
     1
  3
Layout1
350
21
  3
Model
350
20
  0
DICTIONARY
  5
314C
102
{ACAD_REACTORS
330
19
102
}
330
19
100
AcDbDictionary
281
     1
  3
ByBlock
350
3155
  3
ByLayer
350
314D
  3
Global
350
315D
  0
DICTIONARY
  5
319B
102
{ACAD_REACTORS
330
19
102
}
330
19
100
AcDbDictionary
281
     1
  3
Standard
350
319C
  0
DICTIONARY
  5
1B
102
{ACAD_REACTORS
330
19
102
}
330
19
100
AcDbDictionary
281
     1
  3
Standard
350
1C
  0
DICTIONARY
  5
22
102
{ACAD_REACTORS
330
19
102
}
330
19
100
AcDbDictionary
281
     1
  0
ACDBDICTIONARYWDFLT
  5
1F
102
{ACAD_REACTORS
330
19
102
}
330
19
100
AcDbDictionary
281
     1
  3
Normal
350
1D
100
AcDbDictionaryWithDefault
340
1D
  0
DICTIONARY
  5
3179
102
{ACAD_REACTORS
330
19
102
}
330
19
100
AcDbDictionary
281
     1
  3
A0
350
317A
  3
A1
350
317B
  3
A2
350
317C
  3
A3
350
317D
  3
A4
350
317E
  3
A5
350
317F
  3
A6
350
3180
  3
A7
350
3181
  3
A8
350
3182
  3
A9
350
3183
  3
B0
350
3184
  3
B1
350
3185
  3
B2
350
3186
  3
B3
350
3187
  3
B4
350
3188
  3
B5
350
3189
  3
B6
350
318A
  3
B7
350
318B
  3
B8
350
318C
  3
B9
350
318D
  3
C0
350
318E
  3
C1
350
318F
  3
C2
350
3190
  3
C3
350
3191
  3
C4
350
3192
  3
C5
350
3193
  3
C6
350
3194
  3
C7
350
3195
  3
C8
350
3196
  3
C9
350
3197
  3
D0
350
3198
  3
D1
350
3199
  3
D2
350
319A
  0
DICTIONARY
  5
3177
102
{ACAD_REACTORS
330
19
102
}
330
19
100
AcDbDictionary
281
     1
  3
Standard
350
3178
  0
DICTIONARY
  5
3165
102
{ACAD_REACTORS
330
19
102
}
330
19
100
AcDbDictionary
281
     1
  3
2dWireframe
350
316B
  3
3D Hidden
350
316D
  3
3dWireframe
350
316C
  3
Basic
350
316A
  3
Brighten
350
3171
  3
ColorChange
350
3175
  3
Conceptual
350
316E
  3
Dim
350
3170
  3
Facepattern
350
3174
  3
Flat
350
3166
  3
FlatWithEdges
350
3167
  3
Gouraud
350
3168
  3
GouraudWithEdges
350
3169
  3
Linepattern
350
3173
  3
Realistic
350
316F
  3
Thicken
350
3172
  0
WIPEOUTVARIABLES
  5
23
330
19
100
AcDbWipeoutVariables
 70
     1
  0
XRECORD
  5
630A
102
{ACAD_REACTORS
330
19
102
}
330
19
100
AcDbXrecord
280
     1
 90
        1
330
3178
  0
DICTIONARY
  5
630B
102
{ACAD_REACTORS
330
19
102
}
330
19
100
AcDbDictionary
281
     1
  3
CANNOSCALE
350
630F
  3
CMLEADERSTYLE
350
630D
  3
CTABLESTYLE
350
630C
  3
DIMASSOC
350
6318
  3
INDEXCTL
350
6317
  3
LIGHTINGUNITS
350
6310
  3
MSLTSCALE
350
630E
  3
SORTENTS
350
6316
  0
DICTIONARY
  5
5E44
102
{ACAD_REACTORS
330
19
102
}
330
19
100
AcDbDictionary
281
     1
  3
ASEBlockHierarchyIndexRecord
350
5E46
1001
DCO15
1040
1685075681.336
  0
XRECORD
  5
6347
102
{ACAD_REACTORS
330
19
102
}
330
19
100
AcDbXrecord
280
     1
  1
DWGPROPS COOKIE
  2

  3

  4

  6

  7

  8
renzo.ceresoli
  9

300
=
301
=
302
=
303
=
304
=
305
=
306
=
307
=
308
=
309
=
 40
0.0026905671296296
 41
2455303.727916667
 42
2455306.476309699
  1

 90
        0
  0
XRECORD
  5
5E42
102
{ACAD_REACTORS
330
5E41
102
}
330
5E41
100
AcDbXrecord
280
     1
290
     1
  0
SORTENTSTABLE
  5
31A8
102
{ACAD_REACTORS
330
31A7
102
}
330
31A7
100
AcDbSortentsTable
330
A
331
2CE6
  5
5A50
331
3D23
  5
5296
331
3DBB
  5
5180
331
3D72
  5
51E4
331
3D8D
  5
51FF
331
3D57
  5
51C9
331
3D3C
  5
523D
331
3DA0
  5
5212
331
3DEF
  5
51AB
331
3D0F
  5
5282
331
3CD9
  5
530F
331
3CF4
  5
52AF
331
3D21
  5
5294
331
3DB9
  5
517E
331
3D70
  5
51E2
331
3D8B
  5
51FD
331
3D55
  5
51C7
331
3D3A
  5
523B
331
3D9E
  5
5210
331
3DB7
  5
517C
331
3DED
  5
51A9
331
3D0D
  5
5280
331
3CF2
  5
52AD
331
3D6E
  5
51E0
331
3D89
  5
51FB
331
3D9C
  5
520E
331
3D38
  5
5239
331
3D53
  5
51C5
331
3DD0
  5
5190
331
3DEB
  5
51A7
331
3DB5
  5
517A
331
3D0B
  5
527E
331
3CBA
  5
52F1
331
3CF0
  5
52AB
331
3CA7
  5
52D3
331
3D6C
  5
51DE
331
3D87
  5
51F9
331
3D9A
  5
520C
331
3D36
  5
5237
331
3D51
  5
51C3
331
3DE9
  5
51A5
331
3DB3
  5
5178
331
3E04
  5
51C0
331
3D09
  5
527C
331
3CB8
  5
52EF
331
3CD3
  5
530D
331
3CEE
  5
52A9
331
3CA5
  5
52D1
331
3D07
  5
527A
331
254D
  5
531E
331
3D6A
  5
51DC
331
3D85
  5
51F7
331
3D98
  5
520A
331
3D34
  5
5235
331
3D4F
  5
51C1
331
3DE7
  5
51A3
331
3E02
  5
51BE
331
3DB1
  5
5176
331
3CB6
  5
52E2
331
3CD1
  5
530B
331
3CEC
  5
52A7
331
3CA3
  5
52CF
331
3D05
  5
526A
331
254B
  5
531C
331
3D83
  5
51F5
331
3D68
  5
51DA
331
3D32
  5
5233
331
3D4D
  5
5268
331
3DE5
  5
51A1
331
3E00
  5
51BC
331
3DAF
  5
5174
331
3CB4
  5
52E0
331
3CCF
  5
5309
331
3CEA
  5
52A5
331
3CA1
  5
52CD
331
3D1E
  5
5291
331
3D03
  5
52BE
331
2549
  5
531A
331
3D81
  5
51F3
331
3D66
  5
51D8
331
3D30
  5
522D
331
3D4B
  5
524C
331
3DC8
  5
518D
331
3DE3
  5
519F
331
3DFE
  5
51BA
331
3D7F
  5
51F1
331
3DAD
  5
521F
331
3CE8
  5
52A3
331
3CB2
  5
52DE
331
3D1C
  5
528F
331
3CE6
  5
52A1
331
3D01
  5
52BC
331
2547
  5
5318
331
3D2E
  5
522B
331
3D49
  5
524A
331
3D64
  5
51D6
331
3DE1
  5
519D
331
3DFC
  5
51B8
331
3DC6
  5
518B
331
3D7D
  5
51EF
331
3DAB
  5
521D
331
3C95
  5
52CA
331
3CB0
  5
52DC
331
3D1A
  5
528D
331
3CE4
  5
529F
331
3CFF
  5
52BA
331
2545
  5
5316
331
3D2C
  5
5229
331
3D47
  5
5248
331
3D62
  5
51D4
331
3DDF
  5
519B
331
3DFA
  5
51B6
331
3DC4
  5
5189
331
3D7B
  5
51ED
331
3D96
  5
5208
331
3DA9
  5
521B
331
3CC9
  5
5307
331
3C93
  5
52C8
331
3CAE
  5
52DA
331
3CC7
  5
5305
331
3CE2
  5
529D
331
3CFD
  5
52B8
331
3D18
  5
528B
331
2543
  5
5314
331
3D2A
  5
5227
331
3D45
  5
5246
331
3D60
  5
51D2
331
3DDD
  5
5199
331
3DF8
  5
51B4
331
3D79
  5
51EB
331
3D94
  5
5206
331
3DA7
  5
5219
331
3D5E
  5
51D0
331
3DC2
  5
5187
331
3DF6
  5
51B2
331
3C91
  5
52C6
331
3CAC
  5
52D8
331
3CC5
  5
5303
331
3CE0
  5
529B
331
3CFB
  5
52B6
331
3D16
  5
5289
331
2541
  5
5312
331
3D28
  5
5225
331
3D43
  5
5244
331
3DDB
  5
5197
331
3D77
  5
51E9
331
3D92
  5
5204
331
3DA5
  5
5217
331
3D5C
  5
51CE
331
3DC0
  5
5185
331
3DF4
  5
51B0
331
3C8F
  5
52C4
331
3CAA
  5
52D6
331
3CDE
  5
5299
331
3CF9
  5
52B4
331
3D14
  5
5287
331
3CC3
  5
5301
331
3D26
  5
5223
331
3D41
  5
5242
331
3DD9
  5
5195
331
3D90
  5
5202
331
3DA3
  5
5215
331
3DBE
  5
5183
331
3D3F
  5
5240
331
3D5A
  5
51CC
331
3D75
  5
51E7
331
3DF2
  5
51AE
331
3DD7
  5
5193
331
3C8D
  5
52C2
331
3CA8
  5
52D4
331
3CDC
  5
5297
331
3CF7
  5
52B2
331
3D12
  5
5285
331
3CC1
  5
52FF
331
2CE7
  5
5A51
331
3D24
  5
5221
331
3D8E
  5
5200
331
3DA1
  5
5213
331
3DBC
  5
5181
331
3D3D
  5
523E
331
3D58
  5
51CA
331
3D73
  5
51E5
331
3DF0
  5
51AC
331
3C8B
  5
52C0
331
3CDA
  5
5310
331
3CF5
  5
52B0
331
3D10
  5
5283
331
3D22
  5
5295
331
3D8C
  5
51FE
331
3D9F
  5
5211
331
3DBA
  5
517F
331
3D3B
  5
523C
331
3D56
  5
51C8
331
3D71
  5
51E3
331
3DEE
  5
51AA
331
3CF3
  5
52AE
331
3D0E
  5
5281
331
3D20
  5
5293
331
3D8A
  5
51FC
331
3D9D
  5
520F
331
3DB8
  5
517D
331
3D39
  5
523A
331
3D54
  5
51C6
331
3D6F
  5
51E1
331
3DEC
  5
51A8
331
3DB6
  5
517B
331
3CF1
  5
52AC
331
3D0C
  5
527F
331
3CBB
  5
52F2
331
3D88
  5
51FA
331
3D9B
  5
520D
331
3D37
  5
5238
331
3D52
  5
51C4
331
3D6D
  5
51DF
331
3DEA
  5
51A6
331
3DB4
  5
5179
331
3CEF
  5
52AA
331
3D0A
  5
527D
331
3CA6
  5
52D2
331
3CB9
  5
52F0
331
254E
  5
531F
331
3D99
  5
520B
331
3D50
  5
51C2
331
3D6B
  5
51DD
331
3D35
  5
5236
331
3D86
  5
51F8
331
3E03
  5
51BF
331
3DE8
  5
51A4
331
3DB2
  5
5177
331
3CED
  5
52A8
331
3D08
  5
527B
331
3CA4
  5
52D0
331
3CB7
  5
52E3
331
3CD2
  5
530C
331
3D06
  5
5271
331
254C
  5
531D
331
3D4E
  5
5269
331
3D69
  5
51DB
331
3D33
  5
5234
331
3D84
  5
51F6
331
3E01
  5
51BD
331
3DE6
  5
51A2
331
3DB0
  5
5175
331
3CEB
  5
52A6
331
3CA2
  5
52CE
331
3CB5
  5
52E1
331
3CD0
  5
530A
331
3D04
  5
52BF
331
3D1F
  5
5292
331
254A
  5
531B
331
3D4C
  5
5267
331
3D67
  5
51D9
331
3D82
  5
51F4
331
3D31
  5
522E
331
3DFF
  5
51BB
331
3DAE
  5
5220
331
3DC9
  5
518E
331
3DE4
  5
51A0
331
3CE9
  5
52A4
331
3CB3
  5
52DF
331
3CE7
  5
52A2
331
3D02
  5
52BD
331
3D1D
  5
5290
331
2548
  5
5319
331
3D4A
  5
524B
331
3D65
  5
51D7
331
3D80
  5
51F2
331
3D2F
  5
522C
331
3DFD
  5
51B9
331
3DAC
  5
521E
331
3DC7
  5
518C
331
3D7E
  5
51F0
331
3DE2
  5
519E
331
3CB1
  5
52DD
331
3D00
  5
52BB
331
3D1B
  5
528E
331
3CE5
  5
52A0
331
2546
  5
5317
331
3D48
  5
5249
331
3D63
  5
51D5
331
3D2D
  5
522A
331
3DFB
  5
51B7
331
3DAA
  5
521C
331
3DC5
  5
518A
331
3DE0
  5
519C
331
3D7C
  5
51EE
331
3D97
  5
5209
331
3C94
  5
52C9
331
3CAF
  5
52DB
331
3CFE
  5
52B9
331
3D19
  5
528C
331
3CE3
  5
529E
331
2544
  5
5315
331
3D61
  5
51D3
331
3D46
  5
5247
331
3D2B
  5
5228
331
3DF9
  5
51B5
331
3DA8
  5
521A
331
3DC3
  5
5188
331
3DDE
  5
519A
331
3D5F
  5
51D1
331
3D7A
  5
51EC
331
3D95
  5
5207
331
3DF7
  5
51B3
331
3C92
  5
52C7
331
3CAD
  5
52D9
331
3CC8
  5
5306
331
3CFC
  5
52B7
331
3D17
  5
528A
331
3CC6
  5
5304
331
3CE1
  5
529C
331
2542
  5
5313
331
3D44
  5
5245
331
3D29
  5
5226
331
3DA6
  5
5218
331
3DC1
  5
5186
331
3DDC
  5
5198
331
3D5D
  5
51CF
331
3D78
  5
51EA
331
3D93
  5
5205
331
3DF5
  5
51B1
331
3CAB
  5
52D7
331
3C90
  5
52C5
331
3CFA
  5
52B5
331
3D15
  5
5288
331
3CC4
  5
5302
331
3CDF
  5
529A
331
3D27
  5
5224
331
3D42
  5
5243
331
3DBF
  5
5184
331
3DDA
  5
5196
331
3DA4
  5
5216
331
3D5B
  5
51CD
331
3D76
  5
51E8
331
3D91
  5
5203
331
3DF3
  5
51AF
331
3CA9
  5
52D5
331
3C8E
  5
52C3
331
3CF8
  5
52B3
331
3D13
  5
5286
331
3CC2
  5
5300
331
3CDD
  5
5298
331
3D25
  5
5222
331
3D40
  5
5241
331
3DBD
  5
5182
331
3DD8
  5
5194
331
3DA2
  5
5214
331
3D59
  5
51CB
331
3D74
  5
51E6
331
3D8F
  5
5201
331
3D3E
  5
523F
331
3DD6
  5
5192
331
3DF1
  5
51AD
331
3C8C
  5
52C1
331
3D11
  5
5284
331
3CDB
  5
5311
331
3CF6
  5
52B1
  0
LAYOUT
  5
21
102
{ACAD_XDICTIONARY
360
634A
102
}
102
{ACAD_REACTORS
330
1E
102
}
330
1E
100
AcDbPlotSettings
  1

  2

  4

  6

 40
0.0
 41
0.0
 42
0.0
 43
0.0
 44
0.0
 45
0.0
 46
0.0
 47
0.0
 48
0.0
 49
0.0
140
0.0
141
0.0
142
1.0
143
1.0
 70
     0
 72
     0
 73
     0
 74
     0
  7

 75
     0
147
1.0
148
0.0
149
0.0
100
AcDbLayout
  1
Layout1
 70
     0
 71
     1
 10
0.0
 20
0.0
 11
12.0
 21
9.0
 12
0.0
 22
0.0
 32
0.0
 14
1.000000000000000E+20
 24
1.000000000000000E+20
 34
1.000000000000000E+20
 15
-1.000000000000000E+20
 25
-1.000000000000000E+20
 35
-1.000000000000000E+20
146
0.0
 13
0.0
 23
0.0
 33
0.0
 16
1.0
 26
0.0
 36
0.0
 17
0.0
 27
1.0
 37
0.0
 76
     0
330
B
  0
LAYOUT
  5
20
102
{ACAD_XDICTIONARY
360
6348
102
}
102
{ACAD_REACTORS
330
1E
102
}
330
1E
100
AcDbPlotSettings
  1

  2

  4

  6

 40
0.0
 41
0.0
 42
0.0
 43
0.0
 44
0.0
 45
0.0
 46
0.0
 47
0.0
 48
0.0
 49
0.0
140
0.0
141
0.0
142
1.0
143
1.0
 70
  1024
 72
     0
 73
     0
 74
     0
  7

 75
     0
147
1.0
148
0.0
149
0.0
100
AcDbLayout
  1
Model
 70
     0
 71
     0
 10
0.0
 20
0.0
 11
0.0
 21
0.0
 12
0.0
 22
0.0
 32
0.0
 14
0.0
 24
0.0
 34
0.0
 15
0.0
 25
0.0
 35
0.0
146
0.0
 13
0.0
 23
0.0
 33
0.0
 16
0.0
 26
0.0
 36
0.0
 17
0.0
 27
0.0
 37
0.0
 76
     0
330
A
331
15
  0
MATERIAL
  5
3155
102
{ACAD_XDICTIONARY
360
3156
102
}
102
{ACAD_REACTORS
330
314C
102
}
330
314C
100
AcDbMaterial
  1
ByBlock
 72
     0
 43
0.0208333333333333
 43
0.0
 43
0.0
 43
0.0
 43
0.0
 43
0.0208333333333333
 43
0.0
 43
0.0
 43
0.0
 43
0.0
 43
1.0
 43
0.0
 43
0.0
 43
0.0
 43
0.0
 43
1.0
 77
     0
 47
0.0208333333333333
 47
0.0
 47
0.0
 47
0.0
 47
0.0
 47
0.0208333333333333
 47
0.0
 47
0.0
 47
0.0
 47
0.0
 47
1.0
 47
0.0
 47
0.0
 47
0.0
 47
0.0
 47
1.0
171
     0
 49
0.0208333333333333
 49
0.0
 49
0.0
 49
0.0
 49
0.0
 49
0.0208333333333333
 49
0.0
 49
0.0
 49
0.0
 49
0.0
 49
1.0
 49
0.0
 49
0.0
 49
0.0
 49
0.0
 49
1.0
175
     0
142
0.0208333333333333
142
0.0
142
0.0
142
0.0
142
0.0
142
0.0208333333333333
142
0.0
142
0.0
142
0.0
142
0.0
142
1.0
142
0.0
142
0.0
142
0.0
142
0.0
142
1.0
179
     0
144
0.0208333333333333
144
0.0
144
0.0
144
0.0
144
0.0
144
0.0208333333333333
144
0.0
144
0.0
144
0.0
144
0.0
144
1.0
144
0.0
144
0.0
144
0.0
144
0.0
144
1.0
147
0.0208333333333333
147
0.0
147
0.0
147
0.0
147
0.0
147
0.0208333333333333
147
0.0
147
0.0
147
0.0
147
0.0
147
1.0
147
0.0
147
0.0
147
0.0
147
0.0
147
1.0
  0
MATERIAL
  5
314D
102
{ACAD_XDICTIONARY
360
314E
102
}
102
{ACAD_REACTORS
330
314C
102
}
330
314C
100
AcDbMaterial
  1
ByLayer
 72
     0
 43
0.0208333333333333
 43
0.0
 43
0.0
 43
0.0
 43
0.0
 43
0.0208333333333333
 43
0.0
 43
0.0
 43
0.0
 43
0.0
 43
1.0
 43
0.0
 43
0.0
 43
0.0
 43
0.0
 43
1.0
 77
     0
 47
0.0208333333333333
 47
0.0
 47
0.0
 47
0.0
 47
0.0
 47
0.0208333333333333
 47
0.0
 47
0.0
 47
0.0
 47
0.0
 47
1.0
 47
0.0
 47
0.0
 47
0.0
 47
0.0
 47
1.0
171
     0
 49
0.0208333333333333
 49
0.0
 49
0.0
 49
0.0
 49
0.0
 49
0.0208333333333333
 49
0.0
 49
0.0
 49
0.0
 49
0.0
 49
1.0
 49
0.0
 49
0.0
 49
0.0
 49
0.0
 49
1.0
175
     0
142
0.0208333333333333
142
0.0
142
0.0
142
0.0
142
0.0
142
0.0208333333333333
142
0.0
142
0.0
142
0.0
142
0.0
142
1.0
142
0.0
142
0.0
142
0.0
142
0.0
142
1.0
179
     0
144
0.0208333333333333
144
0.0
144
0.0
144
0.0
144
0.0
144
0.0208333333333333
144
0.0
144
0.0
144
0.0
144
0.0
144
1.0
144
0.0
144
0.0
144
0.0
144
0.0
144
1.0
147
0.0208333333333333
147
0.0
147
0.0
147
0.0
147
0.0
147
0.0208333333333333
147
0.0
147
0.0
147
0.0
147
0.0
147
1.0
147
0.0
147
0.0
147
0.0
147
0.0
147
1.0
  0
MATERIAL
  5
315D
102
{ACAD_XDICTIONARY
360
315E
102
}
102
{ACAD_REACTORS
330
314C
102
}
330
314C
100
AcDbMaterial
  1
Global
 72
     0
 43
0.0208333333333333
 43
0.0
 43
0.0
 43
0.0
 43
0.0
 43
0.0208333333333333
 43
0.0
 43
0.0
 43
0.0
 43
0.0
 43
1.0
 43
0.0
 43
0.0
 43
0.0
 43
0.0
 43
1.0
 77
     0
 47
0.0208333333333333
 47
0.0
 47
0.0
 47
0.0
 47
0.0
 47
0.0208333333333333
 47
0.0
 47
0.0
 47
0.0
 47
0.0
 47
1.0
 47
0.0
 47
0.0
 47
0.0
 47
0.0
 47
1.0
171
     0
 49
0.0208333333333333
 49
0.0
 49
0.0
 49
0.0
 49
0.0
 49
0.0208333333333333
 49
0.0
 49
0.0
 49
0.0
 49
0.0
 49
1.0
 49
0.0
 49
0.0
 49
0.0
 49
0.0
 49
1.0
175
     0
142
0.0208333333333333
142
0.0
142
0.0
142
0.0
142
0.0
142
0.0208333333333333
142
0.0
142
0.0
142
0.0
142
0.0
142
1.0
142
0.0
142
0.0
142
0.0
142
0.0
142
1.0
179
     0
144
0.0208333333333333
144
0.0
144
0.0
144
0.0
144
0.0
144
0.0208333333333333
144
0.0
144
0.0
144
0.0
144
0.0
144
1.0
144
0.0
144
0.0
144
0.0
144
0.0
144
1.0
147
0.0208333333333333
147
0.0
147
0.0
147
0.0
147
0.0
147
0.0208333333333333
147
0.0
147
0.0
147
0.0
147
0.0
147
1.0
147
0.0
147
0.0
147
0.0
147
0.0
147
1.0
  0
MLEADERSTYLE
  5
319C
102
{ACAD_REACTORS
330
319B
102
}
330
319B
100
AcDbMLeaderStyle
170
     2
171
     1
172
     0
 90
        2
 40
0.0
 41
0.0
173
     1
 91
-1056964608
340
11
 92
       -2
290
     1
 42
2.0
291
     1
 43
0.36
  3
Standard
 44
4.0
300

342
17
174
     1
178
     6
175
     1
176
     0
 93
-1056964608
 45
4.0
292
     0
297
     0
 46
4.0
 94
-1056964608
 47
1.0
 49
1.0
140
1.0
293
     1
141
0.0
294
     1
177
     0
142
1.0
295
     0
296
     0
143
0.125
1001
ACAD_MLEADERVER
1070
     2
  0
MLINESTYLE
  5
1C
102
{ACAD_REACTORS
330
1B
102
}
330
1B
100
AcDbMlineStyle
  2
STANDARD
 70
     0
  3

 62
     0
 51
90.0
 52
90.0
 71
     2
 49
0.5
 62
   256
  6
BYLAYER
 49
-0.5
 62
   256
  6
BYLAYER
  0
ACDBPLACEHOLDER
  5
1D
102
{ACAD_REACTORS
330
1F
102
}
330
1F
  0
SCALE
  5
317A
102
{ACAD_REACTORS
330
3179
102
}
330
3179
100
AcDbScale
 70
     0
300
1:1
140
1.0
141
1.0
290
     1
  0
SCALE
  5
317B
102
{ACAD_REACTORS
330
3179
102
}
330
3179
100
AcDbScale
 70
     0
300
1:2
140
1.0
141
2.0
290
     0
  0
SCALE
  5
317C
102
{ACAD_REACTORS
330
3179
102
}
330
3179
100
AcDbScale
 70
     0
300
1:4
140
1.0
141
4.0
290
     0
  0
SCALE
  5
317D
102
{ACAD_REACTORS
330
3179
102
}
330
3179
100
AcDbScale
 70
     0
300
1:5
140
1.0
141
5.0
290
     0
  0
SCALE
  5
317E
102
{ACAD_REACTORS
330
3179
102
}
330
3179
100
AcDbScale
 70
     0
300
1:8
140
1.0
141
8.0
290
     0
  0
SCALE
  5
317F
102
{ACAD_REACTORS
330
3179
102
}
330
3179
100
AcDbScale
 70
     0
300
1:10
140
1.0
141
10.0
290
     0
  0
SCALE
  5
3180
102
{ACAD_REACTORS
330
3179
102
}
330
3179
100
AcDbScale
 70
     0
300
1:16
140
1.0
141
16.0
290
     0
  0
SCALE
  5
3181
102
{ACAD_REACTORS
330
3179
102
}
330
3179
100
AcDbScale
 70
     0
300
1:20
140
1.0
141
20.0
290
     0
  0
SCALE
  5
3182
102
{ACAD_REACTORS
330
3179
102
}
330
3179
100
AcDbScale
 70
     0
300
1:30
140
1.0
141
30.0
290
     0
  0
SCALE
  5
3183
102
{ACAD_REACTORS
330
3179
102
}
330
3179
100
AcDbScale
 70
     0
300
1:40
140
1.0
141
40.0
290
     0
  0
SCALE
  5
3184
102
{ACAD_REACTORS
330
3179
102
}
330
3179
100
AcDbScale
 70
     0
300
1:50
140
1.0
141
50.0
290
     0
  0
SCALE
  5
3185
102
{ACAD_REACTORS
330
3179
102
}
330
3179
100
AcDbScale
 70
     0
300
1:100
140
1.0
141
100.0
290
     0
  0
SCALE
  5
3186
102
{ACAD_REACTORS
330
3179
102
}
330
3179
100
AcDbScale
 70
     0
300
2:1
140
2.0
141
1.0
290
     0
  0
SCALE
  5
3187
102
{ACAD_REACTORS
330
3179
102
}
330
3179
100
AcDbScale
 70
     0
300
4:1
140
4.0
141
1.0
290
     0
  0
SCALE
  5
3188
102
{ACAD_REACTORS
330
3179
102
}
330
3179
100
AcDbScale
 70
     0
300
8:1
140
8.0
141
1.0
290
     0
  0
SCALE
  5
3189
102
{ACAD_REACTORS
330
3179
102
}
330
3179
100
AcDbScale
 70
     0
300
10:1
140
10.0
141
1.0
290
     0
  0
SCALE
  5
318A
102
{ACAD_REACTORS
330
3179
102
}
330
3179
100
AcDbScale
 70
     0
300
100:1
140
100.0
141
1.0
290
     0
  0
SCALE
  5
318B
102
{ACAD_REACTORS
330
3179
102
}
330
3179
100
AcDbScale
 70
     0
300
1/128" = 1'-0"
140
0.0078125
141
12.0
290
     0
  0
SCALE
  5
318C
102
{ACAD_REACTORS
330
3179
102
}
330
3179
100
AcDbScale
 70
     0
300
1/64" = 1'-0"
140
0.015625
141
12.0
290
     0
  0
SCALE
  5
318D
102
{ACAD_REACTORS
330
3179
102
}
330
3179
100
AcDbScale
 70
     0
300
1/32" = 1'-0"
140
0.03125
141
12.0
290
     0
  0
SCALE
  5
318E
102
{ACAD_REACTORS
330
3179
102
}
330
3179
100
AcDbScale
 70
     0
300
1/16" = 1'-0"
140
0.0625
141
12.0
290
     0
  0
SCALE
  5
318F
102
{ACAD_REACTORS
330
3179
102
}
330
3179
100
AcDbScale
 70
     0
300
3/32" = 1'-0"
140
0.09375
141
12.0
290
     0
  0
SCALE
  5
3190
102
{ACAD_REACTORS
330
3179
102
}
330
3179
100
AcDbScale
 70
     0
300
1/8" = 1'-0"
140
0.125
141
12.0
290
     0
  0
SCALE
  5
3191
102
{ACAD_REACTORS
330
3179
102
}
330
3179
100
AcDbScale
 70
     0
300
3/16" = 1'-0"
140
0.1875
141
12.0
290
     0
  0
SCALE
  5
3192
102
{ACAD_REACTORS
330
3179
102
}
330
3179
100
AcDbScale
 70
     0
300
1/4" = 1'-0"
140
0.25
141
12.0
290
     0
  0
SCALE
  5
3193
102
{ACAD_REACTORS
330
3179
102
}
330
3179
100
AcDbScale
 70
     0
300
3/8" = 1'-0"
140
0.375
141
12.0
290
     0
  0
SCALE
  5
3194
102
{ACAD_REACTORS
330
3179
102
}
330
3179
100
AcDbScale
 70
     0
300
1/2" = 1'-0"
140
0.5
141
12.0
290
     0
  0
SCALE
  5
3195
102
{ACAD_REACTORS
330
3179
102
}
330
3179
100
AcDbScale
 70
     0
300
3/4" = 1'-0"
140
0.75
141
12.0
290
     0
  0
SCALE
  5
3196
102
{ACAD_REACTORS
330
3179
102
}
330
3179
100
AcDbScale
 70
     0
300
1" = 1'-0"
140
1.0
141
12.0
290
     0
  0
SCALE
  5
3197
102
{ACAD_REACTORS
330
3179
102
}
330
3179
100
AcDbScale
 70
     0
300
1-1/2" = 1'-0"
140
1.5
141
12.0
290
     0
  0
SCALE
  5
3198
102
{ACAD_REACTORS
330
3179
102
}
330
3179
100
AcDbScale
 70
     0
300
3" = 1'-0"
140
3.0
141
12.0
290
     0
  0
SCALE
  5
3199
102
{ACAD_REACTORS
330
3179
102
}
330
3179
100
AcDbScale
 70
     0
300
6" = 1'-0"
140
6.0
141
12.0
290
     0
  0
SCALE
  5
319A
102
{ACAD_REACTORS
330
3179
102
}
330
3179
100
AcDbScale
 70
     0
300
1'-0" = 1'-0"
140
12.0
141
12.0
290
     0
  0
TABLESTYLE
  5
3178
102
{ACAD_XDICTIONARY
360
6308
102
}
102
{ACAD_REACTORS
330
3177
102
}
330
3177
100
AcDbTableStyle
  3
Standard
 70
     0
 71
     0
 40
1.5
 41
1.5
280
     0
281
     0
  7
Standard
140
4.5
170
     2
 62
     0
 63
     7
283
     0
274
    -2
284
     1
 64
     0
275
    -2
285
     1
 65
     0
276
    -2
286
     1
 66
     0
277
    -2
287
     1
 67
     0
278
    -2
288
     1
 68
     0
279
    -2
289
     1
 69
     0
  7
Standard
140
6.0
170
     5
 62
     0
 63
     7
283
     0
274
    -2
284
     1
 64
     0
275
    -2
285
     1
 65
     0
276
    -2
286
     1
 66
     0
277
    -2
287
     1
 67
     0
278
    -2
288
     1
 68
     0
279
    -2
289
     1
 69
     0
  7
Standard
140
4.5
170
     5
 62
     0
 63
     7
283
     0
274
    -2
284
     1
 64
     0
275
    -2
285
     1
 65
     0
276
    -2
286
     1
 66
     0
277
    -2
287
     1
 67
     0
278
    -2
288
     1
 68
     0
279
    -2
289
     1
 69
     0
  0
VISUALSTYLE
  5
316B
102
{ACAD_REACTORS
330
3165
102
}
330
3165
100
AcDbVisualStyle
  2
2dWireframe
 70
     4
 71
     0
 72
     2
 73
     0
 90
        0
 40
-0.6
 41
-30.0
 62
     5
 63
     7
 74
     1
 91
        4
 64
     7
 65
   257
 75
     1
175
     1
 42
1.0
 92
        0
 66
   257
 43
1.0
 76
     1
 77
     6
 78
     2
 67
     7
 79
     5
170
     0
171
     0
290
     0
174
     0
 93
        1
 44
0.0
173
     0
291
     0
 45
0.0
1001
ACAD
1000
AcDbSavedByObjectVersion
1070
     0
1000
AcDbSavedByObjectVersion
1070
     0
  0
VISUALSTYLE
  5
316D
102
{ACAD_REACTORS
330
3165
102
}
330
3165
100
AcDbVisualStyle
  2
3D Hidden
 70
     6
 71
     1
 72
     2
 73
     2
 90
        0
 40
-0.6
 41
-30.0
 62
     5
 63
     7
 74
     2
 91
        2
 64
     7
 65
   257
 75
     2
175
     1
 42
40.0
 92
        0
 66
   257
 43
1.0
 76
     1
 77
     6
 78
     2
 67
     7
 79
     3
170
     0
171
     0
290
     0
174
     0
 93
        1
 44
0.0
173
     0
291
     0
 45
0.0
1001
ACAD
1000
AcDbSavedByObjectVersion
1070
     0
1000
AcDbSavedByObjectVersion
1070
     0
  0
VISUALSTYLE
  5
316C
102
{ACAD_REACTORS
330
3165
102
}
330
3165
100
AcDbVisualStyle
  2
3dWireframe
 70
     5
 71
     0
 72
     2
 73
     0
 90
        0
 40
-0.6
 41
-30.0
 62
     5
 63
     7
 74
     1
 91
        4
 64
     7
 65
   257
 75
     1
175
     1
 42
1.0
 92
        0
 66
   257
 43
1.0
 76
     1
 77
     6
 78
     2
 67
     7
 79
     5
170
     0
171
     0
290
     0
174
     0
 93
        1
 44
0.0
173
     0
291
     0
 45
0.0
1001
ACAD
1000
AcDbSavedByObjectVersion
1070
     0
1000
AcDbSavedByObjectVersion
1070
     0
  0
VISUALSTYLE
  5
316A
102
{ACAD_REACTORS
330
3165
102
}
330
3165
100
AcDbVisualStyle
  2
Basic
 70
     7
 71
     1
 72
     0
 73
     1
 90
        0
 40
-0.6
 41
-30.0
 62
     5
 63
     7
 74
     0
 91
        4
 64
     7
 65
   257
 75
     1
175
     1
 42
1.0
 92
        8
 66
     7
 43
1.0
 76
     1
 77
     6
 78
     2
 67
     7
 79
     5
170
     0
171
     0
290
     0
174
     0
 93
        1
 44
0.0
173
     0
291
     1
 45
0.0
1001
ACAD
1000
AcDbSavedByObjectVersion
1070
     0
1000
AcDbSavedByObjectVersion
1070
     0
  0
VISUALSTYLE
  5
3171
102
{ACAD_REACTORS
330
3165
102
}
330
3165
100
AcDbVisualStyle
  2
Brighten
 70
    12
 71
     2
 72
     2
 73
     0
 90
        0
 40
-0.6
 41
-30.0
 62
     5
 63
     7
 74
     1
 91
        4
 64
     7
 65
   257
 75
     1
175
     1
 42
1.0
 92
        8
 66
     7
 43
1.0
 76
     1
 77
     6
 78
     2
 67
     7
 79
     5
170
     0
171
     0
290
     0
174
     0
 93
        1
 44
50.0
173
     0
291
     1
 45
0.0
1001
ACAD
1000
AcDbSavedByObjectVersion
1070
     0
1000
AcDbSavedByObjectVersion
1070
     0
  0
VISUALSTYLE
  5
3175
102
{ACAD_REACTORS
330
3165
102
}
330
3165
100
AcDbVisualStyle
  2
ColorChange
 70
    16
 71
     2
 72
     2
 73
     3
 90
        0
 40
-0.6
 41
-30.0
 62
     5
 63
     8
 74
     1
 91
        4
 64
     7
 65
   257
 75
     1
175
     1
 42
1.0
 92
        8
 66
     8
 43
1.0
 76
     1
 77
     6
 78
     2
 67
     7
 79
     5
170
     0
171
     0
290
     0
174
     0
 93
        1
 44
0.0
173
     0
291
     1
 45
0.0
1001
ACAD
1000
AcDbSavedByObjectVersion
1070
     0
1000
AcDbSavedByObjectVersion
1070
     0
  0
VISUALSTYLE
  5
316E
102
{ACAD_REACTORS
330
3165
102
}
330
3165
100
AcDbVisualStyle
  2
Conceptual
 70
     9
 71
     3
 72
     2
 73
     0
 90
        0
 40
-0.6
 41
-30.0
 62
     5
 63
     7
 74
     2
 91
        2
 64
     7
 65
   257
 75
     1
175
     1
 42
40.0
 92
        8
 66
     7
 43
1.0
 76
     1
 77
     6
 78
     2
 67
     7
 79
     3
170
     0
171
     0
290
     0
174
     0
 93
        1
 44
0.0
173
     0
291
     0
 45
0.0
1001
ACAD
1000
AcDbSavedByObjectVersion
1070
     0
1000
AcDbSavedByObjectVersion
1070
     0
  0
VISUALSTYLE
  5
3170
102
{ACAD_REACTORS
330
3165
102
}
330
3165
100
AcDbVisualStyle
  2
Dim
 70
    11
 71
     2
 72
     2
 73
     0
 90
        0
 40
-0.6
 41
-30.0
 62
     5
 63
     7
 74
     1
 91
        4
 64
     7
 65
   257
 75
     1
175
     1
 42
1.0
 92
        8
 66
     7
 43
1.0
 76
     1
 77
     6
 78
     2
 67
     7
 79
     5
170
     0
171
     0
290
     0
174
     0
 93
        1
 44
-50.0
173
     0
291
     1
 45
0.0
1001
ACAD
1000
AcDbSavedByObjectVersion
1070
     0
1000
AcDbSavedByObjectVersion
1070
     0
  0
VISUALSTYLE
  5
3174
102
{ACAD_REACTORS
330
3165
102
}
330
3165
100
AcDbVisualStyle
  2
Facepattern
 70
    15
 71
     2
 72
     2
 73
     0
 90
        0
 40
-0.6
 41
-30.0
 62
     5
 63
     7
 74
     1
 91
        4
 64
     7
 65
   257
 75
     1
175
     1
 42
1.0
 92
        8
 66
     7
 43
1.0
 76
     1
 77
     6
 78
     2
 67
     7
 79
     5
170
     0
171
     0
290
     0
174
     0
 93
        1
 44
0.0
173
     0
291
     1
 45
0.0
1001
ACAD
1000
AcDbSavedByObjectVersion
1070
     0
1000
AcDbSavedByObjectVersion
1070
     0
  0
VISUALSTYLE
  5
3166
102
{ACAD_REACTORS
330
3165
102
}
330
3165
100
AcDbVisualStyle
  2
Flat
 70
     0
 71
     2
 72
     1
 73
     1
 90
        2
 40
-0.6
 41
30.0
 62
     5
 63
     7
 74
     0
 91
        4
 64
     7
 65
   257
 75
     1
175
     1
 42
1.0
 92
        8
 66
     7
 43
1.0
 76
     1
 77
     6
 78
     2
 67
     7
 79
     5
170
     0
171
     0
290
     0
174
     0
 93
       13
 44
0.0
173
     0
291
     1
 45
0.0
1001
ACAD
1000
AcDbSavedByObjectVersion
1070
     0
1000
AcDbSavedByObjectVersion
1070
     0
  0
VISUALSTYLE
  5
3167
102
{ACAD_REACTORS
330
3165
102
}
330
3165
100
AcDbVisualStyle
  2
FlatWithEdges
 70
     1
 71
     2
 72
     1
 73
     1
 90
        2
 40
-0.6
 41
30.0
 62
     5
 63
     7
 74
     1
 91
        4
 64
     7
 65
   257
 75
     1
175
     1
 42
1.0
 92
        0
 66
   257
 43
1.0
 76
     1
 77
     6
 78
     2
 67
     7
 79
     5
170
     0
171
     0
290
     0
174
     0
 93
       13
 44
0.0
173
     0
291
     1
 45
0.0
1001
ACAD
1000
AcDbSavedByObjectVersion
1070
     0
1000
AcDbSavedByObjectVersion
1070
     0
  0
VISUALSTYLE
  5
3168
102
{ACAD_REACTORS
330
3165
102
}
330
3165
100
AcDbVisualStyle
  2
Gouraud
 70
     2
 71
     2
 72
     2
 73
     1
 90
        2
 40
-0.6
 41
30.0
 62
     5
 63
     7
 74
     0
 91
        4
 64
     7
 65
   257
 75
     1
175
     1
 42
1.0
 92
        0
 66
     7
 43
1.0
 76
     1
 77
     6
 78
     2
 67
     7
 79
     5
170
     0
171
     0
290
     0
174
     0
 93
       13
 44
0.0
173
     0
291
     1
 45
0.0
1001
ACAD
1000
AcDbSavedByObjectVersion
1070
     0
1000
AcDbSavedByObjectVersion
1070
     0
  0
VISUALSTYLE
  5
3169
102
{ACAD_REACTORS
330
3165
102
}
330
3165
100
AcDbVisualStyle
  2
GouraudWithEdges
 70
     3
 71
     2
 72
     2
 73
     1
 90
        2
 40
-0.6
 41
30.0
 62
     5
 63
     7
 74
     1
 91
        4
 64
     7
 65
   257
 75
     1
175
     1
 42
1.0
 92
        0
 66
   257
 43
1.0
 76
     1
 77
     6
 78
     2
 67
     7
 79
     5
170
     0
171
     0
290
     0
174
     0
 93
       13
 44
0.0
173
     0
291
     1
 45
0.0
1001
ACAD
1000
AcDbSavedByObjectVersion
1070
     0
1000
AcDbSavedByObjectVersion
1070
     0
  0
VISUALSTYLE
  5
3173
102
{ACAD_REACTORS
330
3165
102
}
330
3165
100
AcDbVisualStyle
  2
Linepattern
 70
    14
 71
     2
 72
     2
 73
     0
 90
        0
 40
-0.6
 41
-30.0
 62
     5
 63
     7
 74
     1
 91
        4
 64
     7
 65
   257
 75
     7
175
     7
 42
1.0
 92
        8
 66
     7
 43
1.0
 76
     1
 77
     6
 78
     2
 67
     7
 79
     5
170
     0
171
     0
290
     0
174
     0
 93
        1
 44
0.0
173
     0
291
     1
 45
0.0
1001
ACAD
1000
AcDbSavedByObjectVersion
1070
     0
1000
AcDbSavedByObjectVersion
1070
     0
  0
VISUALSTYLE
  5
316F
102
{ACAD_REACTORS
330
3165
102
}
330
3165
100
AcDbVisualStyle
  2
Realistic
 70
     8
 71
     2
 72
     2
 73
     0
 90
        0
 40
-0.6
 41
-30.0
 62
     5
 63
     7
 74
     1
 91
        0
 64
     7
 65
   257
 75
     1
175
     1
 42
1.0
 92
        8
 66
     8
 43
1.0
 76
     1
 77
     6
 78
     2
 67
     7
 79
     5
170
     0
171
     0
290
     0
174
     0
 93
       13
 44
0.0
173
     0
291
     0
 45
0.0
1001
ACAD
1000
AcDbSavedByObjectVersion
1070
     0
1000
AcDbSavedByObjectVersion
1070
     0
  0
VISUALSTYLE
  5
3172
102
{ACAD_REACTORS
330
3165
102
}
330
3165
100
AcDbVisualStyle
  2
Thicken
 70
    13
 71
     2
 72
     2
 73
     0
 90
        0
 40
-0.6
 41
-30.0
 62
     5
 63
     7
 74
     1
 91
        4
 64
     7
 65
   257
 75
     1
175
     1
 42
1.0
 92
       12
 66
     7
 43
1.0
 76
     1
 77
     6
 78
     2
 67
     7
 79
     5
170
     0
171
     0
290
     0
174
     0
 93
        1
 44
0.0
173
     0
291
     1
 45
0.0
1001
ACAD
1000
AcDbSavedByObjectVersion
1070
     0
1000
AcDbSavedByObjectVersion
1070
     0
  0
DICTIONARYVAR
  5
630F
102
{ACAD_REACTORS
330
630B
102
}
330
630B
100
DictionaryVariables
280
     0
  1
1:1
  0
DICTIONARYVAR
  5
630D
102
{ACAD_REACTORS
330
630B
102
}
330
630B
100
DictionaryVariables
280
     0
  1
STANDARD
  0
DICTIONARYVAR
  5
630C
102
{ACAD_REACTORS
330
630B
102
}
330
630B
100
DictionaryVariables
280
     0
  1
STANDARD
  0
DICTIONARYVAR
  5
6318
102
{ACAD_REACTORS
330
630B
102
}
330
630B
100
DictionaryVariables
280
     0
  1
1
  0
DICTIONARYVAR
  5
6317
102
{ACAD_REACTORS
330
630B
102
}
330
630B
100
DictionaryVariables
280
     0
  1
0
  0
DICTIONARYVAR
  5
6310
102
{ACAD_REACTORS
330
630B
102
}
330
630B
100
DictionaryVariables
280
     0
  1
0
  0
DICTIONARYVAR
  5
630E
102
{ACAD_REACTORS
330
630B
102
}
330
630B
100
DictionaryVariables
280
     0
  1
0
  0
DICTIONARYVAR
  5
6316
102
{ACAD_REACTORS
330
630B
102
}
330
630B
100
DictionaryVariables
280
     0
  1
127
  0
XRECORD
  5
5E46
102
{ACAD_REACTORS
330
5E44
102
}
330
5E44
100
AcDbXrecord
280
     1
  0
DICTIONARY
  5
634A
330
21
100
AcDbDictionary
280
     1
281
     1
  3
ACAD_XREC_ROUNDTRIP
360
634B
  0
DICTIONARY
  5
6348
330
20
100
AcDbDictionary
280
     1
281
     1
  3
ACAD_XREC_ROUNDTRIP
360
6349
  0
DICTIONARY
  5
3156
330
3155
100
AcDbDictionary
280
     1
281
     1
  3
ACAD_XREC_ROUNDTRIP
360
6320
  3
BUMPTILE
360
3158
  3
DIFFUSETILE
360
3157
  3
OPACITYTILE
360
315B
  3
REFLECTIONTILE
360
315A
  3
REFRACTIONTILE
360
315C
  3
SPECULARTILE
360
3159
  0
DICTIONARY
  5
314E
330
314D
100
AcDbDictionary
280
     1
281
     1
  3
ACAD_XREC_ROUNDTRIP
360
631F
  3
BUMPTILE
360
3150
  3
DIFFUSETILE
360
314F
  3
OPACITYTILE
360
3153
  3
REFLECTIONTILE
360
3152
  3
REFRACTIONTILE
360
3154
  3
SPECULARTILE
360
3151
  0
DICTIONARY
  5
315E
330
315D
100
AcDbDictionary
280
     1
281
     1
  3
ACAD_XREC_ROUNDTRIP
360
6321
  3
BUMPTILE
360
3160
  3
DIFFUSETILE
360
315F
  3
OPACITYTILE
360
3163
  3
REFLECTIONTILE
360
3162
  3
REFRACTIONTILE
360
3164
  3
SPECULARTILE
360
3161
  0
DICTIONARY
  5
6308
330
3178
100
AcDbDictionary
280
     1
281
     1
  3
ACAD_ROUNDTRIP_2008_TABLESTYLE_CELLSTYLEMAP
360
6346
  3
ACAD_XREC_ROUNDTRIP
360
634C
  0
XRECORD
  5
634B
102
{ACAD_REACTORS
330
634A
102
}
330
634A
100
AcDbXrecord
280
     1
102
SHADEPLOT
 70
     0
102
SHADEPLOTRESLEVEL
 70
     2
102
SHADEPLOTCUSTOMDPI
 70
   300
  0
XRECORD
  5
6349
102
{ACAD_REACTORS
330
6348
102
}
330
6348
100
AcDbXrecord
280
     1
102
SHADEPLOT
 70
     0
102
SHADEPLOTRESLEVEL
 70
     2
102
SHADEPLOTCUSTOMDPI
 70
   300
  0
XRECORD
  5
6320
102
{ACAD_REACTORS
330
3156
102
}
330
3156
100
AcDbXrecord
280
     1
102
MATERIAL
148
0.0
149
0.0
149
0.0
 93
        0
 94
      127
282
     0
 72
     0
 77
     0
171
     0
175
     0
179
     0
273
     0
  0
XRECORD
  5
3158
102
{ACAD_REACTORS
330
3156
102
}
330
3156
100
AcDbXrecord
280
     1
270
     1
271
     1
  0
XRECORD
  5
3157
102
{ACAD_REACTORS
330
3156
102
}
330
3156
100
AcDbXrecord
280
     1
270
     1
271
     1
  0
XRECORD
  5
315B
102
{ACAD_REACTORS
330
3156
102
}
330
3156
100
AcDbXrecord
280
     1
270
     1
271
     1
  0
XRECORD
  5
315A
102
{ACAD_REACTORS
330
3156
102
}
330
3156
100
AcDbXrecord
280
     1
270
     1
271
     1
  0
XRECORD
  5
315C
102
{ACAD_REACTORS
330
3156
102
}
330
3156
100
AcDbXrecord
280
     1
270
     1
271
     1
  0
XRECORD
  5
3159
102
{ACAD_REACTORS
330
3156
102
}
330
3156
100
AcDbXrecord
280
     1
270
     1
271
     1
  0
XRECORD
  5
631F
102
{ACAD_REACTORS
330
314E
102
}
330
314E
100
AcDbXrecord
280
     1
102
MATERIAL
148
0.0
149
0.0
149
0.0
 93
        0
 94
      127
282
     0
 72
     0
 77
     0
171
     0
175
     0
179
     0
273
     0
  0
XRECORD
  5
3150
102
{ACAD_REACTORS
330
314E
102
}
330
314E
100
AcDbXrecord
280
     1
270
     1
271
     1
  0
XRECORD
  5
314F
102
{ACAD_REACTORS
330
314E
102
}
330
314E
100
AcDbXrecord
280
     1
270
     1
271
     1
  0
XRECORD
  5
3153
102
{ACAD_REACTORS
330
314E
102
}
330
314E
100
AcDbXrecord
280
     1
270
     1
271
     1
  0
XRECORD
  5
3152
102
{ACAD_REACTORS
330
314E
102
}
330
314E
100
AcDbXrecord
280
     1
270
     1
271
     1
  0
XRECORD
  5
3154
102
{ACAD_REACTORS
330
314E
102
}
330
314E
100
AcDbXrecord
280
     1
270
     1
271
     1
  0
XRECORD
  5
3151
102
{ACAD_REACTORS
330
314E
102
}
330
314E
100
AcDbXrecord
280
     1
270
     1
271
     1
  0
XRECORD
  5
6321
102
{ACAD_REACTORS
330
315E
102
}
330
315E
100
AcDbXrecord
280
     1
102
MATERIAL
148
0.0
149
0.0
149
0.0
 93
        0
 94
      127
282
     0
 72
     0
 77
     0
171
     0
175
     0
179
     0
273
     0
  0
XRECORD
  5
3160
102
{ACAD_REACTORS
330
315E
102
}
330
315E
100
AcDbXrecord
280
     1
270
     1
271
     1
  0
XRECORD
  5
315F
102
{ACAD_REACTORS
330
315E
102
}
330
315E
100
AcDbXrecord
280
     1
270
     1
271
     1
  0
XRECORD
  5
3163
102
{ACAD_REACTORS
330
315E
102
}
330
315E
100
AcDbXrecord
280
     1
270
     1
271
     1
  0
XRECORD
  5
3162
102
{ACAD_REACTORS
330
315E
102
}
330
315E
100
AcDbXrecord
280
     1
270
     1
271
     1
  0
XRECORD
  5
3164
102
{ACAD_REACTORS
330
315E
102
}
330
315E
100
AcDbXrecord
280
     1
270
     1
271
     1
  0
XRECORD
  5
3161
102
{ACAD_REACTORS
330
315E
102
}
330
315E
100
AcDbXrecord
280
     1
270
     1
271
     1
  0
CELLSTYLEMAP
  5
6346
102
{ACAD_REACTORS
330
6308
102
}
330
6308
100
AcDbCellStyleMap
 90
        3
300
CELLSTYLE
  1
TABLEFORMAT_BEGIN
 90
        5
170
     1
 91
        0
 92
    32768
 62
   257
 93
        1
300
CONTENTFORMAT
  1
CONTENTFORMAT_BEGIN
 90
        0
 91
        0
 92
      512
 93
        0
300

 40
0.0
140
1.0
 94
        5
 62
     0
340
17
144
6.0
309
CONTENTFORMAT_END
171
     1
301
MARGIN
  1
CELLMARGIN_BEGIN
 40
1.5
 40
1.5
 40
1.5
 40
1.5
 40
0.18
 40
0.18
309
CELLMARGIN_END
 94
        6
 95
        1
302
GRIDFORMAT
  1
GRIDFORMAT_BEGIN
 90
        0
 91
        1
 62
     0
 92
       -2
340
0
 93
        0
 40
1.125
309
GRIDFORMAT_END
 95
        2
302
GRIDFORMAT
  1
GRIDFORMAT_BEGIN
 90
        0
 91
        1
 62
     0
 92
       -2
340
0
 93
        0
 40
1.125
309
GRIDFORMAT_END
 95
        4
302
GRIDFORMAT
  1
GRIDFORMAT_BEGIN
 90
        0
 91
        1
 62
     0
 92
       -2
340
0
 93
        0
 40
1.125
309
GRIDFORMAT_END
 95
        8
302
GRIDFORMAT
  1
GRIDFORMAT_BEGIN
 90
        0
 91
        1
 62
     0
 92
       -2
340
0
 93
        0
 40
1.125
309
GRIDFORMAT_END
 95
       16
302
GRIDFORMAT
  1
GRIDFORMAT_BEGIN
 90
        0
 91
        1
 62
     0
 92
       -2
340
0
 93
        0
 40
1.125
309
GRIDFORMAT_END
 95
       32
302
GRIDFORMAT
  1
GRIDFORMAT_BEGIN
 90
        0
 91
        1
 62
     0
 92
       -2
340
0
 93
        0
 40
1.125
309
GRIDFORMAT_END
309
TABLEFORMAT_END
  1
CELLSTYLE_BEGIN
 90
        1
 91
        1
300
_TITLE
309
CELLSTYLE_END
300
CELLSTYLE
  1
TABLEFORMAT_BEGIN
 90
        5
170
     1
 91
        0
 92
        0
 62
   257
 93
        1
300
CONTENTFORMAT
  1
CONTENTFORMAT_BEGIN
 90
        0
 91
        0
 92
      512
 93
        0
300

 40
0.0
140
1.0
 94
        5
 62
     0
340
17
144
4.5
309
CONTENTFORMAT_END
171
     1
301
MARGIN
  1
CELLMARGIN_BEGIN
 40
1.5
 40
1.5
 40
1.5
 40
1.5
 40
0.18
 40
0.18
309
CELLMARGIN_END
 94
        6
 95
        1
302
GRIDFORMAT
  1
GRIDFORMAT_BEGIN
 90
        0
 91
        1
 62
     0
 92
       -2
340
0
 93
        0
 40
1.125
309
GRIDFORMAT_END
 95
        2
302
GRIDFORMAT
  1
GRIDFORMAT_BEGIN
 90
        0
 91
        1
 62
     0
 92
       -2
340
0
 93
        0
 40
1.125
309
GRIDFORMAT_END
 95
        4
302
GRIDFORMAT
  1
GRIDFORMAT_BEGIN
 90
        0
 91
        1
 62
     0
 92
       -2
340
0
 93
        0
 40
1.125
309
GRIDFORMAT_END
 95
        8
302
GRIDFORMAT
  1
GRIDFORMAT_BEGIN
 90
        0
 91
        1
 62
     0
 92
       -2
340
0
 93
        0
 40
1.125
309
GRIDFORMAT_END
 95
       16
302
GRIDFORMAT
  1
GRIDFORMAT_BEGIN
 90
        0
 91
        1
 62
     0
 92
       -2
340
0
 93
        0
 40
1.125
309
GRIDFORMAT_END
 95
       32
302
GRIDFORMAT
  1
GRIDFORMAT_BEGIN
 90
        0
 91
        1
 62
     0
 92
       -2
340
0
 93
        0
 40
1.125
309
GRIDFORMAT_END
309
TABLEFORMAT_END
  1
CELLSTYLE_BEGIN
 90
        2
 91
        1
300
_HEADER
309
CELLSTYLE_END
300
CELLSTYLE
  1
TABLEFORMAT_BEGIN
 90
        5
170
     1
 91
        0
 92
        0
 62
   257
 93
        1
300
CONTENTFORMAT
  1
CONTENTFORMAT_BEGIN
 90
        0
 91
        0
 92
      512
 93
        0
300

 40
0.0
140
1.0
 94
        2
 62
     0
340
17
144
4.5
309
CONTENTFORMAT_END
171
     1
301
MARGIN
  1
CELLMARGIN_BEGIN
 40
1.5
 40
1.5
 40
1.5
 40
1.5
 40
0.18
 40
0.18
309
CELLMARGIN_END
 94
        6
 95
        1
302
GRIDFORMAT
  1
GRIDFORMAT_BEGIN
 90
        0
 91
        1
 62
     0
 92
       -2
340
0
 93
        0
 40
1.125
309
GRIDFORMAT_END
 95
        2
302
GRIDFORMAT
  1
GRIDFORMAT_BEGIN
 90
        0
 91
        1
 62
     0
 92
       -2
340
0
 93
        0
 40
1.125
309
GRIDFORMAT_END
 95
        4
302
GRIDFORMAT
  1
GRIDFORMAT_BEGIN
 90
        0
 91
        1
 62
     0
 92
       -2
340
0
 93
        0
 40
1.125
309
GRIDFORMAT_END
 95
        8
302
GRIDFORMAT
  1
GRIDFORMAT_BEGIN
 90
        0
 91
        1
 62
     0
 92
       -2
340
0
 93
        0
 40
1.125
309
GRIDFORMAT_END
 95
       16
302
GRIDFORMAT
  1
GRIDFORMAT_BEGIN
 90
        0
 91
        1
 62
     0
 92
       -2
340
0
 93
        0
 40
1.125
309
GRIDFORMAT_END
 95
       32
302
GRIDFORMAT
  1
GRIDFORMAT_BEGIN
 90
        0
 91
        1
 62
     0
 92
       -2
340
0
 93
        0
 40
1.125
309
GRIDFORMAT_END
309
TABLEFORMAT_END
  1
CELLSTYLE_BEGIN
 90
        3
 91
        2
300
_DATA
309
CELLSTYLE_END
  0
XRECORD
  5
634C
102
{ACAD_REACTORS
330
6308
102
}
330
6308
100
AcDbXrecord
280
     1
102
ACAD_ROUNDTRIP_PRE2007_TABLESTYLE
 90
      512
 91
        0
  1

 92
      512
 93
        0
  2

 94
      512
 95
        0
  3

  0
ENDSEC
  0
EOF
