  0
SECTION
  2
HEADER
  9
$ACADVER
  1
AC1015
  9
$ACADMAINTVER
 70
    20
  9
$DWGCODEPAGE
  3
ANSI_1252
  9
$INSBASE
 10
0.0
 20
0.0
 30
0.0
  9
$EXTMIN
 10
-121.2737369674805
 20
-92.74980712479555
 30
-0.0000000000001846
  9
$EXTMAX
 10
26.04021254189502
 20
26.05609447806728
 30
0.0000000000041672
  9
$LIMMIN
 10
-66.34999999999982
 20
-2008.85
  9
$LIMMAX
 10
3734.350000000001
 20
346.85
  9
$ORTHOMODE
 70
     0
  9
$REGENMODE
 70
     1
  9
$FILLMODE
 70
     1
  9
$QTEXTMODE
 70
     0
  9
$MIRRTEXT
 70
     1
  9
$LTSCALE
 40
10.0
  9
$ATTMODE
 70
     1
  9
$TEXTSIZE
 40
0.0
  9
$TRACEWID
 40
0.05
  9
$TEXTSTYLE
  7
Standard
  9
$CLAYER
  8
0
  9
$CELTYPE
  6
Continuous
  9
$CECOLOR
 62
   256
  9
$CELTSCALE
 40
1.0
  9
$DISPSILH
 70
     0
  9
$DIMSCALE
 40
1.0
  9
$DIMASZ
 40
1.25
  9
$DIMEXO
 40
0.0
  9
$DIMDLI
 40
0.38
  9
$DIMRND
 40
0.0
  9
$DIMDLE
 40
0.0
  9
$DIMEXE
 40
0.75
  9
$DIMTP
 40
0.0
  9
$DIMTM
 40
0.0
  9
$DIMTXT
 40
2.5
  9
$DIMCEN
 40
0.09
  9
$DIMTSZ
 40
0.0
  9
$DIMTOL
 70
     0
  9
$DIMLIM
 70
     0
  9
$DIMTIH
 70
     0
  9
$DIMTOH
 70
     0
  9
$DIMSE1
 70
     0
  9
$DIMSE2
 70
     0
  9
$DIMTAD
 70
     1
  9
$DIMZIN
 70
     0
  9
$DIMBLK
  1

  9
$DIMASO
 70
     1
  9
$DIMSHO
 70
     1
  9
$DIMPOST
  1

  9
$DIMAPOST
  1

  9
$DIMALT
 70
     0
  9
$DIMALTD
 70
     2
  9
$DIMALTF
 40
25.4
  9
$DIMLFAC
 40
1.0
  9
$DIMTOFL
 70
     0
  9
$DIMTVP
 40
0.0
  9
$DIMTIX
 70
     0
  9
$DIMSOXD
 70
     0
  9
$DIMSAH
 70
     0
  9
$DIMBLK1
  1

  9
$DIMBLK2
  1

  9
$DIMSTYLE
  2
Standard
  9
$DIMCLRD
 70
     7
  9
$DIMCLRE
 70
     7
  9
$DIMCLRT
 70
     7
  9
$DIMTFAC
 40
0.8
  9
$DIMGAP
 40
1.25
  9
$DIMJUST
 70
     0
  9
$DIMSD1
 70
     0
  9
$DIMSD2
 70
     0
  9
$DIMTOLJ
 70
     1
  9
$DIMTZIN
 70
     0
  9
$DIMALTZ
 70
     0
  9
$DIMALTTZ
 70
     0
  9
$DIMUPT
 70
     0
  9
$DIMDEC
 70
     2
  9
$DIMTDEC
 70
     4
  9
$DIMALTU
 70
     2
  9
$DIMALTTD
 70
     2
  9
$DIMTXSTY
  7
Standard
  9
$DIMAUNIT
 70
     0
  9
$DIMADEC
 70
     0
  9
$DIMALTRND
 40
0.0
  9
$DIMAZIN
 70
     0
  9
$DIMDSEP
 70
     0
  9
$DIMATFIT
 70
     3
  9
$DIMFRAC
 70
     0
  9
$DIMLDRBLK
  1

  9
$DIMLUNIT
 70
     2
  9
$DIMLWD
 70
     0
  9
$DIMLWE
 70
     0
  9
$DIMTMOVE
 70
     0
  9
$LUNITS
 70
     2
  9
$LUPREC
 70
     4
  9
$SKETCHINC
 40
0.1
  9
$FILLETRAD
 40
0.0
  9
$AUNITS
 70
     0
  9
$AUPREC
 70
     0
  9
$MENU
  1
acad
  9
$ELEVATION
 40
0.0
  9
$PELEVATION
 40
0.0
  9
$THICKNESS
 40
0.0
  9
$LIMCHECK
 70
     0
  9
$CHAMFERA
 40
0.0
  9
$CHAMFERB
 40
0.0
  9
$CHAMFERC
 40
0.0
  9
$CHAMFERD
 40
0.0
  9
$SKPOLY
 70
     0
  9
$TDCREATE
 40
2455303.727916667
  9
$TDUCREATE
 40
2455303.644583334
  9
$TDUPDATE
 40
2455306.452087234
  9
$TDUUPDATE
 40
2455306.368753900
  9
$TDINDWG
 40
0.0065139236
  9
$TDUSRTIMER
 40
0.0065135648
  9
$USRTIMER
 70
     1
  9
$ANGBASE
 50
0.0
  9
$ANGDIR
 70
     0
  9
$PDMODE
 70
     0
  9
$PDSIZE
 40
0.0
  9
$PLINEWID
 40
0.0
  9
$SPLFRAME
 70
     0
  9
$SPLINETYPE
 70
     6
  9
$SPLINESEGS
 70
     8
  9
$HANDSEED
  5
63D8
  9
$SURFTAB1
 70
     6
  9
$SURFTAB2
 70
     6
  9
$SURFTYPE
 70
     6
  9
$SURFU
 70
     6
  9
$SURFV
 70
     6
  9
$UCSBASE
  2

  9
$UCSNAME
  2

  9
$UCSORG
 10
0.0
 20
0.0
 30
0.0
  9
$UCSXDIR
 10
1.0
 20
0.0
 30
0.0
  9
$UCSYDIR
 10
0.0
 20
1.0
 30
0.0
  9
$UCSORTHOREF
  2

  9
$UCSORTHOVIEW
 70
     0
  9
$UCSORGTOP
 10
0.0
 20
0.0
 30
0.0
  9
$UCSORGBOTTOM
 10
0.0
 20
0.0
 30
0.0
  9
$UCSORGLEFT
 10
0.0
 20
0.0
 30
0.0
  9
$UCSORGRIGHT
 10
0.0
 20
0.0
 30
0.0
  9
$UCSORGFRONT
 10
0.0
 20
0.0
 30
0.0
  9
$UCSORGBACK
 10
0.0
 20
0.0
 30
0.0
  9
$PUCSBASE
  2

  9
$PUCSNAME
  2

  9
$PUCSORG
 10
0.0
 20
0.0
 30
0.0
  9
$PUCSXDIR
 10
1.0
 20
0.0
 30
0.0
  9
$PUCSYDIR
 10
0.0
 20
1.0
 30
0.0
  9
$PUCSORTHOREF
  2

  9
$PUCSORTHOVIEW
 70
     0
  9
$PUCSORGTOP
 10
0.0
 20
0.0
 30
0.0
  9
$PUCSORGBOTTOM
 10
0.0
 20
0.0
 30
0.0
  9
$PUCSORGLEFT
 10
0.0
 20
0.0
 30
0.0
  9
$PUCSORGRIGHT
 10
0.0
 20
0.0
 30
0.0
  9
$PUCSORGFRONT
 10
0.0
 20
0.0
 30
0.0
  9
$PUCSORGBACK
 10
0.0
 20
0.0
 30
0.0
  9
$USERI1
 70
     0
  9
$USERI2
 70
     0
  9
$USERI3
 70
     0
  9
$USERI4
 70
     0
  9
$USERI5
 70
     0
  9
$USERR1
 40
0.0
  9
$USERR2
 40
0.0
  9
$USERR3
 40
0.0
  9
$USERR4
 40
0.0
  9
$USERR5
 40
0.0
  9
$WORLDVIEW
 70
     1
  9
$SHADEDGE
 70
     3
  9
$SHADEDIF
 70
    70
  9
$TILEMODE
 70
     1
  9
$MAXACTVP
 70
    16
  9
$PINSBASE
 10
0.0
 20
0.0
 30
0.0
  9
$PLIMCHECK
 70
     0
  9
$PEXTMIN
 10
1.000000000000000E+20
 20
1.000000000000000E+20
 30
1.000000000000000E+20
  9
$PEXTMAX
 10
-1.000000000000000E+20
 20
-1.000000000000000E+20
 30
-1.000000000000000E+20
  9
$PLIMMIN
 10
0.0
 20
0.0
  9
$PLIMMAX
 10
12.0
 20
9.0
  9
$UNITMODE
 70
     0
  9
$VISRETAIN
 70
     0
  9
$PLINEGEN
 70
     1
  9
$PSLTSCALE
 70
     0
  9
$TREEDEPTH
 70
  3020
  9
$CMLSTYLE
  2
Standard
  9
$CMLJUST
 70
     0
  9
$CMLSCALE
 40
1.0
  9
$PROXYGRAPHICS
 70
     0
  9
$MEASUREMENT
 70
     1
  9
$CELWEIGHT
370
     0
  9
$ENDCAPS
280
     0
  9
$JOINSTYLE
280
     0
  9
$LWDISPLAY
290
     0
  9
$INSUNITS
 70
     0
  9
$HYPERLINKBASE
  1

  9
$STYLESHEET
  1

  9
$XEDIT
290
     1
  9
$CEPSNTYPE
380
     0
  9
$PSTYLEMODE
290
     1
  9
$FINGERPRINTGUID
  2

  9
$VERSIONGUID
  2
{250CA26D-6E04-4297-A260-5127409BD48B}
  9
$EXTNAMES
290
     1
  9
$PSVPSCALE
 40
0.0
  9
$OLESTARTUP
290
     0
  0
ENDSEC
  0
SECTION
  2
CLASSES
  0
CLASS
  1
IMAGE
  2
AcDbRasterImage
  3
ISM
 90
    34943
280
     0
281
     1
  0
CLASS
  1
DICTIONARYVAR
  2
AcDbDictionaryVar
  3
ObjectDBX Classes
 90
        0
280
     0
281
     0
  0
CLASS
  1
RASTERVARIABLES
  2
AcDbRasterVariables
  3
ISM
 90
    32768
280
     0
281
     0
  0
CLASS
  1
IMAGEDEF
  2
AcDbRasterImageDef
  3
ISM
 90
    32768
280
     0
281
     0
  0
CLASS
  1
IMAGEDEF_REACTOR
  2
AcDbRasterImageDefReactor
  3
ISM
 90
    32769
280
     0
281
     0
  0
CLASS
  1
IDBUFFER
  2
AcDbIdBuffer
  3
ObjectDBX Classes
 90
    32768
280
     0
281
     0
  0
CLASS
  1
SPATIAL_FILTER
  2
AcDbSpatialFilter
  3
ObjectDBX Classes
 90
    32768
280
     0
281
     0
  0
CLASS
  1
SORTENTSTABLE
  2
AcDbSortentsTable
  3
ObjectDBX Classes
 90
        0
280
     0
281
     0
  0
CLASS
  1
LAYER_INDEX
  2
AcDbLayerIndex
  3
ObjectDBX Classes
 90
    32768
280
     0
281
     0
  0
CLASS
  1
SPATIAL_INDEX
  2
AcDbSpatialIndex
  3
ObjectDBX Classes
 90
    32768
280
     0
281
     0
  0
CLASS
  1
OBJECT_PTR
  2
CAseDLPNTableRecord
  3
ASE-LPNTableRecord
 90
    32769
280
     0
281
     0
  0
CLASS
  1
LAYOUT
  2
AcDbLayout
  3
ObjectDBX Classes
 90
        0
280
     0
281
     0
  0
CLASS
  1
PLOTSETTINGS
  2
AcDbPlotSettings
  3
ObjectDBX Classes
 90
    32768
280
     0
281
     0
  0
CLASS
  1
ACDBDICTIONARYWDFLT
  2
AcDbDictionaryWithDefault
  3
ObjectDBX Classes
 90
        0
280
     0
281
     0
  0
CLASS
  1
ACDBPLACEHOLDER
  2
AcDbPlaceHolder
  3
ObjectDBX Classes
 90
        0
280
     0
281
     0
  0
CLASS
  1
VBA_PROJECT
  2
AcDbVbaProject
  3
acad
 90
    32768
280
     0
281
     0
  0
CLASS
  1
WIPEOUT
  2
AcDbWipeout
  3
"WipeOut|Product Desc: Object Enabler for WipeOut entity                        |Company: Autodesk, Inc.                        |WEB Address: www.autodesk.com"
 90
    34943
280
     0
281
     1
  0
CLASS
  1
WIPEOUTVARIABLES
  2
AcDbWipeoutVariables
  3
"WipeOut|Product Desc:     WipeOut Dbx Application|Company:          Autodesk, Inc.|WEB Address:      www.autodesk.com"
 90
        0
280
     0
281
     0
  0
CLASS
  1
RTEXT
  2
RText
  3
RText|AutoCAD Express Tool|expresstools@autodesk.com
 90
    35839
280
     0
281
     1
  0
CLASS
  1
ARCALIGNEDTEXT
  2
AcDbArcAlignedText
  3
ATEXT|AutoCAD Express Tool|expresstools@autodesk.com
 90
    32768
280
     0
281
     1
  0
CLASS
  1
MATERIAL
  2
AcDbMaterial
  3
ObjectDBX Classes
 90
     1153
280
     0
281
     0
  0
CLASS
  1
VISUALSTYLE
  2
AcDbVisualStyle
  3
ObjectDBX Classes
 90
     4095
280
     0
281
     0
  0
CLASS
  1
TABLESTYLE
  2
AcDbTableStyle
  3
ObjectDBX Classes
 90
     4095
280
     0
281
     0
  0
CLASS
  1
SCALE
  2
AcDbScale
  3
ObjectDBX Classes
 90
     1153
280
     0
281
     0
  0
CLASS
  1
MLEADERSTYLE
  2
AcDbMLeaderStyle
  3
ACDB_MLEADERSTYLE_CLASS
 90
     4095
280
     0
281
     0
  0
CLASS
  1
CELLSTYLEMAP
  2
AcDbCellStyleMap
  3
ObjectDBX Classes
 90
     1152
280
     0
281
     0
  0
ENDSEC
  0
SECTION
  2
TABLES
  0
TABLE
  2
VPORT
  5
7
330
0
100
AcDbSymbolTable
 70
     1
  0
VPORT
  5
15
330
7
100
AcDbSymbolTableRecord
100
AcDbViewportTableRecord
  2
*ACTIVE
 70
     0
 10
0.0
 20
0.0
 11
1.0
 21
1.0
 12
-46.53035153726827
 22
-28.1307983615333
 13
0.0
 23
0.0
 14
1.0
 24
1.0
 15
0.0
 25
0.0
 16
0.0
 26
0.0
 36
1.0
 17
0.0
 27
0.0
 37
0.0
 40
134.4184644424235
 41
1.611330698287219
 42
50.0
 43
0.0
 44
0.0
 50
0.0
 51
0.0
 71
     0
 72
   100
 73
     1
 74
     1
 75
     0
 76
     0
 77
     0
 78
     0
281
     0
 65
     0
110
0.0
120
0.0
130
0.0
111
1.0
121
0.0
131
0.0
112
0.0
122
1.0
132
0.0
 79
     0
146
0.0
  0
ENDTAB
  0
TABLE
  2
LTYPE
  5
4
330
0
100
AcDbSymbolTable
 70
     4
  0
LTYPE
  5
11
330
4
100
AcDbSymbolTableRecord
100
AcDbLinetypeTableRecord
  2
ByBlock
 70
     0
  3

 72
    65
 73
     0
 40
0.0
  0
LTYPE
  5
12
330
4
100
AcDbSymbolTableRecord
100
AcDbLinetypeTableRecord
  2
ByLayer
 70
     0
  3

 72
    65
 73
     0
 40
0.0
  0
LTYPE
  5
13
330
4
100
AcDbSymbolTableRecord
100
AcDbLinetypeTableRecord
  2
Continuous
 70
     0
  3
Solid line
 72
    65
 73
     0
 40
0.0
  0
LTYPE
  5
1E4
330
4
100
AcDbSymbolTableRecord
100
AcDbLinetypeTableRecord
  2
CENTER
 70
     0
  3
____ _ ____ _ ____ _ ____ _ ____ _ ____ _ ____
 72
    65
 73
     4
 40
2.0
 49
1.25
 74
     0
 49
-0.25
 74
     0
 49
0.25
 74
     0
 49
-0.25
 74
     0
  0
ENDTAB
  0
TABLE
  2
LAYER
  5
2
330
0
100
AcDbSymbolTable
 70
     1
  0
LAYER
  5
14
102
{ACAD_XDICTIONARY
360
5E41
102
}
330
2
100
AcDbSymbolTableRecord
100
AcDbLayerTableRecord
  2
0
 70
     0
 62
     7
  6
Continuous
370
    -3
390
1D
  0
ENDTAB
  0
TABLE
  2
STYLE
  5
3
330
0
100
AcDbSymbolTable
 70
     1
  0
STYLE
  5
17
330
3
100
AcDbSymbolTableRecord
100
AcDbTextStyleTableRecord
  2
Standard
 70
     0
 40
0.0
 41
1.0
 50
0.0
 71
     0
 42
0.0
  3
I011000D.TTF
  4

1001
ACAD
1000
IsonormD
1071
        0
  0
ENDTAB
  0
TABLE
  2
VIEW
  5
5
330
0
100
AcDbSymbolTable
 70
     0
  0
ENDTAB
  0
TABLE
  2
UCS
  5
6
330
0
100
AcDbSymbolTable
 70
     0
  0
ENDTAB
  0
TABLE
  2
APPID
  5
8
330
0
100
AcDbSymbolTable
 70
     5
  0
APPID
  5
16
330
8
100
AcDbSymbolTableRecord
100
AcDbRegAppTableRecord
  2
ACAD
 70
     0
  0
APPID
  5
26
330
8
100
AcDbSymbolTableRecord
100
AcDbRegAppTableRecord
  2
TopSolid'Draft
 70
     0
  0
APPID
  5
319D
330
8
100
AcDbSymbolTableRecord
100
AcDbRegAppTableRecord
  2
ACAD_MLEADERVER
 70
     0
  0
APPID
  5
5E45
330
8
100
AcDbSymbolTableRecord
100
AcDbRegAppTableRecord
  2
DCO15
 70
     0
  0
APPID
  5
632F
330
8
100
AcDbSymbolTableRecord
100
AcDbRegAppTableRecord
  2
ACAD_EXEMPT_FROM_CAD_STANDARDS
 70
     0
  0
ENDTAB
  0
TABLE
  2
DIMSTYLE
  5
9
330
0
100
AcDbSymbolTable
 70
     2
100
AcDbDimStyleTable
 71
     1
340
18
  0
DIMSTYLE
105
18
330
9
100
AcDbSymbolTableRecord
100
AcDbDimStyleTableRecord
  2
Standard
 70
     0
 41
1.25
 42
0.0
 44
0.75
 73
     0
 74
     0
 77
     1
140
2.5
146
0.8
147
1.25
176
     7
177
     7
178
     7
271
     2
340
17
  0
ENDTAB
  0
TABLE
  2
BLOCK_RECORD
  5
1
330
0
100
AcDbSymbolTable
 70
     3
  0
BLOCK_RECORD
  5
A
102
{ACAD_XDICTIONARY
360
31A7
102
}
330
1
100
AcDbSymbolTableRecord
100
AcDbBlockTableRecord
  2
*MODEL_SPACE
340
20
  0
BLOCK_RECORD
  5
B
330
1
100
AcDbSymbolTableRecord
100
AcDbBlockTableRecord
  2
*PAPER_SPACE
340
21
  0
ENDTAB
  0
ENDSEC
  0
SECTION
  2
BLOCKS
  0
BLOCK
  5
D
330
A
100
AcDbEntity
  8
0
100
AcDbBlockBegin
  2
*MODEL_SPACE
 70
     0
 10
0.0
 20
0.0
 30
0.0
  3
*MODEL_SPACE
  1

  0
ENDBLK
  5
E
330
A
100
AcDbEntity
  8
0
100
AcDbBlockEnd
  0
BLOCK
  5
F
330
B
100
AcDbEntity
 67
     1
  8
0
100
AcDbBlockBegin
  2
*PAPER_SPACE
 70
     0
 10
0.0
 20
0.0
 30
0.0
  3
*PAPER_SPACE
  1

  0
ENDBLK
  5
10
330
B
100
AcDbEntity
 67
     1
  8
0
100
AcDbBlockEnd
  0
ENDSEC
  0
SECTION
  2
ENTITIES
  0
LINE
  5
1A5A
330
A
100
AcDbEntity
  8
0
  6
CENTER
 62
     1
100
AcDbLine
 10
-26.00000000000006
 20
0.0
 30
0.0
 11
26.00000000000012
 21
0.0
 31
0.0
  0
LINE
  5
1A5B
330
A
100
AcDbEntity
  8
0
  6
CENTER
 62
     1
100
AcDbLine
 10
-0.0000000000000568
 20
-26.0
 30
0.0
 11
-0.0000000000000568
 21
25.99999999999994
 31
0.0
  0
LINE
  5
1A5C
330
A
100
AcDbEntity
  8
0
  6
CENTER
 62
     1
100
AcDbLine
 10
-68.6249999999992
 20
-0.0000000000001137
 30
0.0
 11
-105.7499999999992
 21
-0.0000000000001137
 31
0.0
  0
ELLIPSE
  5
437F
330
A
100
AcDbEntity
  8
0
  6
Continuous
 62
     7
370
     0
100
AcDbEllipse
 10
-1.568916494400355
 20
-65.33152521065608
 30
0.0
 11
6.062498215701372
 21
-7.425013597500973
 31
-0.0000000000000003
210
0.0
220
0.0
230
1.0
 40
0.8164965809278644
 41
0.2444313988123721
 42
3.132901913272721
  0
ELLIPSE
  5
4380
330
A
100
AcDbEntity
  8
0
  6
Continuous
 62
     7
370
     0
100
AcDbEllipse
 10
-1.394224237261539
 20
-65.18888957998758
 30
0.0
 11
-6.252342780122154
 21
7.65752475413689
 31
0.0000000000000003
210
0.0
220
0.0
230
1.0
 40
0.8164965809278641
 41
3.0270940309291
 42
3.386024052402164
  0
ELLIPSE
  5
4381
330
A
100
AcDbEntity
  8
0
  6
Continuous
 62
     7
370
     0
100
AcDbEllipse
 10
-1.394224237261539
 20
-65.18888957998758
 30
0.0
 11
-6.25234278012221
 21
7.65752475413689
 31
0.0000000000000003
210
0.0
220
0.0
230
1.0
 40
0.8164965809278646
 41
5.896988955859034
 42
6.39748896561054
  0
ELLIPSE
  5
4382
330
A
100
AcDbEntity
  8
0
  6
Continuous
 62
     9
370
     0
100
AcDbEllipse
 10
2.642023430678534
 20
-61.8933071593371
 30
0.0
 11
3.945437323005839
 21
-4.832154126748421
 31
0.0
210
0.0
220
0.0
230
1.0
 40
0.8164965809278641
 41
0.9054820046951698
 42
2.235915481417714
  0
ELLIPSE
  5
4383
330
A
100
AcDbEntity
  8
0
  6
Continuous
 62
     7
370
     0
100
AcDbEllipse
 10
-1.394224237261539
 20
-65.18888957998758
 30
0.0
 11
-6.252342780122154
 21
7.65752475413689
 31
0.0
210
0.0
220
0.0
230
1.0
 40
0.8164965809278646
 41
3.386024052402133
 42
3.527821209003378
  0
ELLIPSE
  5
4384
330
A
100
AcDbEntity
  8
0
  6
Continuous
 62
     7
370
     0
100
AcDbEllipse
 10
-1.394224237261539
 20
-65.18888957998758
 30
0.0
 11
-6.252342780122154
 21
7.65752475413689
 31
0.0
210
0.0000000000000001
220
0.0000000000000001
230
1.0
 40
0.8164965809278641
 41
3.527821209003464
 42
5.896988955859107
  0
ELLIPSE
  5
4385
330
A
100
AcDbEntity
  8
0
  6
Continuous
 62
     9
370
     0
100
AcDbEllipse
 10
3.958369585707828
 20
-60.81851502443829
 30
0.0
 11
4.836207575658893
 21
-5.923120425273379
 31
-0.0000000000000003
210
0.0
220
0.0
230
1.0
 40
0.8164965809278644
 41
0.2444313988123785
 42
3.332704715136008
  0
ELLIPSE
  5
4386
330
A
100
AcDbEntity
  8
0
  6
Continuous
 62
     9
370
     0
100
AcDbEllipse
 10
3.958369585707828
 20
-60.81851502443829
 30
0.0
 11
4.836207575658893
 21
-5.923120425273379
 31
-0.0000000000000005
210
0.0
220
-0.0000000000000001
230
1.0
 40
0.8164965809278646
 41
6.092208329166057
 42
6.527616705992016
  0
ELLIPSE
  5
4387
330
A
100
AcDbEntity
  8
0
  6
Continuous
 62
     7
370
     0
100
AcDbEllipse
 10
6.061547231180213
 20
-59.10127766782648
 30
0.0
 11
11.67218652845259
 21
-14.29545058864828
 31
-0.0000000000000006
210
0.0
220
0.0
230
1.0
 40
0.8164965809278644
 41
0.2444313988123748
 42
4.023588385041558
  0
ELLIPSE
  5
4388
330
A
100
AcDbEntity
  8
0
  6
Continuous
 62
     7
370
     0
100
AcDbEllipse
 10
6.061547231180213
 20
-59.10127766782648
 30
0.0
 11
11.67218652845259
 21
-14.29545058864828
 31
-0.0000000000000006
210
0.0
220
0.0
230
1.0
 40
0.8164965809278649
 41
5.401303588522722
 42
6.527616705992024
  0
ELLIPSE
  5
4389
330
A
100
AcDbEntity
  8
0
  6
Continuous
 62
     7
370
     0
100
AcDbEllipse
 10
-1.568916494402913
 20
-65.33152521065478
 30
0.0
 11
6.071573107523206
 21
-7.436128024718325
 31
-0.0000000000000003
210
0.0
220
0.0
230
1.0
 40
0.8164965809276598
 41
6.283185307179585
 42
9.424777960769377
  0
ELLIPSE
  5
438A
330
A
100
AcDbEntity
  8
0
  6
Continuous
 62
     7
370
     0
100
AcDbEllipse
 10
-1.926687370802881
 20
-65.62364390799093
 30
0.0
 11
6.071573107523152
 21
-7.436128024718325
 31
-0.0000000000000003
210
0.0
220
-0.0000000000000001
230
1.0
 40
0.8164965809276598
 41
3.141592653589797
 42
3.15759644605997
  0
ELLIPSE
  5
438B
330
A
100
AcDbEntity
  8
0
  6
Continuous
 62
     7
370
     0
100
AcDbEllipse
 10
-1.926687370802881
 20
-65.62364390799093
 30
0.0
 11
6.071573107523152
 21
-7.436128024718325
 31
-0.0000000000000003
210
0.0
220
-0.0000000000000001
230
1.0
 40
0.8164965809276598
 41
6.283185307179585
 42
9.424777960769382
  0
ELLIPSE
  5
438C
330
A
100
AcDbEntity
  8
0
  6
Continuous
 62
     7
370
     0
100
AcDbEllipse
 10
-1.926687370802881
 20
-65.62364390799093
 30
0.0
 11
6.071573107523152
 21
-7.436128024718325
 31
-0.0000000000000003
210
0.0
220
-0.0000000000000001
230
1.0
 40
0.8164965809276601
 41
6.267186270840045
 42
6.283185307179585
  0
ELLIPSE
  5
438D
330
A
100
AcDbEntity
  8
0
  6
Continuous
 62
     7
370
     0
100
AcDbEllipse
 10
-4.073312629202064
 20
-67.37635609200703
 30
0.0
 11
6.071573107523378
 21
-7.436128024718159
 31
-0.0000000000000003
210
0.0
220
-0.0000000000000001
230
1.0
 40
0.8164965809277282
 41
0.3895133399895644
 42
2.752131849297521
  0
ELLIPSE
  5
438E
330
A
100
AcDbEntity
  8
0
  6
Continuous
 62
     9
370
     0
100
AcDbEllipse
 10
-13.54606467814062
 20
-75.11082575194376
 30
0.0
 11
-11.76686052422554
 21
14.41140207942537
 31
0.0000000000000006
210
0.0
220
0.0
230
1.0
 40
0.8164965809277259
 41
0.0
 42
6.283185307179585
  0
ELLIPSE
  5
438F
330
A
100
AcDbEntity
  8
0
  6
Continuous
 62
     9
370
     0
100
AcDbEllipse
 10
-14.91334283091402
 20
-76.22720368886058
 30
0.0
 11
-8.812222995125186
 21
10.79272491883859
 31
0.0000000000000005
210
0.0
220
0.0
230
1.0
 40
0.8164965809277259
 41
0.0
 42
6.283185307179585
  0
ELLIPSE
  5
4390
330
A
100
AcDbEntity
  8
0
  6
Continuous
 62
     7
370
     0
100
AcDbEllipse
 10
-4.605775762738232
 20
-67.8111104200118
 30
0.0
 11
6.252342780122154
 21
-7.65752475413689
 31
-0.0000000000000003
210
0.0
220
0.0
230
1.0
 40
0.8164965809277259
 41
0.4770569882198689
 42
2.664608317526599
  0
ARC
  5
4391
330
A
100
AcDbEntity
  8
0
  6
Continuous
 62
     7
370
     0
100
AcDbCircle
 10
-1.13066676995237
 20
-71.09137095877599
 30
0.0
 40
15.37085525584046
100
AcDbArc
 50
73.19505316650559
 51
103.9102464259967
  0
ARC
  5
4392
330
A
100
AcDbEntity
  8
0
  6
Continuous
 62
     7
370
     0
100
AcDbCircle
 10
-7.174250924049431
 20
-63.74168105888407
 30
0.0
 40
15.41921573146252
100
AcDbArc
 50
334.6027771293581
 51
5.245491523207411
  0
ARC
  5
439B
330
A
100
AcDbEntity
  8
0
  6
Continuous
 62
     7
370
     0
100
AcDbCircle
 10
9.643733903811892
 20
-61.84793069450114
 30
0.0
 40
14.75165029758219
100
AcDbArc
 50
249.5219526707976
 51
324.9099276741148
  0
LINE
  5
439C
330
A
100
AcDbEntity
  8
0
  6
Continuous
 62
     7
370
     0
100
AcDbLine
 10
-7.640489601925708
 20
-57.89539718593693
 30
0.0
 11
-7.998260478325676
 21
-58.18751588327291
 31
0.0
  0
LINE
  5
439D
330
A
100
AcDbEntity
  8
0
  6
Continuous
 62
     7
370
     0
100
AcDbLine
 10
4.144885736719913
 20
-73.0597719327086
 30
0.0
 11
4.502656613119768
 21
-72.76765323537251
 31
0.0
  0
CIRCLE
  5
4694
330
A
100
AcDbEntity
  8
0
  6
Continuous
 62
     9
370
     0
100
AcDbCircle
 10
-0.0000000000000568
 20
0.0
 30
0.0
 40
17.41668494619153
  0
CIRCLE
  5
4695
330
A
100
AcDbEntity
  8
0
  6
Continuous
 62
     9
370
     0
100
AcDbCircle
 10
-0.0000000000000568
 20
0.0
 30
0.0
 40
23.25630010379725
  0
CIRCLE
  5
4696
330
A
100
AcDbEntity
  8
0
  6
Continuous
 62
     7
370
     0
100
AcDbCircle
 10
-0.0000000000000568
 20
0.0
 30
0.0
 40
24.00000000000002
  0
LINE
  5
4699
330
A
100
AcDbEntity
  8
0
  6
Continuous
 62
     7
370
     0
100
AcDbLine
 10
-59.67220551219537
 20
-23.06918419016165
 30
0.0
 11
-59.67220551219537
 21
-11.87982136692972
 31
0.0
  0
LINE
  5
469A
330
A
100
AcDbEntity
  8
0
  6
Continuous
 62
     9
370
     0
100
AcDbLine
 10
-55.52285310570567
 20
-23.25630010380661
 30
0.0
 11
-55.52285310570567
 21
-11.97617950472448
 31
0.0
  0
LINE
  5
469B
330
A
100
AcDbEntity
  8
0
  6
Continuous
 62
     7
370
     0
100
AcDbLine
 10
-59.67220551219537
 20
-11.87982136692972
 30
0.0
 11
-59.67220551219537
 21
23.06918419016176
 31
0.0
  0
LINE
  5
469C
330
A
100
AcDbEntity
  8
0
  6
Continuous
 62
     9
370
     0
100
AcDbLine
 10
-55.52285310570567
 20
-11.97617950472448
 30
0.0
 11
-55.52285310570567
 21
23.25630010380667
 31
0.0
  0
LINE
  5
469D
330
A
100
AcDbEntity
  8
0
  6
Continuous
 62
     9
370
     0
100
AcDbLine
 10
-51.70119448851522
 20
-17.41668494619881
 30
0.0
 11
-51.70119448851522
 21
-8.968982355829439
 31
0.0
  0
LINE
  5
469E
330
A
100
AcDbEntity
  8
0
  6
Continuous
 62
     9
370
     0
100
AcDbLine
 10
-51.70119448851522
 20
-8.968982355829439
 30
0.0
 11
-51.70119448851522
 21
17.41668494619819
 31
0.0
  0
LINE
  5
469F
330
A
100
AcDbEntity
  8
0
  6
Continuous
 62
     9
370
     0
100
AcDbLine
 10
-65.55076574223807
 20
-9.55839448528161
 30
0.0
 11
-65.55076574223807
 21
-4.92223817295752
 31
0.0
  0
LINE
  5
46A0
330
A
100
AcDbEntity
  8
0
  6
Continuous
 62
     9
370
     0
100
AcDbLine
 10
-65.55076574223807
 20
-4.92223817295752
 30
0.0
 11
-65.55076574223807
 21
9.558394485279961
 31
0.0
  0
LINE
  5
46A2
330
A
100
AcDbEntity
  8
0
  6
Continuous
 62
     7
370
     0
100
AcDbLine
 10
-80.51172029736921
 20
12.35727743581248
 30
0.0
 11
-80.51172029736921
 21
-6.36356480181422
 31
0.0
  0
LINE
  5
46A3
330
A
100
AcDbEntity
  8
0
  6
Continuous
 62
     9
370
     0
100
AcDbLine
 10
-69.23006509794572
 20
-4.015622137076206
 30
0.0
 11
-69.23006509794572
 21
7.797855191337191
 31
0.0
  0
LINE
  5
46A4
330
A
100
AcDbEntity
  8
0
  6
Continuous
 62
     7
370
     0
100
AcDbLine
 10
-80.51172029736921
 20
-6.36356480181422
 30
0.0
 11
-80.51172029736921
 21
-12.35727743581674
 31
0.0
  0
LINE
  5
46A9
330
A
100
AcDbEntity
  8
0
  6
Continuous
 62
     7
370
     0
100
AcDbLine
 10
-81.00000000000097
 20
-11.99999999999846
 30
0.0
 11
-81.0000000000012
 21
11.99999999999806
 31
0.0
  0
LINE
  5
46AA
330
A
100
AcDbEntity
  8
0
  6
Continuous
 62
     7
370
     0
100
AcDbLine
 10
-82.00000000000096
 20
-11.99999999999846
 30
0.0
 11
-82.00000000000107
 21
11.99999999999806
 31
0.0
  0
LINE
  5
46B9
330
A
100
AcDbEntity
  8
0
  6
Continuous
 62
     7
370
     0
100
AcDbLine
 10
-87.99999999999949
 20
-12.00000000000028
 30
0.0
 11
-87.99999999999949
 21
11.99999999999983
 31
0.0
  0
LINE
  5
46BA
330
A
100
AcDbEntity
  8
0
  6
Continuous
 62
     7
370
     0
100
AcDbLine
 10
-88.99999999999961
 20
-12.00000000000028
 30
0.0
 11
-88.99999999999961
 21
11.99999999999983
 31
0.0
  0
LINE
  5
46BB
330
A
100
AcDbEntity
  8
0
  6
Continuous
 62
     7
370
     0
100
AcDbLine
 10
-110.3277944878013
 20
23.06918419015227
 30
0.0
 11
-110.3277944878013
 21
-23.0691841901525
 31
0.0
  0
LINE
  5
46BC
330
A
100
AcDbEntity
  8
0
  6
Continuous
 62
     9
370
     0
100
AcDbLine
 10
-114.4771468942903
 20
23.25630010379706
 30
0.0
 11
-114.4771468942903
 21
-23.2563001037974
 31
0.0
  0
LINE
  5
46BD
330
A
100
AcDbEntity
  8
0
  6
Continuous
 62
     9
370
     0
100
AcDbLine
 10
-118.29880551148
 20
17.41668494619136
 30
0.0
 11
-118.29880551148
 21
-17.41668494619159
 31
0.0
  0
LINE
  5
46BE
330
A
100
AcDbEntity
  8
0
  6
Continuous
 62
     9
370
     0
100
AcDbLine
 10
-104.4492342577596
 20
9.558394485276778
 30
0.0
 11
-104.4492342577596
 21
-9.558394485277233
 31
0.0
  0
LINE
  5
46BF
330
A
100
AcDbEntity
  8
0
  6
Continuous
 62
     7
370
     0
100
AcDbLine
 10
-89.48827970263101
 20
-12.3572774358098
 30
0.0
 11
-89.48827970263101
 21
12.35727743580946
 31
0.0
  0
LINE
  5
46C0
330
A
100
AcDbEntity
  8
0
  6
Continuous
 62
     9
370
     0
100
AcDbLine
 10
-100.7699349020525
 20
7.797855191334747
 30
0.0
 11
-100.7699349020525
 21
-7.797855191335088
 31
0.0
  0
ARC
  5
46D9
330
A
100
AcDbEntity
  8
0
  6
Continuous
 62
     7
370
     0
100
AcDbCircle
 10
-57.49999999999705
 20
-21.00000000000495
 30
0.0
 40
3.000000000000055
100
AcDbArc
 50
223.6085865826884
 51
311.2273817133996
  0
ARC
  5
46DA
330
A
100
AcDbEntity
  8
0
  6
Continuous
 62
     7
370
     0
100
AcDbCircle
 10
-57.49999999999705
 20
21.00000000000222
 30
0.0
 40
2.999999999999984
100
AcDbArc
 50
48.77261828660039
 51
136.3914134173116
  0
ARC
  5
46DB
330
A
100
AcDbEntity
  8
0
  6
Continuous
 62
     7
370
     0
100
AcDbCircle
 10
-64.0904896476348
 20
-13.47899965401274
 30
0.0
 40
13.0
100
AcDbArc
 50
311.2273817133858
 51
342.368200622673
  0
ARC
  5
46DC
330
A
100
AcDbEntity
  8
0
  6
Continuous
 62
     7
370
     0
100
AcDbCircle
 10
-64.0904896476348
 20
13.47899965400995
 30
0.0
 40
12.99999999999997
100
AcDbArc
 50
17.63179937732699
 51
48.77261828661419
  0
ARC
  5
46DD
330
A
100
AcDbEntity
  8
0
  6
Continuous
 62
     7
370
     0
100
AcDbCircle
 10
-34.99999999999324
 20
-4.300000000002114
 30
0.0
 40
30.99999999999999
100
AcDbArc
 50
189.7660530304966
 51
217.2617743437822
  0
ARC
  5
46DE
330
A
100
AcDbEntity
  8
0
  6
Continuous
 62
     7
370
     0
100
AcDbCircle
 10
-34.99999999999324
 20
4.299999999999386
 30
0.0
 40
31.00000000000002
100
AcDbArc
 50
142.7382256562177
 51
170.2339469695033
  0
ARC
  5
46DF
330
A
100
AcDbEntity
  8
0
  6
Continuous
 62
     7
370
     0
100
AcDbCircle
 10
-106.5000000000054
 20
-0.0000000000013074
 30
0.0
 40
57.5
100
AcDbArc
 50
342.368200622669
 51
17.63179937733108
  0
ARC
  5
46E0
330
A
100
AcDbEntity
  8
0
  6
Continuous
 62
     7
370
     0
100
AcDbCircle
 10
-93.2100000000031
 20
-35.30000000000729
 30
0.0
 40
49.31999999999995
100
AcDbArc
 50
60.90814451875917
 51
75.08017546014916
  0
ARC
  5
46E1
330
A
100
AcDbEntity
  8
0
  6
Continuous
 62
     7
370
     0
100
AcDbCircle
 10
-93.21000000000323
 20
35.30000000000459
 30
0.0
 40
49.31999999999997
100
AcDbArc
 50
284.9198245398508
 51
299.0918554812408
  0
LINE
  5
46E2
330
A
100
AcDbEntity
  8
0
  6
Continuous
 62
     7
370
     0
100
AcDbLine
 10
-80.51172029736921
 20
12.35727743580878
 30
0.0
 11
-81.00000000000108
 21
11.98206417020117
 31
0.0
  0
LINE
  5
46E3
330
A
100
AcDbEntity
  8
0
  6
Continuous
 62
     7
370
     0
100
AcDbLine
 10
-81.00000000000108
 20
-11.98206417020395
 30
0.0
 11
-80.51172029736921
 21
-12.35727743581162
 31
0.0
  0
ARC
  5
46E4
330
A
100
AcDbEntity
  8
0
  6
Continuous
 62
     7
370
     0
100
AcDbCircle
 10
-68.01453717306441
 20
-9.982458556673407
 30
0.0
 40
2.49999999999998
100
AcDbArc
 50
9.766053030510043
 51
119.0918554812335
  0
ARC
  5
46E5
330
A
100
AcDbEntity
  8
0
  6
Continuous
 62
     7
370
     0
100
AcDbCircle
 10
-68.01453717306441
 20
9.982458556670565
 30
0.0
 40
2.499999999999995
100
AcDbArc
 50
240.9081445187664
 51
350.2339469694899
  0
LINE
  5
46EE
330
A
100
AcDbEntity
  8
0
  6
Continuous
 62
     7
370
     0
100
AcDbLine
 10
-81.0000000000012
 20
11.99999999999898
 30
0.0
 11
-82.00000000000107
 21
11.99999999999898
 31
0.0
  0
LINE
  5
46EF
330
A
100
AcDbEntity
  8
0
  6
Continuous
 62
     7
370
     0
100
AcDbLine
 10
-82.00000000000096
 20
-11.99999999999949
 30
0.0
 11
-81.00000000000097
 21
-11.99999999999949
 31
0.0
  0
LINE
  5
4704
330
A
100
AcDbEntity
  8
0
  6
Continuous
 62
     7
370
     0
100
AcDbLine
 10
-87.99999999999949
 20
12.00000000000017
 30
0.0
 11
-88.99999999999961
 21
12.00000000000017
 31
0.0
  0
LINE
  5
4705
330
A
100
AcDbEntity
  8
0
  6
Continuous
 62
     7
370
     0
100
AcDbLine
 10
-88.99999999999961
 20
-12.00000000000074
 30
0.0
 11
-87.99999999999949
 21
-12.00000000000074
 31
0.0
  0
ARC
  5
4708
330
A
100
AcDbEntity
  8
0
  6
Continuous
 62
     7
370
     0
100
AcDbCircle
 10
-112.4999999999992
 20
20.99999999999988
 30
0.0
 40
2.999999999999991
100
AcDbArc
 50
43.60858658270684
 51
131.2273817133812
  0
ARC
  5
4709
330
A
100
AcDbEntity
  8
0
  6
Continuous
 62
     7
370
     0
100
AcDbCircle
 10
-112.4999999999992
 20
-21.00000000000012
 30
0.0
 40
2.999999999999968
100
AcDbArc
 50
228.7726182866188
 51
316.3914134172908
  0
ARC
  5
470A
330
A
100
AcDbEntity
  8
0
  6
Continuous
 62
     7
370
     0
100
AcDbCircle
 10
-105.9095103523627
 20
13.47899965400898
 30
0.0
 40
12.99999999999999
100
AcDbArc
 50
131.2273817133812
 51
162.3682006226761
  0
ARC
  5
470B
330
A
100
AcDbEntity
  8
0
  6
Continuous
 62
     7
370
     0
100
AcDbCircle
 10
-105.9095103523627
 20
-13.47899965400927
 30
0.0
 40
12.99999999999999
100
AcDbArc
 50
197.6317993773239
 51
228.7726182866188
  0
ARC
  5
470C
330
A
100
AcDbEntity
  8
0
  6
Continuous
 62
     7
370
     0
100
AcDbCircle
 10
-134.9999999999992
 20
4.299999999999897
 30
0.0
 40
30.99999999999996
100
AcDbArc
 50
9.766053030476841
 51
37.26177434378224
  0
ARC
  5
470D
330
A
100
AcDbEntity
  8
0
  6
Continuous
 62
     7
370
     0
100
AcDbCircle
 10
-134.9999999999992
 20
-4.300000000000125
 30
0.0
 40
31.0
100
AcDbArc
 50
322.7382256562178
 51
350.2339469695232
  0
ARC
  5
470E
330
A
100
AcDbEntity
  8
0
  6
Continuous
 62
     7
370
     0
100
AcDbCircle
 10
-63.4999999999992
 20
-0.0000000000001137
 30
0.0
 40
57.5
100
AcDbArc
 50
162.3682006226761
 51
197.6317993773239
  0
LINE
  5
470F
330
A
100
AcDbEntity
  8
0
  6
Continuous
 62
     7
370
     0
100
AcDbLine
 10
-89.48827970263101
 20
-12.3572774358098
 30
0.0
 11
-88.9999999999992
 21
-11.98206417020208
 31
0.0
  0
LINE
  5
4710
330
A
100
AcDbEntity
  8
0
  6
Continuous
 62
     7
370
     0
100
AcDbLine
 10
-88.9999999999992
 20
11.98206417020185
 30
0.0
 11
-89.48827970263101
 21
12.35727743580946
 31
0.0
  0
ARC
  5
4711
330
A
100
AcDbEntity
  8
0
  6
Continuous
 62
     7
370
     0
100
AcDbCircle
 10
-76.78999999999922
 20
35.29999999999982
 30
0.0
 40
49.31999999999997
100
AcDbArc
 50
240.908144518762
 51
255.0801754601523
  0
ARC
  5
4712
330
A
100
AcDbEntity
  8
0
  6
Continuous
 62
     7
370
     0
100
AcDbCircle
 10
-76.78999999999922
 20
-35.30000000000013
 30
0.0
 40
49.32000000000001
100
AcDbArc
 50
104.9198245398477
 51
119.0918554812379
  0
ARC
  5
4713
330
A
100
AcDbEntity
  8
0
  6
Continuous
 62
     7
370
     0
100
AcDbCircle
 10
-101.9854628269337
 20
9.982458556670167
 30
0.0
 40
2.500000000000013
100
AcDbArc
 50
189.7660530304768
 51
299.091855481238
  0
ARC
  5
4714
330
A
100
AcDbEntity
  8
0
  6
Continuous
 62
     7
370
     0
100
AcDbCircle
 10
-101.9854628269337
 20
-9.982458556670394
 30
0.0
 40
2.500000000000032
100
AcDbArc
 50
60.9081445187636
 51
170.2339469695232
  0
ARC
  5
6012
330
A
100
AcDbEntity
  8
0
  6
Continuous
 62
     7
370
     0
100
AcDbCircle
 10
-9.815038080569593
 20
-78.22426138098553
 30
0.0
 40
14.42860002894253
100
AcDbArc
 50
255.9465173984816
 51
3.567426037551481
  0
ARC
  5
6013
330
A
100
AcDbEntity
  8
0
  6
Continuous
 62
     7
370
     0
100
AcDbCircle
 10
-17.18256420994623
 20
-78.16780031270326
 30
0.0
 40
21.78441985229913
100
AcDbArc
 50
2.213358125380574
 51
83.2452999519803
  0
ARC
  5
6014
330
A
100
AcDbEntity
  8
0
  6
Continuous
 62
     7
370
     0
100
AcDbCircle
 10
-15.95961370033939
 20
-70.79857024041945
 30
0.0
 40
14.32671882651473
100
AcDbArc
 50
84.63597257128455
 51
183.1506157574085
  0
ARC
  5
6015
330
A
100
AcDbEntity
  8
0
  6
Continuous
 62
     7
370
     0
100
AcDbCircle
 10
-8.30378148809325
 20
-70.82689998073613
 30
0.0
 40
21.97401120548179
100
AcDbArc
 50
181.9796441140882
 51
256.8076781714919
  0
ARC
  5
6016
330
A
100
AcDbEntity
  8
0
  6
Continuous
 62
     7
370
     0
100
AcDbCircle
 10
6.352295852013583
 20
-61.09217566559232
 30
0.0
 40
17.92463646530891
100
AcDbArc
 50
328.9848219057244
 51
30.42085847267868
  0
ARC
  5
6017
330
A
100
AcDbEntity
  8
0
  6
Continuous
 62
     7
370
     0
100
AcDbCircle
 10
3.066474776089194
 20
-61.42198191998528
 30
0.0
 40
20.97050731675367
100
AcDbArc
 50
26.64942019068038
 51
90.18873022443621
  0
ARC
  5
6018
330
A
100
AcDbEntity
  8
0
  6
Continuous
 62
     7
370
     0
100
AcDbCircle
 10
3.709554596215639
 20
-54.76764067597674
 30
0.0
 40
14.33375454956916
100
AcDbArc
 50
92.84784608549831
 51
184.4244254884132
  0
LINE
  5
6019
330
A
100
AcDbEntity
  8
0
  6
Continuous
 62
     7
370
     0
100
AcDbLine
 10
-10.58148473278453
 20
-55.87340483901892
 30
0.0
 11
-10.53642779482516
 21
-56.76786258632546
 31
0.0
  0
LINE
  5
601A
330
A
100
AcDbEntity
  8
0
  6
Continuous
 62
     7
370
     0
100
AcDbLine
 10
-10.53642779482516
 20
-56.76786258632546
 30
0.0
 11
-10.48526989860903
 21
-57.33770722803052
 31
0.0
  0
CIRCLE
  5
6336
330
A
100
AcDbEntity
  8
0
  6
CENTER
 62
     1
100
AcDbCircle
 10
0.0000000000000284
 20
0.0
 30
0.0
 40
7.0
  0
TEXT
  5
63C7
330
A
100
AcDbEntity
  8
0
  6
Continuous
 62
     7
370
     0
100
AcDbText
 10
-99.10684546417812
 20
-38.31851877353029
 30
0.0
 40
10.0
  1
5401
100
AcDbText
  0
ENDSEC
  0
SECTION
  2
OBJECTS
  0
DICTIONARY
  5
19
330
0
100
AcDbDictionary
281
     1
  3
ACAD_COLOR
350
3176
  3
ACAD_GROUP
350
1A
  3
ACAD_LAYOUT
350
1E
  3
ACAD_MATERIAL
350
314C
  3
ACAD_MLEADERSTYLE
350
319B
  3
ACAD_MLINESTYLE
350
1B
  3
ACAD_PLOTSETTINGS
350
22
  3
ACAD_PLOTSTYLENAME
350
1F
  3
ACAD_SCALELIST
350
3179
  3
ACAD_TABLESTYLE
350
3177
  3
ACAD_VISUALSTYLE
350
3165
  3
ACAD_WIPEOUT_VARS
350
23
  3
ACDB_RECOMPOSE_DATA
350
630A
  3
AcDbVariableDictionary
350
630B
  3
ASE_INDEX_DICTIONARY
350
5E44
  3
DWGPROPS
350
63D2
  0
DICTIONARY
  5
5E41
330
14
100
AcDbDictionary
280
     1
281
     1
  3
ADSK_XREC_LAYER_RECONCILED
360
5E42
  0
DICTIONARY
  5
31A7
330
A
100
AcDbDictionary
280
     1
281
     1
  3
ACAD_SORTENTS
360
31A8
  0
DICTIONARY
  5
3176
102
{ACAD_REACTORS
330
19
102
}
330
19
100
AcDbDictionary
281
     1
  0
DICTIONARY
  5
1A
102
{ACAD_REACTORS
330
19
102
}
330
19
100
AcDbDictionary
281
     1
  0
DICTIONARY
  5
1E
102
{ACAD_REACTORS
330
19
102
}
330
19
100
AcDbDictionary
281
     1
  3
Layout1
350
21
  3
Model
350
20
  0
DICTIONARY
  5
314C
102
{ACAD_REACTORS
330
19
102
}
330
19
100
AcDbDictionary
281
     1
  3
ByBlock
350
3155
  3
ByLayer
350
314D
  3
Global
350
315D
  0
DICTIONARY
  5
319B
102
{ACAD_REACTORS
330
19
102
}
330
19
100
AcDbDictionary
281
     1
  3
Standard
350
319C
  0
DICTIONARY
  5
1B
102
{ACAD_REACTORS
330
19
102
}
330
19
100
AcDbDictionary
281
     1
  3
Standard
350
1C
  0
DICTIONARY
  5
22
102
{ACAD_REACTORS
330
19
102
}
330
19
100
AcDbDictionary
281
     1
  0
ACDBDICTIONARYWDFLT
  5
1F
102
{ACAD_REACTORS
330
19
102
}
330
19
100
AcDbDictionary
281
     1
  3
Normal
350
1D
100
AcDbDictionaryWithDefault
340
1D
  0
DICTIONARY
  5
3179
102
{ACAD_REACTORS
330
19
102
}
330
19
100
AcDbDictionary
281
     1
  3
A0
350
317A
  3
A1
350
317B
  3
A2
350
317C
  3
A3
350
317D
  3
A4
350
317E
  3
A5
350
317F
  3
A6
350
3180
  3
A7
350
3181
  3
A8
350
3182
  3
A9
350
3183
  3
B0
350
3184
  3
B1
350
3185
  3
B2
350
3186
  3
B3
350
3187
  3
B4
350
3188
  3
B5
350
3189
  3
B6
350
318A
  3
B7
350
318B
  3
B8
350
318C
  3
B9
350
318D
  3
C0
350
318E
  3
C1
350
318F
  3
C2
350
3190
  3
C3
350
3191
  3
C4
350
3192
  3
C5
350
3193
  3
C6
350
3194
  3
C7
350
3195
  3
C8
350
3196
  3
C9
350
3197
  3
D0
350
3198
  3
D1
350
3199
  3
D2
350
319A
  0
DICTIONARY
  5
3177
102
{ACAD_REACTORS
330
19
102
}
330
19
100
AcDbDictionary
281
     1
  3
Standard
350
3178
  0
DICTIONARY
  5
3165
102
{ACAD_REACTORS
330
19
102
}
330
19
100
AcDbDictionary
281
     1
  3
2dWireframe
350
316B
  3
3D Hidden
350
316D
  3
3dWireframe
350
316C
  3
Basic
350
316A
  3
Brighten
350
3171
  3
ColorChange
350
3175
  3
Conceptual
350
316E
  3
Dim
350
3170
  3
Facepattern
350
3174
  3
Flat
350
3166
  3
FlatWithEdges
350
3167
  3
Gouraud
350
3168
  3
GouraudWithEdges
350
3169
  3
Linepattern
350
3173
  3
Realistic
350
316F
  3
Thicken
350
3172
  0
WIPEOUTVARIABLES
  5
23
330
19
100
AcDbWipeoutVariables
 70
     1
  0
XRECORD
  5
630A
102
{ACAD_REACTORS
330
19
102
}
330
19
100
AcDbXrecord
280
     1
 90
        1
330
3178
  0
DICTIONARY
  5
630B
102
{ACAD_REACTORS
330
19
102
}
330
19
100
AcDbDictionary
281
     1
  3
CANNOSCALE
350
630F
  3
CMLEADERSTYLE
350
630D
  3
CTABLESTYLE
350
630C
  3
DIMASSOC
350
6318
  3
INDEXCTL
350
6317
  3
LIGHTINGUNITS
350
6310
  3
MSLTSCALE
350
630E
  3
SORTENTS
350
6316
  0
DICTIONARY
  5
5E44
102
{ACAD_REACTORS
330
19
102
}
330
19
100
AcDbDictionary
281
     1
  3
ASEBlockHierarchyIndexRecord
350
5E46
1001
DCO15
1040
1685075681.336
  0
XRECORD
  5
63D2
102
{ACAD_REACTORS
330
19
102
}
330
19
100
AcDbXrecord
280
     1
  1
DWGPROPS COOKIE
  2

  3

  4

  6

  7

  8
renzo.ceresoli
  9

300
=
301
=
302
=
303
=
304
=
305
=
306
=
307
=
308
=
309
=
 40
0.0065139236111111
 41
2455303.727916667
 42
2455306.452087234
  1

 90
        0
  0
XRECORD
  5
5E42
102
{ACAD_REACTORS
330
5E41
102
}
330
5E41
100
AcDbXrecord
280
     1
290
     1
  0
SORTENTSTABLE
  5
31A8
102
{ACAD_REACTORS
330
31A7
102
}
330
31A7
100
AcDbSortentsTable
330
A
331
46C0
  5
4A75
331
470F
  5
4AC4
331
46BE
  5
4A73
331
46D9
  5
4A8E
331
46A3
  5
4A58
331
470D
  5
4AC2
331
46BC
  5
4A71
331
470B
  5
4AC0
331
46BA
  5
4A6F
331
46EE
  5
4AA3
331
4709
  5
4ABE
331
4391
  5
4C71
331
438F
  5
4C6F
331
4705
  5
4ABA
331
438D
  5
4C6D
331
469F
  5
4A54
331
438B
  5
4C6B
331
469D
  5
4A52
331
4389
  5
4C69
331
4387
  5
4C67
331
46E4
  5
4A99
331
469B
  5
4A50
331
4385
  5
4C65
331
46E2
  5
4A97
331
4699
  5
4A4E
331
4383
  5
4C63
331
46E0
  5
4A95
331
46AA
  5
4A5F
331
46DE
  5
4A93
331
4714
  5
4AC9
331
1A5B
  5
4AD6
331
4381
  5
4C61
331
439C
  5
4C75
331
4695
  5
4AD3
331
46DC
  5
4A91
331
4712
  5
4AC7
331
437F
  5
4C5F
331
46DA
  5
4A8F
331
4710
  5
4AC5
331
46BF
  5
4A74
331
46A4
  5
4A59
331
470E
  5
4AC3
331
46BD
  5
4A72
331
46A2
  5
4A57
331
470C
  5
4AC1
331
46BB
  5
4A70
331
46A0
  5
4A55
331
46EF
  5
4AA4
331
470A
  5
4ABF
331
46B9
  5
4A6E
331
4392
  5
4C72
331
4708
  5
4ABD
331
4390
  5
4C70
331
438E
  5
4C6E
331
4704
  5
4AB9
331
438C
  5
4C6C
331
469E
  5
4A53
331
438A
  5
4C6A
331
469C
  5
4A51
331
46E5
  5
4A9A
331
4388
  5
4C68
331
4386
  5
4C66
331
46E3
  5
4A98
331
469A
  5
4A4F
331
4384
  5
4C64
331
46E1
  5
4A96
331
46DF
  5
4A94
331
1A5C
  5
4AD7
331
4382
  5
4C62
331
439D
  5
4C76
331
46A9
  5
4A5E
331
4696
  5
4AD4
331
4713
  5
4AC8
331
46DD
  5
4A92
331
1A5A
  5
4AD5
331
4380
  5
4C60
331
439B
  5
4C74
331
4694
  5
4AD2
331
4711
  5
4AC6
331
46DB
  5
4A90
  0
LAYOUT
  5
21
102
{ACAD_XDICTIONARY
360
63D5
102
}
102
{ACAD_REACTORS
330
1E
102
}
330
1E
100
AcDbPlotSettings
  1

  2

  4

  6

 40
0.0
 41
0.0
 42
0.0
 43
0.0
 44
0.0
 45
0.0
 46
0.0
 47
0.0
 48
0.0
 49
0.0
140
0.0
141
0.0
142
1.0
143
1.0
 70
     0
 72
     0
 73
     0
 74
     0
  7

 75
     0
147
1.0
148
0.0
149
0.0
100
AcDbLayout
  1
Layout1
 70
     0
 71
     1
 10
0.0
 20
0.0
 11
12.0
 21
9.0
 12
0.0
 22
0.0
 32
0.0
 14
1.000000000000000E+20
 24
1.000000000000000E+20
 34
1.000000000000000E+20
 15
-1.000000000000000E+20
 25
-1.000000000000000E+20
 35
-1.000000000000000E+20
146
0.0
 13
0.0
 23
0.0
 33
0.0
 16
1.0
 26
0.0
 36
0.0
 17
0.0
 27
1.0
 37
0.0
 76
     0
330
B
  0
LAYOUT
  5
20
102
{ACAD_XDICTIONARY
360
63D3
102
}
102
{ACAD_REACTORS
330
1E
102
}
330
1E
100
AcDbPlotSettings
  1

  2

  4

  6

 40
0.0
 41
0.0
 42
0.0
 43
0.0
 44
0.0
 45
0.0
 46
0.0
 47
0.0
 48
0.0
 49
0.0
140
0.0
141
0.0
142
1.0
143
1.0
 70
  1024
 72
     0
 73
     0
 74
     0
  7

 75
     0
147
1.0
148
0.0
149
0.0
100
AcDbLayout
  1
Model
 70
     0
 71
     0
 10
0.0
 20
0.0
 11
0.0
 21
0.0
 12
0.0
 22
0.0
 32
0.0
 14
0.0
 24
0.0
 34
0.0
 15
0.0
 25
0.0
 35
0.0
146
0.0
 13
0.0
 23
0.0
 33
0.0
 16
0.0
 26
0.0
 36
0.0
 17
0.0
 27
0.0
 37
0.0
 76
     0
330
A
331
15
  0
MATERIAL
  5
3155
102
{ACAD_XDICTIONARY
360
3156
102
}
102
{ACAD_REACTORS
330
314C
102
}
330
314C
100
AcDbMaterial
  1
ByBlock
 72
     0
 43
0.0208333333333333
 43
0.0
 43
0.0
 43
0.0
 43
0.0
 43
0.0208333333333333
 43
0.0
 43
0.0
 43
0.0
 43
0.0
 43
1.0
 43
0.0
 43
0.0
 43
0.0
 43
0.0
 43
1.0
 77
     0
 47
0.0208333333333333
 47
0.0
 47
0.0
 47
0.0
 47
0.0
 47
0.0208333333333333
 47
0.0
 47
0.0
 47
0.0
 47
0.0
 47
1.0
 47
0.0
 47
0.0
 47
0.0
 47
0.0
 47
1.0
171
     0
 49
0.0208333333333333
 49
0.0
 49
0.0
 49
0.0
 49
0.0
 49
0.0208333333333333
 49
0.0
 49
0.0
 49
0.0
 49
0.0
 49
1.0
 49
0.0
 49
0.0
 49
0.0
 49
0.0
 49
1.0
175
     0
142
0.0208333333333333
142
0.0
142
0.0
142
0.0
142
0.0
142
0.0208333333333333
142
0.0
142
0.0
142
0.0
142
0.0
142
1.0
142
0.0
142
0.0
142
0.0
142
0.0
142
1.0
179
     0
144
0.0208333333333333
144
0.0
144
0.0
144
0.0
144
0.0
144
0.0208333333333333
144
0.0
144
0.0
144
0.0
144
0.0
144
1.0
144
0.0
144
0.0
144
0.0
144
0.0
144
1.0
147
0.0208333333333333
147
0.0
147
0.0
147
0.0
147
0.0
147
0.0208333333333333
147
0.0
147
0.0
147
0.0
147
0.0
147
1.0
147
0.0
147
0.0
147
0.0
147
0.0
147
1.0
  0
MATERIAL
  5
314D
102
{ACAD_XDICTIONARY
360
314E
102
}
102
{ACAD_REACTORS
330
314C
102
}
330
314C
100
AcDbMaterial
  1
ByLayer
 72
     0
 43
0.0208333333333333
 43
0.0
 43
0.0
 43
0.0
 43
0.0
 43
0.0208333333333333
 43
0.0
 43
0.0
 43
0.0
 43
0.0
 43
1.0
 43
0.0
 43
0.0
 43
0.0
 43
0.0
 43
1.0
 77
     0
 47
0.0208333333333333
 47
0.0
 47
0.0
 47
0.0
 47
0.0
 47
0.0208333333333333
 47
0.0
 47
0.0
 47
0.0
 47
0.0
 47
1.0
 47
0.0
 47
0.0
 47
0.0
 47
0.0
 47
1.0
171
     0
 49
0.0208333333333333
 49
0.0
 49
0.0
 49
0.0
 49
0.0
 49
0.0208333333333333
 49
0.0
 49
0.0
 49
0.0
 49
0.0
 49
1.0
 49
0.0
 49
0.0
 49
0.0
 49
0.0
 49
1.0
175
     0
142
0.0208333333333333
142
0.0
142
0.0
142
0.0
142
0.0
142
0.0208333333333333
142
0.0
142
0.0
142
0.0
142
0.0
142
1.0
142
0.0
142
0.0
142
0.0
142
0.0
142
1.0
179
     0
144
0.0208333333333333
144
0.0
144
0.0
144
0.0
144
0.0
144
0.0208333333333333
144
0.0
144
0.0
144
0.0
144
0.0
144
1.0
144
0.0
144
0.0
144
0.0
144
0.0
144
1.0
147
0.0208333333333333
147
0.0
147
0.0
147
0.0
147
0.0
147
0.0208333333333333
147
0.0
147
0.0
147
0.0
147
0.0
147
1.0
147
0.0
147
0.0
147
0.0
147
0.0
147
1.0
  0
MATERIAL
  5
315D
102
{ACAD_XDICTIONARY
360
315E
102
}
102
{ACAD_REACTORS
330
314C
102
}
330
314C
100
AcDbMaterial
  1
Global
 72
     0
 43
0.0208333333333333
 43
0.0
 43
0.0
 43
0.0
 43
0.0
 43
0.0208333333333333
 43
0.0
 43
0.0
 43
0.0
 43
0.0
 43
1.0
 43
0.0
 43
0.0
 43
0.0
 43
0.0
 43
1.0
 77
     0
 47
0.0208333333333333
 47
0.0
 47
0.0
 47
0.0
 47
0.0
 47
0.0208333333333333
 47
0.0
 47
0.0
 47
0.0
 47
0.0
 47
1.0
 47
0.0
 47
0.0
 47
0.0
 47
0.0
 47
1.0
171
     0
 49
0.0208333333333333
 49
0.0
 49
0.0
 49
0.0
 49
0.0
 49
0.0208333333333333
 49
0.0
 49
0.0
 49
0.0
 49
0.0
 49
1.0
 49
0.0
 49
0.0
 49
0.0
 49
0.0
 49
1.0
175
     0
142
0.0208333333333333
142
0.0
142
0.0
142
0.0
142
0.0
142
0.0208333333333333
142
0.0
142
0.0
142
0.0
142
0.0
142
1.0
142
0.0
142
0.0
142
0.0
142
0.0
142
1.0
179
     0
144
0.0208333333333333
144
0.0
144
0.0
144
0.0
144
0.0
144
0.0208333333333333
144
0.0
144
0.0
144
0.0
144
0.0
144
1.0
144
0.0
144
0.0
144
0.0
144
0.0
144
1.0
147
0.0208333333333333
147
0.0
147
0.0
147
0.0
147
0.0
147
0.0208333333333333
147
0.0
147
0.0
147
0.0
147
0.0
147
1.0
147
0.0
147
0.0
147
0.0
147
0.0
147
1.0
  0
MLEADERSTYLE
  5
319C
102
{ACAD_REACTORS
330
319B
102
}
330
319B
100
AcDbMLeaderStyle
170
     2
171
     1
172
     0
 90
        2
 40
0.0
 41
0.0
173
     1
 91
-1056964608
340
11
 92
       -2
290
     1
 42
2.0
291
     1
 43
0.36
  3
Standard
 44
4.0
300

342
17
174
     1
178
     6
175
     1
176
     0
 93
-1056964608
 45
4.0
292
     0
297
     0
 46
4.0
 94
-1056964608
 47
1.0
 49
1.0
140
1.0
293
     1
141
0.0
294
     1
177
     0
142
1.0
295
     0
296
     0
143
0.125
1001
ACAD_MLEADERVER
1070
     2
  0
MLINESTYLE
  5
1C
102
{ACAD_REACTORS
330
1B
102
}
330
1B
100
AcDbMlineStyle
  2
STANDARD
 70
     0
  3

 62
     0
 51
90.0
 52
90.0
 71
     2
 49
0.5
 62
   256
  6
BYLAYER
 49
-0.5
 62
   256
  6
BYLAYER
  0
ACDBPLACEHOLDER
  5
1D
102
{ACAD_REACTORS
330
1F
102
}
330
1F
  0
SCALE
  5
317A
102
{ACAD_REACTORS
330
3179
102
}
330
3179
100
AcDbScale
 70
     0
300
1:1
140
1.0
141
1.0
290
     1
  0
SCALE
  5
317B
102
{ACAD_REACTORS
330
3179
102
}
330
3179
100
AcDbScale
 70
     0
300
1:2
140
1.0
141
2.0
290
     0
  0
SCALE
  5
317C
102
{ACAD_REACTORS
330
3179
102
}
330
3179
100
AcDbScale
 70
     0
300
1:4
140
1.0
141
4.0
290
     0
  0
SCALE
  5
317D
102
{ACAD_REACTORS
330
3179
102
}
330
3179
100
AcDbScale
 70
     0
300
1:5
140
1.0
141
5.0
290
     0
  0
SCALE
  5
317E
102
{ACAD_REACTORS
330
3179
102
}
330
3179
100
AcDbScale
 70
     0
300
1:8
140
1.0
141
8.0
290
     0
  0
SCALE
  5
317F
102
{ACAD_REACTORS
330
3179
102
}
330
3179
100
AcDbScale
 70
     0
300
1:10
140
1.0
141
10.0
290
     0
  0
SCALE
  5
3180
102
{ACAD_REACTORS
330
3179
102
}
330
3179
100
AcDbScale
 70
     0
300
1:16
140
1.0
141
16.0
290
     0
  0
SCALE
  5
3181
102
{ACAD_REACTORS
330
3179
102
}
330
3179
100
AcDbScale
 70
     0
300
1:20
140
1.0
141
20.0
290
     0
  0
SCALE
  5
3182
102
{ACAD_REACTORS
330
3179
102
}
330
3179
100
AcDbScale
 70
     0
300
1:30
140
1.0
141
30.0
290
     0
  0
SCALE
  5
3183
102
{ACAD_REACTORS
330
3179
102
}
330
3179
100
AcDbScale
 70
     0
300
1:40
140
1.0
141
40.0
290
     0
  0
SCALE
  5
3184
102
{ACAD_REACTORS
330
3179
102
}
330
3179
100
AcDbScale
 70
     0
300
1:50
140
1.0
141
50.0
290
     0
  0
SCALE
  5
3185
102
{ACAD_REACTORS
330
3179
102
}
330
3179
100
AcDbScale
 70
     0
300
1:100
140
1.0
141
100.0
290
     0
  0
SCALE
  5
3186
102
{ACAD_REACTORS
330
3179
102
}
330
3179
100
AcDbScale
 70
     0
300
2:1
140
2.0
141
1.0
290
     0
  0
SCALE
  5
3187
102
{ACAD_REACTORS
330
3179
102
}
330
3179
100
AcDbScale
 70
     0
300
4:1
140
4.0
141
1.0
290
     0
  0
SCALE
  5
3188
102
{ACAD_REACTORS
330
3179
102
}
330
3179
100
AcDbScale
 70
     0
300
8:1
140
8.0
141
1.0
290
     0
  0
SCALE
  5
3189
102
{ACAD_REACTORS
330
3179
102
}
330
3179
100
AcDbScale
 70
     0
300
10:1
140
10.0
141
1.0
290
     0
  0
SCALE
  5
318A
102
{ACAD_REACTORS
330
3179
102
}
330
3179
100
AcDbScale
 70
     0
300
100:1
140
100.0
141
1.0
290
     0
  0
SCALE
  5
318B
102
{ACAD_REACTORS
330
3179
102
}
330
3179
100
AcDbScale
 70
     0
300
1/128" = 1'-0"
140
0.0078125
141
12.0
290
     0
  0
SCALE
  5
318C
102
{ACAD_REACTORS
330
3179
102
}
330
3179
100
AcDbScale
 70
     0
300
1/64" = 1'-0"
140
0.015625
141
12.0
290
     0
  0
SCALE
  5
318D
102
{ACAD_REACTORS
330
3179
102
}
330
3179
100
AcDbScale
 70
     0
300
1/32" = 1'-0"
140
0.03125
141
12.0
290
     0
  0
SCALE
  5
318E
102
{ACAD_REACTORS
330
3179
102
}
330
3179
100
AcDbScale
 70
     0
300
1/16" = 1'-0"
140
0.0625
141
12.0
290
     0
  0
SCALE
  5
318F
102
{ACAD_REACTORS
330
3179
102
}
330
3179
100
AcDbScale
 70
     0
300
3/32" = 1'-0"
140
0.09375
141
12.0
290
     0
  0
SCALE
  5
3190
102
{ACAD_REACTORS
330
3179
102
}
330
3179
100
AcDbScale
 70
     0
300
1/8" = 1'-0"
140
0.125
141
12.0
290
     0
  0
SCALE
  5
3191
102
{ACAD_REACTORS
330
3179
102
}
330
3179
100
AcDbScale
 70
     0
300
3/16" = 1'-0"
140
0.1875
141
12.0
290
     0
  0
SCALE
  5
3192
102
{ACAD_REACTORS
330
3179
102
}
330
3179
100
AcDbScale
 70
     0
300
1/4" = 1'-0"
140
0.25
141
12.0
290
     0
  0
SCALE
  5
3193
102
{ACAD_REACTORS
330
3179
102
}
330
3179
100
AcDbScale
 70
     0
300
3/8" = 1'-0"
140
0.375
141
12.0
290
     0
  0
SCALE
  5
3194
102
{ACAD_REACTORS
330
3179
102
}
330
3179
100
AcDbScale
 70
     0
300
1/2" = 1'-0"
140
0.5
141
12.0
290
     0
  0
SCALE
  5
3195
102
{ACAD_REACTORS
330
3179
102
}
330
3179
100
AcDbScale
 70
     0
300
3/4" = 1'-0"
140
0.75
141
12.0
290
     0
  0
SCALE
  5
3196
102
{ACAD_REACTORS
330
3179
102
}
330
3179
100
AcDbScale
 70
     0
300
1" = 1'-0"
140
1.0
141
12.0
290
     0
  0
SCALE
  5
3197
102
{ACAD_REACTORS
330
3179
102
}
330
3179
100
AcDbScale
 70
     0
300
1-1/2" = 1'-0"
140
1.5
141
12.0
290
     0
  0
SCALE
  5
3198
102
{ACAD_REACTORS
330
3179
102
}
330
3179
100
AcDbScale
 70
     0
300
3" = 1'-0"
140
3.0
141
12.0
290
     0
  0
SCALE
  5
3199
102
{ACAD_REACTORS
330
3179
102
}
330
3179
100
AcDbScale
 70
     0
300
6" = 1'-0"
140
6.0
141
12.0
290
     0
  0
SCALE
  5
319A
102
{ACAD_REACTORS
330
3179
102
}
330
3179
100
AcDbScale
 70
     0
300
1'-0" = 1'-0"
140
12.0
141
12.0
290
     0
  0
TABLESTYLE
  5
3178
102
{ACAD_XDICTIONARY
360
6308
102
}
102
{ACAD_REACTORS
330
3177
102
}
330
3177
100
AcDbTableStyle
  3
Standard
 70
     0
 71
     0
 40
1.5
 41
1.5
280
     0
281
     0
  7
Standard
140
4.5
170
     2
 62
     0
 63
     7
283
     0
274
    -2
284
     1
 64
     0
275
    -2
285
     1
 65
     0
276
    -2
286
     1
 66
     0
277
    -2
287
     1
 67
     0
278
    -2
288
     1
 68
     0
279
    -2
289
     1
 69
     0
  7
Standard
140
6.0
170
     5
 62
     0
 63
     7
283
     0
274
    -2
284
     1
 64
     0
275
    -2
285
     1
 65
     0
276
    -2
286
     1
 66
     0
277
    -2
287
     1
 67
     0
278
    -2
288
     1
 68
     0
279
    -2
289
     1
 69
     0
  7
Standard
140
4.5
170
     5
 62
     0
 63
     7
283
     0
274
    -2
284
     1
 64
     0
275
    -2
285
     1
 65
     0
276
    -2
286
     1
 66
     0
277
    -2
287
     1
 67
     0
278
    -2
288
     1
 68
     0
279
    -2
289
     1
 69
     0
  0
VISUALSTYLE
  5
316B
102
{ACAD_REACTORS
330
3165
102
}
330
3165
100
AcDbVisualStyle
  2
2dWireframe
 70
     4
 71
     0
 72
     2
 73
     0
 90
        0
 40
-0.6
 41
-30.0
 62
     5
 63
     7
 74
     1
 91
        4
 64
     7
 65
   257
 75
     1
175
     1
 42
1.0
 92
        0
 66
   257
 43
1.0
 76
     1
 77
     6
 78
     2
 67
     7
 79
     5
170
     0
171
     0
290
     0
174
     0
 93
        1
 44
0.0
173
     0
291
     0
 45
0.0
1001
ACAD
1000
AcDbSavedByObjectVersion
1070
     0
1000
AcDbSavedByObjectVersion
1070
     0
  0
VISUALSTYLE
  5
316D
102
{ACAD_REACTORS
330
3165
102
}
330
3165
100
AcDbVisualStyle
  2
3D Hidden
 70
     6
 71
     1
 72
     2
 73
     2
 90
        0
 40
-0.6
 41
-30.0
 62
     5
 63
     7
 74
     2
 91
        2
 64
     7
 65
   257
 75
     2
175
     1
 42
40.0
 92
        0
 66
   257
 43
1.0
 76
     1
 77
     6
 78
     2
 67
     7
 79
     3
170
     0
171
     0
290
     0
174
     0
 93
        1
 44
0.0
173
     0
291
     0
 45
0.0
1001
ACAD
1000
AcDbSavedByObjectVersion
1070
     0
1000
AcDbSavedByObjectVersion
1070
     0
  0
VISUALSTYLE
  5
316C
102
{ACAD_REACTORS
330
3165
102
}
330
3165
100
AcDbVisualStyle
  2
3dWireframe
 70
     5
 71
     0
 72
     2
 73
     0
 90
        0
 40
-0.6
 41
-30.0
 62
     5
 63
     7
 74
     1
 91
        4
 64
     7
 65
   257
 75
     1
175
     1
 42
1.0
 92
        0
 66
   257
 43
1.0
 76
     1
 77
     6
 78
     2
 67
     7
 79
     5
170
     0
171
     0
290
     0
174
     0
 93
        1
 44
0.0
173
     0
291
     0
 45
0.0
1001
ACAD
1000
AcDbSavedByObjectVersion
1070
     0
1000
AcDbSavedByObjectVersion
1070
     0
  0
VISUALSTYLE
  5
316A
102
{ACAD_REACTORS
330
3165
102
}
330
3165
100
AcDbVisualStyle
  2
Basic
 70
     7
 71
     1
 72
     0
 73
     1
 90
        0
 40
-0.6
 41
-30.0
 62
     5
 63
     7
 74
     0
 91
        4
 64
     7
 65
   257
 75
     1
175
     1
 42
1.0
 92
        8
 66
     7
 43
1.0
 76
     1
 77
     6
 78
     2
 67
     7
 79
     5
170
     0
171
     0
290
     0
174
     0
 93
        1
 44
0.0
173
     0
291
     1
 45
0.0
1001
ACAD
1000
AcDbSavedByObjectVersion
1070
     0
1000
AcDbSavedByObjectVersion
1070
     0
  0
VISUALSTYLE
  5
3171
102
{ACAD_REACTORS
330
3165
102
}
330
3165
100
AcDbVisualStyle
  2
Brighten
 70
    12
 71
     2
 72
     2
 73
     0
 90
        0
 40
-0.6
 41
-30.0
 62
     5
 63
     7
 74
     1
 91
        4
 64
     7
 65
   257
 75
     1
175
     1
 42
1.0
 92
        8
 66
     7
 43
1.0
 76
     1
 77
     6
 78
     2
 67
     7
 79
     5
170
     0
171
     0
290
     0
174
     0
 93
        1
 44
50.0
173
     0
291
     1
 45
0.0
1001
ACAD
1000
AcDbSavedByObjectVersion
1070
     0
1000
AcDbSavedByObjectVersion
1070
     0
  0
VISUALSTYLE
  5
3175
102
{ACAD_REACTORS
330
3165
102
}
330
3165
100
AcDbVisualStyle
  2
ColorChange
 70
    16
 71
     2
 72
     2
 73
     3
 90
        0
 40
-0.6
 41
-30.0
 62
     5
 63
     8
 74
     1
 91
        4
 64
     7
 65
   257
 75
     1
175
     1
 42
1.0
 92
        8
 66
     8
 43
1.0
 76
     1
 77
     6
 78
     2
 67
     7
 79
     5
170
     0
171
     0
290
     0
174
     0
 93
        1
 44
0.0
173
     0
291
     1
 45
0.0
1001
ACAD
1000
AcDbSavedByObjectVersion
1070
     0
1000
AcDbSavedByObjectVersion
1070
     0
  0
VISUALSTYLE
  5
316E
102
{ACAD_REACTORS
330
3165
102
}
330
3165
100
AcDbVisualStyle
  2
Conceptual
 70
     9
 71
     3
 72
     2
 73
     0
 90
        0
 40
-0.6
 41
-30.0
 62
     5
 63
     7
 74
     2
 91
        2
 64
     7
 65
   257
 75
     1
175
     1
 42
40.0
 92
        8
 66
     7
 43
1.0
 76
     1
 77
     6
 78
     2
 67
     7
 79
     3
170
     0
171
     0
290
     0
174
     0
 93
        1
 44
0.0
173
     0
291
     0
 45
0.0
1001
ACAD
1000
AcDbSavedByObjectVersion
1070
     0
1000
AcDbSavedByObjectVersion
1070
     0
  0
VISUALSTYLE
  5
3170
102
{ACAD_REACTORS
330
3165
102
}
330
3165
100
AcDbVisualStyle
  2
Dim
 70
    11
 71
     2
 72
     2
 73
     0
 90
        0
 40
-0.6
 41
-30.0
 62
     5
 63
     7
 74
     1
 91
        4
 64
     7
 65
   257
 75
     1
175
     1
 42
1.0
 92
        8
 66
     7
 43
1.0
 76
     1
 77
     6
 78
     2
 67
     7
 79
     5
170
     0
171
     0
290
     0
174
     0
 93
        1
 44
-50.0
173
     0
291
     1
 45
0.0
1001
ACAD
1000
AcDbSavedByObjectVersion
1070
     0
1000
AcDbSavedByObjectVersion
1070
     0
  0
VISUALSTYLE
  5
3174
102
{ACAD_REACTORS
330
3165
102
}
330
3165
100
AcDbVisualStyle
  2
Facepattern
 70
    15
 71
     2
 72
     2
 73
     0
 90
        0
 40
-0.6
 41
-30.0
 62
     5
 63
     7
 74
     1
 91
        4
 64
     7
 65
   257
 75
     1
175
     1
 42
1.0
 92
        8
 66
     7
 43
1.0
 76
     1
 77
     6
 78
     2
 67
     7
 79
     5
170
     0
171
     0
290
     0
174
     0
 93
        1
 44
0.0
173
     0
291
     1
 45
0.0
1001
ACAD
1000
AcDbSavedByObjectVersion
1070
     0
1000
AcDbSavedByObjectVersion
1070
     0
  0
VISUALSTYLE
  5
3166
102
{ACAD_REACTORS
330
3165
102
}
330
3165
100
AcDbVisualStyle
  2
Flat
 70
     0
 71
     2
 72
     1
 73
     1
 90
        2
 40
-0.6
 41
30.0
 62
     5
 63
     7
 74
     0
 91
        4
 64
     7
 65
   257
 75
     1
175
     1
 42
1.0
 92
        8
 66
     7
 43
1.0
 76
     1
 77
     6
 78
     2
 67
     7
 79
     5
170
     0
171
     0
290
     0
174
     0
 93
       13
 44
0.0
173
     0
291
     1
 45
0.0
1001
ACAD
1000
AcDbSavedByObjectVersion
1070
     0
1000
AcDbSavedByObjectVersion
1070
     0
  0
VISUALSTYLE
  5
3167
102
{ACAD_REACTORS
330
3165
102
}
330
3165
100
AcDbVisualStyle
  2
FlatWithEdges
 70
     1
 71
     2
 72
     1
 73
     1
 90
        2
 40
-0.6
 41
30.0
 62
     5
 63
     7
 74
     1
 91
        4
 64
     7
 65
   257
 75
     1
175
     1
 42
1.0
 92
        0
 66
   257
 43
1.0
 76
     1
 77
     6
 78
     2
 67
     7
 79
     5
170
     0
171
     0
290
     0
174
     0
 93
       13
 44
0.0
173
     0
291
     1
 45
0.0
1001
ACAD
1000
AcDbSavedByObjectVersion
1070
     0
1000
AcDbSavedByObjectVersion
1070
     0
  0
VISUALSTYLE
  5
3168
102
{ACAD_REACTORS
330
3165
102
}
330
3165
100
AcDbVisualStyle
  2
Gouraud
 70
     2
 71
     2
 72
     2
 73
     1
 90
        2
 40
-0.6
 41
30.0
 62
     5
 63
     7
 74
     0
 91
        4
 64
     7
 65
   257
 75
     1
175
     1
 42
1.0
 92
        0
 66
     7
 43
1.0
 76
     1
 77
     6
 78
     2
 67
     7
 79
     5
170
     0
171
     0
290
     0
174
     0
 93
       13
 44
0.0
173
     0
291
     1
 45
0.0
1001
ACAD
1000
AcDbSavedByObjectVersion
1070
     0
1000
AcDbSavedByObjectVersion
1070
     0
  0
VISUALSTYLE
  5
3169
102
{ACAD_REACTORS
330
3165
102
}
330
3165
100
AcDbVisualStyle
  2
GouraudWithEdges
 70
     3
 71
     2
 72
     2
 73
     1
 90
        2
 40
-0.6
 41
30.0
 62
     5
 63
     7
 74
     1
 91
        4
 64
     7
 65
   257
 75
     1
175
     1
 42
1.0
 92
        0
 66
   257
 43
1.0
 76
     1
 77
     6
 78
     2
 67
     7
 79
     5
170
     0
171
     0
290
     0
174
     0
 93
       13
 44
0.0
173
     0
291
     1
 45
0.0
1001
ACAD
1000
AcDbSavedByObjectVersion
1070
     0
1000
AcDbSavedByObjectVersion
1070
     0
  0
VISUALSTYLE
  5
3173
102
{ACAD_REACTORS
330
3165
102
}
330
3165
100
AcDbVisualStyle
  2
Linepattern
 70
    14
 71
     2
 72
     2
 73
     0
 90
        0
 40
-0.6
 41
-30.0
 62
     5
 63
     7
 74
     1
 91
        4
 64
     7
 65
   257
 75
     7
175
     7
 42
1.0
 92
        8
 66
     7
 43
1.0
 76
     1
 77
     6
 78
     2
 67
     7
 79
     5
170
     0
171
     0
290
     0
174
     0
 93
        1
 44
0.0
173
     0
291
     1
 45
0.0
1001
ACAD
1000
AcDbSavedByObjectVersion
1070
     0
1000
AcDbSavedByObjectVersion
1070
     0
  0
VISUALSTYLE
  5
316F
102
{ACAD_REACTORS
330
3165
102
}
330
3165
100
AcDbVisualStyle
  2
Realistic
 70
     8
 71
     2
 72
     2
 73
     0
 90
        0
 40
-0.6
 41
-30.0
 62
     5
 63
     7
 74
     1
 91
        0
 64
     7
 65
   257
 75
     1
175
     1
 42
1.0
 92
        8
 66
     8
 43
1.0
 76
     1
 77
     6
 78
     2
 67
     7
 79
     5
170
     0
171
     0
290
     0
174
     0
 93
       13
 44
0.0
173
     0
291
     0
 45
0.0
1001
ACAD
1000
AcDbSavedByObjectVersion
1070
     0
1000
AcDbSavedByObjectVersion
1070
     0
  0
VISUALSTYLE
  5
3172
102
{ACAD_REACTORS
330
3165
102
}
330
3165
100
AcDbVisualStyle
  2
Thicken
 70
    13
 71
     2
 72
     2
 73
     0
 90
        0
 40
-0.6
 41
-30.0
 62
     5
 63
     7
 74
     1
 91
        4
 64
     7
 65
   257
 75
     1
175
     1
 42
1.0
 92
       12
 66
     7
 43
1.0
 76
     1
 77
     6
 78
     2
 67
     7
 79
     5
170
     0
171
     0
290
     0
174
     0
 93
        1
 44
0.0
173
     0
291
     1
 45
0.0
1001
ACAD
1000
AcDbSavedByObjectVersion
1070
     0
1000
AcDbSavedByObjectVersion
1070
     0
  0
DICTIONARYVAR
  5
630F
102
{ACAD_REACTORS
330
630B
102
}
330
630B
100
DictionaryVariables
280
     0
  1
1:1
  0
DICTIONARYVAR
  5
630D
102
{ACAD_REACTORS
330
630B
102
}
330
630B
100
DictionaryVariables
280
     0
  1
STANDARD
  0
DICTIONARYVAR
  5
630C
102
{ACAD_REACTORS
330
630B
102
}
330
630B
100
DictionaryVariables
280
     0
  1
STANDARD
  0
DICTIONARYVAR
  5
6318
102
{ACAD_REACTORS
330
630B
102
}
330
630B
100
DictionaryVariables
280
     0
  1
1
  0
DICTIONARYVAR
  5
6317
102
{ACAD_REACTORS
330
630B
102
}
330
630B
100
DictionaryVariables
280
     0
  1
0
  0
DICTIONARYVAR
  5
6310
102
{ACAD_REACTORS
330
630B
102
}
330
630B
100
DictionaryVariables
280
     0
  1
0
  0
DICTIONARYVAR
  5
630E
102
{ACAD_REACTORS
330
630B
102
}
330
630B
100
DictionaryVariables
280
     0
  1
0
  0
DICTIONARYVAR
  5
6316
102
{ACAD_REACTORS
330
630B
102
}
330
630B
100
DictionaryVariables
280
     0
  1
127
  0
XRECORD
  5
5E46
102
{ACAD_REACTORS
330
5E44
102
}
330
5E44
100
AcDbXrecord
280
     1
  0
DICTIONARY
  5
63D5
330
21
100
AcDbDictionary
280
     1
281
     1
  3
ACAD_XREC_ROUNDTRIP
360
63D6
  0
DICTIONARY
  5
63D3
330
20
100
AcDbDictionary
280
     1
281
     1
  3
ACAD_XREC_ROUNDTRIP
360
63D4
  0
DICTIONARY
  5
3156
330
3155
100
AcDbDictionary
280
     1
281
     1
  3
ACAD_XREC_ROUNDTRIP
360
6320
  3
BUMPTILE
360
3158
  3
DIFFUSETILE
360
3157
  3
OPACITYTILE
360
315B
  3
REFLECTIONTILE
360
315A
  3
REFRACTIONTILE
360
315C
  3
SPECULARTILE
360
3159
  0
DICTIONARY
  5
314E
330
314D
100
AcDbDictionary
280
     1
281
     1
  3
ACAD_XREC_ROUNDTRIP
360
631F
  3
BUMPTILE
360
3150
  3
DIFFUSETILE
360
314F
  3
OPACITYTILE
360
3153
  3
REFLECTIONTILE
360
3152
  3
REFRACTIONTILE
360
3154
  3
SPECULARTILE
360
3151
  0
DICTIONARY
  5
315E
330
315D
100
AcDbDictionary
280
     1
281
     1
  3
ACAD_XREC_ROUNDTRIP
360
6321
  3
BUMPTILE
360
3160
  3
DIFFUSETILE
360
315F
  3
OPACITYTILE
360
3163
  3
REFLECTIONTILE
360
3162
  3
REFRACTIONTILE
360
3164
  3
SPECULARTILE
360
3161
  0
DICTIONARY
  5
6308
330
3178
100
AcDbDictionary
280
     1
281
     1
  3
ACAD_ROUNDTRIP_2008_TABLESTYLE_CELLSTYLEMAP
360
63D1
  3
ACAD_XREC_ROUNDTRIP
360
63D7
  0
XRECORD
  5
63D6
102
{ACAD_REACTORS
330
63D5
102
}
330
63D5
100
AcDbXrecord
280
     1
102
SHADEPLOT
 70
     0
102
SHADEPLOTRESLEVEL
 70
     2
102
SHADEPLOTCUSTOMDPI
 70
   300
  0
XRECORD
  5
63D4
102
{ACAD_REACTORS
330
63D3
102
}
330
63D3
100
AcDbXrecord
280
     1
102
SHADEPLOT
 70
     0
102
SHADEPLOTRESLEVEL
 70
     2
102
SHADEPLOTCUSTOMDPI
 70
   300
  0
XRECORD
  5
6320
102
{ACAD_REACTORS
330
3156
102
}
330
3156
100
AcDbXrecord
280
     1
102
MATERIAL
148
0.0
149
0.0
149
0.0
 93
        0
 94
      127
282
     0
 72
     0
 77
     0
171
     0
175
     0
179
     0
273
     0
  0
XRECORD
  5
3158
102
{ACAD_REACTORS
330
3156
102
}
330
3156
100
AcDbXrecord
280
     1
270
     1
271
     1
  0
XRECORD
  5
3157
102
{ACAD_REACTORS
330
3156
102
}
330
3156
100
AcDbXrecord
280
     1
270
     1
271
     1
  0
XRECORD
  5
315B
102
{ACAD_REACTORS
330
3156
102
}
330
3156
100
AcDbXrecord
280
     1
270
     1
271
     1
  0
XRECORD
  5
315A
102
{ACAD_REACTORS
330
3156
102
}
330
3156
100
AcDbXrecord
280
     1
270
     1
271
     1
  0
XRECORD
  5
315C
102
{ACAD_REACTORS
330
3156
102
}
330
3156
100
AcDbXrecord
280
     1
270
     1
271
     1
  0
XRECORD
  5
3159
102
{ACAD_REACTORS
330
3156
102
}
330
3156
100
AcDbXrecord
280
     1
270
     1
271
     1
  0
XRECORD
  5
631F
102
{ACAD_REACTORS
330
314E
102
}
330
314E
100
AcDbXrecord
280
     1
102
MATERIAL
148
0.0
149
0.0
149
0.0
 93
        0
 94
      127
282
     0
 72
     0
 77
     0
171
     0
175
     0
179
     0
273
     0
  0
XRECORD
  5
3150
102
{ACAD_REACTORS
330
314E
102
}
330
314E
100
AcDbXrecord
280
     1
270
     1
271
     1
  0
XRECORD
  5
314F
102
{ACAD_REACTORS
330
314E
102
}
330
314E
100
AcDbXrecord
280
     1
270
     1
271
     1
  0
XRECORD
  5
3153
102
{ACAD_REACTORS
330
314E
102
}
330
314E
100
AcDbXrecord
280
     1
270
     1
271
     1
  0
XRECORD
  5
3152
102
{ACAD_REACTORS
330
314E
102
}
330
314E
100
AcDbXrecord
280
     1
270
     1
271
     1
  0
XRECORD
  5
3154
102
{ACAD_REACTORS
330
314E
102
}
330
314E
100
AcDbXrecord
280
     1
270
     1
271
     1
  0
XRECORD
  5
3151
102
{ACAD_REACTORS
330
314E
102
}
330
314E
100
AcDbXrecord
280
     1
270
     1
271
     1
  0
XRECORD
  5
6321
102
{ACAD_REACTORS
330
315E
102
}
330
315E
100
AcDbXrecord
280
     1
102
MATERIAL
148
0.0
149
0.0
149
0.0
 93
        0
 94
      127
282
     0
 72
     0
 77
     0
171
     0
175
     0
179
     0
273
     0
  0
XRECORD
  5
3160
102
{ACAD_REACTORS
330
315E
102
}
330
315E
100
AcDbXrecord
280
     1
270
     1
271
     1
  0
XRECORD
  5
315F
102
{ACAD_REACTORS
330
315E
102
}
330
315E
100
AcDbXrecord
280
     1
270
     1
271
     1
  0
XRECORD
  5
3163
102
{ACAD_REACTORS
330
315E
102
}
330
315E
100
AcDbXrecord
280
     1
270
     1
271
     1
  0
XRECORD
  5
3162
102
{ACAD_REACTORS
330
315E
102
}
330
315E
100
AcDbXrecord
280
     1
270
     1
271
     1
  0
XRECORD
  5
3164
102
{ACAD_REACTORS
330
315E
102
}
330
315E
100
AcDbXrecord
280
     1
270
     1
271
     1
  0
XRECORD
  5
3161
102
{ACAD_REACTORS
330
315E
102
}
330
315E
100
AcDbXrecord
280
     1
270
     1
271
     1
  0
CELLSTYLEMAP
  5
63D1
102
{ACAD_REACTORS
330
6308
102
}
330
6308
100
AcDbCellStyleMap
 90
        3
300
CELLSTYLE
  1
TABLEFORMAT_BEGIN
 90
        5
170
     1
 91
        0
 92
    32768
 62
   257
 93
        1
300
CONTENTFORMAT
  1
CONTENTFORMAT_BEGIN
 90
        0
 91
        0
 92
      512
 93
        0
300

 40
0.0
140
1.0
 94
        5
 62
     0
340
17
144
6.0
309
CONTENTFORMAT_END
171
     1
301
MARGIN
  1
CELLMARGIN_BEGIN
 40
1.5
 40
1.5
 40
1.5
 40
1.5
 40
0.18
 40
0.18
309
CELLMARGIN_END
 94
        6
 95
        1
302
GRIDFORMAT
  1
GRIDFORMAT_BEGIN
 90
        0
 91
        1
 62
     0
 92
       -2
340
0
 93
        0
 40
1.125
309
GRIDFORMAT_END
 95
        2
302
GRIDFORMAT
  1
GRIDFORMAT_BEGIN
 90
        0
 91
        1
 62
     0
 92
       -2
340
0
 93
        0
 40
1.125
309
GRIDFORMAT_END
 95
        4
302
GRIDFORMAT
  1
GRIDFORMAT_BEGIN
 90
        0
 91
        1
 62
     0
 92
       -2
340
0
 93
        0
 40
1.125
309
GRIDFORMAT_END
 95
        8
302
GRIDFORMAT
  1
GRIDFORMAT_BEGIN
 90
        0
 91
        1
 62
     0
 92
       -2
340
0
 93
        0
 40
1.125
309
GRIDFORMAT_END
 95
       16
302
GRIDFORMAT
  1
GRIDFORMAT_BEGIN
 90
        0
 91
        1
 62
     0
 92
       -2
340
0
 93
        0
 40
1.125
309
GRIDFORMAT_END
 95
       32
302
GRIDFORMAT
  1
GRIDFORMAT_BEGIN
 90
        0
 91
        1
 62
     0
 92
       -2
340
0
 93
        0
 40
1.125
309
GRIDFORMAT_END
309
TABLEFORMAT_END
  1
CELLSTYLE_BEGIN
 90
        1
 91
        1
300
_TITLE
309
CELLSTYLE_END
300
CELLSTYLE
  1
TABLEFORMAT_BEGIN
 90
        5
170
     1
 91
        0
 92
        0
 62
   257
 93
        1
300
CONTENTFORMAT
  1
CONTENTFORMAT_BEGIN
 90
        0
 91
        0
 92
      512
 93
        0
300

 40
0.0
140
1.0
 94
        5
 62
     0
340
17
144
4.5
309
CONTENTFORMAT_END
171
     1
301
MARGIN
  1
CELLMARGIN_BEGIN
 40
1.5
 40
1.5
 40
1.5
 40
1.5
 40
0.18
 40
0.18
309
CELLMARGIN_END
 94
        6
 95
        1
302
GRIDFORMAT
  1
GRIDFORMAT_BEGIN
 90
        0
 91
        1
 62
     0
 92
       -2
340
0
 93
        0
 40
1.125
309
GRIDFORMAT_END
 95
        2
302
GRIDFORMAT
  1
GRIDFORMAT_BEGIN
 90
        0
 91
        1
 62
     0
 92
       -2
340
0
 93
        0
 40
1.125
309
GRIDFORMAT_END
 95
        4
302
GRIDFORMAT
  1
GRIDFORMAT_BEGIN
 90
        0
 91
        1
 62
     0
 92
       -2
340
0
 93
        0
 40
1.125
309
GRIDFORMAT_END
 95
        8
302
GRIDFORMAT
  1
GRIDFORMAT_BEGIN
 90
        0
 91
        1
 62
     0
 92
       -2
340
0
 93
        0
 40
1.125
309
GRIDFORMAT_END
 95
       16
302
GRIDFORMAT
  1
GRIDFORMAT_BEGIN
 90
        0
 91
        1
 62
     0
 92
       -2
340
0
 93
        0
 40
1.125
309
GRIDFORMAT_END
 95
       32
302
GRIDFORMAT
  1
GRIDFORMAT_BEGIN
 90
        0
 91
        1
 62
     0
 92
       -2
340
0
 93
        0
 40
1.125
309
GRIDFORMAT_END
309
TABLEFORMAT_END
  1
CELLSTYLE_BEGIN
 90
        2
 91
        1
300
_HEADER
309
CELLSTYLE_END
300
CELLSTYLE
  1
TABLEFORMAT_BEGIN
 90
        5
170
     1
 91
        0
 92
        0
 62
   257
 93
        1
300
CONTENTFORMAT
  1
CONTENTFORMAT_BEGIN
 90
        0
 91
        0
 92
      512
 93
        0
300

 40
0.0
140
1.0
 94
        2
 62
     0
340
17
144
4.5
309
CONTENTFORMAT_END
171
     1
301
MARGIN
  1
CELLMARGIN_BEGIN
 40
1.5
 40
1.5
 40
1.5
 40
1.5
 40
0.18
 40
0.18
309
CELLMARGIN_END
 94
        6
 95
        1
302
GRIDFORMAT
  1
GRIDFORMAT_BEGIN
 90
        0
 91
        1
 62
     0
 92
       -2
340
0
 93
        0
 40
1.125
309
GRIDFORMAT_END
 95
        2
302
GRIDFORMAT
  1
GRIDFORMAT_BEGIN
 90
        0
 91
        1
 62
     0
 92
       -2
340
0
 93
        0
 40
1.125
309
GRIDFORMAT_END
 95
        4
302
GRIDFORMAT
  1
GRIDFORMAT_BEGIN
 90
        0
 91
        1
 62
     0
 92
       -2
340
0
 93
        0
 40
1.125
309
GRIDFORMAT_END
 95
        8
302
GRIDFORMAT
  1
GRIDFORMAT_BEGIN
 90
        0
 91
        1
 62
     0
 92
       -2
340
0
 93
        0
 40
1.125
309
GRIDFORMAT_END
 95
       16
302
GRIDFORMAT
  1
GRIDFORMAT_BEGIN
 90
        0
 91
        1
 62
     0
 92
       -2
340
0
 93
        0
 40
1.125
309
GRIDFORMAT_END
 95
       32
302
GRIDFORMAT
  1
GRIDFORMAT_BEGIN
 90
        0
 91
        1
 62
     0
 92
       -2
340
0
 93
        0
 40
1.125
309
GRIDFORMAT_END
309
TABLEFORMAT_END
  1
CELLSTYLE_BEGIN
 90
        3
 91
        2
300
_DATA
309
CELLSTYLE_END
  0
XRECORD
  5
63D7
102
{ACAD_REACTORS
330
6308
102
}
330
6308
100
AcDbXrecord
280
     1
102
ACAD_ROUNDTRIP_PRE2007_TABLESTYLE
 90
      512
 91
        0
  1

 92
      512
 93
        0
  2

 94
      512
 95
        0
  3

  0
ENDSEC
  0
EOF
