  0
SECTION
  2
HEADER
  9
$ACADVER
  1
AC1015
  9
$ACADMAINTVER
 70
     6
  9
$DWGCODEPAGE
  3
ANSI_1252
  9
$INSBASE
 10
0.0
 20
0.0
 30
0.0
  9
$EXTMIN
 10
-77.38307947458077
 20
-15.39999999999959
 30
0.0
  9
$EXTMAX
 10
101.6459768866414
 20
172.528338950466
 30
0.0000000000000001
  9
$LIMMIN
 10
-66.34999999999982
 20
-2008.85
  9
$LIMMAX
 10
3734.350000000001
 20
346.85
  9
$ORTHOMODE
 70
     1
  9
$REGENMODE
 70
     1
  9
$FILLMODE
 70
     1
  9
$QTEXTMODE
 70
     0
  9
$MIRRTEXT
 70
     1
  9
$LTSCALE
 40
10.0
  9
$ATTMODE
 70
     1
  9
$TEXTSIZE
 40
0.0
  9
$TRACEWID
 40
0.05
  9
$TEXTSTYLE
  7
Standard
  9
$CLAYER
  8
0
  9
$CELTYPE
  6
Continuous
  9
$CECOLOR
 62
   256
  9
$CELTSCALE
 40
1.0
  9
$DISPSILH
 70
     0
  9
$DIMSCALE
 40
1.0
  9
$DIMASZ
 40
1.25
  9
$DIMEXO
 40
0.0
  9
$DIMDLI
 40
0.38
  9
$DIMRND
 40
0.0
  9
$DIMDLE
 40
0.0
  9
$DIMEXE
 40
0.75
  9
$DIMTP
 40
0.0
  9
$DIMTM
 40
0.0
  9
$DIMTXT
 40
2.5
  9
$DIMCEN
 40
0.09
  9
$DIMTSZ
 40
0.0
  9
$DIMTOL
 70
     0
  9
$DIMLIM
 70
     0
  9
$DIMTIH
 70
     0
  9
$DIMTOH
 70
     0
  9
$DIMSE1
 70
     0
  9
$DIMSE2
 70
     0
  9
$DIMTAD
 70
     1
  9
$DIMZIN
 70
     0
  9
$DIMBLK
  1

  9
$DIMASO
 70
     1
  9
$DIMSHO
 70
     1
  9
$DIMPOST
  1

  9
$DIMAPOST
  1

  9
$DIMALT
 70
     0
  9
$DIMALTD
 70
     2
  9
$DIMALTF
 40
25.4
  9
$DIMLFAC
 40
1.0
  9
$DIMTOFL
 70
     0
  9
$DIMTVP
 40
0.0
  9
$DIMTIX
 70
     0
  9
$DIMSOXD
 70
     0
  9
$DIMSAH
 70
     0
  9
$DIMBLK1
  1

  9
$DIMBLK2
  1

  9
$DIMSTYLE
  2
Standard
  9
$DIMCLRD
 70
     7
  9
$DIMCLRE
 70
     7
  9
$DIMCLRT
 70
     7
  9
$DIMTFAC
 40
0.8
  9
$DIMGAP
 40
1.25
  9
$DIMJUST
 70
     0
  9
$DIMSD1
 70
     0
  9
$DIMSD2
 70
     0
  9
$DIMTOLJ
 70
     1
  9
$DIMTZIN
 70
     0
  9
$DIMALTZ
 70
     0
  9
$DIMALTTZ
 70
     0
  9
$DIMUPT
 70
     0
  9
$DIMDEC
 70
     2
  9
$DIMTDEC
 70
     4
  9
$DIMALTU
 70
     2
  9
$DIMALTTD
 70
     2
  9
$DIMTXSTY
  7
Standard
  9
$DIMAUNIT
 70
     0
  9
$DIMADEC
 70
     0
  9
$DIMALTRND
 40
0.0
  9
$DIMAZIN
 70
     0
  9
$DIMDSEP
 70
     0
  9
$DIMATFIT
 70
     3
  9
$DIMFRAC
 70
     0
  9
$DIMLDRBLK
  1

  9
$DIMLUNIT
 70
     2
  9
$DIMLWD
 70
     0
  9
$DIMLWE
 70
     0
  9
$DIMTMOVE
 70
     0
  9
$LUNITS
 70
     2
  9
$LUPREC
 70
     4
  9
$SKETCHINC
 40
0.1
  9
$FILLETRAD
 40
0.0
  9
$AUNITS
 70
     0
  9
$AUPREC
 70
     0
  9
$MENU
  1
acad
  9
$ELEVATION
 40
0.0
  9
$PELEVATION
 40
0.0
  9
$THICKNESS
 40
0.0
  9
$LIMCHECK
 70
     0
  9
$CHAMFERA
 40
0.0
  9
$CHAMFERB
 40
0.0
  9
$CHAMFERC
 40
0.0
  9
$CHAMFERD
 40
0.0
  9
$SKPOLY
 70
     0
  9
$TDCREATE
 40
2455303.68625
  9
$TDUCREATE
 40
2455303.644583333
  9
$TDUPDATE
 40
2457007.508732222
  9
$TDUUPDATE
 40
2457007.467065556
  9
$TDINDWG
 40
0.0103090278
  9
$TDUSRTIMER
 40
2457007.466944166
  9
$USRTIMER
 70
     1
  9
$ANGBASE
 50
0.0
  9
$ANGDIR
 70
     0
  9
$PDMODE
 70
     0
  9
$PDSIZE
 40
0.0
  9
$PLINEWID
 40
0.0
  9
$SPLFRAME
 70
     0
  9
$SPLINETYPE
 70
     6
  9
$SPLINESEGS
 70
     8
  9
$HANDSEED
  5
6706
  9
$SURFTAB1
 70
     6
  9
$SURFTAB2
 70
     6
  9
$SURFTYPE
 70
     6
  9
$SURFU
 70
     6
  9
$SURFV
 70
     6
  9
$UCSBASE
  2

  9
$UCSNAME
  2

  9
$UCSORG
 10
0.0
 20
0.0
 30
0.0
  9
$UCSXDIR
 10
1.0
 20
0.0
 30
0.0
  9
$UCSYDIR
 10
0.0
 20
1.0
 30
0.0
  9
$UCSORTHOREF
  2

  9
$UCSORTHOVIEW
 70
     0
  9
$UCSORGTOP
 10
0.0
 20
0.0
 30
0.0
  9
$UCSORGBOTTOM
 10
0.0
 20
0.0
 30
0.0
  9
$UCSORGLEFT
 10
0.0
 20
0.0
 30
0.0
  9
$UCSORGRIGHT
 10
0.0
 20
0.0
 30
0.0
  9
$UCSORGFRONT
 10
0.0
 20
0.0
 30
0.0
  9
$UCSORGBACK
 10
0.0
 20
0.0
 30
0.0
  9
$PUCSBASE
  2

  9
$PUCSNAME
  2

  9
$PUCSORG
 10
0.0
 20
0.0
 30
0.0
  9
$PUCSXDIR
 10
1.0
 20
0.0
 30
0.0
  9
$PUCSYDIR
 10
0.0
 20
1.0
 30
0.0
  9
$PUCSORTHOREF
  2

  9
$PUCSORTHOVIEW
 70
     0
  9
$PUCSORGTOP
 10
0.0
 20
0.0
 30
0.0
  9
$PUCSORGBOTTOM
 10
0.0
 20
0.0
 30
0.0
  9
$PUCSORGLEFT
 10
0.0
 20
0.0
 30
0.0
  9
$PUCSORGRIGHT
 10
0.0
 20
0.0
 30
0.0
  9
$PUCSORGFRONT
 10
0.0
 20
0.0
 30
0.0
  9
$PUCSORGBACK
 10
0.0
 20
0.0
 30
0.0
  9
$USERI1
 70
     0
  9
$USERI2
 70
     0
  9
$USERI3
 70
     0
  9
$USERI4
 70
     0
  9
$USERI5
 70
     0
  9
$USERR1
 40
0.0
  9
$USERR2
 40
0.0
  9
$USERR3
 40
0.0
  9
$USERR4
 40
0.0
  9
$USERR5
 40
0.0
  9
$WORLDVIEW
 70
     1
  9
$SHADEDGE
 70
     3
  9
$SHADEDIF
 70
    70
  9
$TILEMODE
 70
     1
  9
$MAXACTVP
 70
    16
  9
$PINSBASE
 10
0.0
 20
0.0
 30
0.0
  9
$PLIMCHECK
 70
     0
  9
$PEXTMIN
 10
1.000000000000000E+20
 20
1.000000000000000E+20
 30
1.000000000000000E+20
  9
$PEXTMAX
 10
-1.000000000000000E+20
 20
-1.000000000000000E+20
 30
-1.000000000000000E+20
  9
$PLIMMIN
 10
0.0
 20
0.0
  9
$PLIMMAX
 10
0.0
 20
0.0
  9
$UNITMODE
 70
     0
  9
$VISRETAIN
 70
     0
  9
$PLINEGEN
 70
     1
  9
$PSLTSCALE
 70
     0
  9
$TREEDEPTH
 70
  3020
  9
$CMLSTYLE
  2
Standard
  9
$CMLJUST
 70
     0
  9
$CMLSCALE
 40
1.0
  9
$PROXYGRAPHICS
 70
     0
  9
$MEASUREMENT
 70
     1
  9
$CELWEIGHT
370
     0
  9
$ENDCAPS
280
     0
  9
$JOINSTYLE
280
     0
  9
$LWDISPLAY
290
     0
  9
$INSUNITS
 70
     0
  9
$HYPERLINKBASE
  1

  9
$STYLESHEET
  1

  9
$XEDIT
290
     1
  9
$CEPSNTYPE
380
     0
  9
$PSTYLEMODE
290
     1
  9
$FINGERPRINTGUID
  2

  9
$VERSIONGUID
  2
{7C420704-BF4F-48BA-8216-6A6AD41CC944}
  9
$EXTNAMES
290
     1
  9
$PSVPSCALE
 40
0.0
  9
$OLESTARTUP
290
     0
  0
ENDSEC
  0
SECTION
  2
CLASSES
  0
CLASS
  1
IMAGE
  2
AcDbRasterImage
  3
ISM
 90
      127
280
     0
281
     1
  0
CLASS
  1
DICTIONARYVAR
  2
AcDbDictionaryVar
  3
ObjectDBX Classes
 90
        0
280
     0
281
     0
  0
CLASS
  1
RASTERVARIABLES
  2
AcDbRasterVariables
  3
ISM
 90
        0
280
     0
281
     0
  0
CLASS
  1
IMAGEDEF
  2
AcDbRasterImageDef
  3
ISM
 90
        0
280
     0
281
     0
  0
CLASS
  1
IMAGEDEF_REACTOR
  2
AcDbRasterImageDefReactor
  3
ISM
 90
        1
280
     0
281
     0
  0
CLASS
  1
IDBUFFER
  2
AcDbIdBuffer
  3
ObjectDBX Classes
 90
        0
280
     0
281
     0
  0
CLASS
  1
SPATIAL_FILTER
  2
AcDbSpatialFilter
  3
ObjectDBX Classes
 90
        0
280
     0
281
     0
  0
CLASS
  1
SORTENTSTABLE
  2
AcDbSortentsTable
  3
ObjectDBX Classes
 90
        0
280
     0
281
     0
  0
CLASS
  1
LAYER_INDEX
  2
AcDbLayerIndex
  3
ObjectDBX Classes
 90
        0
280
     0
281
     0
  0
CLASS
  1
SPATIAL_INDEX
  2
AcDbSpatialIndex
  3
AutoCAD 2000
 90
        0
280
     0
281
     0
  0
CLASS
  1
OBJECT_PTR
  2
CAseDLPNTableRecord
  3
ASE-LPNTableRecord
 90
        1
280
     0
281
     0
  0
CLASS
  1
LAYOUT
  2
AcDbLayout
  3
ObjectDBX Classes
 90
        0
280
     0
281
     0
  0
CLASS
  1
PLOTSETTINGS
  2
AcDbPlotSettings
  3
ObjectDBX Classes
 90
        0
280
     0
281
     0
  0
CLASS
  1
ACDBDICTIONARYWDFLT
  2
AcDbDictionaryWithDefault
  3
ObjectDBX Classes
 90
        0
280
     0
281
     0
  0
CLASS
  1
ACDBPLACEHOLDER
  2
AcDbPlaceHolder
  3
ObjectDBX Classes
 90
        0
280
     0
281
     0
  0
CLASS
  1
VBA_PROJECT
  2
AcDbVbaProject
  3
ObjectDBX Classes
 90
        0
280
     0
281
     0
  0
CLASS
  1
WIPEOUT
  2
AcDbWipeout
  3
WipeOut|AutoCAD Express Tool|expresstools@autodesk.com
 90
      127
280
     0
281
     1
  0
CLASS
  1
WIPEOUTVARIABLES
  2
AcDbWipeoutVariables
  3
WipeOut|AutoCAD Express Tool|expresstools@autodesk.com
 90
        0
280
     0
281
     0
  0
CLASS
  1
RTEXT
  2
RText
  3
RText|AutoCAD Express Tool|expresstools@autodesk.com
 90
        0
280
     0
281
     1
  0
CLASS
  1
ARCALIGNEDTEXT
  2
AcDbArcAlignedText
  3
ATEXT|AutoCAD Express Tool|expresstools@autodesk.com
 90
        0
280
     0
281
     1
  0
CLASS
  1
MATERIAL
  2
AcDbMaterial
  3
ObjectDBX Classes
 90
     1153
280
     0
281
     0
  0
CLASS
  1
VISUALSTYLE
  2
AcDbVisualStyle
  3
ObjectDBX Classes
 90
     4095
280
     0
281
     0
  0
CLASS
  1
TABLESTYLE
  2
AcDbTableStyle
  3
ObjectDBX Classes
 90
     4095
280
     0
281
     0
  0
CLASS
  1
SCALE
  2
AcDbScale
  3
ObjectDBX Classes
 90
     1153
280
     0
281
     0
  0
CLASS
  1
MLEADERSTYLE
  2
AcDbMLeaderStyle
  3
ACDB_MLEADERSTYLE_CLASS
 90
     4095
280
     0
281
     0
  0
CLASS
  1
CELLSTYLEMAP
  2
AcDbCellStyleMap
  3
ObjectDBX Classes
 90
     1152
280
     0
281
     0
  0
CLASS
  1
SUN
  2
AcDbSun
  3
SCENEOE
 90
     1153
280
     0
281
     0
  0
ENDSEC
  0
SECTION
  2
TABLES
  0
TABLE
  2
VPORT
  5
7
330
0
100
AcDbSymbolTable
 70
     1
  0
VPORT
  5
15
330
7
100
AcDbSymbolTableRecord
100
AcDbViewportTableRecord
  2
*ACTIVE
 70
     0
 10
0.0
 20
0.0
 11
1.0
 21
1.0
 12
-9.720389874988655
 22
82.02062651619867
 13
0.0
 23
0.0
 14
1.0
 24
1.0
 15
0.0
 25
0.0
 16
0.0
 26
0.0
 36
1.0
 17
0.0
 27
0.0
 37
0.0
 40
239.6086321618437
 41
2.271393643031785
 42
50.0
 43
0.0
 44
0.0
 50
0.0
 51
0.0
 71
    16
 72
   100
 73
     1
 74
     1
 75
     0
 76
     0
 77
     0
 78
     0
281
     0
 65
     0
110
0.0
120
0.0
130
0.0
111
1.0
121
0.0
131
0.0
112
0.0
122
1.0
132
0.0
 79
     0
146
0.0
  0
ENDTAB
  0
TABLE
  2
LTYPE
  5
4
330
0
100
AcDbSymbolTable
 70
     2
  0
LTYPE
  5
11
330
4
100
AcDbSymbolTableRecord
100
AcDbLinetypeTableRecord
  2
ByBlock
 70
     0
  3

 72
    65
 73
     0
 40
0.0
  0
LTYPE
  5
12
330
4
100
AcDbSymbolTableRecord
100
AcDbLinetypeTableRecord
  2
ByLayer
 70
     0
  3

 72
    65
 73
     0
 40
0.0
  0
LTYPE
  5
13
330
4
100
AcDbSymbolTableRecord
100
AcDbLinetypeTableRecord
  2
Continuous
 70
     0
  3
Solid line
 72
    65
 73
     0
 40
0.0
  0
LTYPE
  5
1E4
330
4
100
AcDbSymbolTableRecord
100
AcDbLinetypeTableRecord
  2
CENTER
 70
     0
  3
____ _ ____ _ ____ _ ____ _ ____ _ ____ _ ____
 72
    65
 73
     4
 40
2.0
 49
1.25
 74
     0
 49
-0.25
 74
     0
 49
0.25
 74
     0
 49
-0.25
 74
     0
  0
ENDTAB
  0
TABLE
  2
LAYER
  5
2
330
0
100
AcDbSymbolTable
 70
     2
  0
LAYER
  5
14
102
{ACAD_XDICTIONARY
360
5E41
102
}
330
2
100
AcDbSymbolTableRecord
100
AcDbLayerTableRecord
  2
0
 70
     0
 62
     7
  6
Continuous
370
    -3
390
1D
  0
LAYER
  5
66F4
330
2
100
AcDbSymbolTableRecord
100
AcDbLayerTableRecord
  2
Defpoints
 70
     0
 62
     7
  6
Continuous
290
     0
370
    -3
390
1D
  0
ENDTAB
  0
TABLE
  2
STYLE
  5
3
330
0
100
AcDbSymbolTable
 70
     7
  0
STYLE
  5
17
330
3
100
AcDbSymbolTableRecord
100
AcDbTextStyleTableRecord
  2
Standard
 70
     0
 40
0.0
 41
1.0
 50
0.0
 71
     0
 42
0.0
  3
I011000D.TTF
  4

1001
ACAD
1000
IsonormD
1071
        0
  0
STYLE
  5
63A0
330
3
100
AcDbSymbolTableRecord
100
AcDbTextStyleTableRecord
  2
SLDTEXTSTYLE0
 70
     0
 40
0.0
 41
0.605
 50
0.0
 71
     0
 42
0.0
  3
TXT
  4

  0
STYLE
  5
63A1
330
3
100
AcDbSymbolTableRecord
100
AcDbTextStyleTableRecord
  2
SLDTEXTSTYLE1
 70
     0
 40
0.0
 41
0.609090909090909
 50
0.0
 71
     0
 42
0.0
  3
TXT
  4

  0
STYLE
  5
63A2
330
3
100
AcDbSymbolTableRecord
100
AcDbTextStyleTableRecord
  2
SLDTEXTSTYLE2
 70
     0
 40
0.0
 41
0.7
 50
0.0
 71
     0
 42
0.0
  3
TXT
  4

  0
STYLE
  5
63A3
330
3
100
AcDbSymbolTableRecord
100
AcDbTextStyleTableRecord
  2
SLDTEXTSTYLE3
 70
     0
 40
0.0
 41
0.57
 50
0.0
 71
     0
 42
0.0
  3
TXT
  4

  0
STYLE
  5
63A4
330
3
100
AcDbSymbolTableRecord
100
AcDbTextStyleTableRecord
  2
SLDTEXTSTYLE4
 70
     0
 40
0.0
 41
0.75
 50
0.0
 71
     0
 42
0.0
  3
TXT
  4

  0
STYLE
  5
63A5
330
3
100
AcDbSymbolTableRecord
100
AcDbTextStyleTableRecord
  2
SLDTEXTSTYLE5
 70
     0
 40
0.0
 41
0.5053081188670516
 50
0.0
 71
     0
 42
0.0
  3
TXT
  4

  0
ENDTAB
  0
TABLE
  2
VIEW
  5
5
330
0
100
AcDbSymbolTable
 70
     0
  0
ENDTAB
  0
TABLE
  2
UCS
  5
6
330
0
100
AcDbSymbolTable
 70
     0
  0
ENDTAB
  0
TABLE
  2
APPID
  5
8
330
0
100
AcDbSymbolTable
 70
     5
  0
APPID
  5
16
330
8
100
AcDbSymbolTableRecord
100
AcDbRegAppTableRecord
  2
ACAD
 70
     0
  0
APPID
  5
26
330
8
100
AcDbSymbolTableRecord
100
AcDbRegAppTableRecord
  2
TopSolid'Draft
 70
     0
  0
APPID
  5
319D
330
8
100
AcDbSymbolTableRecord
100
AcDbRegAppTableRecord
  2
ACAD_MLEADERVER
 70
     0
  0
APPID
  5
5E45
330
8
100
AcDbSymbolTableRecord
100
AcDbRegAppTableRecord
  2
DCO15
 70
     0
  0
APPID
  5
6330
330
8
100
AcDbSymbolTableRecord
100
AcDbRegAppTableRecord
  2
ACAD_EXEMPT_FROM_CAD_STANDARDS
 70
     0
  0
ENDTAB
  0
TABLE
  2
DIMSTYLE
  5
9
330
0
100
AcDbSymbolTable
 70
     2
100
AcDbDimStyleTable
  0
DIMSTYLE
105
18
330
9
100
AcDbSymbolTableRecord
100
AcDbDimStyleTableRecord
  2
Standard
 70
     0
 41
1.25
 42
0.0
 44
0.75
 73
     0
 74
     0
 77
     1
140
2.5
146
0.8
147
1.25
176
     7
177
     7
271
     2
178
     7
271
     2
340
17
  0
DIMSTYLE
105
639E
330
9
100
AcDbSymbolTableRecord
100
AcDbDimStyleTableRecord
  2
ISO-25
 70
     0
 41
2.5
 42
0.625
 43
3.75
 44
1.25
 73
     0
 74
     0
 77
     1
 78
     8
140
2.5
141
2.5
143
0.03937007874016
147
0.625
171
     3
172
     1
178
     0
271
     2
272
     2
274
     3
278
    44
283
     0
284
     8
340
17
  0
ENDTAB
  0
TABLE
  2
BLOCK_RECORD
  5
1
330
0
100
AcDbSymbolTable
 70
     6
  0
BLOCK_RECORD
  5
A
102
{ACAD_XDICTIONARY
360
31A7
102
}
330
1
100
AcDbSymbolTableRecord
100
AcDbBlockTableRecord
  2
*MODEL_SPACE
340
20
  0
BLOCK_RECORD
  5
B
330
1
100
AcDbSymbolTableRecord
100
AcDbBlockTableRecord
  2
*PAPER_SPACE
340
21
  0
BLOCK_RECORD
  5
642D
330
1
100
AcDbSymbolTableRecord
100
AcDbBlockTableRecord
  2
SW_NOTE_0
340
0
  0
BLOCK_RECORD
  5
6439
330
1
100
AcDbSymbolTableRecord
100
AcDbBlockTableRecord
  2
SW_NOTE_1
340
0
  0
BLOCK_RECORD
  5
645A
330
1
100
AcDbSymbolTableRecord
100
AcDbBlockTableRecord
  2
SW_NOTE_2
340
0
  0
BLOCK_RECORD
  5
6462
330
1
100
AcDbSymbolTableRecord
100
AcDbBlockTableRecord
  2
SW_NOTE_3
340
0
  0
ENDTAB
  0
ENDSEC
  0
SECTION
  2
BLOCKS
  0
BLOCK
  5
D
330
A
100
AcDbEntity
  8
0
100
AcDbBlockBegin
  2
*MODEL_SPACE
 70
     0
 10
0.0
 20
0.0
 30
0.0
  3
*MODEL_SPACE
  1
*MODEL_SPACE
  0
ENDBLK
  5
E
330
A
100
AcDbEntity
  8
0
100
AcDbBlockEnd
  0
BLOCK
  5
F
330
B
100
AcDbEntity
 67
     1
  8
0
100
AcDbBlockBegin
  2
*PAPER_SPACE
 70
     0
 10
0.0
 20
0.0
 30
0.0
  3
*PAPER_SPACE
  1
*PAPER_SPACE
  0
ENDBLK
  5
10
330
B
100
AcDbEntity
 67
     1
  8
0
100
AcDbBlockEnd
  0
BLOCK
  5
642E
330
642D
100
AcDbEntity
  8
0
100
AcDbBlockBegin
  2
SW_NOTE_0
 70
     0
 10
0.0
 20
0.0
 30
0.0
  3
SW_NOTE_0
  1
SW_NOTE_0
  0
MTEXT
  5
642F
330
642D
100
AcDbEntity
  8
0
  6
Continuous
 62
     0
370
     0
100
AcDbMText
 10
0.0
 20
2.387460876369325
 30
0.0
 40
1.852083333333333
 41
0.0
 71
     1
 72
     1
  1
FINITURA
  7
SLDTEXTSTYLE0
 73
     1
 44
1.0
  0
MTEXT
  5
6430
330
642D
100
AcDbEntity
  8
0
  6
Continuous
 62
     0
370
     0
100
AcDbMText
 10
0.0
 20
-0.0819835382314046
 30
0.0
 40
1.852083333333333
 41
0.0
 71
     1
 72
     1
  1
SPECIFICA:
  7
SLDTEXTSTYLE0
 73
     1
 44
1.0
  0
ENDBLK
  5
6431
330
642D
100
AcDbEntity
  8
0
100
AcDbBlockEnd
  0
BLOCK
  5
643A
330
6439
100
AcDbEntity
  8
0
100
AcDbBlockBegin
  2
SW_NOTE_1
 70
     0
 10
0.0
 20
0.0
 30
0.0
  3
SW_NOTE_1
  1
SW_NOTE_1
  0
MTEXT
  5
643B
330
6439
100
AcDbEntity
  8
0
  6
Continuous
 62
     0
370
     0
100
AcDbMText
 10
0.0
 20
2.387460876369325
 30
0.0
 40
1.852083333333333
 41
0.0
 71
     1
 72
     1
  1
CROMATURA
  7
SLDTEXTSTYLE0
 73
     1
 44
1.0
  0
MTEXT
  5
643C
330
6439
100
AcDbEntity
  8
0
  6
Continuous
 62
     0
370
     0
100
AcDbMText
 10
0.0
 20
-0.0819835382314046
 30
0.0
 40
1.852083333333333
 41
0.0
 71
     1
 72
     1
  1
A KANBAN
  7
SLDTEXTSTYLE0
 73
     1
 44
1.0
  0
ENDBLK
  5
643D
330
6439
100
AcDbEntity
  8
0
100
AcDbBlockEnd
  0
BLOCK
  5
645B
330
645A
100
AcDbEntity
  8
0
100
AcDbBlockBegin
  2
SW_NOTE_2
 70
     0
 10
0.0
 20
0.0
 30
0.0
  3
SW_NOTE_2
  1
SW_NOTE_2
  0
MTEXT
  5
645C
330
645A
100
AcDbEntity
  8
0
  6
Continuous
 62
     0
370
     0
100
AcDbMText
 10
0.0
 20
2.728526715850658
 30
0.0
 40
2.116666666666666
 41
0.0
 71
     1
 72
     1
  1
Approvato:
  7
SLDTEXTSTYLE0
 73
     1
 44
1.0
  0
MTEXT
  5
645D
330
645A
100
AcDbEntity
  8
0
  6
Continuous
 62
     0
370
     0
100
AcDbMText
 10
15.84560198038817
 20
2.728526715850658
 30
0.0
 40
2.116666666666666
 41
0.0
 71
     1
 72
     1
  1
A. Biasotti
  7
SLDTEXTSTYLE0
 73
     1
 44
1.0
  0
ENDBLK
  5
645E
330
645A
100
AcDbEntity
  8
0
100
AcDbBlockEnd
  0
BLOCK
  5
6463
330
6462
100
AcDbEntity
  8
0
100
AcDbBlockBegin
  2
SW_NOTE_3
 70
     0
 10
0.0
 20
0.0
 30
0.0
  3
SW_NOTE_3
  1
SW_NOTE_3
  0
MTEXT
  5
6464
330
6462
100
AcDbEntity
  8
0
  6
Continuous
 62
     0
370
     0
100
AcDbMText
 10
0.0
 20
2.449228705566728
 30
0.0
 40
1.9
 41
0.0
 71
     1
 72
     1
  1
Dimensioni in mm   -
  7
SLDTEXTSTYLE0
 73
     1
 44
1.0
  0
MTEXT
  5
6465
330
6462
100
AcDbEntity
  8
0
  6
Continuous
 62
     0
370
     0
100
AcDbMText
 10
25.96666663885117
 20
2.449228705566728
 30
0.0
 40
1.9
 41
0.0
 71
     1
 72
     1
  1
NB
  7
SLDTEXTSTYLE0
 73
     1
 44
1.0
  0
MTEXT
  5
6466
330
6462
100
AcDbEntity
  8
0
  6
Continuous
 62
     0
370
     0
100
AcDbMText
 10
29.73500080406666
 20
2.449228705566728
 30
0.0
 40
1.9
 41
0.0
 71
     1
 72
     1
  1
:  LE QUOTE INDICATE A DISEGNO SI RIFERISCONO ALLA LAVORAZIONE MECCANICA. - PRIMA DEI TRATTAMENTI SUPERFICIALI
  7
SLDTEXTSTYLE0
 73
     1
 44
1.0
  0
ENDBLK
  5
6467
330
6462
100
AcDbEntity
  8
0
100
AcDbBlockEnd
  0
ENDSEC
  0
SECTION
  2
ENTITIES
  0
LINE
  5
1C23
330
A
100
AcDbEntity
  8
0
  6
CENTER
 62
     1
100
AcDbLine
 10
6.200000000513228
 20
81.7234149863867
 30
0.0
 11
-6.199999999486636
 21
81.7234149863867
 31
0.0
  0
LINE
  5
1C24
330
A
100
AcDbEntity
  8
0
  6
CENTER
 62
     1
100
AcDbLine
 10
0.0000000005132961
 20
75.52341498638673
 30
0.0
 11
0.0000000005132961
 21
87.92341498638658
 31
0.0
  0
LINE
  5
1C25
330
A
100
AcDbEntity
  8
0
  6
CENTER
 62
     1
100
AcDbLine
 10
6.000000000513978
 20
106.7234149861306
 30
0.0
 11
-5.99999999948966
 21
106.7234149861306
 31
0.0
  0
LINE
  5
1C26
330
A
100
AcDbEntity
  8
0
  6
CENTER
 62
     1
100
AcDbLine
 10
0.0000000005121592
 20
100.7234149861287
 30
0.0
 11
0.0000000005121592
 21
112.7234149861325
 31
0.0
  0
TEXT
  5
5F7F
330
A
100
AcDbEntity
  8
0
  6
Continuous
 62
     7
370
     0
100
AcDbText
 10
-50.99139708166734
 20
162.518328940456
 30
0.0
 40
10.0
  1
515E30
100
AcDbText
  0
CIRCLE
  5
6378
330
A
100
AcDbEntity
  8
0
  6
CENTER
 62
     1
100
AcDbCircle
 10
0.0000000005121592
 20
106.7234149861306
 30
0.0
 40
4.0
  0
CIRCLE
  5
6379
330
A
100
AcDbEntity
  8
0
  6
CENTER
 62
     1
100
AcDbCircle
 10
0.0000000005132961
 20
81.7234149863867
 30
0.0
 40
4.0
  0
ARC
  5
65ED
330
A
100
AcDbEntity
  8
0
  6
Continuous
 62
     7
370
    15
100
AcDbCircle
 10
-8.99999999948784
 20
45.22341498625866
 30
0.0
 40
1.000000000000028
100
AcDbArc
 50
180.0
 51
270.0
  0
LINE
  5
65EE
330
A
100
AcDbEntity
  8
0
  6
Continuous
 62
     7
370
    15
100
AcDbLine
 10
9.00000000051216
 20
44.22341498625863
 30
0.0
 11
-8.99999999948784
 21
44.22341498625863
 31
0.0
  0
SPLINE
  5
65EF
330
A
100
AcDbEntity
  8
0
  6
Continuous
 62
     7
370
    15
100
AcDbSpline
210
0.0
220
0.0
230
1.0
 70
     8
 71
     3
 72
    13
 73
     9
 74
     0
 42
0.000000001
 43
0.00000001
 40
0.0
 40
0.0
 40
0.0
 40
0.0
 40
0.0097284774991735
 40
0.1438427121233309
 40
0.3586330395546259
 40
0.5726592417214235
 40
0.786323348261779
 40
1.0
 40
1.0
 40
1.0
 40
1.0
 10
9.000000000512216
 20
59.62572720224614
 30
0.0
 10
9.005062396084611
 20
59.62616617306634
 30
0.0
 10
9.079913646861996
 20
59.6326566802733
 30
0.0
 10
9.26654486729359
 20
59.64884460487673
 30
0.0
 10
9.543132868278747
 20
59.67285186636451
 30
0.0
 10
9.795598463776685
 20
59.69478158072877
 30
0.0
 10
9.967012305368428
 20
59.70967933267968
 30
0.0
 10
9.989003886932835
 20
59.71159118070739
 30
0.0
 10
10.00000000051216
 20
59.71254713278378
 30
0.0
  0
LINE
  5
65F0
330
A
100
AcDbEntity
  8
0
  6
Continuous
 62
     7
370
    15
100
AcDbLine
 10
10.00000000051216
 20
59.71254713278378
 30
0.0
 11
10.00000000051216
 21
45.22341498625866
 31
0.0
  0
ARC
  5
65F1
330
A
100
AcDbEntity
  8
0
  6
Continuous
 62
     7
370
    15
100
AcDbCircle
 10
9.00000000051216
 20
45.22341498625866
 30
0.0
 40
1.000000000000028
100
AcDbArc
 50
270.0000000000032
 51
0.0
  0
LINE
  5
65F2
330
A
100
AcDbEntity
  8
0
  6
Continuous
 62
     7
370
    15
100
AcDbLine
 10
-9.99999999948784
 20
45.22341498625866
 30
0.0
 11
-9.99999999948784
 21
59.71254713278378
 31
0.0
  0
SPLINE
  5
65F3
330
A
100
AcDbEntity
  8
0
  6
Continuous
 62
     7
370
    15
100
AcDbSpline
210
0.0
220
0.0
230
1.0
 70
     8
 71
     3
 72
    13
 73
     9
 74
     0
 42
0.000000001
 43
0.00000001
 40
0.0
 40
0.0
 40
0.0
 40
0.0
 40
0.2136766517382171
 40
0.4273407582785699
 40
0.641366960445364
 40
0.856157287876659
 40
0.9902715225008005
 40
1.0
 40
1.0
 40
1.0
 40
1.0
 10
-9.99999999948784
 20
59.71254713278378
 30
0.0
 10
-9.989003885908517
 20
59.71159118070739
 30
0.0
 10
-9.96701230434411
 20
59.70967933267968
 30
0.0
 10
-9.795598462752366
 20
59.69478158072889
 30
0.0
 10
-9.543132867254485
 20
59.67285186636443
 30
0.0
 10
-9.266544866269271
 20
59.64884460487656
 30
0.0
 10
-9.079913645837621
 20
59.63265668027364
 30
0.0
 10
-9.005062395060236
 20
59.62616617306639
 30
0.0
 10
-8.99999999948784
 20
59.62572720224617
 30
0.0
  0
ARC
  5
65F4
330
A
100
AcDbEntity
  8
0
  6
Continuous
 62
     7
370
    15
100
AcDbCircle
 10
-206.9999999994878
 20
94.22341498625858
 30
0.0
 40
200.0
100
AcDbArc
 50
350.0636329278601
 51
9.936367072140753
  0
SPLINE
  5
65F5
330
A
100
AcDbEntity
  8
0
  6
Continuous
 62
     7
370
    15
100
AcDbSpline
210
0.0
220
0.0
230
1.0
 70
     8
 71
     3
 72
    13
 73
     9
 74
     0
 42
0.000000001
 43
0.00000001
 40
0.0
 40
0.0
 40
0.0
 40
0.0
 40
0.2136766517382174
 40
0.4273407582785696
 40
0.6413669604453638
 40
0.856157287876659
 40
0.9902715225008004
 40
0.9999999999999999
 40
0.9999999999999999
 40
0.9999999999999999
 40
0.9999999999999999
 10
-9.999999999487898
 20
128.7342828397335
 30
0.0
 10
-9.989003885908517
 20
128.7352387918099
 30
0.0
 10
-9.96701230434411
 20
128.7371506398376
 30
0.0
 10
-9.795598462752423
 20
128.7520483917884
 30
0.0
 10
-9.543132867254542
 20
128.7739781061529
 30
0.0
 10
-9.266544866269328
 20
128.7979853676407
 30
0.0
 10
-9.079913645837621
 20
128.8141732922437
 30
0.0
 10
-9.005062395060236
 20
128.8206637994509
 30
0.0
 10
-8.99999999948784
 20
128.8211027702711
 30
0.0
  0
SPLINE
  5
65F6
330
A
100
AcDbEntity
  8
0
  6
Continuous
 62
     7
370
    15
100
AcDbSpline
210
0.0
220
0.0
230
1.0
 70
     8
 71
     3
 72
    13
 73
     9
 74
     0
 42
0.000000001
 43
0.00000001
 40
0.0
 40
0.0
 40
0.0
 40
0.0
 40
0.0097284774992049
 40
0.143842712123346
 40
0.3586330395546373
 40
0.572659241721431
 40
0.7863233482617827
 40
1.0
 40
1.0
 40
1.0
 40
1.0
 10
9.00000000051216
 20
128.8211027702712
 30
0.0
 10
9.005062396084554
 20
128.820663799451
 30
0.0
 10
9.079913646861996
 20
128.8141732922448
 30
0.0
 10
9.266544867293533
 20
128.79798536764
 30
0.0
 10
9.543132868278803
 20
128.773978106153
 30
0.0
 10
9.795598463776685
 20
128.7520483917885
 30
0.0
 10
9.967012305368371
 20
128.7371506398376
 30
0.0
 10
9.989003886932778
 20
128.7352387918099
 30
0.0
 10
10.00000000051216
 20
128.7342828397335
 30
0.0
  0
ARC
  5
65F7
330
A
100
AcDbEntity
  8
0
  6
Continuous
 62
     7
370
    15
100
AcDbCircle
 10
207.0000000005122
 20
94.22341498625872
 30
0.0
 40
200.0
100
AcDbArc
 50
170.0636329278593
 51
189.9363670721416
  0
LINE
  5
65F8
330
A
100
AcDbEntity
  8
0
  6
Continuous
 62
     7
370
    15
100
AcDbLine
 10
10.00000000051216
 20
143.2234149862587
 30
0.0
 11
10.00000000051216
 21
128.7342828397335
 31
0.0
  0
LINE
  5
65F9
330
A
100
AcDbEntity
  8
0
  6
Continuous
 62
     7
370
    15
100
AcDbLine
 10
-9.999999999487898
 20
128.7342828397335
 30
0.0
 11
-9.999999999487898
 21
143.2234149862587
 31
0.0
  0
ARC
  5
65FA
330
A
100
AcDbEntity
  8
0
  6
Continuous
 62
     7
370
    15
100
AcDbCircle
 10
9.00000000051216
 20
143.2234149862587
 30
0.0
 40
1.0
100
AcDbArc
 50
0.0
 51
90.0
  0
LINE
  5
65FB
330
A
100
AcDbEntity
  8
0
  6
Continuous
 62
     7
370
    15
100
AcDbLine
 10
-8.99999999948784
 20
144.2234149862587
 30
0.0
 11
9.00000000051216
 21
144.2234149862587
 31
0.0
  0
ARC
  5
65FC
330
A
100
AcDbEntity
  8
0
  6
Continuous
 62
     7
370
    15
100
AcDbCircle
 10
-8.99999999948784
 20
143.2234149862587
 30
0.0
 40
1.000000000000014
100
AcDbArc
 50
90.0
 51
180.0
  0
LINE
  5
65FD
330
A
100
AcDbEntity
  8
0
  6
Continuous
 62
     7
370
     0
100
AcDbLine
 10
-9.99999999948784
 20
45.22341498625866
 30
0.0
 11
-8.99999999948784
 21
45.22341498625866
 31
0.0
  0
LINE
  5
65FE
330
A
100
AcDbEntity
  8
0
  6
Continuous
 62
     7
370
     0
100
AcDbLine
 10
-8.99999999948784
 20
44.22341498625863
 30
0.0
 11
-8.99999999948784
 21
45.22341498625866
 31
0.0
  0
ARC
  5
65FF
330
A
100
AcDbEntity
  8
0
  6
Continuous
 62
     7
370
     0
100
AcDbCircle
 10
-206.9999999994878
 20
94.22341498625858
 30
0.0
 40
201.0
100
AcDbArc
 50
350.0884430580545
 51
9.91155694194638
  0
LINE
  5
6600
330
A
100
AcDbEntity
  8
0
  6
Continuous
 62
     7
370
     0
100
AcDbLine
 10
-8.99999999948784
 20
143.2234149862587
 30
0.0
 11
-8.99999999948784
 21
128.8211027702711
 31
0.0
  0
LINE
  5
6601
330
A
100
AcDbEntity
  8
0
  6
Continuous
 62
     7
370
     0
100
AcDbLine
 10
9.00000000051216
 20
143.2234149862587
 30
0.0
 11
-8.99999999948784
 21
143.2234149862587
 31
0.0
  0
LINE
  5
6602
330
A
100
AcDbEntity
  8
0
  6
Continuous
 62
     7
370
     0
100
AcDbLine
 10
9.00000000051216
 20
128.8211027702712
 30
0.0
 11
9.00000000051216
 21
143.2234149862587
 31
0.0
  0
ARC
  5
6603
330
A
100
AcDbEntity
  8
0
  6
Continuous
 62
     7
370
     0
100
AcDbCircle
 10
207.0000000005122
 20
94.22341498625872
 30
0.0
 40
201.0
100
AcDbArc
 50
170.0884430580537
 51
189.9115569419471
  0
LINE
  5
6604
330
A
100
AcDbEntity
  8
0
  6
Continuous
 62
     7
370
     0
100
AcDbLine
 10
9.00000000051216
 20
45.22341498625866
 30
0.0
 11
9.000000000512216
 21
59.62572720224614
 31
0.0
  0
LINE
  5
6605
330
A
100
AcDbEntity
  8
0
  6
Continuous
 62
     7
370
     0
100
AcDbLine
 10
-8.99999999948784
 20
45.22341498625866
 30
0.0
 11
9.00000000051216
 21
45.22341498625866
 31
0.0
  0
LINE
  5
6606
330
A
100
AcDbEntity
  8
0
  6
Continuous
 62
     7
370
     0
100
AcDbLine
 10
-8.99999999948784
 20
59.62572720224617
 30
0.0
 11
-8.99999999948784
 21
45.22341498625866
 31
0.0
  0
LINE
  5
6607
330
A
100
AcDbEntity
  8
0
  6
Continuous
 62
     7
370
     0
100
AcDbLine
 10
9.00000000051216
 20
44.22341498625863
 30
0.0
 11
9.00000000051216
 21
45.22341498625866
 31
0.0
  0
LINE
  5
6608
330
A
100
AcDbEntity
  8
0
  6
Continuous
 62
     7
370
     0
100
AcDbLine
 10
9.00000000051216
 20
45.22341498625866
 30
0.0
 11
10.00000000051216
 21
45.22341498625866
 31
0.0
  0
LINE
  5
6609
330
A
100
AcDbEntity
  8
0
  6
Continuous
 62
     7
370
     0
100
AcDbLine
 10
9.00000000051216
 20
143.2234149862587
 30
0.0
 11
10.00000000051216
 21
143.2234149862587
 31
0.0
  0
LINE
  5
660A
330
A
100
AcDbEntity
  8
0
  6
Continuous
 62
     7
370
     0
100
AcDbLine
 10
-9.999999999487898
 20
143.2234149862587
 30
0.0
 11
-8.99999999948784
 21
143.2234149862587
 31
0.0
  0
LINE
  5
660B
330
A
100
AcDbEntity
  8
0
  6
Continuous
 62
     7
370
     0
100
AcDbLine
 10
9.00000000051216
 20
143.2234149862587
 30
0.0
 11
9.00000000051216
 21
144.2234149862587
 31
0.0
  0
LINE
  5
660C
330
A
100
AcDbEntity
  8
0
  6
Continuous
 62
     7
370
     0
100
AcDbLine
 10
-8.99999999948784
 20
143.2234149862587
 30
0.0
 11
-8.99999999948784
 21
144.2234149862587
 31
0.0
  0
LINE
  5
660D
330
A
100
AcDbEntity
  8
0
  6
Continuous
 62
     7
370
    15
100
AcDbLine
 10
-62.38307947458074
 20
73.47341498625843
 30
0.0
 11
-61.98307947458107
 21
73.47341498625843
 31
0.0
  0
LINE
  5
660E
330
A
100
AcDbEntity
  8
0
  6
Continuous
 62
     7
370
    15
100
AcDbLine
 10
-61.98307947458107
 20
114.9734149862584
 30
0.0
 11
-62.38307947458071
 21
114.9734149862584
 31
0.0
  0
LINE
  5
660F
330
A
100
AcDbEntity
  8
0
  6
Continuous
 62
     7
370
    15
100
AcDbLine
 10
-58.98307947458088
 20
108.723414986258
 30
0.0
 11
-61.9830794745811
 21
108.723414986258
 31
0.0
  0
LINE
  5
6610
330
A
100
AcDbEntity
  8
0
  6
Continuous
 62
     7
370
    15
100
AcDbLine
 10
-61.9830794745811
 20
104.723414986258
 30
0.0
 11
-58.98307947458088
 21
104.7234149862581
 31
0.0
  0
LINE
  5
6611
330
A
100
AcDbEntity
  8
0
  6
Continuous
 62
     7
370
    15
100
AcDbLine
 10
-58.9830794745809
 20
83.72341498625804
 30
0.0
 11
-61.9830794745811
 21
83.72341498625804
 31
0.0
  0
LINE
  5
6612
330
A
100
AcDbEntity
  8
0
  6
Continuous
 62
     7
370
    15
100
AcDbLine
 10
-61.9830794745811
 20
79.72341498625804
 30
0.0
 11
-58.9830794745809
 21
79.72341498625804
 31
0.0
  0
LINE
  5
6613
330
A
100
AcDbEntity
  8
0
  6
Continuous
 62
     7
370
    15
100
AcDbLine
 10
-53.98307947458088
 20
85.22341498625804
 30
0.0
 11
-58.98307947458088
 21
85.22341498625804
 31
0.0
  0
LINE
  5
6614
330
A
100
AcDbEntity
  8
0
  6
Continuous
 62
     7
370
    15
100
AcDbLine
 10
-58.98307947458088
 20
78.22341498625804
 30
0.0
 11
-53.98307947458088
 21
78.22341498625804
 31
0.0
  0
LINE
  5
6615
330
A
100
AcDbEntity
  8
0
  6
Continuous
 62
     7
370
    15
100
AcDbLine
 10
-53.98307947458088
 20
110.223414986258
 30
0.0
 11
-58.98307947458088
 21
110.223414986258
 31
0.0
  0
LINE
  5
6616
330
A
100
AcDbEntity
  8
0
  6
Continuous
 62
     7
370
    15
100
AcDbLine
 10
-58.98307947458088
 20
103.223414986258
 30
0.0
 11
-53.98307947458088
 21
103.223414986258
 31
0.0
  0
LINE
  5
6617
330
A
100
AcDbEntity
  8
0
  6
Continuous
 62
     7
370
    15
100
AcDbLine
 10
-61.98307947458107
 20
73.47341498625843
 30
0.0
 11
-61.98307947458107
 21
78.97341498625843
 31
0.0
  0
LINE
  5
6618
330
A
100
AcDbEntity
  8
0
  6
Continuous
 62
     7
370
    15
100
AcDbLine
 10
-61.98307947458107
 20
78.97341498625843
 30
0.0
 11
-61.98307947458107
 21
109.4734149862584
 31
0.0
  0
LINE
  5
6619
330
A
100
AcDbEntity
  8
0
  6
Continuous
 62
     7
370
    15
100
AcDbLine
 10
-61.98307947458107
 20
109.4734149862584
 30
0.0
 11
-61.98307947458107
 21
114.9734149862584
 31
0.0
  0
LINE
  5
661A
330
A
100
AcDbEntity
  8
0
  6
Continuous
 62
     7
370
    15
100
AcDbLine
 10
-58.98307947458088
 20
81.72341498625804
 30
0.0
 11
-58.98307947458088
 21
85.22341498625804
 31
0.0
  0
LINE
  5
661B
330
A
100
AcDbEntity
  8
0
  6
Continuous
 62
     7
370
    15
100
AcDbLine
 10
-58.98307947458088
 20
78.22341498625804
 30
0.0
 11
-58.98307947458088
 21
81.72341498625804
 31
0.0
  0
LINE
  5
661C
330
A
100
AcDbEntity
  8
0
  6
Continuous
 62
     7
370
    15
100
AcDbLine
 10
-58.98307947458088
 20
106.723414986258
 30
0.0
 11
-58.98307947458088
 21
110.223414986258
 31
0.0
  0
LINE
  5
661D
330
A
100
AcDbEntity
  8
0
  6
Continuous
 62
     7
370
    15
100
AcDbLine
 10
-58.98307947458088
 20
103.223414986258
 30
0.0
 11
-58.98307947458088
 21
106.723414986258
 31
0.0
  0
LINE
  5
661E
330
A
100
AcDbEntity
  8
0
  6
Continuous
 62
     7
370
    15
100
AcDbLine
 10
-62.38307947458074
 20
45.22341498625866
 30
0.0
 11
-62.38307947458074
 21
44.22341498625863
 31
0.0
  0
LINE
  5
661F
330
A
100
AcDbEntity
  8
0
  6
Continuous
 62
     7
370
    15
100
AcDbLine
 10
-62.38307947458074
 20
44.22341498625863
 30
0.0
 11
-76.38307947458074
 21
44.22341498625863
 31
0.0
  0
LINE
  5
6620
330
A
100
AcDbEntity
  8
0
  6
Continuous
 62
     7
370
    15
100
AcDbLine
 10
-62.38307947458071
 20
59.71254713278378
 30
0.0
 11
-76.38307947458071
 21
59.71254713278378
 31
0.0
  0
LINE
  5
6621
330
A
100
AcDbEntity
  8
0
  6
Continuous
 62
     7
370
    15
100
AcDbLine
 10
-62.38307947458074
 20
45.22341498625866
 30
0.0
 11
-62.38307947458071
 21
59.71254713278378
 31
0.0
  0
LINE
  5
6622
330
A
100
AcDbEntity
  8
0
  6
Continuous
 62
     7
370
    15
100
AcDbLine
 10
-76.38307947458068
 20
128.7342828397335
 30
0.0
 11
-62.38307947458068
 21
128.7342828397335
 31
0.0
  0
LINE
  5
6623
330
A
100
AcDbEntity
  8
0
  6
Continuous
 62
     7
370
    15
100
AcDbLine
 10
-62.38307947458068
 20
128.7342828397335
 30
0.0
 11
-62.38307947458071
 21
59.71254713278378
 31
0.0
  0
LINE
  5
6624
330
A
100
AcDbEntity
  8
0
  6
Continuous
 62
     7
370
    15
100
AcDbLine
 10
-62.38307947458068
 20
128.7342828397335
 30
0.0
 11
-62.38307947458065
 21
143.2234149862587
 31
0.0
  0
LINE
  5
6625
330
A
100
AcDbEntity
  8
0
  6
Continuous
 62
     7
370
    15
100
AcDbLine
 10
-76.38307947458065
 20
144.2234149862587
 30
0.0
 11
-62.38307947458065
 21
144.2234149862587
 31
0.0
  0
LINE
  5
6626
330
A
100
AcDbEntity
  8
0
  6
Continuous
 62
     7
370
    15
100
AcDbLine
 10
-62.38307947458065
 20
144.2234149862587
 30
0.0
 11
-62.38307947458065
 21
143.2234149862587
 31
0.0
  0
LINE
  5
6627
330
A
100
AcDbEntity
  8
0
  6
Continuous
 62
     7
370
    15
100
AcDbLine
 10
-77.38307947458074
 20
45.22341498625866
 30
0.0
 11
-77.38307947458071
 21
59.62572720224614
 31
0.0
  0
SPLINE
  5
6628
330
A
100
AcDbEntity
  8
0
  6
Continuous
 62
     7
370
    15
100
AcDbSpline
210
0.0
220
0.0
230
1.0
 70
     8
 71
     3
 72
    17
 73
    13
 74
     0
 42
0.000000001
 43
0.00000001
 40
0.0
 40
0.0
 40
0.0
 40
0.0
 40
0.0096989845381612
 40
0.1434066369511465
 40
0.2493309719103353
 40
0.3583042812625913
 40
0.4638527015448331
 40
0.5724370298408519
 40
0.6778023655531835
 40
0.786210416681264
 40
0.8915759343856634
 40
1.0
 40
1.0
 40
1.0
 40
1.0
 10
-77.38307947458071
 20
59.62572720224614
 30
0.0
 10
-77.38305445455049
 20
59.62616615606569
 30
0.0
 10
-77.38268451495759
 20
59.63265641190537
 30
0.0
 10
-77.36673405520688
 20
59.64396384699472
 30
0.0
 10
-77.31138180172752
 20
59.65907630136914
 30
0.0
 10
-77.23420379805444
 20
59.67205454282202
 30
0.0
 10
-77.13224278916215
 20
59.68382843101057
 30
0.0
 10
-77.01027597180666
 20
59.69385231778259
 30
0.0
 10
-76.86944013328701
 20
59.70205134010243
 30
0.0
 10
-76.71622385192768
 20
59.70798691766549
 30
0.0
 10
-76.55210487408797
 20
59.71182283162236
 30
0.0
 10
-76.43995608755893
 20
59.71230340730256
 30
0.0
 10
-76.38307947458071
 20
59.71254713278378
 30
0.0
  0
ARC
  5
6629
330
A
100
AcDbEntity
  8
0
  6
Continuous
 62
     7
370
    15
100
AcDbCircle
 10
-76.38307947458074
 20
45.22341498625866
 30
0.0
 40
1.000000000000028
100
AcDbArc
 50
180.0
 51
270.0000000000016
  0
LINE
  5
662A
330
A
100
AcDbEntity
  8
0
  6
Continuous
 62
     7
370
    15
100
AcDbLine
 10
-77.38307947458071
 20
59.62572720224614
 30
0.0
 11
-77.38307947458068
 21
128.8211027702712
 31
0.0
  0
SPLINE
  5
662B
330
A
100
AcDbEntity
  8
0
  6
Continuous
 62
     7
370
    15
100
AcDbSpline
210
0.0
220
0.0
230
1.0
 70
     8
 71
     3
 72
    13
 73
     9
 74
     0
 42
0.000000001
 43
0.00000001
 40
0.0
 40
0.0
 40
0.0
 40
0.0
 40
0.0097284774992049
 40
0.1438427121233459
 40
0.3586330395546368
 40
0.5726592417214303
 40
0.7863233482617817
 40
1.0
 40
1.0
 40
1.0
 40
1.0
 10
-77.38307947458068
 20
128.8211027702712
 30
0.0
 10
-77.38305434592513
 20
128.820663799451
 30
0.0
 10
-77.3826828002268
 20
128.8141732922448
 30
0.0
 10
-77.35998312816434
 20
128.79798536764
 30
0.0
 10
-77.2456641103986
 20
128.773978106153
 30
0.0
 10
-77.01805230651763
 20
128.7520483917885
 30
0.0
 10
-76.71947846193808
 20
128.7371506398376
 30
0.0
 10
-76.49521466489443
 20
128.7352387918099
 30
0.0
 10
-76.38307947458068
 20
128.7342828397335
 30
0.0
  0
LINE
  5
662C
330
A
100
AcDbEntity
  8
0
  6
Continuous
 62
     7
370
    15
100
AcDbLine
 10
-77.38307947458068
 20
128.8211027702712
 30
0.0
 11
-77.38307947458065
 21
143.2234149862587
 31
0.0
  0
ARC
  5
662D
330
A
100
AcDbEntity
  8
0
  6
Continuous
 62
     7
370
    15
100
AcDbCircle
 10
-76.38307947458065
 20
143.2234149862587
 30
0.0
 40
1.0
100
AcDbArc
 50
90.0
 51
180.0
  0
SPLINE
  5
662E
330
A
100
AcDbEntity
  8
0
  6
Continuous
 62
     7
370
    15
100
AcDbSpline
210
0.0
220
0.0
230
1.0
 70
     8
 71
     3
 72
    17
 73
    13
 74
     0
 42
0.000000001
 43
0.00000001
 40
0.0
 40
0.0
 40
0.0
 40
0.0
 40
0.1053648560828608
 40
0.2137895758266186
 40
0.3191532425568804
 40
0.4275629689781055
 40
0.5331094440972967
 40
0.641695727533674
 40
0.7476186756233902
 40
0.856593374126879
 40
0.9903010162110456
 40
1.0
 40
1.0
 40
1.0
 40
1.0
 10
-39.9830794745809
 20
59.71254713278395
 30
0.0
 10
-39.92781389349597
 20
59.7123162439047
 30
0.0
 10
-39.81567778305833
 20
59.7118477609836
 30
0.0
 10
-39.65294626961276
 20
59.7080794426339
 30
0.0
 10
-39.49815463052096
 20
59.70212033144378
 30
0.0
 10
-39.35836633982495
 20
59.69402425528182
 30
0.0
 10
-39.23500636144945
 20
59.68393424683543
 30
0.0
 10
-39.13364682285317
 20
59.67228779142951
 30
0.0
 10
-39.05540600157468
 20
59.65920765282399
 30
0.0
 10
-38.99961539849522
 20
59.64410151098309
 30
0.0
 10
-38.98347450000477
 20
59.63265642146683
 30
0.0
 10
-38.98310449877948
 20
59.62616615667153
 30
0.0
 10
-38.9830794745809
 20
59.62572720224631
 30
0.0
  0
LINE
  5
662F
330
A
100
AcDbEntity
  8
0
  6
Continuous
 62
     7
370
    15
100
AcDbLine
 10
-38.9830794745809
 20
59.62572720224631
 30
0.0
 11
-38.9830794745809
 21
45.22341498625866
 31
0.0
  0
SPLINE
  5
6630
330
A
100
AcDbEntity
  8
0
  6
Continuous
 62
     7
370
    15
100
AcDbSpline
210
0.0
220
0.0
230
1.0
 70
     8
 71
     3
 72
    13
 73
     9
 74
     0
 42
0.000000001
 43
0.00000001
 40
0.0
 40
0.0
 40
0.0
 40
0.0
 40
0.2136766517382136
 40
0.4273407582785633
 40
0.6413669604453387
 40
0.8561572878766289
 40
0.9902715225008019
 40
1.0
 40
1.0
 40
1.0
 40
1.0
 10
-39.98307947458085
 20
128.7342828397333
 30
0.0
 10
-39.87094428426713
 20
128.7352387918096
 30
0.0
 10
-39.64668048722348
 20
128.7371506398374
 30
0.0
 10
-39.34810664264393
 20
128.7520483917887
 30
0.0
 10
-39.12049483876297
 20
128.773978106152
 30
0.0
 10
-39.00617582099721
 20
128.7979853676417
 30
0.0
 10
-38.98347614893476
 20
128.8141732922421
 30
0.0
 10
-38.98310460323643
 20
128.8206637994507
 30
0.0
 10
-38.98307947458085
 20
128.821102770271
 30
0.0
  0
LINE
  5
6631
330
A
100
AcDbEntity
  8
0
  6
Continuous
 62
     7
370
    15
100
AcDbLine
 10
-38.98307947458085
 20
128.8211027702709
 30
0.0
 11
-38.9830794745809
 21
59.62572720224631
 31
0.0
  0
LINE
  5
6632
330
A
100
AcDbEntity
  8
0
  6
Continuous
 62
     7
370
    15
100
AcDbLine
 10
-39.9830794745809
 20
44.22341498625863
 30
0.0
 11
-53.9830794745809
 21
44.22341498625863
 31
0.0
  0
LINE
  5
6633
330
A
100
AcDbEntity
  8
0
  6
Continuous
 62
     7
370
    15
100
AcDbLine
 10
-53.9830794745809
 20
44.22341498625863
 30
0.0
 11
-53.9830794745809
 21
45.22341498625866
 31
0.0
  0
ARC
  5
6634
330
A
100
AcDbEntity
  8
0
  6
Continuous
 62
     7
370
    15
100
AcDbCircle
 10
-39.9830794745809
 20
45.22341498625866
 30
0.0
 40
1.000000000000028
100
AcDbArc
 50
270.0
 51
0.0
  0
LINE
  5
6635
330
A
100
AcDbEntity
  8
0
  6
Continuous
 62
     7
370
    15
100
AcDbLine
 10
-53.9830794745809
 20
59.71254713278398
 30
0.0
 11
-53.9830794745809
 21
45.22341498625866
 31
0.0
  0
LINE
  5
6636
330
A
100
AcDbEntity
  8
0
  6
Continuous
 62
     7
370
    15
100
AcDbLine
 10
-39.9830794745809
 20
59.71254713278395
 30
0.0
 11
-53.9830794745809
 21
59.71254713278398
 31
0.0
  0
LINE
  5
6637
330
A
100
AcDbEntity
  8
0
  6
Continuous
 62
     7
370
    15
100
AcDbLine
 10
-53.9830794745809
 20
59.71254713278398
 30
0.0
 11
-53.98307947458088
 21
128.7342828397333
 31
0.0
  0
LINE
  5
6638
330
A
100
AcDbEntity
  8
0
  6
Continuous
 62
     7
370
    15
100
AcDbLine
 10
-53.98307947458088
 20
128.7342828397333
 30
0.0
 11
-39.98307947458085
 21
128.7342828397333
 31
0.0
  0
LINE
  5
6639
330
A
100
AcDbEntity
  8
0
  6
Continuous
 62
     7
370
    15
100
AcDbLine
 10
-38.98307947458085
 20
143.2234149862586
 30
0.0
 11
-38.98307947458085
 21
128.8211027702709
 31
0.0
  0
LINE
  5
663A
330
A
100
AcDbEntity
  8
0
  6
Continuous
 62
     7
370
    15
100
AcDbLine
 10
-53.98307947458085
 20
143.2234149862586
 30
0.0
 11
-53.98307947458088
 21
128.7342828397333
 31
0.0
  0
LINE
  5
663B
330
A
100
AcDbEntity
  8
0
  6
Continuous
 62
     7
370
    15
100
AcDbLine
 10
-53.98307947458088
 20
144.2234149862586
 30
0.0
 11
-39.98307947458085
 21
144.2234149862586
 31
0.0
  0
LINE
  5
663C
330
A
100
AcDbEntity
  8
0
  6
Continuous
 62
     7
370
    15
100
AcDbLine
 10
-53.98307947458085
 20
143.2234149862586
 30
0.0
 11
-53.98307947458088
 21
144.2234149862586
 31
0.0
  0
ARC
  5
663D
330
A
100
AcDbEntity
  8
0
  6
Continuous
 62
     7
370
    15
100
AcDbCircle
 10
-39.98307947458085
 20
143.2234149862586
 30
0.0
 40
1.0
100
AcDbArc
 50
0.0
 51
90.0
  0
LINE
  5
663E
330
A
100
AcDbEntity
  8
0
  6
Continuous
 62
     7
370
     0
100
AcDbLine
 10
-61.98307947458107
 20
78.97341498625843
 30
0.0
 11
-62.38307947458071
 21
78.97341498625843
 31
0.0
  0
LINE
  5
663F
330
A
100
AcDbEntity
  8
0
  6
Continuous
 62
     7
370
     0
100
AcDbLine
 10
-61.98307947458107
 20
109.4734149862584
 30
0.0
 11
-62.38307947458071
 21
109.4734149862584
 31
0.0
  0
LINE
  5
6640
330
A
100
AcDbEntity
  8
0
  6
Continuous
 62
     7
370
     0
100
AcDbLine
 10
-76.38307947458074
 20
45.22341498625866
 30
0.0
 11
-62.38307947458074
 21
45.22341498625866
 31
0.0
  0
LINE
  5
6641
330
A
100
AcDbEntity
  8
0
  6
Continuous
 62
     7
370
     0
100
AcDbLine
 10
-76.38307947458074
 20
44.22341498625863
 30
0.0
 11
-76.38307947458074
 21
45.22341498625866
 31
0.0
  0
LINE
  5
6642
330
A
100
AcDbEntity
  8
0
  6
Continuous
 62
     7
370
     0
100
AcDbLine
 10
-76.38307947458071
 20
59.71254713278378
 30
0.0
 11
-76.38307947458074
 21
45.22341498625866
 31
0.0
  0
LINE
  5
6643
330
A
100
AcDbEntity
  8
0
  6
Continuous
 62
     7
370
     0
100
AcDbLine
 10
-76.38307947458068
 20
128.7342828397335
 30
0.0
 11
-76.38307947458071
 21
59.71254713278378
 31
0.0
  0
LINE
  5
6644
330
A
100
AcDbEntity
  8
0
  6
Continuous
 62
     7
370
     0
100
AcDbLine
 10
-76.38307947458065
 20
143.2234149862587
 30
0.0
 11
-76.38307947458068
 21
128.7342828397335
 31
0.0
  0
LINE
  5
6645
330
A
100
AcDbEntity
  8
0
  6
Continuous
 62
     7
370
     0
100
AcDbLine
 10
-62.38307947458065
 20
143.2234149862587
 30
0.0
 11
-76.38307947458065
 21
143.2234149862587
 31
0.0
  0
LINE
  5
6646
330
A
100
AcDbEntity
  8
0
  6
Continuous
 62
     7
370
     0
100
AcDbLine
 10
-76.38307947458065
 20
143.2234149862587
 30
0.0
 11
-76.38307947458065
 21
144.2234149862587
 31
0.0
  0
LINE
  5
6647
330
A
100
AcDbEntity
  8
0
  6
Continuous
 62
     7
370
     0
100
AcDbLine
 10
-77.38307947458074
 20
45.22341498625866
 30
0.0
 11
-76.38307947458074
 21
45.22341498625866
 31
0.0
  0
LINE
  5
6648
330
A
100
AcDbEntity
  8
0
  6
Continuous
 62
     7
370
     0
100
AcDbLine
 10
-77.38307947458065
 20
143.2234149862587
 30
0.0
 11
-76.38307947458065
 21
143.2234149862587
 31
0.0
  0
LINE
  5
6649
330
A
100
AcDbEntity
  8
0
  6
Continuous
 62
     7
370
     0
100
AcDbLine
 10
-39.9830794745809
 20
45.22341498625866
 30
0.0
 11
-39.9830794745809
 21
59.71254713278395
 31
0.0
  0
LINE
  5
664A
330
A
100
AcDbEntity
  8
0
  6
Continuous
 62
     7
370
     0
100
AcDbLine
 10
-39.9830794745809
 20
45.22341498625866
 30
0.0
 11
-38.9830794745809
 21
45.22341498625866
 31
0.0
  0
LINE
  5
664B
330
A
100
AcDbEntity
  8
0
  6
Continuous
 62
     7
370
     0
100
AcDbLine
 10
-39.9830794745809
 20
59.71254713278395
 30
0.0
 11
-39.98307947458085
 21
128.7342828397333
 31
0.0
  0
LINE
  5
664C
330
A
100
AcDbEntity
  8
0
  6
Continuous
 62
     7
370
     0
100
AcDbLine
 10
-53.9830794745809
 20
45.22341498625866
 30
0.0
 11
-39.9830794745809
 21
45.22341498625866
 31
0.0
  0
LINE
  5
664D
330
A
100
AcDbEntity
  8
0
  6
Continuous
 62
     7
370
     0
100
AcDbLine
 10
-39.9830794745809
 20
45.22341498625866
 30
0.0
 11
-39.9830794745809
 21
44.22341498625863
 31
0.0
  0
LINE
  5
664E
330
A
100
AcDbEntity
  8
0
  6
Continuous
 62
     7
370
     0
100
AcDbLine
 10
-39.98307947458085
 20
128.7342828397333
 30
0.0
 11
-39.98307947458085
 21
143.2234149862586
 31
0.0
  0
LINE
  5
664F
330
A
100
AcDbEntity
  8
0
  6
Continuous
 62
     7
370
     0
100
AcDbLine
 10
-39.98307947458085
 20
143.2234149862586
 30
0.0
 11
-38.98307947458085
 21
143.2234149862586
 31
0.0
  0
LINE
  5
6650
330
A
100
AcDbEntity
  8
0
  6
Continuous
 62
     7
370
     0
100
AcDbLine
 10
-39.98307947458085
 20
143.2234149862586
 30
0.0
 11
-53.98307947458085
 21
143.2234149862586
 31
0.0
  0
LINE
  5
6651
330
A
100
AcDbEntity
  8
0
  6
Continuous
 62
     7
370
     0
100
AcDbLine
 10
-39.98307947458085
 20
144.2234149862586
 30
0.0
 11
-39.98307947458085
 21
143.2234149862586
 31
0.0
  0
LINE
  5
6652
330
A
100
AcDbEntity
  8
0
  6
Continuous
 62
     7
370
    15
100
AcDbLine
 10
78.24632708598722
 20
38.17919171655574
 30
0.0
 11
77.74311239998048
 21
38.64748574852517
 31
0.0
  0
LINE
  5
6653
330
A
100
AcDbEntity
  8
0
  6
Continuous
 62
     7
370
    15
100
AcDbLine
 10
75.42117056520459
 20
39.13638921926133
 30
0.0
 11
74.74861301895851
 21
38.51050389869893
 31
0.0
  0
LINE
  5
6654
330
A
100
AcDbEntity
  8
0
  6
Continuous
 62
     7
370
    15
100
AcDbLine
 10
78.31946099798392
 20
37.2378039277358
 30
0.0
 11
78.31946099798392
 21
38.04049100831378
 31
0.0
  0
LINE
  5
6655
330
A
100
AcDbEntity
  8
0
  6
Continuous
 62
     7
370
    15
100
AcDbLine
 10
77.5638115167435
 20
64.5297160351968
 30
0.0
 11
79.19528684204181
 21
64.10745914939477
 31
0.0
  0
LWPOLYLINE
  5
6656
330
A
100
AcDbEntity
  8
0
  6
Continuous
 62
     7
370
    15
100
AcDbPolyline
 90
        3
 70
   128
 43
0.0
 10
74.46673406851932
 20
39.3834165146171
 10
75.1956696491664
 20
39.19475709610118
 10
76.97395092179573
 20
38.73447292461756
  0
LINE
  5
6657
330
A
100
AcDbEntity
  8
0
  6
Continuous
 62
     7
370
    15
100
AcDbLine
 10
77.5638115167435
 20
40.38157037797009
 30
0.0
 11
79.11202660648007
 21
39.98086282683118
 31
0.0
  0
LINE
  5
6658
330
A
100
AcDbEntity
  8
0
  6
Continuous
 62
     7
370
    15
100
AcDbLine
 10
79.36558978895323
 20
47.14589125255191
 30
0.0
 11
79.31775116634367
 21
47.15827279917474
 31
0.0
  0
ARC
  5
6659
330
A
100
AcDbEntity
  8
0
  6
Continuous
 62
     7
370
    15
100
AcDbCircle
 10
100.643934270801
 20
100.721989699995
 30
0.0
 40
1.0
100
AcDbArc
 50
0.0
 51
75.4891813009279
  0
LINE
  5
665A
330
A
100
AcDbEntity
  8
0
  6
Continuous
 62
     7
370
    15
100
AcDbLine
 10
101.643934270801
 20
86.75184949235276
 30
0.0
 11
101.643934270801
 21
100.721989699995
 31
0.0
  0
LINE
  5
665B
330
A
100
AcDbEntity
  8
0
  6
Continuous
 62
     7
370
    15
100
AcDbLine
 10
100.8944970778867
 20
101.6900900458814
 30
0.0
 11
90.99500214127505
 21
104.2522678723724
 31
0.0
  0
SPLINE
  5
665C
330
A
100
AcDbEntity
  8
0
  6
Continuous
 62
     7
370
    15
100
AcDbSpline
210
0.0
220
0.0
230
1.0
 70
     8
 71
     3
 72
    25
 73
    21
 74
     0
 42
0.000000001
 43
0.00000001
 40
0.0
 40
0.0
 40
0.0
 40
0.0
 40
0.0242507161872175
 40
0.0824206601443859
 40
0.1405918798040647
 40
0.1987635582158803
 40
0.2569357198276518
 40
0.3151083824414556
 40
0.3732815577302137
 40
0.4314552517529188
 40
0.4896294654368399
 40
0.5478041950276561
 40
0.6059794325086479
 40
0.6641551659905734
 40
0.7223313800732076
 40
0.7805080561810289
 40
0.8386851728737786
 40
0.8968627061342495
 40
0.9550406296346317
 40
0.9999999999999999
 40
0.9999999999999999
 40
0.9999999999999999
 40
0.9999999999999999
 10
101.6443300043267
 20
20.04611857424092
 30
0.0
 10
101.5764541711403
 20
20.56226556692683
 30
0.0
 10
101.3457652737123
 20
22.31648905213407
 30
0.0
 10
100.9940097459948
 20
25.32941972782695
 30
0.0
 10
100.6099151369539
 20
29.09330938240601
 30
0.0
 10
100.2840827798869
 20
32.88255798011419
 30
0.0
 10
100.0151592196804
 20
36.69484370652451
 30
0.0
 10
99.80365966832846
 20
40.52881377451004
 30
0.0
 10
99.64956820741543
 20
44.38284889803478
 30
0.0
 10
99.5529813203135
 20
48.2553902906786
 30
0.0
 10
99.51393514505702
 20
52.14485288341351
 30
0.0
 10
99.53245268280233
 20
56.04964944498832
 30
0.0
 10
99.60852754249822
 20
59.96818489213118
 30
0.0
 10
99.74214165119008
 20
63.8988589484313
 30
0.0
 10
99.93321063289011
 20
67.84006522906498
 30
0.0
 10
100.1817846165742
 20
71.7901962817497
 30
0.0
 10
100.4872997140661
 20
75.74762838339743
 30
0.0
 10
100.8513714905775
 20
79.71078136363565
 30
0.0
 10
101.235862666324
 20
83.37743526077045
 30
0.0
 10
101.5214738992238
 20
85.7232081879744
 30
0.0
 10
101.6459768866414
 20
86.74577209162399
 30
0.0
  0
ARC
  5
665D
330
A
100
AcDbEntity
  8
0
  6
Continuous
 62
     7
370
    15
100
AcDbCircle
 10
87.91601220944324
 20
2.767030089606266
 30
0.0
 40
0.9999999999999981
100
AcDbArc
 50
255.4891813009279
 51
284.5108186990721
  0
LINE
  5
665E
330
A
100
AcDbEntity
  8
0
  6
Continuous
 62
     7
370
    15
100
AcDbLine
 10
77.76595446574584
 20
4.361107570211018
 30
0.0
 11
87.66544940235752
 21
1.798929743719967
 31
0.0
  0
LINE
  5
665F
330
A
100
AcDbEntity
  8
0
  6
Continuous
 62
     7
370
    15
100
AcDbLine
 10
88.16657501652895
 20
1.798929743719967
 30
0.0
 11
100.8944970778869
 21
5.093158377779929
 31
0.0
  0
LINE
  5
6660
330
A
100
AcDbEntity
  8
0
  6
Continuous
 62
     7
370
    15
100
AcDbLine
 10
101.6439342708011
 20
6.061258723666313
 30
0.0
 11
101.6439342708011
 21
20.0319034006895
 31
0.0
  0
ARC
  5
6661
330
A
100
AcDbEntity
  8
0
  6
Continuous
 62
     7
370
    15
100
AcDbCircle
 10
100.6439342708011
 20
6.061258723666313
 30
0.0
 40
1.000000000000012
100
AcDbArc
 50
284.5108186990719
 51
0.0
  0
ARC
  5
6662
330
A
100
AcDbEntity
  8
0
  6
Continuous
 62
     7
370
    15
100
AcDbCircle
 10
62.17732537425297
 20
104.0894234148118
 30
0.0
 40
1.0
100
AcDbArc
 50
104.5108186990721
 51
180.0
  0
LINE
  5
6663
330
A
100
AcDbEntity
  8
0
  6
Continuous
 62
     7
370
    15
100
AcDbLine
 10
61.17732537425297
 20
104.0894234148118
 30
0.0
 11
61.17732537425297
 21
90.11928320716925
 31
0.0
  0
LINE
  5
6664
330
A
100
AcDbEntity
  8
0
  6
Continuous
 62
     7
370
    15
100
AcDbLine
 10
74.65468462852505
 20
108.3517523947581
 30
0.0
 11
61.9267625671672
 21
105.0575237606981
 31
0.0
  0
LINE
  5
6665
330
A
100
AcDbEntity
  8
0
  6
Continuous
 62
     7
370
    15
100
AcDbLine
 10
85.05530517930822
 20
105.789574568267
 30
0.0
 11
75.15581024269648
 21
108.3517523947581
 31
0.0
  0
SPLINE
  5
6666
330
A
100
AcDbEntity
  8
0
  6
Continuous
 62
     7
370
    15
100
AcDbSpline
210
0.0
220
0.0
230
1.0
 70
     8
 71
     3
 72
    25
 73
    21
 74
     0
 42
0.000000001
 43
0.00000001
 40
0.0
 40
0.0
 40
0.0
 40
0.0
 40
0.0242464013501839
 40
0.0824161087778154
 40
0.1405870919027835
 40
0.1987585337780089
 40
0.2569304588512523
 40
0.3151028849245027
 40
0.3732758236705861
 40
0.4314492811485175
 40
0.4896232582855424
 40
0.5477977513273858
 40
0.6059727522573631
 40
0.6641482491861983
 40
0.7223242267138186
 40
0.7805006662647499
 40
0.838677546398817
 40
0.8968548430988945
 40
0.95503253003733
 40
1.0
 40
1.0
 40
1.0
 40
1.0
 10
61.17696467515356
 20
90.10429416941108
 30
0.0
 10
61.24482862451651
 20
89.58823687349712
 30
0.0
 10
61.47550543927383
 20
87.8341029869315
 30
0.0
 10
61.82724971448437
 20
84.82126231956445
 30
0.0
 10
62.21134455755748
 20
81.05737278048062
 30
0.0
 10
62.53717685191475
 20
77.26812415182548
 30
0.0
 10
62.80610042892437
 20
73.45583843370721
 30
0.0
 10
63.0175999757746
 20
69.62186836349935
 30
0.0
 10
63.17169143789147
 20
65.76783324056979
 30
0.0
 10
63.26827832468001
 20
61.89529184776754
 30
0.0
 10
63.30732449998607
 20
58.00582925507427
 30
0.0
 10
63.28880696235581
 20
54.10103269349261
 30
0.0
 10
63.21273210215008
 20
50.18249724633336
 30
0.0
 10
63.07911799538232
 20
46.25182319010409
 30
0.0
 10
62.88804900649598
 20
42.31061690920325
 30
0.0
 10
62.6394750496334
 20
38.36048585751783
 30
0.0
 10
62.33395985204083
 20
34.40305375213951
 30
0.0
 10
61.96988844911436
 20
30.43990078582435
 30
0.0
 10
61.5853762435824
 20
26.77305858235852
 30
0.0
 10
61.29974151187992
 20
24.42709725680417
 30
0.0
 10
61.17521534309009
 20
23.40434496663515
 30
0.0
  0
ARC
  5
6667
330
A
100
AcDbEntity
  8
0
  6
Continuous
 62
     7
370
    15
100
AcDbCircle
 10
74.90524743561076
 20
107.3836520488717
 30
0.0
 40
1.000000000000026
100
AcDbArc
 50
75.48918130093145
 51
104.5108186990686
  0
LINE
  5
6668
330
A
100
AcDbEntity
  8
0
  6
Continuous
 62
     7
370
    15
100
AcDbLine
 10
61.92676256716726
 20
8.460592092596713
 30
0.0
 11
71.82625750377895
 21
5.898414266105661
 31
0.0
  0
LINE
  5
6669
330
A
100
AcDbEntity
  8
0
  6
Continuous
 62
     7
370
    15
100
AcDbLine
 10
61.17732537425297
 20
23.3993371155064
 30
0.0
 11
61.17732537425297
 21
9.428692438483068
 31
0.0
  0
ARC
  5
666A
330
A
100
AcDbEntity
  8
0
  6
Continuous
 62
     7
370
    15
100
AcDbCircle
 10
62.17732537425297
 20
9.428692438483068
 30
0.0
 40
1.0
100
AcDbArc
 50
180.0
 51
255.4891813009346
  0
LWPOLYLINE
  5
666B
330
A
100
AcDbEntity
  8
0
  6
Continuous
 62
     7
370
    15
100
AcDbPolyline
 90
       13
 70
   128
 43
0.0
 10
78.24632708598722
 20
38.17919171655574
 10
78.30960797008879
 20
38.09180969492971
 10
78.30570381721077
 20
37.97988121157495
 10
78.20892515765598
 20
37.87078677495273
 10
78.0237972539835
 20
37.76962751966975
 10
77.75897648121429
 20
37.68113354007266
 10
77.42684556435563
 20
37.60944271629336
 10
77.04293457594304
 20
37.55790723157318
 10
76.62519476710821
 20
37.52893682790001
 10
76.19315918702773
 20
37.52388612915139
 10
75.76702933925333
 20
37.54299130038733
 10
75.36673058185738
 20
37.58535900503465
 10
75.31538915630392
 20
37.59281337838787
  0
LWPOLYLINE
  5
666C
330
A
100
AcDbEntity
  8
0
  6
Continuous
 62
     7
370
    15
100
AcDbPolyline
 90
       21
 70
   128
 43
0.0
 10
78.7809683062618
 20
71.35476395210753
 10
78.73909440550943
 20
71.35136733632817
 10
78.34112822398578
 20
71.27027372644369
 10
77.94574300586146
 20
71.10235972954356
 10
77.5631790205997
 20
70.85197422994631
 10
77.20334447446709
 20
70.52560208057005
 10
76.87555889319606
 20
70.13169614864822
 10
76.58831175116376
 20
69.6804583909084
 10
76.34904259846473
 20
69.18357562825167
 10
76.16394838047171
 20
68.65391686323039
 10
76.03782294020516
 20
68.10519997964167
 10
75.97393286031723
 20
67.55163645654272
 10
75.97393286031723
 20
67.00756329840826
 10
76.03782294020516
 20
66.48707171424553
 10
76.16394838047177
 20
66.00364216268267
 10
76.34904259846473
 20
65.56979521517133
 10
76.58831175116376
 20
65.19676727976267
 10
76.87555889319606
 20
64.89421958404131
 10
77.20334447446714
 20
64.6699879544054
 10
77.5631790205997
 20
64.52987987227905
 10
77.5638115167435
 20
64.5297160351968
  0
ARC
  5
666D
330
A
100
AcDbEntity
  8
0
  6
Continuous
 62
     7
370
    15
100
AcDbCircle
 10
81.0353935980952
 20
68.75668974787322
 30
0.0
 40
6.748512998328557
100
AcDbArc
 50
112.1430660580614
 51
184.1065451487994
  0
LINE
  5
666E
330
A
100
AcDbEntity
  8
0
  6
Continuous
 62
     7
370
    15
100
AcDbLine
 10
74.30420667160229
 20
43.32714906917593
 30
0.0
 11
74.30420667160229
 21
68.27341937926218
 31
0.0
  0
LWPOLYLINE
  5
666F
330
A
100
AcDbEntity
  8
0
  6
Continuous
 62
     7
370
    15
100
AcDbPolyline
 90
       15
 70
   128
 43
0.0
 10
79.06109394927637
 20
38.97155169187729
 10
78.7005190142865
 20
38.8254826470627
 10
78.18104366910381
 20
38.69103253424217
 10
77.66566454217502
 20
38.64658113352834
 10
77.1625094702041
 20
38.6928294700644
 10
76.6795135092458
 20
38.82904817995581
 10
76.224293794132
 20
39.05308901277458
 10
75.80402941170473
 20
39.36141871075176
 10
75.42534818232832
 20
39.74917473036334
 10
75.09422213520293
 20
40.21024192754598
 10
74.81587332589675
 20
40.7373489971724
 10
74.5946914814096
 20
41.32218314587641
 10
74.43416477155671
 20
41.95552118977039
 10
74.33682479844629
 20
42.62737500956479
 10
74.30420667160229
 20
43.32714906917593
  0
LWPOLYLINE
  5
6670
330
A
100
AcDbEntity
  8
0
  6
Continuous
 62
     7
370
    15
100
AcDbPolyline
 90
       22
 70
   128
 43
0.0
 10
79.31775116634367
 20
47.15827279917474
 10
79.12933443537304
 20
47.19539462007077
 10
78.73909440550949
 20
47.20322167910146
 10
78.34112822398583
 20
47.12212806921698
 10
77.94574300586152
 20
46.95421407231683
 10
77.5631790205997
 20
46.7038285727196
 10
77.20334447446714
 20
46.37745642334335
 10
76.87555889319606
 20
45.98355049142154
 10
76.58831175116376
 20
45.53231273368169
 10
76.34904259846479
 20
45.03542997102497
 10
76.16394838047177
 20
44.50577120600369
 10
76.03782294020516
 20
43.95705432241496
 10
75.97393286031729
 20
43.40349079931602
 10
75.97393286031729
 20
42.85941764118155
 10
76.03782294020516
 20
42.33892605701882
 10
76.16394838047177
 20
41.85549650545599
 10
76.34904259846479
 20
41.42164955794462
 10
76.58831175116381
 20
41.04862162253599
 10
76.87555889319611
 20
40.74607392681463
 10
77.20334447446714
 20
40.52184229717869
 10
77.56317902059976
 20
40.38173421505235
 10
77.5638115167435
 20
40.38157037797009
  0
SPLINE
  5
6671
330
A
100
AcDbEntity
  8
0
  6
Continuous
 62
     7
370
    15
100
AcDbSpline
210
0.0
220
0.0
230
1.0
 70
     8
 71
     3
 72
    13
 73
     9
 74
     0
 42
0.000000001
 43
0.00000001
 40
0.0
 40
0.0
 40
0.0
 40
0.0
 40
0.2136766517382168
 40
0.4273407582785675
 40
0.641366960445363
 40
0.8561572878766588
 40
0.9902715225008005
 40
1.0
 40
1.0
 40
1.0
 40
1.0
 10
87.20890542825663
 20
83.24932142319898
 30
0.0
 10
87.29597240821579
 20
83.23173506629823
 30
0.0
 10
87.47010125633324
 20
83.19656338501159
 30
0.0
 10
87.80243273629912
 20
83.18768161265496
 30
0.0
 10
88.14189872089423
 20
83.21341264967882
 30
0.0
 10
88.41831172466652
 20
83.26629916862078
 30
0.0
 10
88.56633101826088
 20
83.31193705866107
 30
0.0
 10
88.61952156774873
 20
83.33183713926098
 30
0.0
 10
88.62311899062973
 20
83.33318303634184
 30
0.0
  0
ARC
  5
6672
330
A
100
AcDbEntity
  8
0
  6
Continuous
 62
     7
370
    15
100
AcDbCircle
 10
78.47928923279278
 20
99.87899330092068
 30
0.0
 40
1.172096385707736
100
AcDbArc
 50
113.2550072405909
 51
183.5250918323105
  0
LINE
  5
6673
330
A
100
AcDbEntity
  8
0
  6
Continuous
 62
     7
370
    15
100
AcDbLine
 10
87.20890542825663
 20
83.24932142319898
 30
0.0
 11
77.30941049164494
 21
85.81149924969014
 31
0.0
  0
LINE
  5
6674
330
A
100
AcDbEntity
  8
0
  6
Continuous
 62
     7
370
    15
100
AcDbLine
 10
77.30941049164494
 20
85.81149924969014
 30
0.0
 11
77.30941049164494
 21
99.80692619053394
 31
0.0
  0
LINE
  5
6675
330
A
100
AcDbEntity
  8
0
  6
Continuous
 62
     7
370
    15
100
AcDbLine
 10
78.01651727283149
 20
100.9558647187152
 30
0.0
 11
90.74443933418934
 21
104.2500933527752
 31
0.0
  0
SPLINE
  5
6676
330
A
100
AcDbEntity
  8
0
  6
Continuous
 62
     7
370
    15
100
AcDbSpline
210
0.0
220
0.0
230
1.0
 70
     8
 71
     3
 72
    17
 73
    13
 74
     0
 42
0.000000001
 43
0.00000001
 40
0.0
 40
0.0
 40
0.0
 40
0.0
 40
0.1053648560828653
 40
0.2137895758266217
 40
0.3191532425568848
 40
0.4275629689781085
 40
0.5331094440973053
 40
0.6416957275336855
 40
0.7476186756234022
 40
0.8565933741268904
 40
0.9903010162110515
 40
1.0
 40
1.0
 40
1.0
 40
1.0
 10
87.20890542825668
 20
16.57944432855791
 30
0.0
 10
87.24986218030858
 20
16.56959308785109
 30
0.0
 10
87.33296509501804
 20
16.54960452002707
 30
0.0
 10
87.47868776809491
 20
16.52411653918939
 30
0.0
 10
87.63662460368778
 20
16.50257986856319
 30
0.0
 10
87.80135193242688
 20
16.48622816388679
 30
0.0
 10
87.97071033444502
 20
16.47516225813546
 30
0.0
 10
88.13721111203404
 20
16.46990605229622
 30
0.0
 10
88.29907648254743
 20
16.47052732103666
 30
0.0
 10
88.46161794608292
 20
16.47758395685921
 30
0.0
 10
88.56633428900915
 20
16.48772345430629
 30
0.0
 10
88.61952177494516
 20
16.49508484439478
 30
0.0
 10
88.62311899062979
 20
16.49558271541503
 30
0.0
  0
ARC
  5
6677
330
A
100
AcDbEntity
  8
0
  6
Continuous
 62
     7
370
    15
100
AcDbCircle
 10
-183.3339859687877
 20
52.47656070236934
 30
0.0
 40
262.7664328760124
100
AcDbArc
 50
352.7117333691994
 51
7.288266630801562
  0
LINE
  5
6678
330
A
100
AcDbEntity
  8
0
  6
Continuous
 62
     7
370
    15
100
AcDbLine
 10
77.309410491645
 20
19.14162215504899
 30
0.0
 11
87.20890542825668
 21
16.57944432855791
 31
0.0
  0
SPLINE
  5
6679
330
A
100
AcDbEntity
  8
0
  6
Continuous
 62
     7
370
    15
100
AcDbSpline
210
0.0
220
0.0
230
1.0
 70
     8
 71
     3
 72
    11
 73
     7
 74
     0
 42
0.000000001
 43
0.00000001
 40
0.0
 40
0.0
 40
0.0
 40
0.0
 40
0.0194205490895202
 40
0.2871471360435852
 40
0.7159240025341951
 40
1.0
 40
1.0
 40
1.0
 40
1.0
 10
101.3510410519876
 20
86.6274116704019
 30
0.0
 10
101.3546040449488
 20
86.62791866171807
 30
0.0
 10
101.4072855226885
 20
86.63541490210557
 30
0.0
 10
101.5214326951868
 20
86.65821182992283
 30
0.0
 10
101.6320353837835
 20
86.69967453922138
 30
0.0
 10
101.6315642390955
 20
86.73711063206534
 30
0.0
 10
101.6313764852069
 20
86.75202913201613
 30
0.0
  0
LWPOLYLINE
  5
667A
330
A
100
AcDbEntity
  8
0
  6
Continuous
 62
     7
370
    15
100
AcDbPolyline
 90
        3
 70
   128
 43
0.0
 10
90.74443933418934
 20
104.2500933527752
 10
90.8823890238308
 20
104.267237365817
 10
90.99500214127505
 20
104.2522678723724
  0
SPLINE
  5
667B
330
A
100
AcDbEntity
  8
0
  6
Continuous
 62
     7
370
    15
100
AcDbSpline
210
0.0
220
0.0
230
1.0
 70
     8
 71
     3
 72
    13
 73
     9
 74
     0
 42
0.000000001
 43
0.00000001
 40
0.0
 40
0.0
 40
0.0
 40
0.0
 40
0.0183692462368145
 40
0.2716028482965788
 40
0.4722166531418688
 40
0.6786050172903118
 40
0.8785068641736411
 40
0.9999999999999999
 40
0.9999999999999999
 40
0.9999999999999999
 40
0.9999999999999999
 10
101.3510410519876
 20
19.78981134947497
 30
0.0
 10
101.3546029450655
 20
19.79116637695749
 30
0.0
 10
101.4072681602191
 20
19.8112014572776
 30
0.0
 10
101.4880934516344
 20
19.84889557795479
 30
0.0
 10
101.572383780536
 20
19.90551499630303
 30
0.0
 10
101.622507088553
 20
19.95946555628832
 30
0.0
 10
101.6462276973401
 20
20.00699035585023
 30
0.0
 10
101.6413397397908
 20
20.03494613611119
 30
0.0
 10
101.6394920031353
 20
20.04551392836402
 30
0.0
  0
LINE
  5
667C
330
A
100
AcDbEntity
  8
0
  6
Continuous
 62
     7
370
    15
100
AcDbLine
 10
77.309410491645
 20
5.146195214205264
 30
0.0
 11
77.309410491645
 21
19.14162215504899
 31
0.0
  0
ARC
  5
667D
330
A
100
AcDbEntity
  8
0
  6
Continuous
 62
     7
370
    15
100
AcDbCircle
 10
78.0609356495919
 20
5.057933447758742
 30
0.0
 40
0.7566902949314069
100
AcDbArc
 50
173.3016656813211
 51
247.0560282378321
  0
LWPOLYLINE
  5
667E
330
A
100
AcDbEntity
  8
0
  6
Continuous
 62
     7
370
    15
100
AcDbPolyline
 90
        9
 70
   128
 43
0.0
 10
85.511849153409
 20
105.0044869242729
 10
85.49826229488355
 20
105.1894131670178
 10
85.45802385466061
 20
105.3601997224628
 10
85.39268017343215
 20
105.5102833590605
 10
85.30474237222245
 20
105.6338964468241
 10
85.19758985141601
 20
105.726288604114
 10
85.0753404222956
 20
105.7839092521397
 10
84.94269206186397
 20
105.8045440617115
 10
84.8047423722225
 20
105.7874000486698
  0
LINE
  5
667F
330
A
100
AcDbEntity
  8
0
  6
Continuous
 62
     7
370
    15
100
AcDbLine
 10
85.511849153409
 20
105.0044869242729
 30
0.0
 11
85.511849153409
 21
102.8957993587728
 31
0.0
  0
LINE
  5
6680
330
A
100
AcDbEntity
  8
0
  6
Continuous
 62
     7
370
    15
100
AcDbLine
 10
72.07682031086472
 20
5.900588785702951
 30
0.0
 11
77.309410491645
 21
7.254882779705341
 31
0.0
  0
LWPOLYLINE
  5
6681
330
A
100
AcDbEntity
  8
0
  6
Continuous
 62
     7
370
    15
100
AcDbPolyline
 90
        9
 70
   128
 43
0.0
 10
71.36971352967817
 20
6.683501910099807
 10
71.38330038820357
 20
6.498575667354885
 10
71.4235388284265
 20
6.327789111909837
 10
71.48888250965501
 20
6.177705475312194
 10
71.57682031086472
 20
6.054092387548565
 10
71.68397283167116
 20
5.961700230258629
 10
71.80622226079163
 20
5.904079582232995
 10
71.93887062122326
 20
5.883444772661207
 10
72.07682031086472
 20
5.900588785702951
  0
LINE
  5
6682
330
A
100
AcDbEntity
  8
0
  6
Continuous
 62
     7
370
    15
100
AcDbLine
 10
71.36971352967817
 20
20.67892885094379
 30
0.0
 11
71.36971352967817
 21
6.683501910099807
 31
0.0
  0
ARC
  5
6683
330
A
100
AcDbEntity
  8
0
  6
Continuous
 62
     7
370
    15
100
AcDbCircle
 10
-189.2736829307565
 20
54.01386739826393
 30
0.0
 40
262.7664328760143
100
AcDbArc
 50
352.7117333691995
 51
7.288266630801449
  0
LINE
  5
6684
330
A
100
AcDbEntity
  8
0
  6
Continuous
 62
     7
370
    15
100
AcDbLine
 10
71.36971352967805
 20
101.3442328864285
 30
0.0
 11
71.36971352967805
 21
87.34880594558447
 31
0.0
  0
ARC
  5
6685
330
A
100
AcDbEntity
  8
0
  6
Continuous
 62
     7
370
    15
100
AcDbCircle
 10
72.53959227082589
 20
101.4162999968153
 30
0.0
 40
1.172096385707745
100
AcDbArc
 50
113.2550072405906
 51
183.5250918323133
  0
LINE
  5
6686
330
A
100
AcDbEntity
  8
0
  6
Continuous
 62
     7
370
    15
100
AcDbLine
 10
72.0768203108646
 20
102.4931714146097
 30
0.0
 11
84.8047423722225
 21
105.7874000486698
 31
0.0
  0
LINE
  5
6687
330
A
100
AcDbEntity
  8
0
  6
Continuous
 62
     7
370
    15
100
AcDbLine
 10
74.23053194275496
 20
67.90055218394261
 30
0.0
 11
74.19814065442426
 21
67.89216870162727
 31
0.0
  0
ARC
  5
6688
330
A
100
AcDbEntity
  8
0
  6
Continuous
 62
     7
370
    15
100
AcDbCircle
 10
82.36990420484801
 20
67.17367360599016
 30
0.0
 40
8.17176439259086
100
AcDbArc
 50
174.8967948002275
 51
179.9739876931288
  0
LINE
  5
6689
330
A
100
AcDbEntity
  8
0
  6
Continuous
 62
     7
370
    15
100
AcDbLine
 10
74.19814065442426
 20
67.17738359017332
 30
0.0
 11
74.19814065442426
 21
41.22295663778604
 31
0.0
  0
LWPOLYLINE
  5
668A
330
A
100
AcDbEntity
  8
0
  6
Continuous
 62
     7
370
    15
100
AcDbPolyline
 90
       15
 70
   128
 43
0.0
 10
74.19814065442426
 20
41.22295663778604
 10
74.23159514345764
 20
40.50523965353955
 10
74.33143101328068
 20
39.81615881268993
 10
74.49607379258731
 20
39.16658133173433
 10
74.72292696639511
 20
38.56675143558624
 10
75.00841292463753
 20
38.02612880002887
 10
75.34802938321207
 20
37.55323936697727
 10
75.73642038768992
 20
37.15554088528117
 10
76.16746077991701
 20
36.83930529757043
 10
76.63435279541682
 20
36.60951982797326
 10
77.12973326819713
 20
36.46980833061237
 10
77.6457897522763
 20
36.42237413926075
 10
78.17438372862318
 20
36.46796531945182
 10
78.70717895446404
 20
36.60586287103915
 10
78.93231147605889
 20
36.69172156466804
  0
ELLIPSE
  5
668B
330
A
100
AcDbEntity
  8
0
  6
Continuous
 62
     7
370
    15
100
AcDbEllipse
 10
78.44078134154358
 20
68.99024491298056
 30
0.0
 11
1.38540138522518
 21
6.029663925261843
 31
0.0
210
0.0
220
0.0
230
1.0
 40
0.665056999663394
 41
1.138481013896403
 42
1.903439278600249
  0
LINE
  5
668C
330
A
100
AcDbEntity
  8
0
  6
Continuous
 62
     7
370
    15
100
AcDbLine
 10
71.36971352967805
 20
87.34880594558447
 30
0.0
 11
61.47021859306642
 21
89.91098377207555
 31
0.0
  0
LINE
  5
668D
330
A
100
AcDbEntity
  8
0
  6
Continuous
 62
     7
370
    15
100
AcDbLine
 10
61.47021859306642
 20
23.24110667743486
 30
0.0
 11
71.36971352967817
 21
20.67892885094379
 31
0.0
  0
SPLINE
  5
668E
330
A
100
AcDbEntity
  8
0
  6
Continuous
 62
     7
370
    15
100
AcDbSpline
210
0.0
220
0.0
230
1.0
 70
     8
 71
     3
 72
    10
 73
     6
 74
     0
 42
0.000000001
 43
0.00000001
 40
0.0
 40
0.0
 40
0.0
 40
0.0
 40
0.1437132818545551
 40
0.5718440721679195
 40
1.0
 40
1.0
 40
1.0
 40
1.0
 10
61.18988315984711
 20
90.11910356750587
 30
0.0
 10
61.18648685375626
 20
90.1070261396363
 30
0.0
 10
61.17297274093193
 20
90.0589693042129
 30
0.0
 10
61.26007741963781
 20
89.98153386228205
 30
0.0
 10
61.40017016438276
 20
89.93450092905067
 30
0.0
 10
61.47021859306642
 20
89.91098377207555
 30
0.0
  0
SPLINE
  5
668F
330
A
100
AcDbEntity
  8
0
  6
Continuous
 62
     7
370
    15
100
AcDbSpline
210
0.0
220
0.0
230
1.0
 70
     8
 71
     3
 72
    12
 73
     8
 74
     0
 42
0.000000001
 43
0.00000001
 40
0.0
 40
0.0
 40
0.0
 40
0.0
 40
0.1439554572742181
 40
0.3549125020235301
 40
0.5719615147600372
 40
0.7829189238844916
 40
0.9999999999999999
 40
0.9999999999999999
 40
0.9999999999999999
 40
0.9999999999999999
 10
61.18057714390488
 20
23.39936037594286
 30
0.0
 10
61.18051827125612
 20
23.39184965375064
 30
0.0
 10
61.18037312469869
 20
23.37333247311906
 30
0.0
 10
61.21239865549097
 20
23.3420377055172
 30
0.0
 10
61.27156220629814
 20
23.30728319796967
 30
0.0
 10
61.35663799095676
 20
23.27286298318822
 30
0.0
 10
61.4319990120635
 20
23.25179259278968
 30
0.0
 10
61.47021859306642
 20
23.24110667743486
 30
0.0
  0
ARC
  5
6690
330
A
100
AcDbEntity
  8
0
  6
Continuous
 62
     7
370
     0
100
AcDbCircle
 10
88.37878416940441
 20
97.31681547442957
 30
0.0
 40
1.172096385707715
100
AcDbArc
 50
113.2550072405883
 51
183.5250918323121
  0
ARC
  5
6691
330
A
100
AcDbEntity
  8
0
  6
Continuous
 62
     7
370
     0
100
AcDbCircle
 10
87.45324024948184
 20
97.31681547442949
 30
0.0
 40
1.172096385707828
100
AcDbArc
 50
356.4749081676912
 51
66.74499275940795
  0
ARC
  5
6692
330
A
100
AcDbEntity
  8
0
  6
Continuous
 62
     7
370
     0
100
AcDbCircle
 10
87.91601220944335
 20
100.4132537570948
 30
0.0
 40
3.246448278626911
100
AcDbArc
 50
257.4196020624207
 51
282.5803979375752
  0
LINE
  5
6693
330
A
100
AcDbEntity
  8
0
  6
Continuous
 62
     7
370
     0
100
AcDbLine
 10
87.20890542825663
 20
83.24932142319898
 30
0.0
 11
87.20890542825663
 21
97.2447483640428
 31
0.0
  0
LINE
  5
6694
330
A
100
AcDbEntity
  8
0
  6
Continuous
 62
     7
370
     0
100
AcDbLine
 10
88.62311899062973
 20
97.24474836404272
 30
0.0
 11
88.62311899062973
 21
83.33318303634184
 31
0.0
  0
LINE
  5
6695
330
A
100
AcDbEntity
  8
0
  6
Continuous
 62
     7
370
     0
100
AcDbLine
 10
87.20890542825663
 20
97.2447483640428
 30
0.0
 11
77.30941049164494
 21
99.80692619053394
 31
0.0
  0
LINE
  5
6696
330
A
100
AcDbEntity
  8
0
  6
Continuous
 62
     7
370
     0
100
AcDbLine
 10
78.01651727283149
 20
100.9558647187152
 30
0.0
 11
87.91601220944318
 21
98.39368689222403
 31
0.0
  0
LINE
  5
6697
330
A
100
AcDbEntity
  8
0
  6
Continuous
 62
     7
370
     0
100
AcDbLine
 10
101.3510410519876
 20
100.5389769981028
 30
0.0
 11
88.62311899062973
 21
97.24474836404272
 31
0.0
  0
LINE
  5
6698
330
A
100
AcDbEntity
  8
0
  6
Continuous
 62
     7
370
     0
100
AcDbLine
 10
87.91601220944318
 20
98.39368689222403
 30
0.0
 11
100.643934270801
 21
101.6879155262841
 31
0.0
  0
ARC
  5
6699
330
A
100
AcDbEntity
  8
0
  6
Continuous
 62
     7
370
     0
100
AcDbCircle
 10
100.1811623108397
 20
100.6110441084895
 30
0.0
 40
1.172096385707823
100
AcDbArc
 50
356.4749081676954
 51
66.74499275941105
  0
ARC
  5
669A
330
A
100
AcDbEntity
  8
0
  6
Continuous
 62
     7
370
     0
100
AcDbCircle
 10
-173.3397580142687
 20
49.9143828758782
 30
0.0
 40
264.0859048356208
100
AcDbArc
 50
352.7300028698061
 51
7.269997130194829
  0
LINE
  5
669B
330
A
100
AcDbEntity
  8
0
  6
Continuous
 62
     7
370
     0
100
AcDbLine
 10
101.3510410519876
 20
86.6274116704019
 30
0.0
 11
101.3510410519876
 21
100.5389769981028
 31
0.0
  0
ARC
  5
669C
330
A
100
AcDbEntity
  8
0
  6
Continuous
 62
     7
370
     0
100
AcDbCircle
 10
363.3139180568892
 20
53.20861150993855
 30
0.0
 40
264.0859048356239
100
AcDbArc
 50
172.7300028698053
 51
187.2699971301954
  0
LINE
  5
669D
330
A
100
AcDbEntity
  8
0
  6
Continuous
 62
     7
370
     0
100
AcDbLine
 10
101.3510410519876
 20
5.878246021774089
 30
0.0
 11
101.3510410519876
 21
19.78981134947497
 31
0.0
  0
LINE
  5
669E
330
A
100
AcDbEntity
  8
0
  6
Continuous
 62
     7
370
     0
100
AcDbLine
 10
88.62311899062979
 20
2.584017387714056
 30
0.0
 11
101.3510410519876
 21
5.878246021774089
 31
0.0
  0
LINE
  5
669F
330
A
100
AcDbEntity
  8
0
  6
Continuous
 62
     7
370
     0
100
AcDbLine
 10
88.62311899062979
 20
16.49558271541503
 30
0.0
 11
88.62311899062979
 21
2.584017387714056
 31
0.0
  0
LINE
  5
66A0
330
A
100
AcDbEntity
  8
0
  6
Continuous
 62
     7
370
     0
100
AcDbLine
 10
100.643934270801
 20
101.6879155262841
 30
0.0
 11
90.74443933418934
 21
104.2500933527752
 31
0.0
  0
ARC
  5
66A1
330
A
100
AcDbEntity
  8
0
  6
Continuous
 62
     7
370
     0
100
AcDbCircle
 10
-173.4344910321765
 20
49.91438287587823
 30
0.0
 40
262.7664328760129
100
AcDbArc
 50
352.7117333691994
 51
7.288266630801537
  0
LWPOLYLINE
  5
66A2
330
A
100
AcDbEntity
  8
0
  6
Continuous
 62
     7
370
     0
100
AcDbPolyline
 90
        3
 70
   128
 43
0.0
 10
100.8944970778867
 20
101.6900900458814
 10
100.7818839604425
 20
101.7050595393258
 10
100.643934270801
 20
101.6879155262841
  0
LWPOLYLINE
  5
66A3
330
A
100
AcDbEntity
  8
0
  6
Continuous
 62
     7
370
     0
100
AcDbPolyline
 90
        5
 70
   128
 43
0.0
 10
101.3510410519876
 20
100.5389769981028
 10
101.4754038831035
 20
100.5781975427975
 10
101.5678138033123
 20
100.6229439394537
 10
101.6247195512042
 20
100.671496609142
 10
101.643934270801
 20
100.721989699995
  0
LINE
  5
66A4
330
A
100
AcDbEntity
  8
0
  6
Continuous
 62
     7
370
     0
100
AcDbLine
 10
87.20890542825668
 20
2.584017387714127
 30
0.0
 11
87.20890542825668
 21
16.57944432855791
 31
0.0
  0
ARC
  5
66A5
330
A
100
AcDbEntity
  8
0
  6
Continuous
 62
     7
370
     0
100
AcDbCircle
 10
87.91601220944347
 20
5.752522780765773
 30
0.0
 40
3.246448278626606
100
AcDbArc
 50
257.4196020624184
 51
282.5803979375753
  0
LINE
  5
66A6
330
A
100
AcDbEntity
  8
0
  6
Continuous
 62
     7
370
     0
100
AcDbLine
 10
77.309410491645
 20
5.146195214205264
 30
0.0
 11
87.20890542825668
 21
2.584017387714127
 31
0.0
  0
ARC
  5
66A7
330
A
100
AcDbEntity
  8
0
  6
Continuous
 62
     7
370
     0
100
AcDbCircle
 10
87.87159383268306
 20
2.495755621267506
 30
0.0
 40
0.7566902949312246
100
AcDbArc
 50
292.9439717621598
 51
6.698334318682554
  0
ARC
  5
66A8
330
A
100
AcDbEntity
  8
0
  6
Continuous
 62
     7
370
     0
100
AcDbCircle
 10
87.91511394554499
 20
2.469403099511041
 30
0.0
 40
0.7154487437621643
100
AcDbArc
 50
170.781543600544
 51
249.5761503186063
  0
ARC
  5
66A9
330
A
100
AcDbEntity
  8
0
  6
Continuous
 62
     7
370
     0
100
AcDbCircle
 10
100.5995158940409
 20
5.789984255327496
 30
0.0
 40
0.7566902949312425
100
AcDbArc
 50
292.9439717621637
 51
6.698334318684692
  0
LWPOLYLINE
  5
66AA
330
A
100
AcDbEntity
  8
0
  6
Continuous
 62
     7
370
     0
100
AcDbPolyline
 90
        5
 70
   128
 43
0.0
 10
101.3510410519876
 20
5.878246021774089
 10
101.4754038831036
 20
5.917466566468804
 10
101.5678138033124
 20
5.962212963125026
 10
101.6247195512043
 20
6.010765632813346
 10
101.6439342708011
 20
6.061258723666313
  0
LINE
  5
66AB
330
A
100
AcDbEntity
  8
0
  6
Continuous
 62
     7
370
     0
100
AcDbLine
 10
62.17732537425297
 20
105.0553492411008
 30
0.0
 11
72.0768203108646
 21
102.4931714146097
 31
0.0
  0
LINE
  5
66AC
330
A
100
AcDbEntity
  8
0
  6
Continuous
 62
     7
370
     0
100
AcDbLine
 10
71.36971352967805
 20
101.3442328864285
 30
0.0
 11
61.47021859306642
 21
103.9064107129195
 31
0.0
  0
ARC
  5
66AD
330
A
100
AcDbEntity
  8
0
  6
Continuous
 62
     7
370
     0
100
AcDbCircle
 10
62.64009733421426
 20
103.9784778233063
 30
0.0
 40
1.172096385707784
100
AcDbArc
 50
113.2550072405898
 51
183.5250918323117
  0
LINE
  5
66AE
330
A
100
AcDbEntity
  8
0
  6
Continuous
 62
     7
370
     0
100
AcDbLine
 10
61.47021859306642
 20
103.9064107129195
 30
0.0
 11
61.47021859306642
 21
89.91098377207555
 31
0.0
  0
LINE
  5
66AF
330
A
100
AcDbEntity
  8
0
  6
Continuous
 62
     7
370
     0
100
AcDbLine
 10
84.8047423722225
 20
105.7874000486698
 30
0.0
 11
74.90524743561082
 21
108.3495778751608
 31
0.0
  0
LINE
  5
66B0
330
A
100
AcDbEntity
  8
0
  6
Continuous
 62
     7
370
     0
100
AcDbLine
 10
74.90524743561082
 20
108.3495778751608
 30
0.0
 11
62.17732537425297
 21
105.0553492411008
 31
0.0
  0
ARC
  5
66B1
330
A
100
AcDbEntity
  8
0
  6
Continuous
 62
     7
370
     0
100
AcDbCircle
 10
-199.1731778673676
 20
56.57604522475509
 30
0.0
 40
262.7664328760137
100
AcDbArc
 50
352.7117333691994
 51
7.288266630801457
  0
LWPOLYLINE
  5
66B2
330
A
100
AcDbEntity
  8
0
  6
Continuous
 62
     7
370
     0
100
AcDbPolyline
 90
        5
 70
   128
 43
0.0
 10
61.17732537425297
 20
104.0894234148118
 10
61.19654009384976
 20
104.0389303239588
 10
61.25344584174167
 20
103.9903776542705
 10
61.34585576195042
 20
103.9456312576142
 10
61.47021859306642
 20
103.9064107129195
  0
LWPOLYLINE
  5
66B3
330
A
100
AcDbEntity
  8
0
  6
Continuous
 62
     7
370
     0
100
AcDbPolyline
 90
        3
 70
   128
 43
0.0
 10
62.17732537425297
 20
105.0553492411008
 10
62.03937568461151
 20
105.0724932541426
 10
61.9267625671672
 20
105.0575237606981
  0
LWPOLYLINE
  5
66B4
330
A
100
AcDbEntity
  8
0
  6
Continuous
 62
     7
370
     0
100
AcDbPolyline
 90
        3
 70
   128
 43
0.0
 10
74.90524743561082
 20
108.3495778751608
 10
74.76729774596936
 20
108.3667218882026
 10
74.65468462852505
 20
108.3517523947581
  0
LWPOLYLINE
  5
66B5
330
A
100
AcDbEntity
  8
0
  6
Continuous
 62
     7
370
     0
100
AcDbPolyline
 90
        3
 70
   128
 43
0.0
 10
74.90524743561082
 20
108.3495778751608
 10
75.04319712525228
 20
108.3667218882026
 10
75.15581024269648
 20
108.3517523947581
  0
LINE
  5
66B6
330
A
100
AcDbEntity
  8
0
  6
Continuous
 62
     7
370
     0
100
AcDbLine
 10
61.47021859306642
 20
9.245679736590859
 30
0.0
 11
71.36971352967817
 21
6.683501910099807
 31
0.0
  0
LINE
  5
66B7
330
A
100
AcDbEntity
  8
0
  6
Continuous
 62
     7
370
     0
100
AcDbLine
 10
61.47021859306642
 20
23.24110667743486
 30
0.0
 11
61.47021859306642
 21
9.245679736590859
 31
0.0
  0
ARC
  5
66B8
330
A
100
AcDbEntity
  8
0
  6
Continuous
 62
     7
370
     0
100
AcDbCircle
 10
62.22174375101326
 20
9.157417970144351
 30
0.0
 40
0.7566902949313173
100
AcDbArc
 50
173.3016656813227
 51
247.056028237834
  0
LWPOLYLINE
  5
66B9
330
A
100
AcDbEntity
  8
0
  6
Continuous
 62
     7
370
     0
100
AcDbPolyline
 90
        5
 70
   128
 43
0.0
 10
61.17732537425297
 20
9.428692438483068
 10
61.19654009384976
 20
9.37819934763013
 10
61.25344584174172
 20
9.329646677941795
 10
61.34585576195047
 20
9.284900281285559
 10
61.47021859306642
 20
9.245679736590859
  0
LINE
  5
66BA
330
A
100
AcDbEntity
  8
0
  6
Continuous
 62
     7
370
    15
100
AcDbLine
 10
-1.999999999487898
 20
3.000000000000199
 30
0.0
 11
-1.999999999487898
 21
-0.0000000000000284
 31
0.0
  0
LINE
  5
66BB
330
A
100
AcDbEntity
  8
0
  6
Continuous
 62
     7
370
    15
100
AcDbLine
 10
2.000000000512102
 20
-0.0000000000000284
 30
0.0
 11
2.000000000512102
 21
3.000000000000199
 31
0.0
  0
LINE
  5
66BC
330
A
100
AcDbEntity
  8
0
  6
Continuous
 62
     7
370
    15
100
AcDbLine
 10
-3.499999999487841
 20
8.000000000000199
 30
0.0
 11
-3.499999999487841
 21
3.000000000000199
 31
0.0
  0
LINE
  5
66BD
330
A
100
AcDbEntity
  8
0
  6
Continuous
 62
     7
370
    15
100
AcDbLine
 10
3.500000000512102
 20
3.000000000000213
 30
0.0
 11
3.500000000512102
 21
8.000000000000199
 31
0.0
  0
LINE
  5
66BE
330
A
100
AcDbEntity
  8
0
  6
Continuous
 62
     7
370
    15
100
AcDbLine
 10
5.500000000512102
 20
0.0
 30
0.0
 11
-5.499999999487898
 21
0.0
 31
0.0
  0
LINE
  5
66BF
330
A
100
AcDbEntity
  8
0
  6
Continuous
 62
     7
370
    15
100
AcDbLine
 10
5.500000000512102
 20
0.0
 30
0.0
 11
5.500000000512102
 21
-0.3999999999997073
 31
0.0
  0
LINE
  5
66C0
330
A
100
AcDbEntity
  8
0
  6
Continuous
 62
     7
370
    15
100
AcDbLine
 10
-5.499999999487898
 20
0.0
 30
0.0
 11
-5.499999999487898
 21
-0.3999999999997073
 31
0.0
  0
LINE
  5
66C1
330
A
100
AcDbEntity
  8
0
  6
Continuous
 62
     7
370
    15
100
AcDbLine
 10
3.500000000512102
 20
3.000000000000213
 30
0.0
 11
-3.499999999487841
 21
3.000000000000199
 31
0.0
  0
LINE
  5
66C2
330
A
100
AcDbEntity
  8
0
  6
Continuous
 62
     7
370
    15
100
AcDbLine
 10
10.00000000051216
 20
-0.3999999999995936
 30
0.0
 11
10.00000000051216
 21
-14.39999999999958
 31
0.0
  0
LINE
  5
66C3
330
A
100
AcDbEntity
  8
0
  6
Continuous
 62
     7
370
    15
100
AcDbLine
 10
9.00000000051216
 20
-0.3999999999995936
 30
0.0
 11
10.00000000051216
 21
-0.3999999999995936
 31
0.0
  0
LINE
  5
66C4
330
A
100
AcDbEntity
  8
0
  6
Continuous
 62
     7
370
    15
100
AcDbLine
 10
-8.99999999948784
 20
-0.3999999999995936
 30
0.0
 11
9.00000000051216
 21
-0.3999999999995936
 31
0.0
  0
LINE
  5
66C5
330
A
100
AcDbEntity
  8
0
  6
Continuous
 62
     7
370
    15
100
AcDbLine
 10
-9.999999999487898
 20
-14.39999999999958
 30
0.0
 11
-9.999999999487898
 21
-0.3999999999995936
 31
0.0
  0
LINE
  5
66C6
330
A
100
AcDbEntity
  8
0
  6
Continuous
 62
     7
370
    15
100
AcDbLine
 10
-9.999999999487898
 20
-0.3999999999995936
 30
0.0
 11
-8.99999999948784
 21
-0.3999999999995936
 31
0.0
  0
LINE
  5
66C7
330
A
100
AcDbEntity
  8
0
  6
Continuous
 62
     7
370
    15
100
AcDbLine
 10
9.00000000051216
 20
-15.39999999999958
 30
0.0
 11
-8.99999999948784
 21
-15.39999999999958
 31
0.0
  0
ARC
  5
66C8
330
A
100
AcDbEntity
  8
0
  6
Continuous
 62
     7
370
    15
100
AcDbCircle
 10
9.00000000051216
 20
-14.39999999999958
 30
0.0
 40
1.0
100
AcDbArc
 50
270.0
 51
0.0
  0
ARC
  5
66C9
330
A
100
AcDbEntity
  8
0
  6
Continuous
 62
     7
370
    15
100
AcDbCircle
 10
-8.99999999948784
 20
-14.39999999999958
 30
0.0
 40
1.000000000000014
100
AcDbArc
 50
179.9999999999951
 51
270.0
  0
LINE
  5
66CA
330
A
100
AcDbEntity
  8
0
  6
Continuous
 62
     7
370
    15
100
AcDbLine
 10
-8.99999999948784
 20
23.00000000000023
 30
0.0
 11
9.00000000051216
 21
23.00000000000023
 31
0.0
  0
ARC
  5
66CB
330
A
100
AcDbEntity
  8
0
  6
Continuous
 62
     7
370
    15
100
AcDbCircle
 10
9.00000000051216
 20
22.00000000000023
 30
0.0
 40
1.0
100
AcDbArc
 50
0.0
 51
90.0
  0
LINE
  5
66CC
330
A
100
AcDbEntity
  8
0
  6
Continuous
 62
     7
370
    15
100
AcDbLine
 10
-8.99999999948784
 20
8.000000000000185
 30
0.0
 11
9.000000000512216
 21
8.000000000000185
 31
0.0
  0
LINE
  5
66CD
330
A
100
AcDbEntity
  8
0
  6
Continuous
 62
     7
370
    15
100
AcDbLine
 10
-8.99999999948784
 20
8.000000000000185
 30
0.0
 11
-9.999999999487898
 21
8.000000000000185
 31
0.0
  0
LINE
  5
66CE
330
A
100
AcDbEntity
  8
0
  6
Continuous
 62
     7
370
    15
100
AcDbLine
 10
-9.999999999487898
 20
8.000000000000185
 30
0.0
 11
-9.99999999948784
 21
22.00000000000023
 31
0.0
  0
LINE
  5
66CF
330
A
100
AcDbEntity
  8
0
  6
Continuous
 62
     7
370
    15
100
AcDbLine
 10
10.00000000051216
 20
22.00000000000023
 30
0.0
 11
10.00000000051216
 21
8.000000000000213
 31
0.0
  0
LINE
  5
66D0
330
A
100
AcDbEntity
  8
0
  6
Continuous
 62
     7
370
    15
100
AcDbLine
 10
10.00000000051216
 20
8.000000000000213
 30
0.0
 11
9.000000000512216
 21
8.000000000000185
 31
0.0
  0
ARC
  5
66D1
330
A
100
AcDbEntity
  8
0
  6
Continuous
 62
     7
370
    15
100
AcDbCircle
 10
-8.99999999948784
 20
22.00000000000023
 30
0.0
 40
1.0
100
AcDbArc
 50
90.0
 51
180.0
  0
LINE
  5
66D2
330
A
100
AcDbEntity
  8
0
  6
Continuous
 62
     7
370
     0
100
AcDbLine
 10
10.00000000051216
 20
-14.39999999999958
 30
0.0
 11
9.00000000051216
 21
-14.39999999999958
 31
0.0
  0
LINE
  5
66D3
330
A
100
AcDbEntity
  8
0
  6
Continuous
 62
     7
370
     0
100
AcDbLine
 10
9.00000000051216
 20
-14.39999999999958
 30
0.0
 11
9.00000000051216
 21
-0.3999999999995936
 31
0.0
  0
LINE
  5
66D4
330
A
100
AcDbEntity
  8
0
  6
Continuous
 62
     7
370
     0
100
AcDbLine
 10
-8.99999999948784
 20
-14.39999999999958
 30
0.0
 11
9.00000000051216
 21
-14.39999999999958
 31
0.0
  0
LINE
  5
66D5
330
A
100
AcDbEntity
  8
0
  6
Continuous
 62
     7
370
     0
100
AcDbLine
 10
-8.99999999948784
 20
-0.3999999999995936
 30
0.0
 11
-8.99999999948784
 21
-14.39999999999958
 31
0.0
  0
LINE
  5
66D6
330
A
100
AcDbEntity
  8
0
  6
Continuous
 62
     7
370
     0
100
AcDbLine
 10
-9.999999999487898
 20
-14.39999999999958
 30
0.0
 11
-8.99999999948784
 21
-14.39999999999958
 31
0.0
  0
LINE
  5
66D7
330
A
100
AcDbEntity
  8
0
  6
Continuous
 62
     7
370
     0
100
AcDbLine
 10
-8.99999999948784
 20
-15.39999999999958
 30
0.0
 11
-8.99999999948784
 21
-14.39999999999958
 31
0.0
  0
LINE
  5
66D8
330
A
100
AcDbEntity
  8
0
  6
Continuous
 62
     7
370
     0
100
AcDbLine
 10
9.00000000051216
 20
-15.39999999999958
 30
0.0
 11
9.00000000051216
 21
-14.39999999999958
 31
0.0
  0
LINE
  5
66D9
330
A
100
AcDbEntity
  8
0
  6
Continuous
 62
     7
370
     0
100
AcDbLine
 10
9.000000000512216
 20
22.00000000000023
 30
0.0
 11
-8.99999999948784
 21
22.00000000000023
 31
0.0
  0
LINE
  5
66DA
330
A
100
AcDbEntity
  8
0
  6
Continuous
 62
     7
370
     0
100
AcDbLine
 10
-8.99999999948784
 20
22.00000000000023
 30
0.0
 11
-8.99999999948784
 21
23.00000000000023
 31
0.0
  0
LINE
  5
66DB
330
A
100
AcDbEntity
  8
0
  6
Continuous
 62
     7
370
     0
100
AcDbLine
 10
9.000000000512216
 20
22.00000000000023
 30
0.0
 11
9.00000000051216
 21
23.00000000000023
 31
0.0
  0
LINE
  5
66DC
330
A
100
AcDbEntity
  8
0
  6
Continuous
 62
     7
370
     0
100
AcDbLine
 10
9.000000000512216
 20
22.00000000000023
 30
0.0
 11
10.00000000051216
 21
22.00000000000023
 31
0.0
  0
LINE
  5
66DD
330
A
100
AcDbEntity
  8
0
  6
Continuous
 62
     7
370
     0
100
AcDbLine
 10
9.000000000512216
 20
8.000000000000185
 30
0.0
 11
9.000000000512216
 21
22.00000000000023
 31
0.0
  0
LINE
  5
66DE
330
A
100
AcDbEntity
  8
0
  6
Continuous
 62
     7
370
     0
100
AcDbLine
 10
-8.99999999948784
 20
22.00000000000023
 30
0.0
 11
-8.99999999948784
 21
8.000000000000185
 31
0.0
  0
LINE
  5
66DF
330
A
100
AcDbEntity
  8
0
  6
Continuous
 62
     7
370
     0
100
AcDbLine
 10
-8.99999999948784
 20
22.00000000000023
 30
0.0
 11
-9.99999999948784
 21
22.00000000000023
 31
0.0
  0
LINE
  5
66E2
330
A
100
AcDbEntity
  8
0
  6
CENTER
 62
     1
100
AcDbLine
 10
-48.33059147902563
 20
106.7234149860147
 30
0.0
 11
-69.08059147902162
 21
106.7234149873432
 31
0.0
  0
LINE
  5
66E3
330
A
100
AcDbEntity
  8
0
  6
CENTER
 62
     1
100
AcDbLine
 10
-48.33059147902563
 20
81.72341498601475
 30
0.0
 11
-69.08059147902162
 21
81.72341498734312
 31
0.0
  0
LINE
  5
66F1
330
A
100
AcDbEntity
  8
0
  6
CENTER
 62
     1
100
AcDbLine
 10
0.0000000008740244
 20
13.65248799555548
 30
0.0
 11
-0.0000000004543494
 21
-7.097512004440546
 31
0.0
  0
ENDSEC
  0
SECTION
  2
OBJECTS
  0
DICTIONARY
  5
19
330
0
100
AcDbDictionary
281
     1
  3
ACAD_DETAILVIEWSTYLE
350
6703
  3
ACAD_GROUP
350
1A
  3
ACAD_IMAGE_VARS
350
639B
  3
ACAD_LAYOUT
350
1E
  3
ACAD_MLINESTYLE
350
1B
  3
ACAD_PLOTSETTINGS
350
22
  3
ACAD_PLOTSTYLENAME
350
1F
  3
ACAD_SCALELIST
350
3179
  3
ACAD_SECTIONVIEWSTYLE
350
6704
  3
ACAD_WIPEOUT_VARS
350
23
  3
AcDbVariableDictionary
350
630B
  3
APPDATA
350
6399
  3
ASE_INDEX_DICTIONARY
350
5E44
  3
DWGPROPS
350
6705
  0
DICTIONARY
  5
5E41
330
14
100
AcDbDictionary
280
     1
281
     1
  3
ADSK_XREC_LAYER_RECONCILED
360
5E42
  0
DICTIONARY
  5
31A7
330
A
100
AcDbDictionary
280
     1
281
     1
  3
ACAD_SORTENTS
360
31A8
  0
DICTIONARY
  5
6703
102
{ACAD_REACTORS
330
19
102
}
330
19
100
AcDbDictionary
281
     1
  0
DICTIONARY
  5
1A
102
{ACAD_REACTORS
330
19
102
}
330
19
100
AcDbDictionary
281
     1
  0
RASTERVARIABLES
  5
639B
102
{ACAD_REACTORS
330
19
102
}
330
19
100
AcDbRasterVariables
 90
        0
 70
     1
 71
     1
 72
     0
  0
DICTIONARY
  5
1E
102
{ACAD_REACTORS
330
19
102
}
330
19
100
AcDbDictionary
281
     1
  3
Layout1
350
21
  3
Model
350
20
  0
DICTIONARY
  5
1B
102
{ACAD_REACTORS
330
19
102
}
330
19
100
AcDbDictionary
281
     1
  3
Standard
350
1C
  0
DICTIONARY
  5
22
102
{ACAD_REACTORS
330
19
102
}
330
19
100
AcDbDictionary
281
     1
  0
ACDBDICTIONARYWDFLT
  5
1F
102
{ACAD_REACTORS
330
19
102
}
330
19
100
AcDbDictionary
281
     1
  3
Normal
350
1D
100
AcDbDictionaryWithDefault
340
1D
  0
DICTIONARY
  5
3179
102
{ACAD_REACTORS
330
19
102
}
330
19
100
AcDbDictionary
281
     1
  3
A0
350
317A
  3
A1
350
317B
  3
A2
350
317C
  3
A3
350
317D
  3
A4
350
317E
  3
A5
350
317F
  3
A6
350
3180
  3
A7
350
3181
  3
A8
350
3182
  3
A9
350
3183
  3
B0
350
3184
  3
B1
350
3185
  3
B2
350
3186
  3
B3
350
3187
  3
B4
350
3188
  3
B5
350
3189
  3
B6
350
318A
  3
B7
350
318B
  3
B8
350
318C
  3
B9
350
318D
  3
C0
350
318E
  3
C1
350
318F
  3
C2
350
3190
  3
C3
350
3191
  3
C4
350
3192
  3
C5
350
3193
  3
C6
350
3194
  3
C7
350
3195
  3
C8
350
3196
  3
C9
350
3197
  3
D0
350
3198
  3
D1
350
3199
  3
D2
350
319A
  0
DICTIONARY
  5
6704
102
{ACAD_REACTORS
330
19
102
}
330
19
100
AcDbDictionary
281
     1
  0
WIPEOUTVARIABLES
  5
23
330
19
100
AcDbWipeoutVariables
 70
     1
  0
DICTIONARY
  5
630B
102
{ACAD_REACTORS
330
19
102
}
330
19
100
AcDbDictionary
281
     1
  3
DIMASSOC
350
6318
  3
INDEXCTL
350
6317
  3
SORTENTS
350
6316
  0
DICTIONARY
  5
6399
102
{ACAD_REACTORS
330
19
102
}
330
19
100
AcDbDictionary
281
     1
  0
DICTIONARY
  5
5E44
102
{ACAD_REACTORS
330
19
102
}
330
19
100
AcDbDictionary
281
     1
  3
ASEBlockHierarchyIndexRecord
350
5E46
1001
DCO15
1040
1685075681.336
  0
XRECORD
  5
6705
102
{ACAD_REACTORS
330
19
102
}
330
19
100
AcDbXrecord
280
     1
  1
DWGPROPS COOKIE
  2

  3

  4

  6

  7

  8
renzo.ceresoli
  9

300
=
301
=
302
=
303
=
304
=
305
=
306
=
307
=
308
=
309
=
 40
0.0
 41
2455303.644583333
 42
2457007.467065556
  1

 90
        0
  0
XRECORD
  5
5E42
102
{ACAD_REACTORS
330
5E41
102
}
330
5E41
100
AcDbXrecord
280
     1
290
     1
  0
SORTENTSTABLE
  5
31A8
102
{ACAD_REACTORS
330
31A7
102
}
330
31A7
100
AcDbSortentsTable
330
A
331
0
  5
4CB0
331
1C23
  5
4BC9
331
1C24
  5
4BCA
331
1C25
  5
4BCB
331
1C26
  5
4BCC
  0
LAYOUT
  5
21
102
{ACAD_REACTORS
330
1E
102
}
330
1E
100
AcDbPlotSettings
  1

  2

  4

  6

 40
0.0
 41
0.0
 42
0.0
 43
0.0
 44
0.0
 45
0.0
 46
0.0
 47
0.0
 48
0.0
 49
0.0
140
0.0
141
0.0
142
1.0
143
1.0
 70
     0
 72
     0
 73
     0
 74
     0
  7

 75
     0
147
1.0
148
0.0
149
0.0
100
AcDbLayout
  1
Layout1
 70
     0
 71
     1
 10
0.0
 20
0.0
 11
12.0
 21
9.0
 12
0.0
 22
0.0
 32
0.0
 14
1.000000000000000E+20
 24
1.000000000000000E+20
 34
1.000000000000000E+20
 15
-1.000000000000000E+20
 25
-1.000000000000000E+20
 35
-1.000000000000000E+20
146
0.0
 13
0.0
 23
0.0
 33
0.0
 16
1.0
 26
0.0
 36
0.0
 17
0.0
 27
1.0
 37
0.0
 76
     0
330
B
  0
LAYOUT
  5
20
102
{ACAD_REACTORS
330
1E
102
}
330
1E
100
AcDbPlotSettings
  1

  2

  4

  6

 40
0.0
 41
0.0
 42
0.0
 43
0.0
 44
0.0
 45
0.0
 46
0.0
 47
0.0
 48
0.0
 49
0.0
140
0.0
141
0.0
142
1.0
143
1.0
 70
  1024
 72
     0
 73
     0
 74
     0
  7

 75
     0
147
1.0
148
0.0
149
0.0
100
AcDbLayout
  1
Model
 70
     0
 71
     0
 10
0.0
 20
0.0
 11
0.0
 21
0.0
 12
0.0
 22
0.0
 32
0.0
 14
-77.38307947458077
 24
-15.39999999999959
 34
0.0
 15
101.6459768866414
 25
172.528338950466
 35
0.0000000000000001
146
0.0
 13
0.0
 23
0.0
 33
0.0
 16
0.0
 26
0.0
 36
0.0
 17
0.0
 27
0.0
 37
0.0
 76
     0
330
A
331
15
  0
MLINESTYLE
  5
1C
102
{ACAD_REACTORS
330
1B
102
}
330
1B
100
AcDbMlineStyle
  2
STANDARD
 70
     0
  3

 62
     0
 51
90.0
 52
90.0
 71
     2
 49
0.5
 62
   256
  6
BYLAYER
 49
-0.5
 62
   256
  6
BYLAYER
  0
ACDBPLACEHOLDER
  5
1D
102
{ACAD_REACTORS
330
1F
102
}
330
1F
  0
SCALE
  5
317A
102
{ACAD_REACTORS
330
3179
102
}
330
3179
100
AcDbScale
 70
     0
300
1:1
140
1.0
141
1.0
290
     1
  0
SCALE
  5
317B
102
{ACAD_REACTORS
330
3179
102
}
330
3179
100
AcDbScale
 70
     0
300
1:2
140
1.0
141
2.0
290
     0
  0
SCALE
  5
317C
102
{ACAD_REACTORS
330
3179
102
}
330
3179
100
AcDbScale
 70
     0
300
1:4
140
1.0
141
4.0
290
     0
  0
SCALE
  5
317D
102
{ACAD_REACTORS
330
3179
102
}
330
3179
100
AcDbScale
 70
     0
300
1:5
140
1.0
141
5.0
290
     0
  0
SCALE
  5
317E
102
{ACAD_REACTORS
330
3179
102
}
330
3179
100
AcDbScale
 70
     0
300
1:8
140
1.0
141
8.0
290
     0
  0
SCALE
  5
317F
102
{ACAD_REACTORS
330
3179
102
}
330
3179
100
AcDbScale
 70
     0
300
1:10
140
1.0
141
10.0
290
     0
  0
SCALE
  5
3180
102
{ACAD_REACTORS
330
3179
102
}
330
3179
100
AcDbScale
 70
     0
300
1:16
140
1.0
141
16.0
290
     0
  0
SCALE
  5
3181
102
{ACAD_REACTORS
330
3179
102
}
330
3179
100
AcDbScale
 70
     0
300
1:20
140
1.0
141
20.0
290
     0
  0
SCALE
  5
3182
102
{ACAD_REACTORS
330
3179
102
}
330
3179
100
AcDbScale
 70
     0
300
1:30
140
1.0
141
30.0
290
     0
  0
SCALE
  5
3183
102
{ACAD_REACTORS
330
3179
102
}
330
3179
100
AcDbScale
 70
     0
300
1:40
140
1.0
141
40.0
290
     0
  0
SCALE
  5
3184
102
{ACAD_REACTORS
330
3179
102
}
330
3179
100
AcDbScale
 70
     0
300
1:50
140
1.0
141
50.0
290
     0
  0
SCALE
  5
3185
102
{ACAD_REACTORS
330
3179
102
}
330
3179
100
AcDbScale
 70
     0
300
1:100
140
1.0
141
100.0
290
     0
  0
SCALE
  5
3186
102
{ACAD_REACTORS
330
3179
102
}
330
3179
100
AcDbScale
 70
     0
300
2:1
140
2.0
141
1.0
290
     0
  0
SCALE
  5
3187
102
{ACAD_REACTORS
330
3179
102
}
330
3179
100
AcDbScale
 70
     0
300
4:1
140
4.0
141
1.0
290
     0
  0
SCALE
  5
3188
102
{ACAD_REACTORS
330
3179
102
}
330
3179
100
AcDbScale
 70
     0
300
8:1
140
8.0
141
1.0
290
     0
  0
SCALE
  5
3189
102
{ACAD_REACTORS
330
3179
102
}
330
3179
100
AcDbScale
 70
     0
300
10:1
140
10.0
141
1.0
290
     0
  0
SCALE
  5
318A
102
{ACAD_REACTORS
330
3179
102
}
330
3179
100
AcDbScale
 70
     0
300
100:1
140
100.0
141
1.0
290
     0
  0
SCALE
  5
318B
102
{ACAD_REACTORS
330
3179
102
}
330
3179
100
AcDbScale
 70
     0
300
1/128" = 1'-0"
140
0.0078125
141
12.0
290
     0
  0
SCALE
  5
318C
102
{ACAD_REACTORS
330
3179
102
}
330
3179
100
AcDbScale
 70
     0
300
1/64" = 1'-0"
140
0.015625
141
12.0
290
     0
  0
SCALE
  5
318D
102
{ACAD_REACTORS
330
3179
102
}
330
3179
100
AcDbScale
 70
     0
300
1/32" = 1'-0"
140
0.03125
141
12.0
290
     0
  0
SCALE
  5
318E
102
{ACAD_REACTORS
330
3179
102
}
330
3179
100
AcDbScale
 70
     0
300
1/16" = 1'-0"
140
0.0625
141
12.0
290
     0
  0
SCALE
  5
318F
102
{ACAD_REACTORS
330
3179
102
}
330
3179
100
AcDbScale
 70
     0
300
3/32" = 1'-0"
140
0.09375
141
12.0
290
     0
  0
SCALE
  5
3190
102
{ACAD_REACTORS
330
3179
102
}
330
3179
100
AcDbScale
 70
     0
300
1/8" = 1'-0"
140
0.125
141
12.0
290
     0
  0
SCALE
  5
3191
102
{ACAD_REACTORS
330
3179
102
}
330
3179
100
AcDbScale
 70
     0
300
3/16" = 1'-0"
140
0.1875
141
12.0
290
     0
  0
SCALE
  5
3192
102
{ACAD_REACTORS
330
3179
102
}
330
3179
100
AcDbScale
 70
     0
300
1/4" = 1'-0"
140
0.25
141
12.0
290
     0
  0
SCALE
  5
3193
102
{ACAD_REACTORS
330
3179
102
}
330
3179
100
AcDbScale
 70
     0
300
3/8" = 1'-0"
140
0.375
141
12.0
290
     0
  0
SCALE
  5
3194
102
{ACAD_REACTORS
330
3179
102
}
330
3179
100
AcDbScale
 70
     0
300
1/2" = 1'-0"
140
0.5
141
12.0
290
     0
  0
SCALE
  5
3195
102
{ACAD_REACTORS
330
3179
102
}
330
3179
100
AcDbScale
 70
     0
300
3/4" = 1'-0"
140
0.75
141
12.0
290
     0
  0
SCALE
  5
3196
102
{ACAD_REACTORS
330
3179
102
}
330
3179
100
AcDbScale
 70
     0
300
1" = 1'-0"
140
1.0
141
12.0
290
     0
  0
SCALE
  5
3197
102
{ACAD_REACTORS
330
3179
102
}
330
3179
100
AcDbScale
 70
     0
300
1-1/2" = 1'-0"
140
1.5
141
12.0
290
     0
  0
SCALE
  5
3198
102
{ACAD_REACTORS
330
3179
102
}
330
3179
100
AcDbScale
 70
     0
300
3" = 1'-0"
140
3.0
141
12.0
290
     0
  0
SCALE
  5
3199
102
{ACAD_REACTORS
330
3179
102
}
330
3179
100
AcDbScale
 70
     0
300
6" = 1'-0"
140
6.0
141
12.0
290
     0
  0
SCALE
  5
319A
102
{ACAD_REACTORS
330
3179
102
}
330
3179
100
AcDbScale
 70
     0
300
1'-0" = 1'-0"
140
12.0
141
12.0
290
     0
  0
DICTIONARYVAR
  5
6318
102
{ACAD_REACTORS
330
630B
102
}
330
630B
100
DictionaryVariables
280
     0
  1
1
  0
DICTIONARYVAR
  5
6317
102
{ACAD_REACTORS
330
630B
102
}
330
630B
100
DictionaryVariables
280
     0
  1
0
  0
DICTIONARYVAR
  5
6316
102
{ACAD_REACTORS
330
630B
102
}
330
630B
100
DictionaryVariables
280
     0
  1
127
  0
XRECORD
  5
5E46
102
{ACAD_REACTORS
330
5E44
102
}
330
5E44
100
AcDbXrecord
280
     1
  0
ENDSEC
  0
EOF
