  0
SECTION
  2
HEADER
  9
$ACADVER
  1
AC1015
  9
$ACADMAINTVER
 70
     6
  9
$DWGCODEPAGE
  3
ANSI_1252
  9
$INSBASE
 10
0.0
 20
0.0
 30
0.0
  9
$EXTMIN
 10
112.9429746106948
 20
-81.83445537650154
 30
0.0
  9
$EXTMAX
 10
309.8179634796948
 20
63.89935354729845
 30
0.0000000000000006
  9
$LIMMIN
 10
-20.0
 20
-108.35
  9
$LIMMAX
 10
1350.85
 20
342.0054945054945
  9
$ORTHOMODE
 70
     1
  9
$REGENMODE
 70
     1
  9
$FILLMODE
 70
     1
  9
$QTEXTMODE
 70
     0
  9
$MIRRTEXT
 70
     1
  9
$LTSCALE
 40
10.0
  9
$ATTMODE
 70
     1
  9
$TEXTSIZE
 40
0.0
  9
$TRACEWID
 40
0.05
  9
$TEXTSTYLE
  7
Standard
  9
$CLAYER
  8
0
  9
$CELTYPE
  6
Continuous
  9
$CECOLOR
 62
   256
  9
$CELTSCALE
 40
1.0
  9
$DISPSILH
 70
     0
  9
$DIMSCALE
 40
1.0
  9
$DIMASZ
 40
1.25
  9
$DIMEXO
 40
0.0
  9
$DIMDLI
 40
0.38
  9
$DIMRND
 40
0.0
  9
$DIMDLE
 40
0.0
  9
$DIMEXE
 40
0.75
  9
$DIMTP
 40
0.0
  9
$DIMTM
 40
0.0
  9
$DIMTXT
 40
2.5
  9
$DIMCEN
 40
0.09
  9
$DIMTSZ
 40
0.0
  9
$DIMTOL
 70
     0
  9
$DIMLIM
 70
     0
  9
$DIMTIH
 70
     0
  9
$DIMTOH
 70
     0
  9
$DIMSE1
 70
     0
  9
$DIMSE2
 70
     0
  9
$DIMTAD
 70
     1
  9
$DIMZIN
 70
     0
  9
$DIMBLK
  1

  9
$DIMASO
 70
     1
  9
$DIMSHO
 70
     1
  9
$DIMPOST
  1

  9
$DIMAPOST
  1

  9
$DIMALT
 70
     0
  9
$DIMALTD
 70
     2
  9
$DIMALTF
 40
25.4
  9
$DIMLFAC
 40
1.0
  9
$DIMTOFL
 70
     0
  9
$DIMTVP
 40
0.0
  9
$DIMTIX
 70
     0
  9
$DIMSOXD
 70
     0
  9
$DIMSAH
 70
     0
  9
$DIMBLK1
  1

  9
$DIMBLK2
  1

  9
$DIMSTYLE
  2
Standard
  9
$DIMCLRD
 70
     7
  9
$DIMCLRE
 70
     7
  9
$DIMCLRT
 70
     7
  9
$DIMTFAC
 40
0.8
  9
$DIMGAP
 40
1.25
  9
$DIMJUST
 70
     0
  9
$DIMSD1
 70
     0
  9
$DIMSD2
 70
     0
  9
$DIMTOLJ
 70
     1
  9
$DIMTZIN
 70
     0
  9
$DIMALTZ
 70
     0
  9
$DIMALTTZ
 70
     0
  9
$DIMUPT
 70
     0
  9
$DIMDEC
 70
     2
  9
$DIMTDEC
 70
     4
  9
$DIMALTU
 70
     2
  9
$DIMALTTD
 70
     2
  9
$DIMTXSTY
  7
Standard
  9
$DIMAUNIT
 70
     0
  9
$DIMADEC
 70
     0
  9
$DIMALTRND
 40
0.0
  9
$DIMAZIN
 70
     0
  9
$DIMDSEP
 70
     0
  9
$DIMATFIT
 70
     3
  9
$DIMFRAC
 70
     0
  9
$DIMLDRBLK
  1

  9
$DIMLUNIT
 70
     2
  9
$DIMLWD
 70
     0
  9
$DIMLWE
 70
     0
  9
$DIMTMOVE
 70
     0
  9
$LUNITS
 70
     2
  9
$LUPREC
 70
     4
  9
$SKETCHINC
 40
0.1
  9
$FILLETRAD
 40
0.0
  9
$AUNITS
 70
     0
  9
$AUPREC
 70
     0
  9
$MENU
  1
acad
  9
$ELEVATION
 40
0.0
  9
$PELEVATION
 40
0.0
  9
$THICKNESS
 40
0.0
  9
$LIMCHECK
 70
     0
  9
$CHAMFERA
 40
0.0
  9
$CHAMFERB
 40
0.0
  9
$CHAMFERC
 40
0.0
  9
$CHAMFERD
 40
0.0
  9
$SKPOLY
 70
     0
  9
$TDCREATE
 40
2455307.655694445
  9
$TDUCREATE
 40
2455307.614027778
  9
$TDUPDATE
 40
2457380.372066597
  9
$TDUUPDATE
 40
2457380.33039993
  9
$TDINDWG
 40
0.003760787
  9
$TDUSRTIMER
 40
2457380.330301898
  9
$USRTIMER
 70
     1
  9
$ANGBASE
 50
0.0
  9
$ANGDIR
 70
     0
  9
$PDMODE
 70
     0
  9
$PDSIZE
 40
0.0
  9
$PLINEWID
 40
0.0
  9
$SPLFRAME
 70
     0
  9
$SPLINETYPE
 70
     6
  9
$SPLINESEGS
 70
     8
  9
$HANDSEED
  5
1258
  9
$SURFTAB1
 70
     6
  9
$SURFTAB2
 70
     6
  9
$SURFTYPE
 70
     6
  9
$SURFU
 70
     6
  9
$SURFV
 70
     6
  9
$UCSBASE
  2

  9
$UCSNAME
  2

  9
$UCSORG
 10
0.0
 20
0.0
 30
0.0
  9
$UCSXDIR
 10
1.0
 20
0.0
 30
0.0
  9
$UCSYDIR
 10
0.0
 20
1.0
 30
0.0
  9
$UCSORTHOREF
  2

  9
$UCSORTHOVIEW
 70
     0
  9
$UCSORGTOP
 10
0.0
 20
0.0
 30
0.0
  9
$UCSORGBOTTOM
 10
0.0
 20
0.0
 30
0.0
  9
$UCSORGLEFT
 10
0.0
 20
0.0
 30
0.0
  9
$UCSORGRIGHT
 10
0.0
 20
0.0
 30
0.0
  9
$UCSORGFRONT
 10
0.0
 20
0.0
 30
0.0
  9
$UCSORGBACK
 10
0.0
 20
0.0
 30
0.0
  9
$PUCSBASE
  2

  9
$PUCSNAME
  2

  9
$PUCSORG
 10
0.0
 20
0.0
 30
0.0
  9
$PUCSXDIR
 10
1.0
 20
0.0
 30
0.0
  9
$PUCSYDIR
 10
0.0
 20
1.0
 30
0.0
  9
$PUCSORTHOREF
  2

  9
$PUCSORTHOVIEW
 70
     0
  9
$PUCSORGTOP
 10
0.0
 20
0.0
 30
0.0
  9
$PUCSORGBOTTOM
 10
0.0
 20
0.0
 30
0.0
  9
$PUCSORGLEFT
 10
0.0
 20
0.0
 30
0.0
  9
$PUCSORGRIGHT
 10
0.0
 20
0.0
 30
0.0
  9
$PUCSORGFRONT
 10
0.0
 20
0.0
 30
0.0
  9
$PUCSORGBACK
 10
0.0
 20
0.0
 30
0.0
  9
$USERI1
 70
     0
  9
$USERI2
 70
     0
  9
$USERI3
 70
     0
  9
$USERI4
 70
     0
  9
$USERI5
 70
     0
  9
$USERR1
 40
0.0
  9
$USERR2
 40
0.0
  9
$USERR3
 40
0.0
  9
$USERR4
 40
0.0
  9
$USERR5
 40
0.0
  9
$WORLDVIEW
 70
     1
  9
$SHADEDGE
 70
     3
  9
$SHADEDIF
 70
    70
  9
$TILEMODE
 70
     1
  9
$MAXACTVP
 70
    16
  9
$PINSBASE
 10
0.0
 20
0.0
 30
0.0
  9
$PLIMCHECK
 70
     0
  9
$PEXTMIN
 10
1.000000000000000E+20
 20
1.000000000000000E+20
 30
1.000000000000000E+20
  9
$PEXTMAX
 10
-1.000000000000000E+20
 20
-1.000000000000000E+20
 30
-1.000000000000000E+20
  9
$PLIMMIN
 10
0.0
 20
0.0
  9
$PLIMMAX
 10
0.0
 20
0.0
  9
$UNITMODE
 70
     0
  9
$VISRETAIN
 70
     0
  9
$PLINEGEN
 70
     1
  9
$PSLTSCALE
 70
     0
  9
$TREEDEPTH
 70
  3020
  9
$CMLSTYLE
  2
Standard
  9
$CMLJUST
 70
     0
  9
$CMLSCALE
 40
1.0
  9
$PROXYGRAPHICS
 70
     0
  9
$MEASUREMENT
 70
     1
  9
$CELWEIGHT
370
     0
  9
$ENDCAPS
280
     0
  9
$JOINSTYLE
280
     0
  9
$LWDISPLAY
290
     0
  9
$INSUNITS
 70
     0
  9
$HYPERLINKBASE
  1

  9
$STYLESHEET
  1

  9
$XEDIT
290
     1
  9
$CEPSNTYPE
380
     0
  9
$PSTYLEMODE
290
     1
  9
$FINGERPRINTGUID
  2

  9
$VERSIONGUID
  2
{848DD928-E83B-4A7E-AA75-073071059EF6}
  9
$EXTNAMES
290
     1
  9
$PSVPSCALE
 40
0.0
  9
$OLESTARTUP
290
     0
  0
ENDSEC
  0
SECTION
  2
CLASSES
  0
CLASS
  1
IMAGE
  2
AcDbRasterImage
  3
ISM
 90
      127
280
     0
281
     1
  0
CLASS
  1
DICTIONARYVAR
  2
AcDbDictionaryVar
  3
ObjectDBX Classes
 90
        0
280
     0
281
     0
  0
CLASS
  1
RASTERVARIABLES
  2
AcDbRasterVariables
  3
ISM
 90
        0
280
     0
281
     0
  0
CLASS
  1
IMAGEDEF
  2
AcDbRasterImageDef
  3
ISM
 90
        0
280
     0
281
     0
  0
CLASS
  1
IMAGEDEF_REACTOR
  2
AcDbRasterImageDefReactor
  3
ISM
 90
        1
280
     0
281
     0
  0
CLASS
  1
IDBUFFER
  2
AcDbIdBuffer
  3
ObjectDBX Classes
 90
        0
280
     0
281
     0
  0
CLASS
  1
SPATIAL_FILTER
  2
AcDbSpatialFilter
  3
ObjectDBX Classes
 90
        0
280
     0
281
     0
  0
CLASS
  1
SORTENTSTABLE
  2
AcDbSortentsTable
  3
ObjectDBX Classes
 90
        0
280
     0
281
     0
  0
CLASS
  1
LAYER_INDEX
  2
AcDbLayerIndex
  3
ObjectDBX Classes
 90
        0
280
     0
281
     0
  0
CLASS
  1
SPATIAL_INDEX
  2
AcDbSpatialIndex
  3
AutoCAD 2000
 90
        0
280
     0
281
     0
  0
CLASS
  1
OBJECT_PTR
  2
CAseDLPNTableRecord
  3
ASE-LPNTableRecord
 90
        1
280
     0
281
     0
  0
CLASS
  1
LAYOUT
  2
AcDbLayout
  3
ObjectDBX Classes
 90
        0
280
     0
281
     0
  0
CLASS
  1
PLOTSETTINGS
  2
AcDbPlotSettings
  3
ObjectDBX Classes
 90
        0
280
     0
281
     0
  0
CLASS
  1
ACDBDICTIONARYWDFLT
  2
AcDbDictionaryWithDefault
  3
ObjectDBX Classes
 90
        0
280
     0
281
     0
  0
CLASS
  1
ACDBPLACEHOLDER
  2
AcDbPlaceHolder
  3
ObjectDBX Classes
 90
        0
280
     0
281
     0
  0
CLASS
  1
VBA_PROJECT
  2
AcDbVbaProject
  3
ObjectDBX Classes
 90
        0
280
     0
281
     0
  0
CLASS
  1
WIPEOUT
  2
AcDbWipeout
  3
WipeOut|AutoCAD Express Tool|expresstools@autodesk.com
 90
      127
280
     0
281
     1
  0
CLASS
  1
WIPEOUTVARIABLES
  2
AcDbWipeoutVariables
  3
WipeOut|AutoCAD Express Tool|expresstools@autodesk.com
 90
        0
280
     0
281
     0
  0
CLASS
  1
RTEXT
  2
RText
  3
RText|AutoCAD Express Tool|expresstools@autodesk.com
 90
        0
280
     0
281
     1
  0
CLASS
  1
ARCALIGNEDTEXT
  2
AcDbArcAlignedText
  3
ATEXT|AutoCAD Express Tool|expresstools@autodesk.com
 90
        0
280
     0
281
     1
  0
CLASS
  1
MATERIAL
  2
AcDbMaterial
  3
ObjectDBX Classes
 90
     1153
280
     0
281
     0
  0
CLASS
  1
VISUALSTYLE
  2
AcDbVisualStyle
  3
ObjectDBX Classes
 90
     4095
280
     0
281
     0
  0
CLASS
  1
TABLESTYLE
  2
AcDbTableStyle
  3
ObjectDBX Classes
 90
     4095
280
     0
281
     0
  0
CLASS
  1
SCALE
  2
AcDbScale
  3
ObjectDBX Classes
 90
     1153
280
     0
281
     0
  0
CLASS
  1
MLEADERSTYLE
  2
AcDbMLeaderStyle
  3
ACDB_MLEADERSTYLE_CLASS
 90
     4095
280
     0
281
     0
  0
CLASS
  1
CELLSTYLEMAP
  2
AcDbCellStyleMap
  3
ObjectDBX Classes
 90
     1152
280
     0
281
     0
  0
CLASS
  1
SUN
  2
AcDbSun
  3
SCENEOE
 90
     1153
280
     0
281
     0
  0
ENDSEC
  0
SECTION
  2
TABLES
  0
TABLE
  2
VPORT
  5
7
330
0
100
AcDbSymbolTable
 70
     1
  0
VPORT
  5
15
330
7
100
AcDbSymbolTableRecord
100
AcDbViewportTableRecord
  2
*ACTIVE
 70
     0
 10
0.0
 20
0.0
 11
1.0
 21
1.0
 12
211.3804690451948
 22
-8.967550914601546
 13
0.0
 23
0.0
 14
1.0
 24
1.0
 15
0.0
 25
0.0
 16
0.0
 26
0.0
 36
1.0
 17
0.0
 27
0.0
 37
0.0
 40
148.648485102276
 41
2.322535211267605
 42
50.0
 43
0.0
 44
0.0
 50
0.0
 51
0.0
 71
    16
 72
   100
 73
     1
 74
     1
 75
     0
 76
     0
 77
     0
 78
     0
281
     0
 65
     0
110
0.0
120
0.0
130
0.0
111
1.0
121
0.0
131
0.0
112
0.0
122
1.0
132
0.0
 79
     0
146
0.0
  0
ENDTAB
  0
TABLE
  2
LTYPE
  5
4
330
0
100
AcDbSymbolTable
 70
     3
  0
LTYPE
  5
11
330
4
100
AcDbSymbolTableRecord
100
AcDbLinetypeTableRecord
  2
ByBlock
 70
     0
  3

 72
    65
 73
     0
 40
0.0
  0
LTYPE
  5
12
330
4
100
AcDbSymbolTableRecord
100
AcDbLinetypeTableRecord
  2
ByLayer
 70
     0
  3

 72
    65
 73
     0
 40
0.0
  0
LTYPE
  5
13
330
4
100
AcDbSymbolTableRecord
100
AcDbLinetypeTableRecord
  2
Continuous
 70
     0
  3
Solid line
 72
    65
 73
     0
 40
0.0
  0
LTYPE
  5
4E0
330
4
100
AcDbSymbolTableRecord
100
AcDbLinetypeTableRecord
  2
CENTER
 70
     0
  3
____ _ ____ _ ____ _ ____ _ ____ _ ____ _ ____
 72
    65
 73
     4
 40
2.0
 49
1.25
 74
     0
 49
-0.25
 74
     0
 49
0.25
 74
     0
 49
-0.25
 74
     0
  0
LTYPE
  5
1043
330
4
100
AcDbSymbolTableRecord
100
AcDbLinetypeTableRecord
  2
CENTERX2
 70
     0
  3
Center (2x) ________  __  ________  __  _____
 72
    65
 73
     4
 40
20.32
 49
12.7
 74
     0
 49
-2.54
 74
     0
 49
2.54
 74
     0
 49
-2.54
 74
     0
  0
ENDTAB
  0
TABLE
  2
LAYER
  5
2
330
0
100
AcDbSymbolTable
 70
     3
  0
LAYER
  5
14
102
{ACAD_XDICTIONARY
360
875
102
}
330
2
100
AcDbSymbolTableRecord
100
AcDbLayerTableRecord
  2
0
 70
     0
 62
     7
  6
Continuous
370
    -3
390
1D
  0
LAYER
  5
1041
330
2
100
AcDbSymbolTableRecord
100
AcDbLayerTableRecord
  2
ASSI
 70
     0
 62
     1
  6
CENTERX2
370
    -3
390
1D
  0
LAYER
  5
1203
330
2
100
AcDbSymbolTableRecord
100
AcDbLayerTableRecord
  2
Defpoints
 70
     0
 62
     7
  6
Continuous
290
     0
370
    -3
390
1D
  0
ENDTAB
  0
TABLE
  2
STYLE
  5
3
330
0
100
AcDbSymbolTable
 70
     1
  0
STYLE
  5
17
330
3
100
AcDbSymbolTableRecord
100
AcDbTextStyleTableRecord
  2
Standard
 70
     0
 40
0.0
 41
1.0
 50
0.0
 71
     0
 42
0.0
  3
IsonormD
  4

1001
ACAD
1000
IsonormD
1071
        0
  0
ENDTAB
  0
TABLE
  2
VIEW
  5
5
330
0
100
AcDbSymbolTable
 70
     0
  0
ENDTAB
  0
TABLE
  2
UCS
  5
6
330
0
100
AcDbSymbolTable
 70
     0
  0
ENDTAB
  0
TABLE
  2
APPID
  5
8
330
0
100
AcDbSymbolTable
 70
     5
  0
APPID
  5
16
330
8
100
AcDbSymbolTableRecord
100
AcDbRegAppTableRecord
  2
ACAD
 70
     0
  0
APPID
  5
26
330
8
100
AcDbSymbolTableRecord
100
AcDbRegAppTableRecord
  2
TopSolid'Draft
 70
     0
  0
APPID
  5
86D
330
8
100
AcDbSymbolTableRecord
100
AcDbRegAppTableRecord
  2
ACAD_MLEADERVER
 70
     0
  0
APPID
  5
873
330
8
100
AcDbSymbolTableRecord
100
AcDbRegAppTableRecord
  2
DCO15
 70
     0
  0
APPID
  5
1004
330
8
100
AcDbSymbolTableRecord
100
AcDbRegAppTableRecord
  2
ACAD_EXEMPT_FROM_CAD_STANDARDS
 70
     0
  0
ENDTAB
  0
TABLE
  2
DIMSTYLE
  5
9
330
0
100
AcDbSymbolTable
 70
     2
100
AcDbDimStyleTable
  0
DIMSTYLE
105
18
330
9
100
AcDbSymbolTableRecord
100
AcDbDimStyleTableRecord
  2
Standard
 70
     0
 41
1.25
 42
0.0
 44
0.75
 73
     0
 74
     0
 77
     1
140
2.5
146
0.8
147
1.25
176
     7
177
     7
271
     2
178
     7
271
     2
340
17
  0
DIMSTYLE
105
1044
330
9
100
AcDbSymbolTableRecord
100
AcDbDimStyleTableRecord
  2
ISO-25
 70
     0
 41
2.5
 42
0.625
 43
3.75
 44
1.25
 73
     0
 74
     0
 77
     1
 78
     8
140
2.5
141
2.5
143
0.0393700787
147
0.625
171
     3
172
     1
178
     0
271
     2
272
     2
274
     3
278
    44
283
     0
284
     8
340
17
  0
ENDTAB
  0
TABLE
  2
BLOCK_RECORD
  5
1
330
0
100
AcDbSymbolTable
 70
     9
  0
BLOCK_RECORD
  5
A
102
{ACAD_XDICTIONARY
360
8AF
102
}
330
1
100
AcDbSymbolTableRecord
100
AcDbBlockTableRecord
  2
*MODEL_SPACE
340
20
  0
BLOCK_RECORD
  5
B
330
1
100
AcDbSymbolTableRecord
100
AcDbBlockTableRecord
  2
*PAPER_SPACE
340
21
  0
BLOCK_RECORD
  5
1089
330
1
100
AcDbSymbolTableRecord
100
AcDbBlockTableRecord
  2
SW_CENTERMARKSYMBOL_0
340
0
102
{BLKREFS
331
1164
102
}
  0
BLOCK_RECORD
  5
1095
330
1
100
AcDbSymbolTableRecord
100
AcDbBlockTableRecord
  2
SW_CENTERMARKSYMBOL_1
340
0
102
{BLKREFS
331
1165
102
}
  0
ENDTAB
  0
ENDSEC
  0
SECTION
  2
BLOCKS
  0
BLOCK
  5
D
330
A
100
AcDbEntity
  8
0
100
AcDbBlockBegin
  2
*MODEL_SPACE
 70
     0
 10
0.0
 20
0.0
 30
0.0
  3
*MODEL_SPACE
  1
*MODEL_SPACE
  0
ENDBLK
  5
E
330
A
100
AcDbEntity
  8
0
100
AcDbBlockEnd
  0
BLOCK
  5
F
330
B
100
AcDbEntity
 67
     1
  8
0
100
AcDbBlockBegin
  2
*PAPER_SPACE
 70
     0
 10
0.0
 20
0.0
 30
0.0
  3
*PAPER_SPACE
  1
*PAPER_SPACE
  0
ENDBLK
  5
10
330
B
100
AcDbEntity
 67
     1
  8
0
100
AcDbBlockEnd
  0
BLOCK
  5
108A
330
1089
100
AcDbEntity
  8
0
100
AcDbBlockBegin
  2
SW_CENTERMARKSYMBOL_0
 70
     0
 10
0.0
 20
0.0
 30
0.0
  3
SW_CENTERMARKSYMBOL_0
  1
SW_CENTERMARKSYMBOL_0
  0
LINE
  5
108B
330
1089
100
AcDbEntity
  8
ASSI
 62
     0
100
AcDbLine
 10
0.0
 20
0.0
 30
0.0
 11
0.0
 21
2.5
 31
0.0
  0
LINE
  5
108C
330
1089
100
AcDbEntity
  8
ASSI
 62
     0
100
AcDbLine
 10
0.0
 20
0.0
 30
0.0
 11
-2.5
 21
0.0
 31
0.0
  0
LINE
  5
108D
330
1089
100
AcDbEntity
  8
ASSI
 62
     0
100
AcDbLine
 10
0.0
 20
0.0
 30
0.0
 11
0.0
 21
-2.5
 31
0.0
  0
LINE
  5
108E
330
1089
100
AcDbEntity
  8
ASSI
 62
     0
100
AcDbLine
 10
0.0
 20
0.0
 30
0.0
 11
2.5
 21
0.0
 31
0.0
  0
LINE
  5
108F
330
1089
100
AcDbEntity
  8
ASSI
 62
     0
100
AcDbLine
 10
0.0
 20
5.0
 30
0.0
 11
0.0
 21
10.0
 31
0.0
  0
LINE
  5
1090
330
1089
100
AcDbEntity
  8
ASSI
 62
     0
100
AcDbLine
 10
-5.0
 20
0.0
 30
0.0
 11
-10.0
 21
0.0
 31
0.0
  0
LINE
  5
1091
330
1089
100
AcDbEntity
  8
ASSI
 62
     0
100
AcDbLine
 10
0.0
 20
-5.0
 30
0.0
 11
0.0
 21
-10.0
 31
0.0
  0
LINE
  5
1092
330
1089
100
AcDbEntity
  8
ASSI
 62
     0
100
AcDbLine
 10
5.0
 20
0.0
 30
0.0
 11
10.0
 21
0.0
 31
0.0
  0
ENDBLK
  5
1093
330
1089
100
AcDbEntity
  8
0
100
AcDbBlockEnd
  0
BLOCK
  5
1096
330
1095
100
AcDbEntity
  8
0
100
AcDbBlockBegin
  2
SW_CENTERMARKSYMBOL_1
 70
     0
 10
0.0
 20
0.0
 30
0.0
  3
SW_CENTERMARKSYMBOL_1
  1
SW_CENTERMARKSYMBOL_1
  0
LINE
  5
1097
330
1095
100
AcDbEntity
  8
ASSI
 62
     0
100
AcDbLine
 10
0.0
 20
0.0
 30
0.0
 11
0.0
 21
2.5
 31
0.0
  0
LINE
  5
1098
330
1095
100
AcDbEntity
  8
ASSI
 62
     0
100
AcDbLine
 10
0.0
 20
0.0
 30
0.0
 11
-2.5
 21
0.0
 31
0.0
  0
LINE
  5
1099
330
1095
100
AcDbEntity
  8
ASSI
 62
     0
100
AcDbLine
 10
0.0
 20
0.0
 30
0.0
 11
0.0
 21
-2.5
 31
0.0
  0
LINE
  5
109A
330
1095
100
AcDbEntity
  8
ASSI
 62
     0
100
AcDbLine
 10
0.0
 20
0.0
 30
0.0
 11
2.5
 21
0.0
 31
0.0
  0
LINE
  5
109B
330
1095
100
AcDbEntity
  8
ASSI
 62
     0
100
AcDbLine
 10
0.0
 20
5.0
 30
0.0
 11
0.0
 21
10.0
 31
0.0
  0
LINE
  5
109C
330
1095
100
AcDbEntity
  8
ASSI
 62
     0
100
AcDbLine
 10
-5.0
 20
0.0
 30
0.0
 11
-10.0
 21
0.0
 31
0.0
  0
LINE
  5
109D
330
1095
100
AcDbEntity
  8
ASSI
 62
     0
100
AcDbLine
 10
0.0
 20
-5.0
 30
0.0
 11
0.0
 21
-10.0
 31
0.0
  0
LINE
  5
109E
330
1095
100
AcDbEntity
  8
ASSI
 62
     0
100
AcDbLine
 10
5.0
 20
0.0
 30
0.0
 11
10.0
 21
0.0
 31
0.0
  0
ENDBLK
  5
109F
330
1095
100
AcDbEntity
  8
0
100
AcDbBlockEnd
  0
ENDSEC
  0
SECTION
  2
ENTITIES
  0
LINE
  5
1140
330
A
100
AcDbEntity
  8
0
100
AcDbLine
 10
205.0866427329948
 20
7.372558557398463
 30
0.0
 11
205.0866427329948
 21
7.961753110598465
 31
0.0
  0
LINE
  5
1141
330
A
100
AcDbEntity
  8
0
100
AcDbLine
 10
205.0866427329948
 20
7.961753110598465
 30
0.0
 11
204.2866427329948
 21
8.336753110598465
 31
0.0
  0
LINE
  5
1142
330
A
100
AcDbEntity
  8
0
100
AcDbLine
 10
188.5866427329948
 20
-5.713746889401534
 30
0.0
 11
194.5866427329948
 21
-5.713746889401534
 31
0.0
  0
LINE
  5
1143
330
A
100
AcDbEntity
  8
0
100
AcDbLine
 10
194.5866427329948
 20
4.286253110598466
 30
0.0
 11
188.5866427329948
 21
4.286253110598466
 31
0.0
  0
LINE
  5
1144
330
A
100
AcDbEntity
  8
0
100
AcDbLine
 10
187.5866427329948
 20
-3.713746889401534
 30
0.0
 11
188.5866427329948
 21
-3.713746889401534
 31
0.0
  0
LINE
  5
1145
330
A
100
AcDbEntity
  8
0
100
AcDbLine
 10
194.5866427329948
 20
-3.713746889401534
 30
0.0
 11
195.5866427329948
 21
-3.713746889401534
 31
0.0
  0
LINE
  5
1146
330
A
100
AcDbEntity
  8
0
100
AcDbLine
 10
195.5866427329948
 20
2.286253110598466
 30
0.0
 11
194.5866427329948
 21
2.286253110598466
 31
0.0
  0
LINE
  5
1147
330
A
100
AcDbEntity
  8
0
100
AcDbLine
 10
188.5866427329948
 20
2.286253110598466
 30
0.0
 11
187.5866427329948
 21
2.286253110598466
 31
0.0
  0
LINE
  5
1148
330
A
100
AcDbEntity
  8
0
100
AcDbLine
 10
186.5866427329948
 20
-13.21374688940153
 30
0.0
 11
187.5866427329948
 21
-13.21374688940153
 31
0.0
  0
LINE
  5
1149
330
A
100
AcDbEntity
  8
0
100
AcDbLine
 10
187.5866427329948
 20
11.78625311059847
 30
0.0
 11
186.5866427329948
 21
11.78625311059847
 31
0.0
  0
LINE
  5
114A
330
A
100
AcDbEntity
  8
0
100
AcDbLine
 10
195.5866427329948
 20
-13.21374688940153
 30
0.0
 11
196.5866427329948
 21
-13.21374688940153
 31
0.0
  0
LINE
  5
114B
330
A
100
AcDbEntity
  8
0
100
AcDbLine
 10
196.5866427329948
 20
11.78625311059847
 30
0.0
 11
195.5866427329948
 21
11.78625311059847
 31
0.0
  0
LINE
  5
114C
330
A
100
AcDbEntity
  8
0
100
AcDbLine
 10
205.0866427329948
 20
7.961753110598465
 30
0.0
 11
204.3252921355948
 21
7.961753110598465
 31
0.0
  0
LINE
  5
114D
330
A
100
AcDbEntity
  8
0
100
AcDbLine
 10
204.2866427329948
 20
8.336753110598465
 30
0.0
 11
203.9300813592948
 21
8.336753110598465
 31
0.0
  0
LINE
  5
114E
330
A
100
AcDbEntity
  8
0
100
AcDbLine
 10
194.5866427329948
 20
-5.713746889401534
 30
0.0
 11
194.5866427329948
 21
4.286253110598466
 31
0.0
  0
LINE
  5
114F
330
A
100
AcDbEntity
  8
0
100
AcDbLine
 10
188.5866427329948
 20
-5.713746889401534
 30
0.0
 11
188.5866427329948
 21
4.286253110598466
 31
0.0
  0
LINE
  5
1150
330
A
100
AcDbEntity
  8
0
100
AcDbLine
 10
196.5866427329948
 20
11.98625311059845
 30
0.0
 11
201.9592966922947
 21
11.98625311059845
 31
0.0
  0
LINE
  5
1151
330
A
100
AcDbEntity
  8
0
100
AcDbLine
 10
220.9866427329948
 20
-13.41374688940155
 30
0.0
 11
220.9866427329948
 21
11.98625311059845
 31
0.0
  0
LINE
  5
1152
330
A
100
AcDbEntity
  8
0
100
AcDbLine
 10
216.6139887736948
 20
11.98625311059845
 30
0.0
 11
220.9866427329948
 21
11.98625311059845
 31
0.0
  0
ARC
  5
1153
330
A
100
AcDbEntity
  8
0
100
AcDbCircle
 10
209.2866427329948
 20
13.58625311059845
 30
0.0
 40
7.500000000000036
100
AcDbArc
 50
192.3177659828
 51
347.6822340172
  0
LINE
  5
1154
330
A
100
AcDbEntity
  8
0
100
AcDbLine
 10
196.5866427329948
 20
-13.41374688940155
 30
0.0
 11
196.5866427329948
 21
11.98625311059845
 31
0.0
  0
LINE
  5
1155
330
A
100
AcDbEntity
  8
0
100
AcDbLine
 10
220.9866427329948
 20
-13.41374688940155
 30
0.0
 11
196.5866427329948
 21
-13.41374688940155
 31
0.0
  0
LINE
  5
1156
330
A
100
AcDbEntity
  8
0
100
AcDbLine
 10
220.9866427329948
 20
11.98625311059845
 30
0.0
 11
221.9866427329948
 21
10.98625311059845
 31
0.0
  0
LINE
  5
1157
330
A
100
AcDbEntity
  8
0
100
AcDbLine
 10
221.9866427329948
 20
10.98625311059845
 30
0.0
 11
221.9866427329948
 21
-12.41374688940155
 31
0.0
  0
LINE
  5
1158
330
A
100
AcDbEntity
  8
0
100
AcDbLine
 10
220.9866427329948
 20
-13.41374688940155
 30
0.0
 11
221.9866427329948
 21
-12.41374688940155
 31
0.0
  0
LINE
  5
1159
330
A
100
AcDbEntity
  8
0
100
AcDbLine
 10
187.5866427329948
 20
-13.21374688940153
 30
0.0
 11
187.5866427329948
 21
11.78625311059847
 31
0.0
  0
LINE
  5
115A
330
A
100
AcDbEntity
  8
0
100
AcDbLine
 10
195.5866427329948
 20
-13.21374688940153
 30
0.0
 11
195.5866427329948
 21
11.78625311059847
 31
0.0
  0
ARC
  5
115B
330
A
100
AcDbEntity
  8
0
100
AcDbCircle
 10
173.8866427329947
 20
13.58625311059845
 30
0.0
 40
7.500000000000008
100
AcDbArc
 50
192.3177659828
 51
347.6822340172
  0
LINE
  5
115C
330
A
100
AcDbEntity
  8
0
100
AcDbLine
 10
186.5866427329948
 20
11.98625311059845
 30
0.0
 11
181.2139887736948
 21
11.98625311059845
 31
0.0
  0
LINE
  5
115D
330
A
100
AcDbEntity
  8
0
100
AcDbLine
 10
186.5866427329948
 20
-13.41374688940155
 30
0.0
 11
186.5866427329948
 21
11.98625311059845
 31
0.0
  0
LINE
  5
115E
330
A
100
AcDbEntity
  8
0
100
AcDbLine
 10
162.1866427329948
 20
11.98625311059845
 30
0.0
 11
162.1866427329948
 21
-13.41374688940155
 31
0.0
  0
LINE
  5
115F
330
A
100
AcDbEntity
  8
0
100
AcDbLine
 10
162.1866427329948
 20
-13.41374688940155
 30
0.0
 11
186.5866427329948
 21
-13.41374688940155
 31
0.0
  0
LINE
  5
1160
330
A
100
AcDbEntity
  8
0
100
AcDbLine
 10
166.5592966922948
 20
11.98625311059845
 30
0.0
 11
162.1866427329948
 21
11.98625311059845
 31
0.0
  0
LINE
  5
1161
330
A
100
AcDbEntity
  8
0
100
AcDbLine
 10
162.1866427329948
 20
-13.41374688940155
 30
0.0
 11
161.1866427329948
 21
-12.41374688940155
 31
0.0
  0
LINE
  5
1162
330
A
100
AcDbEntity
  8
0
100
AcDbLine
 10
161.1866427329948
 20
-12.41374688940155
 30
0.0
 11
161.1866427329948
 21
10.98625311059845
 31
0.0
  0
LINE
  5
1163
330
A
100
AcDbEntity
  8
0
100
AcDbLine
 10
162.1866427329948
 20
11.98625311059845
 30
0.0
 11
161.1866427329948
 21
10.98625311059845
 31
0.0
  0
INSERT
  5
1164
330
A
100
AcDbEntity
  8
ASSI
100
AcDbBlockReference
  2
SW_CENTERMARKSYMBOL_0
 10
173.8866427329947
 20
13.58625311059845
 30
0.0
  0
INSERT
  5
1165
330
A
100
AcDbEntity
  8
ASSI
100
AcDbBlockReference
  2
SW_CENTERMARKSYMBOL_1
 10
209.2866427329948
 20
13.58625311059845
 30
0.0
  0
LINE
  5
1166
330
A
100
AcDbEntity
  8
ASSI
100
AcDbLine
 10
187.5866427329948
 20
-0.7137468894015342
 30
0.0
 11
195.5866427329948
 21
-0.7137468894015342
 31
0.0
  0
LINE
  5
1167
330
A
100
AcDbEntity
  8
0
100
AcDbLine
 10
188.5866427329948
 20
46.19935354729846
 30
0.0
 11
194.5866427329948
 21
46.19935354729846
 31
0.0
  0
LINE
  5
1168
330
A
100
AcDbEntity
  8
0
100
AcDbLine
 10
194.5866427329948
 20
56.19935354729846
 30
0.0
 11
188.5866427329948
 21
56.19935354729846
 31
0.0
  0
LINE
  5
1169
330
A
100
AcDbEntity
  8
0
100
AcDbLine
 10
187.5866427329948
 20
48.19935354729846
 30
0.0
 11
188.5866427329948
 21
48.19935354729846
 31
0.0
  0
LINE
  5
116A
330
A
100
AcDbEntity
  8
0
100
AcDbLine
 10
194.5866427329948
 20
48.19935354729846
 30
0.0
 11
195.5866427329948
 21
48.19935354729846
 31
0.0
  0
LINE
  5
116B
330
A
100
AcDbEntity
  8
0
100
AcDbLine
 10
195.5866427329948
 20
54.19935354729846
 30
0.0
 11
194.5866427329948
 21
54.19935354729846
 31
0.0
  0
LINE
  5
116C
330
A
100
AcDbEntity
  8
0
100
AcDbLine
 10
188.5866427329948
 20
54.19935354729846
 30
0.0
 11
187.5866427329948
 21
54.19935354729846
 31
0.0
  0
LINE
  5
116D
330
A
100
AcDbEntity
  8
0
100
AcDbLine
 10
186.5866427329948
 20
38.69935354729844
 30
0.0
 11
187.5866427329948
 21
38.69935354729844
 31
0.0
  0
LINE
  5
116E
330
A
100
AcDbEntity
  8
0
100
AcDbLine
 10
187.5866427329948
 20
63.69935354729846
 30
0.0
 11
186.5866427329948
 21
63.69935354729846
 31
0.0
  0
LINE
  5
116F
330
A
100
AcDbEntity
  8
0
100
AcDbLine
 10
195.5866427329948
 20
38.69935354729844
 30
0.0
 11
196.5866427329948
 21
38.69935354729844
 31
0.0
  0
LINE
  5
1170
330
A
100
AcDbEntity
  8
0
100
AcDbLine
 10
196.5866427329948
 20
63.69935354729846
 30
0.0
 11
195.5866427329948
 21
63.69935354729846
 31
0.0
  0
LINE
  5
1171
330
A
100
AcDbEntity
  8
0
100
AcDbLine
 10
188.5866427329948
 20
46.19935354729846
 30
0.0
 11
188.5866427329948
 21
56.19935354729846
 31
0.0
  0
LINE
  5
1172
330
A
100
AcDbEntity
  8
0
100
AcDbLine
 10
194.5866427329948
 20
46.19935354729846
 30
0.0
 11
194.5866427329948
 21
56.19935354729846
 31
0.0
  0
LINE
  5
1173
330
A
100
AcDbEntity
  8
0
100
AcDbLine
 10
221.9866427329948
 20
62.89935354729845
 30
0.0
 11
221.9866427329948
 21
39.49935354729845
 31
0.0
  0
LINE
  5
1174
330
A
100
AcDbEntity
  8
0
100
AcDbLine
 10
221.9866427329948
 20
39.49935354729845
 30
0.0
 11
220.9866427329948
 21
38.49935354729845
 31
0.0
  0
LINE
  5
1175
330
A
100
AcDbEntity
  8
0
100
AcDbLine
 10
220.9866427329948
 20
38.49935354729845
 30
0.0
 11
220.9866427329948
 21
63.89935354729845
 31
0.0
  0
LINE
  5
1176
330
A
100
AcDbEntity
  8
0
100
AcDbLine
 10
220.9866427329948
 20
63.89935354729845
 30
0.0
 11
221.9866427329948
 21
62.89935354729845
 31
0.0
  0
LINE
  5
1177
330
A
100
AcDbEntity
  8
0
100
AcDbLine
 10
220.9866427329948
 20
63.89935354729845
 30
0.0
 11
196.5866427329948
 21
63.89935354729845
 31
0.0
  0
LINE
  5
1178
330
A
100
AcDbEntity
  8
0
100
AcDbLine
 10
196.5866427329948
 20
38.49935354729845
 30
0.0
 11
196.5866427329948
 21
63.89935354729845
 31
0.0
  0
LINE
  5
1179
330
A
100
AcDbEntity
  8
0
100
AcDbLine
 10
220.9866427329948
 20
38.49935354729845
 30
0.0
 11
196.5866427329948
 21
38.49935354729845
 31
0.0
  0
LINE
  5
117A
330
A
100
AcDbEntity
  8
0
100
AcDbLine
 10
187.5866427329948
 20
46.91894921049844
 30
0.0
 11
187.5866427329948
 21
63.69935354729846
 31
0.0
  0
LINE
  5
117B
330
A
100
AcDbEntity
  8
0
100
AcDbLine
 10
187.5866427329948
 20
38.69935354729844
 30
0.0
 11
187.5866427329948
 21
46.91894921049844
 31
0.0
  0
LINE
  5
117C
330
A
100
AcDbEntity
  8
0
100
AcDbLine
 10
195.5866427329948
 20
50.24692503329844
 30
0.0
 11
195.5866427329948
 21
63.69935354729846
 31
0.0
  0
LINE
  5
117D
330
A
100
AcDbEntity
  8
0
100
AcDbLine
 10
195.5866427329948
 20
38.69935354729844
 30
0.0
 11
195.5866427329948
 21
50.24692503329844
 31
0.0
  0
LINE
  5
117E
330
A
100
AcDbEntity
  8
0
100
AcDbLine
 10
162.1866427329948
 20
63.89935354729845
 30
0.0
 11
162.1866427329948
 21
38.49935354729845
 31
0.0
  0
LINE
  5
117F
330
A
100
AcDbEntity
  8
0
100
AcDbLine
 10
161.1866427329948
 20
39.49935354729845
 30
0.0
 11
162.1866427329948
 21
38.49935354729845
 31
0.0
  0
LINE
  5
1180
330
A
100
AcDbEntity
  8
0
100
AcDbLine
 10
161.1866427329948
 20
39.49935354729845
 30
0.0
 11
161.1866427329948
 21
62.89935354729845
 31
0.0
  0
LINE
  5
1181
330
A
100
AcDbEntity
  8
0
100
AcDbLine
 10
162.1866427329948
 20
63.89935354729845
 30
0.0
 11
161.1866427329948
 21
62.89935354729845
 31
0.0
  0
LINE
  5
1182
330
A
100
AcDbEntity
  8
0
100
AcDbLine
 10
186.5866427329948
 20
63.89935354729845
 30
0.0
 11
186.5866427329948
 21
38.49935354729845
 31
0.0
  0
LINE
  5
1183
330
A
100
AcDbEntity
  8
0
100
AcDbLine
 10
162.1866427329948
 20
38.49935354729845
 30
0.0
 11
186.5866427329948
 21
38.49935354729845
 31
0.0
  0
LINE
  5
1184
330
A
100
AcDbEntity
  8
0
100
AcDbLine
 10
162.1866427329948
 20
63.89935354729845
 30
0.0
 11
186.5866427329948
 21
63.89935354729845
 31
0.0
  0
LINE
  5
1185
330
A
100
AcDbEntity
  8
ASSI
100
AcDbLine
 10
187.5866427329948
 20
51.19935354729846
 30
0.0
 11
195.5866427329948
 21
51.19935354729846
 31
0.0
  0
LINE
  5
1186
330
A
100
AcDbEntity
  8
0
100
AcDbLine
 10
188.5866427329948
 20
-63.23907440030155
 30
0.0
 11
194.5866427329948
 21
-63.23907440030155
 31
0.0
  0
LINE
  5
1187
330
A
100
AcDbEntity
  8
0
100
AcDbLine
 10
194.5866427329948
 20
-53.23907440030155
 30
0.0
 11
188.5866427329948
 21
-53.23907440030155
 31
0.0
  0
LINE
  5
1188
330
A
100
AcDbEntity
  8
0
100
AcDbLine
 10
187.5866427329948
 20
-61.23907440030155
 30
0.0
 11
188.5866427329948
 21
-61.23907440030155
 31
0.0
  0
LINE
  5
1189
330
A
100
AcDbEntity
  8
0
100
AcDbLine
 10
194.5866427329948
 20
-61.23907440030155
 30
0.0
 11
195.5866427329948
 21
-61.23907440030155
 31
0.0
  0
LINE
  5
118A
330
A
100
AcDbEntity
  8
0
100
AcDbLine
 10
195.5866427329948
 20
-55.23907440030155
 30
0.0
 11
194.5866427329948
 21
-55.23907440030155
 31
0.0
  0
LINE
  5
118B
330
A
100
AcDbEntity
  8
0
100
AcDbLine
 10
188.5866427329948
 20
-55.23907440030155
 30
0.0
 11
187.5866427329948
 21
-55.23907440030155
 31
0.0
  0
LINE
  5
118C
330
A
100
AcDbEntity
  8
0
100
AcDbLine
 10
186.5866427329948
 20
-70.73907440030155
 30
0.0
 11
187.5866427329948
 21
-70.73907440030155
 31
0.0
  0
LINE
  5
118D
330
A
100
AcDbEntity
  8
0
100
AcDbLine
 10
187.5866427329948
 20
-45.73907440030155
 30
0.0
 11
186.5866427329948
 21
-45.73907440030155
 31
0.0
  0
LINE
  5
118E
330
A
100
AcDbEntity
  8
0
100
AcDbLine
 10
195.5866427329948
 20
-70.73907440030155
 30
0.0
 11
196.5866427329948
 21
-70.73907440030155
 31
0.0
  0
LINE
  5
118F
330
A
100
AcDbEntity
  8
0
100
AcDbLine
 10
196.5866427329948
 20
-45.73907440030155
 30
0.0
 11
195.5866427329948
 21
-45.73907440030155
 31
0.0
  0
CIRCLE
  5
1190
330
A
100
AcDbEntity
  8
0
100
AcDbCircle
 10
202.5866427329948
 20
-58.23907440030155
 30
0.0
 40
1.700000000027996
  0
CIRCLE
  5
1191
330
A
100
AcDbEntity
  8
0
100
AcDbCircle
 10
202.5866427329948
 20
-58.23907440030155
 30
0.0
 40
2.500000000000009
  0
LINE
  5
1192
330
A
100
AcDbEntity
  8
0
100
AcDbLine
 10
201.4050742968948
 20
-59.06806738230155
 30
0.0
 11
202.7137874968948
 21
-59.67683917330154
 31
0.0
  0
LINE
  5
1193
330
A
100
AcDbEntity
  8
0
100
AcDbLine
 10
202.7137874968948
 20
-59.67683917330154
 30
0.0
 11
203.8953559329948
 21
-58.84784619130154
 31
0.0
  0
LINE
  5
1194
330
A
100
AcDbEntity
  8
0
100
AcDbLine
 10
203.8953559329948
 20
-58.84784619130154
 30
0.0
 11
203.7682111690947
 21
-57.41008141830154
 31
0.0
  0
LINE
  5
1195
330
A
100
AcDbEntity
  8
0
100
AcDbLine
 10
203.7682111690947
 20
-57.41008141830154
 30
0.0
 11
202.4594979690947
 21
-56.80130962740155
 31
0.0
  0
LINE
  5
1196
330
A
100
AcDbEntity
  8
0
100
AcDbLine
 10
201.2779295329948
 20
-57.63030260930154
 30
0.0
 11
202.4594979690947
 21
-56.80130962740155
 31
0.0
  0
LINE
  5
1197
330
A
100
AcDbEntity
  8
0
100
AcDbLine
 10
201.2779295329948
 20
-57.63030260930154
 30
0.0
 11
201.4050742968948
 21
-59.06806738230155
 31
0.0
  0
LINE
  5
1198
330
A
100
AcDbEntity
  8
0
100
AcDbLine
 10
194.5866427329948
 20
-53.75064006530154
 30
0.0
 11
194.5866427329948
 21
-53.23907440030155
 31
0.0
  0
LINE
  5
1199
330
A
100
AcDbEntity
  8
0
100
AcDbLine
 10
194.5866427329948
 20
-63.23907440030155
 30
0.0
 11
194.5866427329948
 21
-53.75064006530154
 31
0.0
  0
LINE
  5
119A
330
A
100
AcDbEntity
  8
0
100
AcDbLine
 10
188.5866427329948
 20
-53.75064006530154
 30
0.0
 11
188.5866427329948
 21
-53.23907440030155
 31
0.0
  0
LINE
  5
119B
330
A
100
AcDbEntity
  8
0
100
AcDbLine
 10
188.5866427329948
 20
-63.23907440030155
 30
0.0
 11
188.5866427329948
 21
-53.75064006530154
 31
0.0
  0
LINE
  5
119C
330
A
100
AcDbEntity
  8
0
100
AcDbLine
 10
216.6139887736948
 20
-45.53907440030154
 30
0.0
 11
201.9592966922947
 21
-45.53907440030154
 31
0.0
  0
LINE
  5
119D
330
A
100
AcDbEntity
  8
0
100
AcDbLine
 10
216.6139887736948
 20
-45.53907440030154
 30
0.0
 11
216.6139887736948
 21
-70.93907440030155
 31
0.0
  0
LINE
  5
119E
330
A
100
AcDbEntity
  8
0
100
AcDbLine
 10
216.6139887736948
 20
-70.93907440030155
 30
0.0
 11
201.9592966922947
 21
-70.93907440030155
 31
0.0
  0
LINE
  5
119F
330
A
100
AcDbEntity
  8
0
100
AcDbLine
 10
201.9592966922947
 20
-70.93907440030155
 30
0.0
 11
201.9592966922947
 21
-60.91656145820154
 31
0.0
  0
SPLINE
  5
11A0
330
A
100
AcDbEntity
  8
0
100
AcDbSpline
210
0.0
220
0.0
230
1.0
 70
     8
 71
     3
 72
    26
 73
    22
 74
     0
 42
0.000000001
 43
0.00000001
 40
0.0
 40
0.0
 40
0.0
 40
0.0
 40
0.0833086501959686
 40
0.1691225122248449
 40
0.2146473902447317
 40
0.2610632645057553
 40
0.2973080713673028
 40
0.3344800153249918
 40
0.3945833611454985
 40
0.4243595110618882
 40
0.4551752555302428
 40
0.5101237606048185
 40
0.5631258714473659
 40
0.6163816243764925
 40
0.6720449372730329
 40
0.7096680668020142
 40
0.7483738869094839
 40
0.80196459942662
 40
0.8570198269966491
 40
0.927727283509395
 40
0.9999999999999999
 40
0.9999999999999999
 40
0.9999999999999999
 40
0.9999999999999999
 10
201.9592966923122
 20
-55.56158734240834
 30
0.0
 10
202.0663718919592
 20
-55.53887908998074
 30
0.0
 10
202.2837421976683
 20
-55.49277971506855
 30
0.0
 10
202.7744178305957
 20
-55.47828689498324
 30
0.0
 10
203.2654677956606
 20
-55.56346112064175
 30
0.0
 10
203.66090214601
 20
-55.69521427826244
 30
0.0
 10
204.0488604724492
 20
-55.89749548174974
 30
0.0
 10
204.4803706769701
 20
-56.21361869103464
 30
0.0
 10
204.8586294456372
 20
-56.64544879556574
 30
0.0
 10
205.1250051632628
 20
-57.15168975210554
 30
0.0
 10
205.305791360333
 20
-57.68514195278514
 30
0.0
 10
205.3730817902991
 20
-58.38314552560495
 30
0.0
 10
205.2120688065934
 20
-59.17410752495995
 30
0.0
 10
204.8489206647284
 20
-59.86254450794624
 30
0.0
 10
204.4021383256371
 20
-60.33144030790075
 30
0.0
 10
203.9734719090588
 20
-60.62667343989474
 30
0.0
 10
203.5552337293865
 20
-60.82729851490835
 30
0.0
 10
203.1113162696262
 20
-60.95187179975174
 30
0.0
 10
202.645826596959
 20
-61.00089987032675
 30
0.0
 10
202.2293750954694
 20
-60.97438564943765
 30
0.0
 10
202.0499774720569
 20
-60.93597634917394
 30
0.0
 10
201.9592966923122
 20
-60.91656145821214
 30
0.0
  0
LINE
  5
11A1
330
A
100
AcDbEntity
  8
0
100
AcDbLine
 10
201.9592966922947
 20
-55.56158734240154
 30
0.0
 11
201.9592966922947
 21
-45.53907440030154
 31
0.0
  0
LINE
  5
11A2
330
A
100
AcDbEntity
  8
0
100
AcDbLine
 10
216.6139887736948
 20
-45.53907440030154
 30
0.0
 11
220.9866427329948
 21
-45.53907440030154
 31
0.0
  0
LINE
  5
11A3
330
A
100
AcDbEntity
  8
0
100
AcDbLine
 10
220.9866427329948
 20
-70.93907440030155
 30
0.0
 11
220.9866427329948
 21
-45.53907440030154
 31
0.0
  0
LINE
  5
11A4
330
A
100
AcDbEntity
  8
0
100
AcDbLine
 10
216.6139887736948
 20
-70.93907440030155
 30
0.0
 11
220.9866427329948
 21
-70.93907440030155
 31
0.0
  0
LINE
  5
11A5
330
A
100
AcDbEntity
  8
0
100
AcDbLine
 10
221.9866427329948
 20
-46.53907440030154
 30
0.0
 11
221.9866427329948
 21
-69.93907440030155
 31
0.0
  0
LINE
  5
11A6
330
A
100
AcDbEntity
  8
0
100
AcDbLine
 10
220.9866427329948
 20
-70.93907440030155
 30
0.0
 11
221.9866427329948
 21
-69.93907440030155
 31
0.0
  0
LINE
  5
11A7
330
A
100
AcDbEntity
  8
0
100
AcDbLine
 10
221.9866427329948
 20
-46.53907440030154
 30
0.0
 11
220.9866427329948
 21
-45.53907440030154
 31
0.0
  0
LINE
  5
11A8
330
A
100
AcDbEntity
  8
0
100
AcDbLine
 10
196.5866427329948
 20
-70.93907440030155
 30
0.0
 11
201.9592966922947
 21
-70.93907440030155
 31
0.0
  0
LINE
  5
11A9
330
A
100
AcDbEntity
  8
0
100
AcDbLine
 10
196.5866427329948
 20
-45.53907440030154
 30
0.0
 11
201.9592966922947
 21
-45.53907440030154
 31
0.0
  0
LINE
  5
11AA
330
A
100
AcDbEntity
  8
0
100
AcDbLine
 10
196.5866427329948
 20
-45.53907440030154
 30
0.0
 11
196.5866427329948
 21
-70.93907440030155
 31
0.0
  0
ARC
  5
11AB
330
A
100
AcDbEntity
  8
0
100
AcDbCircle
 10
202.5866427329948
 20
-58.23907440030155
 30
0.0
 40
2.750000000000024
100
AcDbArc
 50
103.1867567708007
 51
256.8132432291993
  0
LINE
  5
11AC
330
A
100
AcDbEntity
  8
0
100
AcDbLine
 10
187.5866427329948
 20
-70.73907440030155
 30
0.0
 11
187.5866427329948
 21
-45.73907440030155
 31
0.0
  0
LINE
  5
11AD
330
A
100
AcDbEntity
  8
0
100
AcDbLine
 10
195.5866427329948
 20
-70.73907440030155
 30
0.0
 11
195.5866427329948
 21
-45.73907440030155
 31
0.0
  0
LINE
  5
11AE
330
A
100
AcDbEntity
  8
0
100
AcDbLine
 10
166.5592966922948
 20
-70.93907440030155
 30
0.0
 11
166.5592966922948
 21
-45.53907440030154
 31
0.0
  0
LINE
  5
11AF
330
A
100
AcDbEntity
  8
0
100
AcDbLine
 10
166.5592966922948
 20
-70.93907440030155
 30
0.0
 11
162.1866427329948
 21
-70.93907440030155
 31
0.0
  0
LINE
  5
11B0
330
A
100
AcDbEntity
  8
0
100
AcDbLine
 10
162.1866427329948
 20
-45.53907440030154
 30
0.0
 11
162.1866427329948
 21
-70.93907440030155
 31
0.0
  0
LINE
  5
11B1
330
A
100
AcDbEntity
  8
0
100
AcDbLine
 10
166.5592966922948
 20
-45.53907440030154
 30
0.0
 11
162.1866427329948
 21
-45.53907440030154
 31
0.0
  0
LINE
  5
11B2
330
A
100
AcDbEntity
  8
0
100
AcDbLine
 10
162.1866427329948
 20
-70.93907440030155
 30
0.0
 11
161.1866427329948
 21
-69.93907440030155
 31
0.0
  0
LINE
  5
11B3
330
A
100
AcDbEntity
  8
0
100
AcDbLine
 10
161.1866427329948
 20
-69.93907440030155
 30
0.0
 11
161.1866427329948
 21
-46.53907440030154
 31
0.0
  0
LINE
  5
11B4
330
A
100
AcDbEntity
  8
0
100
AcDbLine
 10
161.1866427329948
 20
-46.53907440030154
 30
0.0
 11
162.1866427329948
 21
-45.53907440030154
 31
0.0
  0
LINE
  5
11B5
330
A
100
AcDbEntity
  8
0
100
AcDbLine
 10
186.5866427329948
 20
-70.93907440030155
 30
0.0
 11
181.2139887736948
 21
-70.93907440030155
 31
0.0
  0
LINE
  5
11B6
330
A
100
AcDbEntity
  8
0
100
AcDbLine
 10
181.2139887736948
 20
-45.53907440030154
 30
0.0
 11
181.2139887736948
 21
-70.93907440030155
 31
0.0
  0
LINE
  5
11B7
330
A
100
AcDbEntity
  8
0
100
AcDbLine
 10
186.5866427329948
 20
-45.53907440030154
 30
0.0
 11
181.2139887736948
 21
-45.53907440030154
 31
0.0
  0
LINE
  5
11B8
330
A
100
AcDbEntity
  8
0
100
AcDbLine
 10
186.5866427329948
 20
-70.93907440030155
 30
0.0
 11
186.5866427329948
 21
-45.53907440030154
 31
0.0
  0
LINE
  5
11B9
330
A
100
AcDbEntity
  8
0
100
AcDbLine
 10
166.5592966922948
 20
-70.93907440030155
 30
0.0
 11
181.2139887736948
 21
-70.93907440030155
 31
0.0
  0
LINE
  5
11BA
330
A
100
AcDbEntity
  8
0
100
AcDbLine
 10
166.5592966922948
 20
-45.53907440030154
 30
0.0
 11
181.2139887736948
 21
-45.53907440030154
 31
0.0
  0
LINE
  5
11BB
330
A
100
AcDbEntity
  8
ASSI
100
AcDbLine
 10
187.5866427329948
 20
-58.23907440030155
 30
0.0
 11
195.5866427329948
 21
-58.23907440030155
 31
0.0
  0
LINE
  5
11BC
330
A
100
AcDbEntity
  8
0
100
AcDbLine
 10
137.3429746106948
 20
-12.41374688940155
 30
0.0
 11
137.3429746106948
 21
10.98625311059845
 31
0.0
  0
LINE
  5
11BD
330
A
100
AcDbEntity
  8
0
100
AcDbLine
 10
137.3429746106948
 20
10.98625311059845
 30
0.0
 11
138.3429746106948
 21
11.98625311059845
 31
0.0
  0
LINE
  5
11BE
330
A
100
AcDbEntity
  8
0
100
AcDbLine
 10
138.3429746106948
 20
11.98625311059845
 30
0.0
 11
138.3429746106948
 21
-13.41374688940155
 31
0.0
  0
LINE
  5
11BF
330
A
100
AcDbEntity
  8
0
100
AcDbLine
 10
137.3429746106948
 20
-12.41374688940155
 30
0.0
 11
138.3429746106948
 21
-13.41374688940155
 31
0.0
  0
LINE
  5
11C0
330
A
100
AcDbEntity
  8
0
100
AcDbLine
 10
137.3429746106948
 20
10.98625311059845
 30
0.0
 11
113.9429746106948
 21
10.98625311059845
 31
0.0
  0
LINE
  5
11C1
330
A
100
AcDbEntity
  8
0
100
AcDbLine
 10
112.9429746106948
 20
11.98625311059845
 30
0.0
 11
113.9429746106948
 21
10.98625311059845
 31
0.0
  0
LINE
  5
11C2
330
A
100
AcDbEntity
  8
0
100
AcDbLine
 10
112.9429746106948
 20
11.98625311059845
 30
0.0
 11
138.3429746106948
 21
11.98625311059845
 31
0.0
  0
LINE
  5
11C3
330
A
100
AcDbEntity
  8
0
100
AcDbLine
 10
113.9429746106948
 20
-12.41374688940155
 30
0.0
 11
137.3429746106948
 21
-12.41374688940155
 31
0.0
  0
LINE
  5
11C4
330
A
100
AcDbEntity
  8
0
100
AcDbLine
 10
138.3429746106948
 20
-13.41374688940155
 30
0.0
 11
112.9429746106948
 21
-13.41374688940155
 31
0.0
  0
LINE
  5
11C5
330
A
100
AcDbEntity
  8
0
100
AcDbLine
 10
112.9429746106948
 20
-13.41374688940155
 30
0.0
 11
113.9429746106948
 21
-12.41374688940155
 31
0.0
  0
LINE
  5
11C6
330
A
100
AcDbEntity
  8
0
100
AcDbLine
 10
113.9429746106948
 20
10.98625311059845
 30
0.0
 11
113.9429746106948
 21
-12.41374688940155
 31
0.0
  0
LINE
  5
11C7
330
A
100
AcDbEntity
  8
0
100
AcDbLine
 10
112.9429746106948
 20
-13.41374688940155
 30
0.0
 11
112.9429746106948
 21
11.98625311059845
 31
0.0
  0
LINE
  5
11C8
330
A
100
AcDbEntity
  8
0
100
AcDbLine
 10
271.1656820342948
 20
-13.41374688940155
 30
0.0
 11
245.7656820342947
 21
-13.41374688940155
 31
0.0
  0
LINE
  5
11C9
330
A
100
AcDbEntity
  8
0
100
AcDbLine
 10
246.7656820342947
 20
-12.41374688940155
 30
0.0
 11
245.7656820342947
 21
-13.41374688940155
 31
0.0
  0
LINE
  5
11CA
330
A
100
AcDbEntity
  8
0
100
AcDbLine
 10
246.7656820342947
 20
-12.41374688940155
 30
0.0
 11
270.1656820342948
 21
-12.41374688940155
 31
0.0
  0
LINE
  5
11CB
330
A
100
AcDbEntity
  8
0
100
AcDbLine
 10
271.1656820342948
 20
-13.41374688940155
 30
0.0
 11
270.1656820342948
 21
-12.41374688940155
 31
0.0
  0
LINE
  5
11CC
330
A
100
AcDbEntity
  8
0
100
AcDbLine
 10
245.7656820342947
 20
11.98625311059845
 30
0.0
 11
271.1656820342948
 21
11.98625311059845
 31
0.0
  0
LINE
  5
11CD
330
A
100
AcDbEntity
  8
0
100
AcDbLine
 10
271.1656820342948
 20
11.98625311059845
 30
0.0
 11
270.1656820342948
 21
10.98625311059845
 31
0.0
  0
LINE
  5
11CE
330
A
100
AcDbEntity
  8
0
100
AcDbLine
 10
270.1656820342948
 20
10.98625311059845
 30
0.0
 11
246.7656820342947
 21
10.98625311059845
 31
0.0
  0
LINE
  5
11CF
330
A
100
AcDbEntity
  8
0
100
AcDbLine
 10
246.7656820342947
 20
10.98625311059845
 30
0.0
 11
245.7656820342947
 21
11.98625311059845
 31
0.0
  0
LINE
  5
11D0
330
A
100
AcDbEntity
  8
0
100
AcDbLine
 10
246.7656820342947
 20
10.98625311059845
 30
0.0
 11
246.7656820342947
 21
-12.41374688940155
 31
0.0
  0
LINE
  5
11D1
330
A
100
AcDbEntity
  8
0
100
AcDbLine
 10
245.7656820342947
 20
-13.41374688940155
 30
0.0
 11
245.7656820342947
 21
11.98625311059845
 31
0.0
  0
LINE
  5
11D2
330
A
100
AcDbEntity
  8
0
100
AcDbLine
 10
270.1656820342948
 20
-12.41374688940155
 30
0.0
 11
270.1656820342948
 21
10.98625311059845
 31
0.0
  0
LINE
  5
11D3
330
A
100
AcDbEntity
  8
0
100
AcDbLine
 10
271.1656820342948
 20
11.98625311059845
 30
0.0
 11
271.1656820342948
 21
-13.41374688940155
 31
0.0
  0
LINE
  5
11D4
330
A
100
AcDbEntity
  8
0
100
AcDbLine
 10
280.3879084658948
 20
-67.56094519800155
 30
0.0
 11
280.9778092364947
 21
-67.47279677100154
 31
0.0
  0
LINE
  5
11D5
330
A
100
AcDbEntity
  8
0
100
AcDbLine
 10
282.9522473710948
 20
-74.76102981320155
 30
0.0
 11
283.8182727748948
 21
-74.63162029060155
 31
0.0
  0
LINE
  5
11D6
330
A
100
AcDbEntity
  8
0
100
AcDbLine
 10
280.1235636721947
 20
-49.90614507490154
 30
0.0
 11
279.2575382683947
 21
-50.03555459740154
 31
0.0
  0
LWPOLYLINE
  5
11D7
330
A
100
AcDbEntity
  8
0
100
AcDbPolyline
 90
       16
 70
   128
 43
0.0
 10
282.4830845834948
 20
-65.66185538230154
 10
282.6277803914948
 20
-65.02229952780155
 10
282.7136532337947
 20
-64.32131839640155
 10
282.7385886358948
 20
-63.57617247000154
 10
282.7019726053948
 20
-62.80520971420154
 10
282.6047067506947
 20
-62.02741379080155
 10
282.4491860796948
 20
-61.26193661670155
 10
282.2392400275947
 20
-60.52762678060155
 10
281.9800381628947
 20
-59.84256542750154
 10
281.6779628957947
 20
-59.22362104150154
 10
281.3404523219947
 20
-58.68603408770154
 10
280.9758170717948
 20
-58.24304174100155
 10
280.5930356752947
 20
-57.90555194310154
 10
280.2015334807948
 20
-57.68187481290154
 10
279.8109505716948
 20
-57.57751802370154
 10
279.6606641856948
 20
-57.56981728840154
  0
ARC
  5
11D8
330
A
100
AcDbEntity
  8
0
100
AcDbCircle
 10
280.3342296788948
 20
-65.40677422780155
 30
0.0
 40
2.163941726595734
100
AcDbArc
 50
287.3021536617997
 51
353.2303474547001
  0
LWPOLYLINE
  5
11D9
330
A
100
AcDbEntity
  8
0
100
AcDbPolyline
 90
       22
 70
   128
 43
0.0
 10
305.6651086651947
 20
-74.79103851170154
 10
305.4338569259947
 20
-73.92709465200154
 10
305.1007997360948
 20
-73.11905595600155
 10
304.6714825207948
 20
-72.38037632390154
 10
304.1530534414948
 20
-71.72335482250155
 10
303.5541443779948
 20
-71.15893090550155
 10
302.8847272078947
 20
-70.69650227010155
 10
302.1559477732948
 20
-70.34376838490155
 10
301.3799403020948
 20
-70.10660229370154
 10
300.5696253725948
 20
-69.98895282830155
 10
299.7384947842947
 20
-69.99277886030154
 10
298.9003869189947
 20
-70.11801668620154
 10
298.0692563305947
 20
-70.36258108730155
 10
297.2589414010948
 20
-70.72240004960155
 10
296.4829339299948
 20
-71.19148256250155
 10
295.7541544952948
 20
-71.76201836950155
 10
295.0847373251947
 20
-72.42450801010155
 10
294.4858282617948
 20
-73.16792098590155
 10
293.9673991823947
 20
-73.97987941940154
 10
293.5380819670947
 20
-74.84686414660155
 10
293.2050247771948
 20
-75.75443981160154
 10
292.9737730380947
 20
-76.68749521700154
  0
LINE
  5
11DA
330
A
100
AcDbEntity
  8
0
100
AcDbLine
 10
288.3209182234947
 20
-77.38276780080155
 30
0.0
 11
292.9737730380947
 21
-76.68749521700154
 31
0.0
  0
LINE
  5
11DB
330
A
100
AcDbEntity
  8
0
100
AcDbLine
 10
288.3209182234947
 20
-52.84825181300154
 30
0.0
 11
288.3209182234947
 21
-77.38276780080155
 31
0.0
  0
LINE
  5
11DC
330
A
100
AcDbEntity
  8
0
100
AcDbLine
 10
309.4519380758948
 20
-49.69065946280155
 30
0.0
 11
288.3209182234947
 21
-52.84825181300154
 31
0.0
  0
LINE
  5
11DD
330
A
100
AcDbEntity
  8
0
100
AcDbLine
 10
309.4519380758948
 20
-74.22517545050154
 30
0.0
 11
309.4519380758948
 21
-49.69065946280155
 31
0.0
  0
LINE
  5
11DE
330
A
100
AcDbEntity
  8
0
100
AcDbLine
 10
305.6651086651947
 20
-74.79103851170154
 30
0.0
 11
309.4519380758948
 21
-74.22517545050154
 31
0.0
  0
LINE
  5
11DF
330
A
100
AcDbEntity
  8
0
100
AcDbLine
 10
288.3209182234947
 20
-52.84825181300154
 30
0.0
 11
275.6209182234948
 21
-47.15499756470155
 31
0.0
  0
LINE
  5
11E0
330
A
100
AcDbEntity
  8
0
100
AcDbLine
 10
296.7519380758948
 20
-43.99740521450154
 30
0.0
 11
275.6209182234948
 21
-47.15499756470155
 31
0.0
  0
LINE
  5
11E1
330
A
100
AcDbEntity
  8
0
100
AcDbLine
 10
309.4519380758948
 20
-49.69065946280155
 30
0.0
 11
296.7519380758948
 21
-43.99740521450154
 31
0.0
  0
LINE
  5
11E2
330
A
100
AcDbEntity
  8
0
100
AcDbLine
 10
288.3209182234947
 20
-77.38276780080155
 30
0.0
 11
282.5440446442947
 21
-74.79306622230155
 31
0.0
  0
LINE
  5
11E3
330
A
100
AcDbEntity
  8
0
100
AcDbLine
 10
279.6657409951948
 20
-73.50275799570154
 30
0.0
 11
279.6606641856948
 21
-73.50048212420154
 31
0.0
  0
LINE
  5
11E4
330
A
100
AcDbEntity
  8
0
100
AcDbLine
 10
275.6209182234948
 20
-47.15499756470155
 30
0.0
 11
275.6209182234948
 21
-52.33137846680154
 31
0.0
  0
LINE
  5
11E5
330
A
100
AcDbEntity
  8
0
100
AcDbLine
 10
305.6651086651947
 20
-74.79103851170154
 30
0.0
 11
296.9591399350948
 21
-70.88825949920154
 31
0.0
  0
LINE
  5
11E6
330
A
100
AcDbEntity
  8
0
100
AcDbLine
 10
309.8179634796948
 20
-50.30303189850154
 30
0.0
 11
309.8179634796948
 21
-72.90569623360155
 31
0.0
  0
LINE
  5
11E7
330
A
100
AcDbEntity
  8
0
100
AcDbLine
 10
309.8179634796948
 20
-72.90569623360155
 30
0.0
 11
309.4519380758948
 21
-74.22517545050154
 31
0.0
  0
LINE
  5
11E8
330
A
100
AcDbEntity
  8
0
100
AcDbLine
 10
309.8179634796948
 20
-50.30303189850154
 30
0.0
 11
309.4519380758948
 21
-49.69065946280155
 31
0.0
  0
ARC
  5
11E9
330
A
100
AcDbEntity
  8
0
100
AcDbCircle
 10
272.5363730796947
 20
-55.34440195580154
 30
0.0
 40
4.310304388813164
100
AcDbArc
 50
44.30586914229995
 51
87.32499733210017
  0
ARC
  5
11EA
330
A
100
AcDbEntity
  8
0
100
AcDbCircle
 10
258.3326835707948
 20
-65.89196694220155
 30
0.0
 40
22.10041583870846
100
AcDbArc
 50
344.8070694900999
 51
15.19293050989999
  0
ARC
  5
11EB
330
A
100
AcDbEntity
  8
0
100
AcDbCircle
 10
280.5455143806947
 20
-53.37452524030155
 30
0.0
 40
3.493952399835745
100
AcDbArc
 50
57.02589935340048
 51
96.93631354029958
  0
LWPOLYLINE
  5
11EC
330
A
100
AcDbEntity
  8
0
100
AcDbPolyline
 90
       29
 70
   128
 43
0.0
 10
283.8182727748948
 20
-74.63162029060155
 10
284.2457542217948
 20
-74.53456630480154
 10
284.8140651043947
 20
-74.29588428060154
 10
285.3541195158948
 20
-73.93767251120154
 10
285.8605501528947
 20
-73.46349106600154
 10
286.3283238803947
 20
-72.87805257330155
 10
286.7527917527947
 20
-72.18717538390155
 10
287.1297352176948
 20
-71.39772574560155
 10
287.4554080416947
 20
-70.51754956360155
 10
287.7265735417948
 20
-69.55539442430154
 10
287.9405367534948
 20
-68.52082265780155
 10
288.0951712142947
 20
-67.42411630290154
 10
288.1889400974948
 20
-66.27617492020154
 10
288.2209114856947
 20
-65.08840726700154
 10
288.1907676328947
 20
-63.87261791160154
 10
288.0988081222948
 20
-62.64088991510154
 10
287.9459468887948
 20
-61.40546474360154
 10
287.7337031360947
 20
-60.17862060740154
 10
287.4641862377948
 20
-58.97255043490155
 10
287.1400747740947
 20
-57.79924069310154
 10
286.7645899101947
 20
-56.67035226160155
 10
286.3414633834947
 20
-55.59710454060155
 10
285.8749004153947
 20
-54.59016394820155
 10
285.3695379182948
 20
-53.65953791240155
 10
284.8303984117948
 20
-52.81447541280154
 10
284.2628401065948
 20
-52.06337506030154
 10
283.6725036518948
 20
-51.41370162750154
 10
283.0652560768947
 20
-50.87191186100155
 10
282.4471324804948
 20
-50.44339031080155
  0
ARC
  5
11ED
330
A
100
AcDbEntity
  8
0
100
AcDbCircle
 10
279.7537127053948
 20
-53.77896732680155
 30
0.0
 40
3.690376699541637
100
AcDbArc
 50
60.31849326449979
 51
161.6025980105999
  0
LWPOLYLINE
  5
11EE
330
A
100
AcDbEntity
  8
0
100
AcDbPolyline
 90
       36
 70
   128
 43
0.0
 10
279.6657409951948
 20
-73.50275799570154
 10
279.7051912395947
 20
-73.53821594660154
 10
280.3186393896947
 20
-74.02397544230155
 10
280.9399016795948
 20
-74.39419367490154
 10
281.5628037255947
 20
-74.64519124940155
 10
282.1811548471948
 20
-74.77447363890154
 10
282.7888095933948
 20
-74.78075597720155
 10
283.3797288180947
 20
-74.66397582740154
 10
283.9480397005947
 20
-74.42529380320154
 10
284.4880941120948
 20
-74.06708203370154
 10
284.9945247491947
 20
-73.59290058860154
 10
285.4622984765948
 20
-73.00746209590154
 10
285.8867663489947
 20
-72.31658490640154
 10
286.2637098139948
 20
-71.52713526810155
 10
286.5893826378947
 20
-70.64695908620155
 10
286.8605481379947
 20
-69.68480394690154
 10
287.0745113496948
 20
-68.65023218030154
 10
287.2291458104947
 20
-67.55352582540155
 10
287.3229146936948
 20
-66.40558444280154
 10
287.3548860818947
 20
-65.21781678950154
 10
287.3247422290947
 20
-64.00202743420155
 10
287.2327827184948
 20
-62.77029943770154
 10
287.0799214849948
 20
-61.53487426610154
 10
286.8676777322947
 20
-60.30803013000154
 10
286.5981608339948
 20
-59.10195995740155
 10
286.2740493702947
 20
-57.92865021570154
 10
285.8985645063947
 20
-56.79976178410155
 10
285.4754379796947
 20
-55.72651406310155
 10
285.0088750115947
 20
-54.71957347070155
 10
284.5035125144947
 20
-53.78894743490154
 10
283.9643730080948
 20
-52.94388493540154
 10
283.3968147027948
 20
-52.19278458280155
 10
282.8064782481948
 20
-51.54311115010154
 10
282.1992306730947
 20
-51.00132138350155
 10
281.5811070766948
 20
-50.57279983330154
 10
281.5811070766948
 20
-50.57279983330154
  0
ARC
  5
11EF
330
A
100
AcDbEntity
  8
0
100
AcDbCircle
 10
276.5147526260948
 20
-63.08419339050154
 30
0.0
 40
6.345631772867199
100
AcDbArc
 50
346.9340501026999
 51
30.0635113042999
  0
LINE
  5
11F0
330
A
100
AcDbEntity
  8
0
100
AcDbLine
 10
245.8296443333948
 20
-51.60668514050154
 30
0.0
 11
258.5296443333947
 21
-57.29993938880155
 31
0.0
  0
LINE
  5
11F1
330
A
100
AcDbEntity
  8
0
100
AcDbLine
 10
257.1636189295947
 20
-58.17113086960154
 30
0.0
 11
258.5296443333947
 21
-57.29993938880155
 31
0.0
  0
LINE
  5
11F2
330
A
100
AcDbEntity
  8
0
100
AcDbLine
 10
257.1636189295947
 20
-58.17113086960154
 30
0.0
 11
245.4636189295948
 21
-52.92616435740155
 31
0.0
  0
LINE
  5
11F3
330
A
100
AcDbEntity
  8
0
100
AcDbLine
 10
245.8296443333948
 20
-51.60668514050154
 30
0.0
 11
245.4636189295948
 21
-52.92616435740155
 31
0.0
  0
LINE
  5
11F4
330
A
100
AcDbEntity
  8
0
100
AcDbLine
 10
257.1636189295947
 20
-80.77379520470154
 30
0.0
 11
257.1636189295947
 21
-58.17113086960154
 31
0.0
  0
LINE
  5
11F5
330
A
100
AcDbEntity
  8
0
100
AcDbLine
 10
258.5296443333947
 20
-57.29993938880155
 30
0.0
 11
258.5296443333947
 21
-81.83445537650154
 31
0.0
  0
LINE
  5
11F6
330
A
100
AcDbEntity
  8
0
100
AcDbLine
 10
257.1636189295947
 20
-80.77379520470154
 30
0.0
 11
258.5296443333947
 21
-81.83445537650154
 31
0.0
  0
LINE
  5
11F7
330
A
100
AcDbEntity
  8
0
100
AcDbLine
 10
266.9606641856948
 20
-48.44909279030155
 30
0.0
 11
279.6606641856948
 21
-54.14234703850154
 31
0.0
  0
LINE
  5
11F8
330
A
100
AcDbEntity
  8
0
100
AcDbLine
 10
258.5296443333947
 20
-57.29993938880155
 30
0.0
 11
279.6606641856948
 21
-54.14234703850154
 31
0.0
  0
LINE
  5
11F9
330
A
100
AcDbEntity
  8
0
100
AcDbLine
 10
245.8296443333948
 20
-51.60668514050154
 30
0.0
 11
266.9606641856948
 21
-48.44909279030155
 31
0.0
  0
LINE
  5
11FA
330
A
100
AcDbEntity
  8
0
100
AcDbLine
 10
279.6606641856948
 20
-54.14234703850154
 30
0.0
 11
279.6606641856948
 21
-78.67686302630155
 31
0.0
  0
LINE
  5
11FB
330
A
100
AcDbEntity
  8
0
100
AcDbLine
 10
279.6606641856948
 20
-78.67686302630155
 30
0.0
 11
275.0078093711948
 21
-79.37213561000155
 31
0.0
  0
LWPOLYLINE
  5
11FC
330
A
100
AcDbEntity
  8
0
100
AcDbPolyline
 90
       22
 70
   128
 43
0.0
 10
262.3164737440948
 20
-81.26859231540155
 10
262.5477254832948
 20
-80.33553691000155
 10
262.8807826730948
 20
-79.42796124490154
 10
263.3100998883947
 20
-78.56097651770155
 10
263.8285289677947
 20
-77.74901808420154
 10
264.4274380311948
 20
-77.00560510840154
 10
265.0968552012948
 20
-76.34311546780154
 10
265.8256346359947
 20
-75.77257966080154
 10
266.6016421070947
 20
-75.30349714790154
 10
267.4119570366947
 20
-74.94367818560154
 10
268.2430876249948
 20
-74.69911378450155
 10
269.0811954902948
 20
-74.57387595860155
 10
269.9123260785947
 20
-74.57004992660154
 10
270.7226410081947
 20
-74.68769939200155
 10
271.4986484792947
 20
-74.92486548320154
 10
272.2274279138948
 20
-75.27759936840154
 10
272.8968450840948
 20
-75.74002800380154
 10
273.4957541474948
 20
-76.30445192090154
 10
274.0141832268948
 20
-76.96147342220155
 10
274.4435004421948
 20
-77.70015305430154
 10
274.7765576319948
 20
-78.50819175030155
 10
275.0078093711948
 20
-79.37213561000155
  0
LINE
  5
11FD
330
A
100
AcDbEntity
  8
0
100
AcDbLine
 10
262.3164737440948
 20
-81.26859231540155
 30
0.0
 11
258.5296443333947
 21
-81.83445537650154
 31
0.0
  0
LINE
  5
11FE
330
A
100
AcDbEntity
  8
0
100
AcDbLine
 10
245.4636189295948
 20
-75.52882869260155
 30
0.0
 11
257.1636189295947
 21
-80.77379520470154
 31
0.0
  0
LINE
  5
11FF
330
A
100
AcDbEntity
  8
0
100
AcDbLine
 10
245.4636189295948
 20
-52.92616435740155
 30
0.0
 11
245.4636189295948
 21
-75.52882869260155
 31
0.0
  0
LINE
  5
1200
330
A
100
AcDbEntity
  8
0
100
AcDbLine
 10
258.5296443333947
 20
-81.83445537650154
 30
0.0
 11
245.8296443333948
 21
-76.14120112820154
 31
0.0
  0
LINE
  5
1201
330
A
100
AcDbEntity
  8
0
100
AcDbLine
 10
245.8296443333948
 20
-76.14120112820154
 30
0.0
 11
245.4636189295948
 21
-75.52882869260155
 31
0.0
  0
LINE
  5
1202
330
A
100
AcDbEntity
  8
0
100
AcDbLine
 10
275.0078093711948
 20
-79.37213561000155
 30
0.0
 11
266.3018406410948
 21
-75.46935659750154
 31
0.0
  0
TEXT
  5
1252
330
A
100
AcDbEntity
  8
0
  6
Continuous
 62
     7
370
     0
100
AcDbText
 10
241.1498449216688
 20
40.00732064428873
 30
0.0
 40
10.0
  1
506W30
100
AcDbText
1001
ACAD
1000
MTEXTBEGIN
1070
    73
1070
     1
1070
    44
1040
1.0
1070
    74
1070
     0
1000
MTEXTEND
  0
ENDSEC
  0
SECTION
  2
OBJECTS
  0
DICTIONARY
  5
19
330
0
100
AcDbDictionary
281
     1
  3
ACAD_DETAILVIEWSTYLE
350
1255
  3
ACAD_GROUP
350
1A
  3
ACAD_IMAGE_VARS
350
103F
  3
ACAD_LAYOUT
350
1E
  3
ACAD_MLINESTYLE
350
1B
  3
ACAD_PLOTSETTINGS
350
22
  3
ACAD_PLOTSTYLENAME
350
1F
  3
ACAD_SCALELIST
350
849
  3
ACAD_SECTIONVIEWSTYLE
350
1256
  3
ACAD_WIPEOUT_VARS
350
23
  3
AcDbVariableDictionary
350
880
  3
APPDATA
350
103D
  3
ASE_INDEX_DICTIONARY
350
872
  3
DWGPROPS
350
1257
  0
DICTIONARY
  5
875
330
14
100
AcDbDictionary
280
     1
281
     1
  3
ADSK_XREC_LAYER_RECONCILED
360
876
  0
DICTIONARY
  5
8AF
330
A
100
AcDbDictionary
280
     1
281
     1
  3
ACAD_SORTENTS
360
8B0
  0
DICTIONARY
  5
1255
102
{ACAD_REACTORS
330
19
102
}
330
19
100
AcDbDictionary
281
     1
  0
DICTIONARY
  5
1A
102
{ACAD_REACTORS
330
19
102
}
330
19
100
AcDbDictionary
281
     1
  0
RASTERVARIABLES
  5
103F
102
{ACAD_REACTORS
330
19
102
}
330
19
100
AcDbRasterVariables
 90
        0
 70
     1
 71
     1
 72
     0
  0
DICTIONARY
  5
1E
102
{ACAD_REACTORS
330
19
102
}
330
19
100
AcDbDictionary
281
     1
  3
Layout1
350
21
  3
Model
350
20
  0
DICTIONARY
  5
1B
102
{ACAD_REACTORS
330
19
102
}
330
19
100
AcDbDictionary
281
     1
  3
Standard
350
1C
  0
DICTIONARY
  5
22
102
{ACAD_REACTORS
330
19
102
}
330
19
100
AcDbDictionary
281
     1
  0
ACDBDICTIONARYWDFLT
  5
1F
102
{ACAD_REACTORS
330
19
102
}
330
19
100
AcDbDictionary
281
     1
  3
Normal
350
1D
100
AcDbDictionaryWithDefault
340
1D
  0
DICTIONARY
  5
849
102
{ACAD_REACTORS
330
19
102
}
330
19
100
AcDbDictionary
281
     1
  3
A0
350
84A
  3
A1
350
84B
  3
A2
350
84C
  3
A3
350
84D
  3
A4
350
84E
  3
A5
350
84F
  3
A6
350
850
  3
A7
350
851
  3
A8
350
852
  3
A9
350
853
  3
B0
350
854
  3
B1
350
855
  3
B2
350
856
  3
B3
350
857
  3
B4
350
858
  3
B5
350
859
  3
B6
350
85A
  3
B7
350
85B
  3
B8
350
85C
  3
B9
350
85D
  3
C0
350
85E
  3
C1
350
85F
  3
C2
350
860
  3
C3
350
861
  3
C4
350
862
  3
C5
350
863
  3
C6
350
864
  3
C7
350
865
  3
C8
350
866
  3
C9
350
867
  3
D0
350
868
  3
D1
350
869
  3
D2
350
86A
  0
DICTIONARY
  5
1256
102
{ACAD_REACTORS
330
19
102
}
330
19
100
AcDbDictionary
281
     1
  0
WIPEOUTVARIABLES
  5
23
330
19
100
AcDbWipeoutVariables
 70
     1
  0
DICTIONARY
  5
880
102
{ACAD_REACTORS
330
19
102
}
330
19
100
AcDbDictionary
281
     1
  3
DIMASSOC
350
886
  3
INDEXCTL
350
885
  3
SORTENTS
350
884
  0
DICTIONARY
  5
103D
102
{ACAD_REACTORS
330
19
102
}
330
19
100
AcDbDictionary
281
     1
  0
DICTIONARY
  5
872
102
{ACAD_REACTORS
330
19
102
}
330
19
100
AcDbDictionary
281
     1
  3
ASEBlockHierarchyIndexRecord
350
874
1001
DCO15
1040
1685180420.18
  0
XRECORD
  5
1257
102
{ACAD_REACTORS
330
19
102
}
330
19
100
AcDbXrecord
280
     1
  1
DWGPROPS COOKIE
  2

  3

  4

  6

  7

  8
raffaele
  9

300
=
301
=
302
=
303
=
304
=
305
=
306
=
307
=
308
=
309
=
 40
0.0
 41
2455307.614027778
 42
2457380.33039993
  1

 90
        0
  0
XRECORD
  5
876
102
{ACAD_REACTORS
330
875
102
}
330
875
100
AcDbXrecord
280
     1
290
     1
  0
SORTENTSTABLE
  5
8B0
102
{ACAD_REACTORS
330
8AF
102
}
330
8AF
100
AcDbSortentsTable
330
A
331
0
  5
DA8
  0
LAYOUT
  5
21
102
{ACAD_REACTORS
330
1E
102
}
330
1E
100
AcDbPlotSettings
  1

  2

  4

  6

 40
0.0
 41
0.0
 42
0.0
 43
0.0
 44
0.0
 45
0.0
 46
0.0
 47
0.0
 48
0.0
 49
0.0
140
0.0
141
0.0
142
1.0
143
1.0
 70
     0
 72
     0
 73
     0
 74
     0
  7

 75
     0
147
1.0
148
0.0
149
0.0
100
AcDbLayout
  1
Layout1
 70
     0
 71
     1
 10
0.0
 20
0.0
 11
12.0
 21
9.0
 12
0.0
 22
0.0
 32
0.0
 14
1.000000000000000E+20
 24
1.000000000000000E+20
 34
1.000000000000000E+20
 15
-1.000000000000000E+20
 25
-1.000000000000000E+20
 35
-1.000000000000000E+20
146
0.0
 13
0.0
 23
0.0
 33
0.0
 16
1.0
 26
0.0
 36
0.0
 17
0.0
 27
1.0
 37
0.0
 76
     0
330
B
  0
LAYOUT
  5
20
102
{ACAD_REACTORS
330
1E
102
}
330
1E
100
AcDbPlotSettings
  1

  2

  4

  6

 40
0.0
 41
0.0
 42
0.0
 43
0.0
 44
0.0
 45
0.0
 46
0.0
 47
0.0
 48
0.0
 49
0.0
140
0.0
141
0.0
142
1.0
143
1.0
 70
  1024
 72
     0
 73
     0
 74
     0
  7

 75
     0
147
1.0
148
0.0
149
0.0
100
AcDbLayout
  1
Model
 70
     0
 71
     0
 10
0.0
 20
0.0
 11
0.0
 21
0.0
 12
0.0
 22
0.0
 32
0.0
 14
112.9429746106948
 24
-81.83445537650154
 34
0.0
 15
309.8179634796948
 25
63.89935354729845
 35
0.0000000000000006
146
0.0
 13
0.0
 23
0.0
 33
0.0
 16
0.0
 26
0.0
 36
0.0
 17
0.0
 27
0.0
 37
0.0
 76
     0
330
A
331
15
  0
MLINESTYLE
  5
1C
102
{ACAD_REACTORS
330
1B
102
}
330
1B
100
AcDbMlineStyle
  2
STANDARD
 70
     0
  3

 62
     0
 51
90.0
 52
90.0
 71
     2
 49
0.5
 62
   256
  6
BYLAYER
 49
-0.5
 62
   256
  6
BYLAYER
  0
ACDBPLACEHOLDER
  5
1D
102
{ACAD_REACTORS
330
1F
102
}
330
1F
  0
SCALE
  5
84A
102
{ACAD_REACTORS
330
849
102
}
330
849
100
AcDbScale
 70
     0
300
1:1
140
1.0
141
1.0
290
     1
  0
SCALE
  5
84B
102
{ACAD_REACTORS
330
849
102
}
330
849
100
AcDbScale
 70
     0
300
1:2
140
1.0
141
2.0
290
     0
  0
SCALE
  5
84C
102
{ACAD_REACTORS
330
849
102
}
330
849
100
AcDbScale
 70
     0
300
1:4
140
1.0
141
4.0
290
     0
  0
SCALE
  5
84D
102
{ACAD_REACTORS
330
849
102
}
330
849
100
AcDbScale
 70
     0
300
1:5
140
1.0
141
5.0
290
     0
  0
SCALE
  5
84E
102
{ACAD_REACTORS
330
849
102
}
330
849
100
AcDbScale
 70
     0
300
1:8
140
1.0
141
8.0
290
     0
  0
SCALE
  5
84F
102
{ACAD_REACTORS
330
849
102
}
330
849
100
AcDbScale
 70
     0
300
1:10
140
1.0
141
10.0
290
     0
  0
SCALE
  5
850
102
{ACAD_REACTORS
330
849
102
}
330
849
100
AcDbScale
 70
     0
300
1:16
140
1.0
141
16.0
290
     0
  0
SCALE
  5
851
102
{ACAD_REACTORS
330
849
102
}
330
849
100
AcDbScale
 70
     0
300
1:20
140
1.0
141
20.0
290
     0
  0
SCALE
  5
852
102
{ACAD_REACTORS
330
849
102
}
330
849
100
AcDbScale
 70
     0
300
1:30
140
1.0
141
30.0
290
     0
  0
SCALE
  5
853
102
{ACAD_REACTORS
330
849
102
}
330
849
100
AcDbScale
 70
     0
300
1:40
140
1.0
141
40.0
290
     0
  0
SCALE
  5
854
102
{ACAD_REACTORS
330
849
102
}
330
849
100
AcDbScale
 70
     0
300
1:50
140
1.0
141
50.0
290
     0
  0
SCALE
  5
855
102
{ACAD_REACTORS
330
849
102
}
330
849
100
AcDbScale
 70
     0
300
1:100
140
1.0
141
100.0
290
     0
  0
SCALE
  5
856
102
{ACAD_REACTORS
330
849
102
}
330
849
100
AcDbScale
 70
     0
300
2:1
140
2.0
141
1.0
290
     0
  0
SCALE
  5
857
102
{ACAD_REACTORS
330
849
102
}
330
849
100
AcDbScale
 70
     0
300
4:1
140
4.0
141
1.0
290
     0
  0
SCALE
  5
858
102
{ACAD_REACTORS
330
849
102
}
330
849
100
AcDbScale
 70
     0
300
8:1
140
8.0
141
1.0
290
     0
  0
SCALE
  5
859
102
{ACAD_REACTORS
330
849
102
}
330
849
100
AcDbScale
 70
     0
300
10:1
140
10.0
141
1.0
290
     0
  0
SCALE
  5
85A
102
{ACAD_REACTORS
330
849
102
}
330
849
100
AcDbScale
 70
     0
300
100:1
140
100.0
141
1.0
290
     0
  0
SCALE
  5
85B
102
{ACAD_REACTORS
330
849
102
}
330
849
100
AcDbScale
 70
     0
300
1/128" = 1'-0"
140
0.0078125
141
12.0
290
     0
  0
SCALE
  5
85C
102
{ACAD_REACTORS
330
849
102
}
330
849
100
AcDbScale
 70
     0
300
1/64" = 1'-0"
140
0.015625
141
12.0
290
     0
  0
SCALE
  5
85D
102
{ACAD_REACTORS
330
849
102
}
330
849
100
AcDbScale
 70
     0
300
1/32" = 1'-0"
140
0.03125
141
12.0
290
     0
  0
SCALE
  5
85E
102
{ACAD_REACTORS
330
849
102
}
330
849
100
AcDbScale
 70
     0
300
1/16" = 1'-0"
140
0.0625
141
12.0
290
     0
  0
SCALE
  5
85F
102
{ACAD_REACTORS
330
849
102
}
330
849
100
AcDbScale
 70
     0
300
3/32" = 1'-0"
140
0.09375
141
12.0
290
     0
  0
SCALE
  5
860
102
{ACAD_REACTORS
330
849
102
}
330
849
100
AcDbScale
 70
     0
300
1/8" = 1'-0"
140
0.125
141
12.0
290
     0
  0
SCALE
  5
861
102
{ACAD_REACTORS
330
849
102
}
330
849
100
AcDbScale
 70
     0
300
3/16" = 1'-0"
140
0.1875
141
12.0
290
     0
  0
SCALE
  5
862
102
{ACAD_REACTORS
330
849
102
}
330
849
100
AcDbScale
 70
     0
300
1/4" = 1'-0"
140
0.25
141
12.0
290
     0
  0
SCALE
  5
863
102
{ACAD_REACTORS
330
849
102
}
330
849
100
AcDbScale
 70
     0
300
3/8" = 1'-0"
140
0.375
141
12.0
290
     0
  0
SCALE
  5
864
102
{ACAD_REACTORS
330
849
102
}
330
849
100
AcDbScale
 70
     0
300
1/2" = 1'-0"
140
0.5
141
12.0
290
     0
  0
SCALE
  5
865
102
{ACAD_REACTORS
330
849
102
}
330
849
100
AcDbScale
 70
     0
300
3/4" = 1'-0"
140
0.75
141
12.0
290
     0
  0
SCALE
  5
866
102
{ACAD_REACTORS
330
849
102
}
330
849
100
AcDbScale
 70
     0
300
1" = 1'-0"
140
1.0
141
12.0
290
     0
  0
SCALE
  5
867
102
{ACAD_REACTORS
330
849
102
}
330
849
100
AcDbScale
 70
     0
300
1-1/2" = 1'-0"
140
1.5
141
12.0
290
     0
  0
SCALE
  5
868
102
{ACAD_REACTORS
330
849
102
}
330
849
100
AcDbScale
 70
     0
300
3" = 1'-0"
140
3.0
141
12.0
290
     0
  0
SCALE
  5
869
102
{ACAD_REACTORS
330
849
102
}
330
849
100
AcDbScale
 70
     0
300
6" = 1'-0"
140
6.0
141
12.0
290
     0
  0
SCALE
  5
86A
102
{ACAD_REACTORS
330
849
102
}
330
849
100
AcDbScale
 70
     0
300
1'-0" = 1'-0"
140
12.0
141
12.0
290
     0
  0
DICTIONARYVAR
  5
886
102
{ACAD_REACTORS
330
880
102
}
330
880
100
DictionaryVariables
280
     0
  1
1
  0
DICTIONARYVAR
  5
885
102
{ACAD_REACTORS
330
880
102
}
330
880
100
DictionaryVariables
280
     0
  1
0
  0
DICTIONARYVAR
  5
884
102
{ACAD_REACTORS
330
880
102
}
330
880
100
DictionaryVariables
280
     0
  1
127
  0
XRECORD
  5
874
102
{ACAD_REACTORS
330
872
102
}
330
872
100
AcDbXrecord
280
     1
330
0
330
0
330
0
330
0
330
0
330
0
330
0
330
0
330
0
330
0
330
0
330
0
330
0
330
0
330
0
330
0
330
0
330
0
330
0
330
0
330
0
330
0
330
0
330
0
330
0
330
0
330
0
330
0
330
0
330
0
330
0
330
0
330
0
330
0
330
0
330
0
330
0
330
0
330
0
330
0
330
0
330
0
330
0
330
0
330
0
330
0
330
0
  0
ENDSEC
  0
EOF
