  0
SECTION
  2
HEADER
  9
$ACADVER
  1
AC1015
  9
$ACADMAINTVER
 70
     6
  9
$DWGCODEPAGE
  3
ANSI_1252
  9
$INSBASE
 10
0.0
 20
0.0
 30
0.0
  9
$EXTMIN
 10
-127.2354858255837
 20
-492.5488650869846
 30
0.0
  9
$EXTMAX
 10
321.9535903154082
 20
75.64484005701547
 30
0.0
  9
$LIMMIN
 10
-66.34999999999982
 20
-2008.85
  9
$LIMMAX
 10
3734.350000000001
 20
346.85
  9
$ORTHOMODE
 70
     1
  9
$REGENMODE
 70
     1
  9
$FILLMODE
 70
     1
  9
$QTEXTMODE
 70
     0
  9
$MIRRTEXT
 70
     1
  9
$LTSCALE
 40
10.0
  9
$ATTMODE
 70
     1
  9
$TEXTSIZE
 40
0.0
  9
$TRACEWID
 40
0.05
  9
$TEXTSTYLE
  7
Standard
  9
$CLAYER
  8
0
  9
$CELTYPE
  6
Continuous
  9
$CECOLOR
 62
   256
  9
$CELTSCALE
 40
1.0
  9
$DISPSILH
 70
     0
  9
$DIMSCALE
 40
1.0
  9
$DIMASZ
 40
1.25
  9
$DIMEXO
 40
0.0
  9
$DIMDLI
 40
0.38
  9
$DIMRND
 40
0.0
  9
$DIMDLE
 40
0.0
  9
$DIMEXE
 40
0.75
  9
$DIMTP
 40
0.0
  9
$DIMTM
 40
0.0
  9
$DIMTXT
 40
2.5
  9
$DIMCEN
 40
0.09
  9
$DIMTSZ
 40
0.0
  9
$DIMTOL
 70
     0
  9
$DIMLIM
 70
     0
  9
$DIMTIH
 70
     0
  9
$DIMTOH
 70
     0
  9
$DIMSE1
 70
     0
  9
$DIMSE2
 70
     0
  9
$DIMTAD
 70
     1
  9
$DIMZIN
 70
     0
  9
$DIMBLK
  1

  9
$DIMASO
 70
     1
  9
$DIMSHO
 70
     1
  9
$DIMPOST
  1

  9
$DIMAPOST
  1

  9
$DIMALT
 70
     0
  9
$DIMALTD
 70
     2
  9
$DIMALTF
 40
25.4
  9
$DIMLFAC
 40
1.0
  9
$DIMTOFL
 70
     0
  9
$DIMTVP
 40
0.0
  9
$DIMTIX
 70
     0
  9
$DIMSOXD
 70
     0
  9
$DIMSAH
 70
     0
  9
$DIMBLK1
  1

  9
$DIMBLK2
  1

  9
$DIMSTYLE
  2
Standard
  9
$DIMCLRD
 70
     7
  9
$DIMCLRE
 70
     7
  9
$DIMCLRT
 70
     7
  9
$DIMTFAC
 40
0.8
  9
$DIMGAP
 40
1.25
  9
$DIMJUST
 70
     0
  9
$DIMSD1
 70
     0
  9
$DIMSD2
 70
     0
  9
$DIMTOLJ
 70
     1
  9
$DIMTZIN
 70
     0
  9
$DIMALTZ
 70
     0
  9
$DIMALTTZ
 70
     0
  9
$DIMUPT
 70
     0
  9
$DIMDEC
 70
     2
  9
$DIMTDEC
 70
     2
  9
$DIMALTU
 70
     2
  9
$DIMALTTD
 70
     2
  9
$DIMTXSTY
  7
Standard
  9
$DIMAUNIT
 70
     0
  9
$DIMADEC
 70
     2
  9
$DIMALTRND
 40
0.0
  9
$DIMAZIN
 70
     0
  9
$DIMDSEP
 70
     0
  9
$DIMATFIT
 70
     3
  9
$DIMFRAC
 70
     0
  9
$DIMLDRBLK
  1

  9
$DIMLUNIT
 70
     2
  9
$DIMLWD
 70
     0
  9
$DIMLWE
 70
     0
  9
$DIMTMOVE
 70
     0
  9
$LUNITS
 70
     2
  9
$LUPREC
 70
     4
  9
$SKETCHINC
 40
0.1
  9
$FILLETRAD
 40
0.0
  9
$AUNITS
 70
     0
  9
$AUPREC
 70
     0
  9
$MENU
  1
acad
  9
$ELEVATION
 40
0.0
  9
$PELEVATION
 40
0.0
  9
$THICKNESS
 40
0.0
  9
$LIMCHECK
 70
     0
  9
$CHAMFERA
 40
0.0
  9
$CHAMFERB
 40
0.0
  9
$CHAMFERC
 40
0.0
  9
$CHAMFERD
 40
0.0
  9
$SKPOLY
 70
     0
  9
$TDCREATE
 40
2455303.68625
  9
$TDUCREATE
 40
2455303.644583333
  9
$TDUPDATE
 40
2457380.37179125
  9
$TDUUPDATE
 40
2457380.330124584
  9
$TDINDWG
 40
0.0161949306
  9
$TDUSRTIMER
 40
2457380.329961169
  9
$USRTIMER
 70
     1
  9
$ANGBASE
 50
0.0
  9
$ANGDIR
 70
     0
  9
$PDMODE
 70
     0
  9
$PDSIZE
 40
0.0
  9
$PLINEWID
 40
0.0
  9
$SPLFRAME
 70
     0
  9
$SPLINETYPE
 70
     6
  9
$SPLINESEGS
 70
     8
  9
$HANDSEED
  5
6AF0
  9
$SURFTAB1
 70
     6
  9
$SURFTAB2
 70
     6
  9
$SURFTYPE
 70
     6
  9
$SURFU
 70
     6
  9
$SURFV
 70
     6
  9
$UCSBASE
  2

  9
$UCSNAME
  2

  9
$UCSORG
 10
0.0
 20
0.0
 30
0.0
  9
$UCSXDIR
 10
1.0
 20
0.0
 30
0.0
  9
$UCSYDIR
 10
0.0
 20
1.0
 30
0.0
  9
$UCSORTHOREF
  2

  9
$UCSORTHOVIEW
 70
     0
  9
$UCSORGTOP
 10
0.0
 20
0.0
 30
0.0
  9
$UCSORGBOTTOM
 10
0.0
 20
0.0
 30
0.0
  9
$UCSORGLEFT
 10
0.0
 20
0.0
 30
0.0
  9
$UCSORGRIGHT
 10
0.0
 20
0.0
 30
0.0
  9
$UCSORGFRONT
 10
0.0
 20
0.0
 30
0.0
  9
$UCSORGBACK
 10
0.0
 20
0.0
 30
0.0
  9
$PUCSBASE
  2

  9
$PUCSNAME
  2

  9
$PUCSORG
 10
0.0
 20
0.0
 30
0.0
  9
$PUCSXDIR
 10
1.0
 20
0.0
 30
0.0
  9
$PUCSYDIR
 10
0.0
 20
1.0
 30
0.0
  9
$PUCSORTHOREF
  2

  9
$PUCSORTHOVIEW
 70
     0
  9
$PUCSORGTOP
 10
0.0
 20
0.0
 30
0.0
  9
$PUCSORGBOTTOM
 10
0.0
 20
0.0
 30
0.0
  9
$PUCSORGLEFT
 10
0.0
 20
0.0
 30
0.0
  9
$PUCSORGRIGHT
 10
0.0
 20
0.0
 30
0.0
  9
$PUCSORGFRONT
 10
0.0
 20
0.0
 30
0.0
  9
$PUCSORGBACK
 10
0.0
 20
0.0
 30
0.0
  9
$USERI1
 70
     0
  9
$USERI2
 70
     0
  9
$USERI3
 70
     0
  9
$USERI4
 70
     0
  9
$USERI5
 70
     0
  9
$USERR1
 40
0.0
  9
$USERR2
 40
0.0
  9
$USERR3
 40
0.0
  9
$USERR4
 40
0.0
  9
$USERR5
 40
0.0
  9
$WORLDVIEW
 70
     1
  9
$SHADEDGE
 70
     3
  9
$SHADEDIF
 70
    70
  9
$TILEMODE
 70
     1
  9
$MAXACTVP
 70
    16
  9
$PINSBASE
 10
0.0
 20
0.0
 30
0.0
  9
$PLIMCHECK
 70
     0
  9
$PEXTMIN
 10
1.000000000000000E+20
 20
1.000000000000000E+20
 30
1.000000000000000E+20
  9
$PEXTMAX
 10
-1.000000000000000E+20
 20
-1.000000000000000E+20
 30
-1.000000000000000E+20
  9
$PLIMMIN
 10
0.0
 20
0.0
  9
$PLIMMAX
 10
0.0
 20
0.0
  9
$UNITMODE
 70
     0
  9
$VISRETAIN
 70
     0
  9
$PLINEGEN
 70
     1
  9
$PSLTSCALE
 70
     0
  9
$TREEDEPTH
 70
  3020
  9
$CMLSTYLE
  2
Standard
  9
$CMLJUST
 70
     0
  9
$CMLSCALE
 40
1.0
  9
$PROXYGRAPHICS
 70
     0
  9
$MEASUREMENT
 70
     1
  9
$CELWEIGHT
370
     0
  9
$ENDCAPS
280
     0
  9
$JOINSTYLE
280
     0
  9
$LWDISPLAY
290
     0
  9
$INSUNITS
 70
     0
  9
$HYPERLINKBASE
  1

  9
$STYLESHEET
  1

  9
$XEDIT
290
     1
  9
$CEPSNTYPE
380
     0
  9
$PSTYLEMODE
290
     1
  9
$FINGERPRINTGUID
  2

  9
$VERSIONGUID
  2
{F4EBED15-1162-4C99-A73B-43F77661297F}
  9
$EXTNAMES
290
     1
  9
$PSVPSCALE
 40
0.0
  9
$OLESTARTUP
290
     0
  0
ENDSEC
  0
SECTION
  2
CLASSES
  0
CLASS
  1
IMAGE
  2
AcDbRasterImage
  3
ISM
 90
      127
280
     0
281
     1
  0
CLASS
  1
DICTIONARYVAR
  2
AcDbDictionaryVar
  3
ObjectDBX Classes
 90
        0
280
     0
281
     0
  0
CLASS
  1
RASTERVARIABLES
  2
AcDbRasterVariables
  3
ISM
 90
        0
280
     0
281
     0
  0
CLASS
  1
IMAGEDEF
  2
AcDbRasterImageDef
  3
ISM
 90
        0
280
     0
281
     0
  0
CLASS
  1
IMAGEDEF_REACTOR
  2
AcDbRasterImageDefReactor
  3
ISM
 90
        1
280
     0
281
     0
  0
CLASS
  1
IDBUFFER
  2
AcDbIdBuffer
  3
ObjectDBX Classes
 90
        0
280
     0
281
     0
  0
CLASS
  1
SPATIAL_FILTER
  2
AcDbSpatialFilter
  3
ObjectDBX Classes
 90
        0
280
     0
281
     0
  0
CLASS
  1
SORTENTSTABLE
  2
AcDbSortentsTable
  3
ObjectDBX Classes
 90
        0
280
     0
281
     0
  0
CLASS
  1
LAYER_INDEX
  2
AcDbLayerIndex
  3
ObjectDBX Classes
 90
        0
280
     0
281
     0
  0
CLASS
  1
SPATIAL_INDEX
  2
AcDbSpatialIndex
  3
AutoCAD 2000
 90
        0
280
     0
281
     0
  0
CLASS
  1
OBJECT_PTR
  2
CAseDLPNTableRecord
  3
ASE-LPNTableRecord
 90
        1
280
     0
281
     0
  0
CLASS
  1
LAYOUT
  2
AcDbLayout
  3
ObjectDBX Classes
 90
        0
280
     0
281
     0
  0
CLASS
  1
PLOTSETTINGS
  2
AcDbPlotSettings
  3
ObjectDBX Classes
 90
        0
280
     0
281
     0
  0
CLASS
  1
ACDBDICTIONARYWDFLT
  2
AcDbDictionaryWithDefault
  3
ObjectDBX Classes
 90
        0
280
     0
281
     0
  0
CLASS
  1
ACDBPLACEHOLDER
  2
AcDbPlaceHolder
  3
ObjectDBX Classes
 90
        0
280
     0
281
     0
  0
CLASS
  1
VBA_PROJECT
  2
AcDbVbaProject
  3
ObjectDBX Classes
 90
        0
280
     0
281
     0
  0
CLASS
  1
WIPEOUT
  2
AcDbWipeout
  3
WipeOut|AutoCAD Express Tool|expresstools@autodesk.com
 90
      127
280
     0
281
     1
  0
CLASS
  1
WIPEOUTVARIABLES
  2
AcDbWipeoutVariables
  3
WipeOut|AutoCAD Express Tool|expresstools@autodesk.com
 90
        0
280
     0
281
     0
  0
CLASS
  1
RTEXT
  2
RText
  3
RText|AutoCAD Express Tool|expresstools@autodesk.com
 90
        0
280
     0
281
     1
  0
CLASS
  1
ARCALIGNEDTEXT
  2
AcDbArcAlignedText
  3
ATEXT|AutoCAD Express Tool|expresstools@autodesk.com
 90
        0
280
     0
281
     1
  0
CLASS
  1
MATERIAL
  2
AcDbMaterial
  3
ObjectDBX Classes
 90
     1153
280
     0
281
     0
  0
CLASS
  1
VISUALSTYLE
  2
AcDbVisualStyle
  3
ObjectDBX Classes
 90
     4095
280
     0
281
     0
  0
CLASS
  1
TABLESTYLE
  2
AcDbTableStyle
  3
ObjectDBX Classes
 90
     4095
280
     0
281
     0
  0
CLASS
  1
SCALE
  2
AcDbScale
  3
ObjectDBX Classes
 90
     1153
280
     0
281
     0
  0
CLASS
  1
MLEADERSTYLE
  2
AcDbMLeaderStyle
  3
ACDB_MLEADERSTYLE_CLASS
 90
     4095
280
     0
281
     0
  0
CLASS
  1
CELLSTYLEMAP
  2
AcDbCellStyleMap
  3
ObjectDBX Classes
 90
     1152
280
     0
281
     0
  0
CLASS
  1
SUN
  2
AcDbSun
  3
SCENEOE
 90
     1153
280
     0
281
     0
  0
ENDSEC
  0
SECTION
  2
TABLES
  0
TABLE
  2
VPORT
  5
7
330
0
100
AcDbSymbolTable
 70
     1
  0
VPORT
  5
15
330
7
100
AcDbSymbolTableRecord
100
AcDbViewportTableRecord
  2
*ACTIVE
 70
     0
 10
0.0
 20
0.0
 11
1.0
 21
1.0
 12
97.35905224491225
 22
-208.4520125149846
 13
0.0
 23
0.0
 14
1.0
 24
1.0
 15
0.0
 25
0.0
 16
0.0
 26
0.0
 36
1.0
 17
0.0
 27
0.0
 37
0.0
 40
579.5575792468801
 41
2.322535211267605
 42
50.0
 43
0.0
 44
0.0
 50
0.0
 51
0.0
 71
    16
 72
   100
 73
     1
 74
     1
 75
     0
 76
     0
 77
     0
 78
     0
281
     0
 65
     0
110
0.0
120
0.0
130
0.0
111
1.0
121
0.0
131
0.0
112
0.0
122
1.0
132
0.0
 79
     0
146
0.0
  0
ENDTAB
  0
TABLE
  2
LTYPE
  5
4
330
0
100
AcDbSymbolTable
 70
     3
  0
LTYPE
  5
11
330
4
100
AcDbSymbolTableRecord
100
AcDbLinetypeTableRecord
  2
ByBlock
 70
     0
  3

 72
    65
 73
     0
 40
0.0
  0
LTYPE
  5
12
330
4
100
AcDbSymbolTableRecord
100
AcDbLinetypeTableRecord
  2
ByLayer
 70
     0
  3

 72
    65
 73
     0
 40
0.0
  0
LTYPE
  5
13
330
4
100
AcDbSymbolTableRecord
100
AcDbLinetypeTableRecord
  2
Continuous
 70
     0
  3
Solid line
 72
    65
 73
     0
 40
0.0
  0
LTYPE
  5
1E4
330
4
100
AcDbSymbolTableRecord
100
AcDbLinetypeTableRecord
  2
CENTER
 70
     0
  3
____ _ ____ _ ____ _ ____ _ ____ _ ____ _ ____
 72
    65
 73
     4
 40
2.0
 49
1.25
 74
     0
 49
-0.25
 74
     0
 49
0.25
 74
     0
 49
-0.25
 74
     0
  0
LTYPE
  5
66D7
330
4
100
AcDbSymbolTableRecord
100
AcDbLinetypeTableRecord
  2
CENTERX2
 70
     0
  3
Center (2x) ________  __  ________  __  _____
 72
    65
 73
     4
 40
20.32
 49
12.7
 74
     0
 49
-2.54
 74
     0
 49
2.54
 74
     0
 49
-2.54
 74
     0
  0
ENDTAB
  0
TABLE
  2
LAYER
  5
2
330
0
100
AcDbSymbolTable
 70
     3
  0
LAYER
  5
14
102
{ACAD_XDICTIONARY
360
5E41
102
}
330
2
100
AcDbSymbolTableRecord
100
AcDbLayerTableRecord
  2
0
 70
     0
 62
     7
  6
Continuous
370
    -3
390
1D
  0
LAYER
  5
635B
330
2
100
AcDbSymbolTableRecord
100
AcDbLayerTableRecord
  2
Defpoints
 70
     0
 62
     7
  6
Continuous
290
     0
370
    -3
390
1D
  0
LAYER
  5
66D5
330
2
100
AcDbSymbolTableRecord
100
AcDbLayerTableRecord
  2
ASSI
 70
     0
 62
     1
  6
CENTERX2
370
    -3
390
1D
  0
ENDTAB
  0
TABLE
  2
STYLE
  5
3
330
0
100
AcDbSymbolTable
 70
     1
  0
STYLE
  5
17
330
3
100
AcDbSymbolTableRecord
100
AcDbTextStyleTableRecord
  2
Standard
 70
     0
 40
0.0
 41
1.0
 50
0.0
 71
     0
 42
0.0
  3
I011000D.TTF
  4

1001
ACAD
1000
IsonormD
1071
        0
  0
ENDTAB
  0
TABLE
  2
VIEW
  5
5
330
0
100
AcDbSymbolTable
 70
     0
  0
ENDTAB
  0
TABLE
  2
UCS
  5
6
330
0
100
AcDbSymbolTable
 70
     0
  0
ENDTAB
  0
TABLE
  2
APPID
  5
8
330
0
100
AcDbSymbolTable
 70
     7
  0
APPID
  5
16
330
8
100
AcDbSymbolTableRecord
100
AcDbRegAppTableRecord
  2
ACAD
 70
     0
  0
APPID
  5
26
330
8
100
AcDbSymbolTableRecord
100
AcDbRegAppTableRecord
  2
TopSolid'Draft
 70
     0
  0
APPID
  5
319D
330
8
100
AcDbSymbolTableRecord
100
AcDbRegAppTableRecord
  2
ACAD_MLEADERVER
 70
     0
  0
APPID
  5
5E45
330
8
100
AcDbSymbolTableRecord
100
AcDbRegAppTableRecord
  2
DCO15
 70
     0
  0
APPID
  5
6340
330
8
100
AcDbSymbolTableRecord
100
AcDbRegAppTableRecord
  2
ACAD_EXEMPT_FROM_CAD_STANDARDS
 70
     0
  0
APPID
  5
636D
330
8
100
AcDbSymbolTableRecord
100
AcDbRegAppTableRecord
  2
ACAD_DSTYLE_DIMJAG
 70
     0
  0
APPID
  5
636E
330
8
100
AcDbSymbolTableRecord
100
AcDbRegAppTableRecord
  2
ACAD_DSTYLE_DIMTALN
 70
     0
  0
ENDTAB
  0
TABLE
  2
DIMSTYLE
  5
9
330
0
100
AcDbSymbolTable
 70
     2
100
AcDbDimStyleTable
  0
DIMSTYLE
105
18
330
9
100
AcDbSymbolTableRecord
100
AcDbDimStyleTableRecord
  2
Standard
 70
     0
 41
1.25
 42
0.0
 44
0.75
 73
     0
 74
     0
 77
     1
140
2.5
146
0.8
147
1.25
176
     7
177
     7
271
     2
178
     7
271
     2
340
17
  0
DIMSTYLE
105
63CF
330
9
100
AcDbSymbolTableRecord
100
AcDbDimStyleTableRecord
  2
ISO-25
 70
     0
 41
2.5
 42
0.625
 43
3.75
 44
1.25
 73
     0
 74
     0
 77
     1
 78
     8
140
2.5
141
2.5
143
0.0393700787
147
0.625
171
     3
172
     1
178
     0
271
     2
272
     2
274
     3
278
    44
283
     0
284
     8
340
17
  0
ENDTAB
  0
TABLE
  2
BLOCK_RECORD
  5
1
330
0
100
AcDbSymbolTable
 70
     5
  0
BLOCK_RECORD
  5
A
102
{ACAD_XDICTIONARY
360
31A7
102
}
330
1
100
AcDbSymbolTableRecord
100
AcDbBlockTableRecord
  2
*MODEL_SPACE
340
20
  0
BLOCK_RECORD
  5
B
330
1
100
AcDbSymbolTableRecord
100
AcDbBlockTableRecord
  2
*PAPER_SPACE
340
21
  0
ENDTAB
  0
ENDSEC
  0
SECTION
  2
BLOCKS
  0
BLOCK
  5
D
330
A
100
AcDbEntity
  8
0
100
AcDbBlockBegin
  2
*MODEL_SPACE
 70
     0
 10
0.0
 20
0.0
 30
0.0
  3
*MODEL_SPACE
  1
*MODEL_SPACE
  0
ENDBLK
  5
E
330
A
100
AcDbEntity
  8
0
100
AcDbBlockEnd
  0
BLOCK
  5
F
330
B
100
AcDbEntity
 67
     1
  8
0
100
AcDbBlockBegin
  2
*PAPER_SPACE
 70
     0
 10
0.0
 20
0.0
 30
0.0
  3
*PAPER_SPACE
  1
*PAPER_SPACE
  0
ENDBLK
  5
10
330
B
100
AcDbEntity
 67
     1
  8
0
100
AcDbBlockEnd
  0
ENDSEC
  0
SECTION
  2
ENTITIES
  0
TEXT
  5
6327
330
A
100
AcDbEntity
  8
0
  6
Continuous
 62
     7
370
     0
100
AcDbText
 10
279.5430562804684
 20
39.63163931954865
 30
0.0
 40
10.0
  1
504W30
 50
359.78
100
AcDbText
  0
LINE
  5
68E8
330
A
100
AcDbEntity
  8
0
100
AcDbLine
 10
-25.49803604388376
 20
-69.16319555118457
 30
0.0
 11
-25.49803604388376
 21
-61.16319555118457
 31
0.0
  0
LINE
  5
68E9
330
A
100
AcDbEntity
  8
0
100
AcDbLine
 10
-31.49803604388376
 20
-61.16319555118457
 30
0.0
 11
-31.49803604388376
 21
-69.16319555118457
 31
0.0
  0
LINE
  5
68EA
330
A
100
AcDbEntity
  8
0
100
AcDbLine
 10
228.5019639561162
 20
-69.16319555118457
 30
0.0
 11
228.5019639561162
 21
-61.16319555118457
 31
0.0
  0
LINE
  5
68EB
330
A
100
AcDbEntity
  8
0
100
AcDbLine
 10
222.5019639561162
 20
-61.16319555118457
 30
0.0
 11
222.5019639561162
 21
-69.16319555118457
 31
0.0
  0
LINE
  5
68EC
330
A
100
AcDbEntity
  8
0
100
AcDbLine
 10
-53.49803604388376
 20
-115.1631955511846
 30
0.0
 11
250.5019639561162
 21
-115.1631955511846
 31
0.0
  0
LINE
  5
68ED
330
A
100
AcDbEntity
  8
0
100
AcDbLine
 10
250.5019639561162
 20
-128.1631955511846
 30
0.0
 11
-53.49803604388376
 21
-128.1631955511846
 31
0.0
  0
LINE
  5
68EE
330
A
100
AcDbEntity
  8
0
100
AcDbLine
 10
-53.99803604388376
 20
-127.6631955511846
 30
0.0
 11
-53.99803604388376
 21
-115.6631955511846
 31
0.0
  0
ARC
  5
68EF
330
A
100
AcDbEntity
  8
0
100
AcDbCircle
 10
-53.49803604388376
 20
-115.6631955511846
 30
0.0
 40
0.5
100
AcDbArc
 50
90.0
 51
180.0
  0
ARC
  5
68F0
330
A
100
AcDbEntity
  8
0
100
AcDbCircle
 10
-53.49803604388376
 20
-127.6631955511846
 30
0.0
 40
0.5
100
AcDbArc
 50
180.0
 51
270.0
  0
LINE
  5
68F1
330
A
100
AcDbEntity
  8
0
100
AcDbLine
 10
251.0019639561162
 20
-115.6631955511846
 30
0.0
 11
251.0019639561162
 21
-127.6631955511846
 31
0.0
  0
ARC
  5
68F2
330
A
100
AcDbEntity
  8
0
100
AcDbCircle
 10
250.5019639561162
 20
-115.6631955511846
 30
0.0
 40
0.5
100
AcDbArc
 50
0.0
 51
90.0
  0
ARC
  5
68F3
330
A
100
AcDbEntity
  8
0
100
AcDbCircle
 10
250.5019639561162
 20
-127.6631955511846
 30
0.0
 40
0.4999999999999432
100
AcDbArc
 50
270.0
 51
0.0
  0
LINE
  5
68F4
330
A
100
AcDbEntity
  8
0
100
AcDbLine
 10
-37.99803604388376
 20
-115.1631955511846
 30
0.0
 11
-37.99803604388376
 21
-70.16319555118457
 31
0.0
  0
LINE
  5
68F5
330
A
100
AcDbEntity
  8
0
100
AcDbLine
 10
-37.99803604388376
 20
-70.16319555118457
 30
0.0
 11
-37.49803604388376
 21
-70.16319555118457
 31
0.0
  0
LINE
  5
68F6
330
A
100
AcDbEntity
  8
0
100
AcDbLine
 10
-19.49803604388376
 20
-70.16319555118457
 30
0.0
 11
-37.49803604388376
 21
-70.16319555118457
 31
0.0
  0
LINE
  5
68F7
330
A
100
AcDbEntity
  8
0
100
AcDbLine
 10
-18.99803604388376
 20
-70.16319555118457
 30
0.0
 11
-18.99803604388376
 21
-115.1631955511846
 31
0.0
  0
LINE
  5
68F8
330
A
100
AcDbEntity
  8
0
100
AcDbLine
 10
-19.49803604388376
 20
-70.16319555118457
 30
0.0
 11
-18.99803604388376
 21
-70.16319555118457
 31
0.0
  0
LINE
  5
68F9
330
A
100
AcDbEntity
  8
0
100
AcDbLine
 10
216.0019639561162
 20
-115.1631955511846
 30
0.0
 11
216.0019639561162
 21
-70.16319555118457
 31
0.0
  0
LINE
  5
68FA
330
A
100
AcDbEntity
  8
0
100
AcDbLine
 10
216.0019639561162
 20
-70.16319555118457
 30
0.0
 11
216.5019639561162
 21
-70.16319555118457
 31
0.0
  0
LINE
  5
68FB
330
A
100
AcDbEntity
  8
0
100
AcDbLine
 10
234.5019639561162
 20
-70.16319555118457
 30
0.0
 11
216.5019639561162
 21
-70.16319555118457
 31
0.0
  0
LINE
  5
68FC
330
A
100
AcDbEntity
  8
0
100
AcDbLine
 10
235.0019639561162
 20
-70.16319555118457
 30
0.0
 11
235.0019639561162
 21
-115.1631955511846
 31
0.0
  0
LINE
  5
68FD
330
A
100
AcDbEntity
  8
0
100
AcDbLine
 10
234.5019639561162
 20
-70.16319555118457
 30
0.0
 11
235.0019639561162
 21
-70.16319555118457
 31
0.0
  0
LINE
  5
68FE
330
A
100
AcDbEntity
  8
0
100
AcDbLine
 10
216.0019639561162
 20
-70.16319555118457
 30
0.0
 11
216.0019639561162
 21
-69.16319555118457
 31
0.0
  0
LINE
  5
68FF
330
A
100
AcDbEntity
  8
0
100
AcDbLine
 10
217.0019639561162
 20
-69.16319555118457
 30
0.0
 11
216.0019639561162
 21
-69.16319555118457
 31
0.0
  0
LINE
  5
6900
330
A
100
AcDbEntity
  8
0
100
AcDbLine
 10
234.0019639561162
 20
-70.16319555118457
 30
0.0
 11
217.0019639561162
 21
-70.16319555118457
 31
0.0
  0
LINE
  5
6901
330
A
100
AcDbEntity
  8
0
100
AcDbLine
 10
234.0019639561162
 20
-69.16319555118457
 30
0.0
 11
217.0019639561162
 21
-69.16319555118457
 31
0.0
  0
LINE
  5
6902
330
A
100
AcDbEntity
  8
0
100
AcDbLine
 10
235.0019639561162
 20
-70.16319555118457
 30
0.0
 11
235.0019639561162
 21
-69.16319555118457
 31
0.0
  0
LINE
  5
6903
330
A
100
AcDbEntity
  8
0
100
AcDbLine
 10
235.0019639561162
 20
-69.16319555118457
 30
0.0
 11
234.0019639561162
 21
-69.16319555118457
 31
0.0
  0
LINE
  5
6904
330
A
100
AcDbEntity
  8
0
100
AcDbLine
 10
-36.99803604388376
 20
-61.16319555118457
 30
0.0
 11
-37.99803604388376
 21
-61.16319555118457
 31
0.0
  0
LINE
  5
6905
330
A
100
AcDbEntity
  8
0
100
AcDbLine
 10
-37.99803604388376
 20
-61.16319555118457
 30
0.0
 11
-37.99803604388376
 21
-60.16319555118457
 31
0.0
  0
LINE
  5
6906
330
A
100
AcDbEntity
  8
0
100
AcDbLine
 10
-19.99803604388376
 20
-61.16319555118457
 30
0.0
 11
-36.99803604388376
 21
-61.16319555118457
 31
0.0
  0
LINE
  5
6907
330
A
100
AcDbEntity
  8
0
100
AcDbLine
 10
-19.99803604388376
 20
-60.16319555118457
 30
0.0
 11
-36.99803604388376
 21
-60.16319555118457
 31
0.0
  0
LINE
  5
6908
330
A
100
AcDbEntity
  8
0
100
AcDbLine
 10
-18.99803604388376
 20
-61.16319555118457
 30
0.0
 11
-18.99803604388376
 21
-60.16319555118457
 31
0.0
  0
LINE
  5
6909
330
A
100
AcDbEntity
  8
0
100
AcDbLine
 10
-18.99803604388376
 20
-61.16319555118457
 30
0.0
 11
-19.99803604388376
 21
-61.16319555118457
 31
0.0
  0
LINE
  5
690A
330
A
100
AcDbEntity
  8
0
100
AcDbLine
 10
-37.99803604388376
 20
-70.16319555118457
 30
0.0
 11
-37.99803604388376
 21
-69.16319555118457
 31
0.0
  0
LINE
  5
690B
330
A
100
AcDbEntity
  8
0
100
AcDbLine
 10
-36.99803604388376
 20
-69.16319555118457
 30
0.0
 11
-37.99803604388376
 21
-69.16319555118457
 31
0.0
  0
LINE
  5
690C
330
A
100
AcDbEntity
  8
0
100
AcDbLine
 10
-19.99803604388376
 20
-70.16319555118457
 30
0.0
 11
-36.99803604388376
 21
-70.16319555118457
 31
0.0
  0
LINE
  5
690D
330
A
100
AcDbEntity
  8
0
100
AcDbLine
 10
-19.99803604388376
 20
-69.16319555118457
 30
0.0
 11
-36.99803604388376
 21
-69.16319555118457
 31
0.0
  0
LINE
  5
690E
330
A
100
AcDbEntity
  8
0
100
AcDbLine
 10
-18.99803604388376
 20
-70.16319555118457
 30
0.0
 11
-18.99803604388376
 21
-69.16319555118457
 31
0.0
  0
LINE
  5
690F
330
A
100
AcDbEntity
  8
0
100
AcDbLine
 10
-18.99803604388376
 20
-69.16319555118457
 30
0.0
 11
-19.99803604388376
 21
-69.16319555118457
 31
0.0
  0
LINE
  5
6910
330
A
100
AcDbEntity
  8
0
100
AcDbLine
 10
216.0019639561162
 20
-61.16319555118457
 30
0.0
 11
216.0019639561162
 21
-60.16319555118457
 31
0.0
  0
LINE
  5
6911
330
A
100
AcDbEntity
  8
0
100
AcDbLine
 10
217.0019639561162
 20
-61.16319555118457
 30
0.0
 11
216.0019639561162
 21
-61.16319555118457
 31
0.0
  0
LINE
  5
6912
330
A
100
AcDbEntity
  8
0
100
AcDbLine
 10
234.0019639561162
 20
-61.16319555118457
 30
0.0
 11
217.0019639561162
 21
-61.16319555118457
 31
0.0
  0
LINE
  5
6913
330
A
100
AcDbEntity
  8
0
100
AcDbLine
 10
234.0019639561162
 20
-60.16319555118457
 30
0.0
 11
217.0019639561162
 21
-60.16319555118457
 31
0.0
  0
LINE
  5
6914
330
A
100
AcDbEntity
  8
0
100
AcDbLine
 10
235.0019639561162
 20
-61.16319555118457
 30
0.0
 11
235.0019639561162
 21
-60.16319555118457
 31
0.0
  0
LINE
  5
6915
330
A
100
AcDbEntity
  8
0
100
AcDbLine
 10
235.0019639561162
 20
-61.16319555118457
 30
0.0
 11
234.0019639561162
 21
-61.16319555118457
 31
0.0
  0
ARC
  5
6916
330
A
100
AcDbEntity
  8
0
100
AcDbCircle
 10
-53.49803604388376
 20
-2.663195551184572
 30
0.0
 40
0.5
100
AcDbArc
 50
90.0
 51
180.0
  0
LINE
  5
6917
330
A
100
AcDbEntity
  8
0
100
AcDbLine
 10
-53.99803604388376
 20
-14.66319555118457
 30
0.0
 11
-53.99803604388376
 21
-2.663195551184572
 31
0.0
  0
ARC
  5
6918
330
A
100
AcDbEntity
  8
0
100
AcDbCircle
 10
-53.49803604388376
 20
-14.66319555118457
 30
0.0
 40
0.5000000000000568
100
AcDbArc
 50
180.0
 51
270.0
  0
LINE
  5
6919
330
A
100
AcDbEntity
  8
0
100
AcDbLine
 10
-53.49803604388376
 20
-2.163195551184572
 30
0.0
 11
250.5019639561162
 21
-2.163195551184572
 31
0.0
  0
LINE
  5
691A
330
A
100
AcDbEntity
  8
0
100
AcDbLine
 10
250.5019639561162
 20
-15.16319555118457
 30
0.0
 11
-53.49803604388376
 21
-15.16319555118457
 31
0.0
  0
ARC
  5
691B
330
A
100
AcDbEntity
  8
0
100
AcDbCircle
 10
250.5019639561162
 20
-2.663195551184572
 30
0.0
 40
0.5
100
AcDbArc
 50
0.0
 51
90.0
  0
LINE
  5
691C
330
A
100
AcDbEntity
  8
0
100
AcDbLine
 10
251.0019639561162
 20
-2.663195551184572
 30
0.0
 11
251.0019639561162
 21
-14.66319555118457
 31
0.0
  0
ARC
  5
691D
330
A
100
AcDbEntity
  8
0
100
AcDbCircle
 10
250.5019639561162
 20
-14.66319555118457
 30
0.0
 40
0.5
100
AcDbArc
 50
270.0
 51
0.0
  0
LINE
  5
691E
330
A
100
AcDbEntity
  8
0
100
AcDbLine
 10
-37.49803604388376
 20
-60.16319555118457
 30
0.0
 11
-37.99803604388376
 21
-60.16319555118457
 31
0.0
  0
LINE
  5
691F
330
A
100
AcDbEntity
  8
0
100
AcDbLine
 10
-37.99803604388376
 20
-60.16319555118457
 30
0.0
 11
-37.99803604388376
 21
-15.16319555118457
 31
0.0
  0
LINE
  5
6920
330
A
100
AcDbEntity
  8
0
100
AcDbLine
 10
-37.49803604388376
 20
-60.16319555118457
 30
0.0
 11
-19.49803604388376
 21
-60.16319555118457
 31
0.0
  0
LINE
  5
6921
330
A
100
AcDbEntity
  8
0
100
AcDbLine
 10
-18.99803604388376
 20
-15.16319555118457
 30
0.0
 11
-18.99803604388376
 21
-60.16319555118457
 31
0.0
  0
LINE
  5
6922
330
A
100
AcDbEntity
  8
0
100
AcDbLine
 10
-18.99803604388376
 20
-60.16319555118457
 30
0.0
 11
-19.49803604388376
 21
-60.16319555118457
 31
0.0
  0
LINE
  5
6923
330
A
100
AcDbEntity
  8
0
100
AcDbLine
 10
216.5019639561162
 20
-60.16319555118457
 30
0.0
 11
216.0019639561162
 21
-60.16319555118457
 31
0.0
  0
LINE
  5
6924
330
A
100
AcDbEntity
  8
0
100
AcDbLine
 10
216.0019639561162
 20
-60.16319555118457
 30
0.0
 11
216.0019639561162
 21
-15.16319555118457
 31
0.0
  0
LINE
  5
6925
330
A
100
AcDbEntity
  8
0
100
AcDbLine
 10
216.5019639561162
 20
-60.16319555118457
 30
0.0
 11
234.5019639561162
 21
-60.16319555118457
 31
0.0
  0
LINE
  5
6926
330
A
100
AcDbEntity
  8
0
100
AcDbLine
 10
235.0019639561162
 20
-15.16319555118457
 30
0.0
 11
235.0019639561162
 21
-60.16319555118457
 31
0.0
  0
LINE
  5
6927
330
A
100
AcDbEntity
  8
0
100
AcDbLine
 10
235.0019639561162
 20
-60.16319555118457
 30
0.0
 11
234.5019639561162
 21
-60.16319555118457
 31
0.0
  0
LINE
  5
6928
330
A
100
AcDbEntity
  8
0
  6
Continuous
 62
     8
370
     0
100
AcDbLine
 10
-53.49803604388376
 20
-115.6631955511846
 30
0.0
 11
-53.49803604388376
 21
-127.6631955511846
 31
0.0
  0
LINE
  5
6929
330
A
100
AcDbEntity
  8
0
  6
Continuous
 62
     8
370
     0
100
AcDbLine
 10
250.5019639561162
 20
-115.6631955511846
 30
0.0
 11
-53.49803604388376
 21
-115.6631955511846
 31
0.0
  0
LINE
  5
692A
330
A
100
AcDbEntity
  8
0
  6
Continuous
 62
     8
370
     0
100
AcDbLine
 10
250.5019639561162
 20
-127.6631955511846
 30
0.0
 11
250.5019639561162
 21
-115.6631955511846
 31
0.0
  0
LINE
  5
692B
330
A
100
AcDbEntity
  8
0
  6
Continuous
 62
     8
370
     0
100
AcDbLine
 10
-53.49803604388376
 20
-127.6631955511846
 30
0.0
 11
250.5019639561162
 21
-127.6631955511846
 31
0.0
  0
LINE
  5
692C
330
A
100
AcDbEntity
  8
0
  6
Continuous
 62
     8
370
     0
100
AcDbLine
 10
-53.49803604388376
 20
-115.1631955511846
 30
0.0
 11
-53.49803604388376
 21
-115.6631955511846
 31
0.0
  0
LINE
  5
692D
330
A
100
AcDbEntity
  8
0
  6
Continuous
 62
     8
370
     0
100
AcDbLine
 10
250.5019639561162
 20
-115.6631955511846
 30
0.0
 11
250.5019639561162
 21
-115.1631955511846
 31
0.0
  0
LINE
  5
692E
330
A
100
AcDbEntity
  8
0
  6
Continuous
 62
     8
370
     0
100
AcDbLine
 10
-53.49803604388376
 20
-127.6631955511846
 30
0.0
 11
-53.49803604388376
 21
-128.1631955511846
 31
0.0
  0
LINE
  5
692F
330
A
100
AcDbEntity
  8
0
  6
Continuous
 62
     8
370
     0
100
AcDbLine
 10
250.5019639561162
 20
-128.1631955511846
 30
0.0
 11
250.5019639561162
 21
-127.6631955511846
 31
0.0
  0
LINE
  5
6930
330
A
100
AcDbEntity
  8
0
  6
Continuous
 62
     8
370
     0
100
AcDbLine
 10
-53.99803604388376
 20
-115.6631955511846
 30
0.0
 11
-53.49803604388376
 21
-115.6631955511846
 31
0.0
  0
LINE
  5
6931
330
A
100
AcDbEntity
  8
0
  6
Continuous
 62
     8
370
     0
100
AcDbLine
 10
-53.99803604388376
 20
-127.6631955511846
 30
0.0
 11
-53.49803604388376
 21
-127.6631955511846
 31
0.0
  0
LINE
  5
6932
330
A
100
AcDbEntity
  8
0
  6
Continuous
 62
     8
370
     0
100
AcDbLine
 10
250.5019639561162
 20
-115.6631955511846
 30
0.0
 11
251.0019639561162
 21
-115.6631955511846
 31
0.0
  0
LINE
  5
6933
330
A
100
AcDbEntity
  8
0
  6
Continuous
 62
     8
370
     0
100
AcDbLine
 10
250.5019639561162
 20
-127.6631955511846
 30
0.0
 11
251.0019639561162
 21
-127.6631955511846
 31
0.0
  0
LINE
  5
6934
330
A
100
AcDbEntity
  8
0
  6
Continuous
 62
     8
370
     0
100
AcDbLine
 10
-37.49803604388376
 20
-70.16319555118457
 30
0.0
 11
-37.49803604388376
 21
-115.1631955511846
 31
0.0
  0
LINE
  5
6935
330
A
100
AcDbEntity
  8
0
  6
Continuous
 62
     8
370
     0
100
AcDbLine
 10
-19.49803604388376
 20
-115.1631955511846
 30
0.0
 11
-19.49803604388376
 21
-70.16319555118457
 31
0.0
  0
LINE
  5
6936
330
A
100
AcDbEntity
  8
0
  6
Continuous
 62
     8
370
     0
100
AcDbLine
 10
216.5019639561162
 20
-70.16319555118457
 30
0.0
 11
216.5019639561162
 21
-115.1631955511846
 31
0.0
  0
LINE
  5
6937
330
A
100
AcDbEntity
  8
0
  6
Continuous
 62
     8
370
     0
100
AcDbLine
 10
234.5019639561162
 20
-115.1631955511846
 30
0.0
 11
234.5019639561162
 21
-70.16319555118457
 31
0.0
  0
LINE
  5
6938
330
A
100
AcDbEntity
  8
0
  6
Continuous
 62
     8
370
     0
100
AcDbLine
 10
217.0019639561162
 20
-70.16319555118457
 30
0.0
 11
217.0019639561162
 21
-69.16319555118457
 31
0.0
  0
LINE
  5
6939
330
A
100
AcDbEntity
  8
0
  6
Continuous
 62
     8
370
     0
100
AcDbLine
 10
234.0019639561162
 20
-70.16319555118457
 30
0.0
 11
234.0019639561162
 21
-69.16319555118457
 31
0.0
  0
LINE
  5
693A
330
A
100
AcDbEntity
  8
0
  6
Continuous
 62
     8
370
     0
100
AcDbLine
 10
-36.99803604388376
 20
-61.16319555118457
 30
0.0
 11
-36.99803604388376
 21
-60.16319555118457
 31
0.0
  0
LINE
  5
693B
330
A
100
AcDbEntity
  8
0
  6
Continuous
 62
     8
370
     0
100
AcDbLine
 10
-19.99803604388376
 20
-61.16319555118457
 30
0.0
 11
-19.99803604388376
 21
-60.16319555118457
 31
0.0
  0
LINE
  5
693C
330
A
100
AcDbEntity
  8
0
  6
Continuous
 62
     8
370
     0
100
AcDbLine
 10
-36.99803604388376
 20
-70.16319555118457
 30
0.0
 11
-36.99803604388376
 21
-69.16319555118457
 31
0.0
  0
LINE
  5
693D
330
A
100
AcDbEntity
  8
0
  6
Continuous
 62
     8
370
     0
100
AcDbLine
 10
-19.99803604388376
 20
-70.16319555118457
 30
0.0
 11
-19.99803604388376
 21
-69.16319555118457
 31
0.0
  0
LINE
  5
693E
330
A
100
AcDbEntity
  8
0
  6
Continuous
 62
     8
370
     0
100
AcDbLine
 10
217.0019639561162
 20
-61.16319555118457
 30
0.0
 11
217.0019639561162
 21
-60.16319555118457
 31
0.0
  0
LINE
  5
693F
330
A
100
AcDbEntity
  8
0
  6
Continuous
 62
     8
370
     0
100
AcDbLine
 10
234.0019639561162
 20
-61.16319555118457
 30
0.0
 11
234.0019639561162
 21
-60.16319555118457
 31
0.0
  0
LINE
  5
6940
330
A
100
AcDbEntity
  8
0
  6
Continuous
 62
     8
370
     0
100
AcDbLine
 10
-53.49803604388376
 20
-2.163195551184572
 30
0.0
 11
-53.49803604388376
 21
-2.663195551184572
 31
0.0
  0
LINE
  5
6941
330
A
100
AcDbEntity
  8
0
  6
Continuous
 62
     8
370
     0
100
AcDbLine
 10
-53.99803604388376
 20
-2.663195551184572
 30
0.0
 11
-53.49803604388376
 21
-2.663195551184572
 31
0.0
  0
LINE
  5
6942
330
A
100
AcDbEntity
  8
0
  6
Continuous
 62
     8
370
     0
100
AcDbLine
 10
-53.49803604388376
 20
-2.663195551184572
 30
0.0
 11
-53.49803604388376
 21
-14.66319555118457
 31
0.0
  0
LINE
  5
6943
330
A
100
AcDbEntity
  8
0
  6
Continuous
 62
     8
370
     0
100
AcDbLine
 10
-53.99803604388376
 20
-14.66319555118457
 30
0.0
 11
-53.49803604388376
 21
-14.66319555118457
 31
0.0
  0
LINE
  5
6944
330
A
100
AcDbEntity
  8
0
  6
Continuous
 62
     8
370
     0
100
AcDbLine
 10
-53.49803604388376
 20
-14.66319555118457
 30
0.0
 11
-53.49803604388376
 21
-15.16319555118457
 31
0.0
  0
LINE
  5
6945
330
A
100
AcDbEntity
  8
0
  6
Continuous
 62
     8
370
     0
100
AcDbLine
 10
250.5019639561162
 20
-2.663195551184572
 30
0.0
 11
-53.49803604388376
 21
-2.663195551184572
 31
0.0
  0
LINE
  5
6946
330
A
100
AcDbEntity
  8
0
  6
Continuous
 62
     8
370
     0
100
AcDbLine
 10
250.5019639561162
 20
-14.66319555118457
 30
0.0
 11
250.5019639561162
 21
-2.663195551184572
 31
0.0
  0
LINE
  5
6947
330
A
100
AcDbEntity
  8
0
  6
Continuous
 62
     8
370
     0
100
AcDbLine
 10
-53.49803604388376
 20
-14.66319555118457
 30
0.0
 11
250.5019639561162
 21
-14.66319555118457
 31
0.0
  0
LINE
  5
6948
330
A
100
AcDbEntity
  8
0
  6
Continuous
 62
     8
370
     0
100
AcDbLine
 10
250.5019639561162
 20
-2.663195551184572
 30
0.0
 11
250.5019639561162
 21
-2.163195551184572
 31
0.0
  0
LINE
  5
6949
330
A
100
AcDbEntity
  8
0
  6
Continuous
 62
     8
370
     0
100
AcDbLine
 10
250.5019639561162
 20
-15.16319555118457
 30
0.0
 11
250.5019639561162
 21
-14.66319555118457
 31
0.0
  0
LINE
  5
694A
330
A
100
AcDbEntity
  8
0
  6
Continuous
 62
     8
370
     0
100
AcDbLine
 10
251.0019639561162
 20
-2.663195551184572
 30
0.0
 11
250.5019639561162
 21
-2.663195551184572
 31
0.0
  0
LINE
  5
694B
330
A
100
AcDbEntity
  8
0
  6
Continuous
 62
     8
370
     0
100
AcDbLine
 10
251.0019639561162
 20
-14.66319555118457
 30
0.0
 11
250.5019639561162
 21
-14.66319555118457
 31
0.0
  0
LINE
  5
694C
330
A
100
AcDbEntity
  8
0
  6
Continuous
 62
     8
370
     0
100
AcDbLine
 10
-37.49803604388376
 20
-15.16319555118457
 30
0.0
 11
-37.49803604388376
 21
-60.16319555118457
 31
0.0
  0
LINE
  5
694D
330
A
100
AcDbEntity
  8
0
  6
Continuous
 62
     8
370
     0
100
AcDbLine
 10
-19.49803604388376
 20
-60.16319555118457
 30
0.0
 11
-19.49803604388376
 21
-15.16319555118457
 31
0.0
  0
LINE
  5
694E
330
A
100
AcDbEntity
  8
0
  6
Continuous
 62
     8
370
     0
100
AcDbLine
 10
216.5019639561162
 20
-15.16319555118457
 30
0.0
 11
216.5019639561162
 21
-60.16319555118457
 31
0.0
  0
LINE
  5
694F
330
A
100
AcDbEntity
  8
0
  6
Continuous
 62
     8
370
     0
100
AcDbLine
 10
234.5019639561162
 20
-60.16319555118457
 30
0.0
 11
234.5019639561162
 21
-15.16319555118457
 31
0.0
  0
LINE
  5
6950
330
A
100
AcDbEntity
  8
ASSI
100
AcDbLine
 10
-28.49803604388376
 20
-76.47504030008452
 30
0.0
 11
-28.49803604388376
 21
-53.46486281748457
 31
0.0
  0
LINE
  5
6951
330
A
100
AcDbEntity
  8
ASSI
100
AcDbLine
 10
225.5019639561162
 20
-76.47504030008452
 30
0.0
 11
225.5019639561162
 21
-53.25376027178459
 31
0.0
  0
LINE
  5
6952
330
A
100
AcDbEntity
  8
0
100
AcDbLine
 10
-111.7354858255837
 20
-69.16319555118457
 30
0.0
 11
-111.7354858255837
 21
-61.16319555118457
 31
0.0
  0
LINE
  5
6953
330
A
100
AcDbEntity
  8
0
100
AcDbLine
 10
-117.7354858255837
 20
-61.16319555118457
 30
0.0
 11
-117.7354858255837
 21
-69.16319555118457
 31
0.0
  0
ARC
  5
6954
330
A
100
AcDbEntity
  8
0
100
AcDbCircle
 10
-102.7354858255837
 20
-115.6631955511846
 30
0.0
 40
0.5
100
AcDbArc
 50
0.0
 51
90.0
  0
ARC
  5
6955
330
A
100
AcDbEntity
  8
0
100
AcDbCircle
 10
-126.7354858255837
 20
-127.6631955511846
 30
0.0
 40
0.5
100
AcDbArc
 50
180.0
 51
270.0
  0
LINE
  5
6956
330
A
100
AcDbEntity
  8
0
100
AcDbLine
 10
-126.7354858255837
 20
-115.1631955511846
 30
0.0
 11
-102.7354858255837
 21
-115.1631955511846
 31
0.0
  0
ARC
  5
6957
330
A
100
AcDbEntity
  8
0
100
AcDbCircle
 10
-102.7354858255837
 20
-127.6631955511846
 30
0.0
 40
0.5
100
AcDbArc
 50
270.0
 51
0.0
  0
LINE
  5
6958
330
A
100
AcDbEntity
  8
0
100
AcDbLine
 10
-102.2354858255837
 20
-115.6631955511846
 30
0.0
 11
-102.2354858255837
 21
-127.6631955511846
 31
0.0
  0
LINE
  5
6959
330
A
100
AcDbEntity
  8
0
100
AcDbLine
 10
-102.7354858255837
 20
-128.1631955511846
 30
0.0
 11
-126.7354858255837
 21
-128.1631955511846
 31
0.0
  0
LINE
  5
695A
330
A
100
AcDbEntity
  8
0
100
AcDbLine
 10
-127.2354858255837
 20
-127.6631955511846
 30
0.0
 11
-127.2354858255837
 21
-115.6631955511846
 31
0.0
  0
ARC
  5
695B
330
A
100
AcDbEntity
  8
0
100
AcDbCircle
 10
-126.7354858255837
 20
-115.6631955511846
 30
0.0
 40
0.5
100
AcDbArc
 50
90.0
 51
180.0
  0
LINE
  5
695C
330
A
100
AcDbEntity
  8
0
100
AcDbLine
 10
-124.2354858255837
 20
-115.1631955511846
 30
0.0
 11
-124.2354858255837
 21
-70.16319555118457
 31
0.0
  0
LINE
  5
695D
330
A
100
AcDbEntity
  8
0
100
AcDbLine
 10
-124.2354858255837
 20
-70.16319555118457
 30
0.0
 11
-123.7354858255837
 21
-70.16319555118457
 31
0.0
  0
LINE
  5
695E
330
A
100
AcDbEntity
  8
0
100
AcDbLine
 10
-105.2354858255837
 20
-70.16319555118457
 30
0.0
 11
-105.2354858255837
 21
-115.1631955511846
 31
0.0
  0
LINE
  5
695F
330
A
100
AcDbEntity
  8
0
100
AcDbLine
 10
-105.7354858255837
 20
-70.16319555118457
 30
0.0
 11
-105.2354858255837
 21
-70.16319555118457
 31
0.0
  0
CIRCLE
  5
6960
330
A
100
AcDbEntity
  8
0
100
AcDbCircle
 10
-114.7354858255837
 20
-78.16319555118457
 30
0.0
 40
2.100000000000023
  0
LINE
  5
6961
330
A
100
AcDbEntity
  8
0
100
AcDbLine
 10
-123.7354858255837
 20
-70.16319555118457
 30
0.0
 11
-105.7354858255837
 21
-70.16319555118457
 31
0.0
  0
LINE
  5
6962
330
A
100
AcDbEntity
  8
0
100
AcDbLine
 10
-124.2354858255837
 20
-70.16319555118457
 30
0.0
 11
-124.2354858255837
 21
-69.16319555118457
 31
0.0
  0
LINE
  5
6963
330
A
100
AcDbEntity
  8
0
100
AcDbLine
 10
-123.2354858255837
 20
-69.16319555118457
 30
0.0
 11
-124.2354858255837
 21
-69.16319555118457
 31
0.0
  0
LINE
  5
6964
330
A
100
AcDbEntity
  8
0
100
AcDbLine
 10
-106.2354858255837
 20
-70.16319555118457
 30
0.0
 11
-123.2354858255837
 21
-70.16319555118457
 31
0.0
  0
LINE
  5
6965
330
A
100
AcDbEntity
  8
0
100
AcDbLine
 10
-106.2354858255837
 20
-69.16319555118457
 30
0.0
 11
-123.2354858255837
 21
-69.16319555118457
 31
0.0
  0
LINE
  5
6966
330
A
100
AcDbEntity
  8
0
100
AcDbLine
 10
-105.2354858255837
 20
-70.16319555118457
 30
0.0
 11
-105.2354858255837
 21
-69.16319555118457
 31
0.0
  0
LINE
  5
6967
330
A
100
AcDbEntity
  8
0
100
AcDbLine
 10
-105.2354858255837
 20
-69.16319555118457
 30
0.0
 11
-106.2354858255837
 21
-69.16319555118457
 31
0.0
  0
LINE
  5
6968
330
A
100
AcDbEntity
  8
0
100
AcDbLine
 10
-105.2354858255837
 20
-61.16319555118457
 30
0.0
 11
-105.2354858255837
 21
-60.16319555118457
 31
0.0
  0
LINE
  5
6969
330
A
100
AcDbEntity
  8
0
100
AcDbLine
 10
-105.2354858255837
 20
-61.16319555118457
 30
0.0
 11
-106.2354858255837
 21
-61.16319555118457
 31
0.0
  0
LINE
  5
696A
330
A
100
AcDbEntity
  8
0
100
AcDbLine
 10
-106.2354858255837
 20
-61.16319555118457
 30
0.0
 11
-123.2354858255837
 21
-61.16319555118457
 31
0.0
  0
LINE
  5
696B
330
A
100
AcDbEntity
  8
0
100
AcDbLine
 10
-106.2354858255837
 20
-60.16319555118457
 30
0.0
 11
-123.2354858255837
 21
-60.16319555118457
 31
0.0
  0
LINE
  5
696C
330
A
100
AcDbEntity
  8
0
100
AcDbLine
 10
-124.2354858255837
 20
-61.16319555118457
 30
0.0
 11
-124.2354858255837
 21
-60.16319555118457
 31
0.0
  0
LINE
  5
696D
330
A
100
AcDbEntity
  8
0
100
AcDbLine
 10
-123.2354858255837
 20
-61.16319555118457
 30
0.0
 11
-124.2354858255837
 21
-61.16319555118457
 31
0.0
  0
CIRCLE
  5
696E
330
A
100
AcDbEntity
  8
0
100
AcDbCircle
 10
-114.7354858255837
 20
-78.16319555118457
 30
0.0
 40
1.750000000015489
  0
LINE
  5
696F
330
A
100
AcDbEntity
  8
0
100
AcDbLine
 10
-115.8828508922837
 20
-79.03891624698451
 30
0.0
 11
-114.5507719896838
 21
-79.59470319428453
 31
0.0
  0
LINE
  5
6970
330
A
100
AcDbEntity
  8
0
100
AcDbLine
 10
-114.5507719896838
 20
-79.59470319428453
 30
0.0
 11
-113.4034069229838
 21
-78.71898249848459
 31
0.0
  0
LINE
  5
6971
330
A
100
AcDbEntity
  8
0
100
AcDbLine
 10
-114.9201996613838
 20
-76.73168790808461
 30
0.0
 11
-116.0675647280838
 21
-77.60740860388455
 31
0.0
  0
LINE
  5
6972
330
A
100
AcDbEntity
  8
0
100
AcDbLine
 10
-113.5881207588837
 20
-77.28747485538452
 30
0.0
 11
-114.9201996613838
 21
-76.73168790808461
 31
0.0
  0
LINE
  5
6973
330
A
100
AcDbEntity
  8
0
100
AcDbLine
 10
-116.0675647280838
 20
-77.60740860388455
 30
0.0
 11
-115.8828508922837
 21
-79.03891624698451
 31
0.0
  0
LINE
  5
6974
330
A
100
AcDbEntity
  8
0
100
AcDbLine
 10
-113.4034069229838
 20
-78.71898249848459
 30
0.0
 11
-113.5881207588837
 21
-77.28747485538452
 31
0.0
  0
ARC
  5
6975
330
A
100
AcDbEntity
  8
0
100
AcDbCircle
 10
-126.7354858255837
 20
-2.663195551184572
 30
0.0
 40
0.5
100
AcDbArc
 50
90.0
 51
180.0
  0
LINE
  5
6976
330
A
100
AcDbEntity
  8
0
100
AcDbLine
 10
-127.2354858255837
 20
-14.66319555118457
 30
0.0
 11
-127.2354858255837
 21
-2.663195551184572
 31
0.0
  0
LINE
  5
6977
330
A
100
AcDbEntity
  8
0
100
AcDbLine
 10
-102.2354858255837
 20
-2.663195551184572
 30
0.0
 11
-102.2354858255837
 21
-14.66319555118457
 31
0.0
  0
ARC
  5
6978
330
A
100
AcDbEntity
  8
0
100
AcDbCircle
 10
-126.7354858255837
 20
-14.66319555118457
 30
0.0
 40
0.5
100
AcDbArc
 50
180.0
 51
270.0
  0
ARC
  5
6979
330
A
100
AcDbEntity
  8
0
100
AcDbCircle
 10
-102.7354858255837
 20
-14.66319555118457
 30
0.0
 40
0.5
100
AcDbArc
 50
270.0
 51
0.0
  0
LINE
  5
697A
330
A
100
AcDbEntity
  8
0
100
AcDbLine
 10
-102.7354858255837
 20
-15.16319555118457
 30
0.0
 11
-126.7354858255837
 21
-15.16319555118457
 31
0.0
  0
LINE
  5
697B
330
A
100
AcDbEntity
  8
0
100
AcDbLine
 10
-126.7354858255837
 20
-2.163195551184572
 30
0.0
 11
-102.7354858255837
 21
-2.163195551184572
 31
0.0
  0
ARC
  5
697C
330
A
100
AcDbEntity
  8
0
100
AcDbCircle
 10
-102.7354858255837
 20
-2.663195551184572
 30
0.0
 40
0.5
100
AcDbArc
 50
0.0
 51
90.0
  0
LINE
  5
697D
330
A
100
AcDbEntity
  8
0
100
AcDbLine
 10
-123.7354858255837
 20
-60.16319555118457
 30
0.0
 11
-105.7354858255837
 21
-60.16319555118457
 31
0.0
  0
LINE
  5
697E
330
A
100
AcDbEntity
  8
0
100
AcDbLine
 10
-105.2354858255837
 20
-15.16319555118457
 30
0.0
 11
-105.2354858255837
 21
-60.16319555118457
 31
0.0
  0
LINE
  5
697F
330
A
100
AcDbEntity
  8
0
100
AcDbLine
 10
-105.2354858255837
 20
-60.16319555118457
 30
0.0
 11
-105.7354858255837
 21
-60.16319555118457
 31
0.0
  0
LINE
  5
6980
330
A
100
AcDbEntity
  8
0
100
AcDbLine
 10
-124.2354858255837
 20
-60.16319555118457
 30
0.0
 11
-124.2354858255837
 21
-15.16319555118457
 31
0.0
  0
LINE
  5
6981
330
A
100
AcDbEntity
  8
0
100
AcDbLine
 10
-123.7354858255837
 20
-60.16319555118457
 30
0.0
 11
-124.2354858255837
 21
-60.16319555118457
 31
0.0
  0
LINE
  5
6982
330
A
100
AcDbEntity
  8
0
  6
Continuous
 62
     8
370
     0
100
AcDbLine
 10
-102.7354858255837
 20
-115.6631955511846
 30
0.0
 11
-102.7354858255837
 21
-115.1631955511846
 31
0.0
  0
LINE
  5
6983
330
A
100
AcDbEntity
  8
0
  6
Continuous
 62
     8
370
     0
100
AcDbLine
 10
-102.7354858255837
 20
-115.6631955511846
 30
0.0
 11
-102.2354858255837
 21
-115.6631955511846
 31
0.0
  0
LINE
  5
6984
330
A
100
AcDbEntity
  8
0
  6
Continuous
 62
     8
370
     0
100
AcDbLine
 10
-127.2354858255837
 20
-127.6631955511846
 30
0.0
 11
-126.7354858255837
 21
-127.6631955511846
 31
0.0
  0
LINE
  5
6985
330
A
100
AcDbEntity
  8
0
  6
Continuous
 62
     8
370
     0
100
AcDbLine
 10
-126.7354858255837
 20
-128.1631955511846
 30
0.0
 11
-126.7354858255837
 21
-127.6631955511846
 31
0.0
  0
LINE
  5
6986
330
A
100
AcDbEntity
  8
0
  6
Continuous
 62
     8
370
     0
100
AcDbLine
 10
-102.7354858255837
 20
-115.6631955511846
 30
0.0
 11
-126.7354858255837
 21
-115.6631955511846
 31
0.0
  0
LINE
  5
6987
330
A
100
AcDbEntity
  8
0
  6
Continuous
 62
     8
370
     0
100
AcDbLine
 10
-126.7354858255837
 20
-115.6631955511846
 30
0.0
 11
-126.7354858255837
 21
-115.1631955511846
 31
0.0
  0
LINE
  5
6988
330
A
100
AcDbEntity
  8
0
  6
Continuous
 62
     8
370
     0
100
AcDbLine
 10
-102.7354858255837
 20
-127.6631955511846
 30
0.0
 11
-102.2354858255837
 21
-127.6631955511846
 31
0.0
  0
LINE
  5
6989
330
A
100
AcDbEntity
  8
0
  6
Continuous
 62
     8
370
     0
100
AcDbLine
 10
-102.7354858255837
 20
-128.1631955511846
 30
0.0
 11
-102.7354858255837
 21
-127.6631955511846
 31
0.0
  0
LINE
  5
698A
330
A
100
AcDbEntity
  8
0
  6
Continuous
 62
     8
370
     0
100
AcDbLine
 10
-102.7354858255837
 20
-127.6631955511846
 30
0.0
 11
-102.7354858255837
 21
-115.6631955511846
 31
0.0
  0
LINE
  5
698B
330
A
100
AcDbEntity
  8
0
  6
Continuous
 62
     8
370
     0
100
AcDbLine
 10
-126.7354858255837
 20
-127.6631955511846
 30
0.0
 11
-102.7354858255837
 21
-127.6631955511846
 31
0.0
  0
LINE
  5
698C
330
A
100
AcDbEntity
  8
0
  6
Continuous
 62
     8
370
     0
100
AcDbLine
 10
-127.2354858255837
 20
-115.6631955511846
 30
0.0
 11
-126.7354858255837
 21
-115.6631955511846
 31
0.0
  0
LINE
  5
698D
330
A
100
AcDbEntity
  8
0
  6
Continuous
 62
     8
370
     0
100
AcDbLine
 10
-126.7354858255837
 20
-115.6631955511846
 30
0.0
 11
-126.7354858255837
 21
-127.6631955511846
 31
0.0
  0
LINE
  5
698E
330
A
100
AcDbEntity
  8
0
  6
Continuous
 62
     8
370
     0
100
AcDbLine
 10
-123.7354858255837
 20
-70.16319555118457
 30
0.0
 11
-123.7354858255837
 21
-115.1631955511846
 31
0.0
  0
LINE
  5
698F
330
A
100
AcDbEntity
  8
0
  6
Continuous
 62
     8
370
     0
100
AcDbLine
 10
-105.7354858255837
 20
-115.1631955511846
 30
0.0
 11
-105.7354858255837
 21
-70.16319555118457
 31
0.0
  0
LINE
  5
6990
330
A
100
AcDbEntity
  8
0
  6
Continuous
 62
     8
370
     0
100
AcDbLine
 10
-123.2354858255837
 20
-70.16319555118457
 30
0.0
 11
-123.2354858255837
 21
-69.16319555118457
 31
0.0
  0
LINE
  5
6991
330
A
100
AcDbEntity
  8
0
  6
Continuous
 62
     8
370
     0
100
AcDbLine
 10
-106.2354858255837
 20
-70.16319555118457
 30
0.0
 11
-106.2354858255837
 21
-69.16319555118457
 31
0.0
  0
LINE
  5
6992
330
A
100
AcDbEntity
  8
0
  6
Continuous
 62
     8
370
     0
100
AcDbLine
 10
-106.2354858255837
 20
-61.16319555118457
 30
0.0
 11
-106.2354858255837
 21
-60.16319555118457
 31
0.0
  0
LINE
  5
6993
330
A
100
AcDbEntity
  8
0
  6
Continuous
 62
     8
370
     0
100
AcDbLine
 10
-123.2354858255837
 20
-61.16319555118457
 30
0.0
 11
-123.2354858255837
 21
-60.16319555118457
 31
0.0
  0
LINE
  5
6994
330
A
100
AcDbEntity
  8
0
  6
Continuous
 62
     8
370
     0
100
AcDbLine
 10
-126.7354858255837
 20
-2.663195551184572
 30
0.0
 11
-127.2354858255837
 21
-2.663195551184572
 31
0.0
  0
LINE
  5
6995
330
A
100
AcDbEntity
  8
0
  6
Continuous
 62
     8
370
     0
100
AcDbLine
 10
-126.7354858255837
 20
-2.663195551184572
 30
0.0
 11
-126.7354858255837
 21
-2.163195551184572
 31
0.0
  0
LINE
  5
6996
330
A
100
AcDbEntity
  8
0
  6
Continuous
 62
     8
370
     0
100
AcDbLine
 10
-102.7354858255837
 20
-14.66319555118457
 30
0.0
 11
-102.7354858255837
 21
-2.663195551184572
 31
0.0
  0
LINE
  5
6997
330
A
100
AcDbEntity
  8
0
  6
Continuous
 62
     8
370
     0
100
AcDbLine
 10
-126.7354858255837
 20
-14.66319555118457
 30
0.0
 11
-102.7354858255837
 21
-14.66319555118457
 31
0.0
  0
LINE
  5
6998
330
A
100
AcDbEntity
  8
0
  6
Continuous
 62
     8
370
     0
100
AcDbLine
 10
-126.7354858255837
 20
-2.663195551184572
 30
0.0
 11
-126.7354858255837
 21
-14.66319555118457
 31
0.0
  0
LINE
  5
6999
330
A
100
AcDbEntity
  8
0
  6
Continuous
 62
     8
370
     0
100
AcDbLine
 10
-102.7354858255837
 20
-2.663195551184572
 30
0.0
 11
-126.7354858255837
 21
-2.663195551184572
 31
0.0
  0
LINE
  5
699A
330
A
100
AcDbEntity
  8
0
  6
Continuous
 62
     8
370
     0
100
AcDbLine
 10
-126.7354858255837
 20
-14.66319555118457
 30
0.0
 11
-127.2354858255837
 21
-14.66319555118457
 31
0.0
  0
LINE
  5
699B
330
A
100
AcDbEntity
  8
0
  6
Continuous
 62
     8
370
     0
100
AcDbLine
 10
-102.2354858255837
 20
-14.66319555118457
 30
0.0
 11
-102.7354858255837
 21
-14.66319555118457
 31
0.0
  0
LINE
  5
699C
330
A
100
AcDbEntity
  8
0
  6
Continuous
 62
     8
370
     0
100
AcDbLine
 10
-102.2354858255837
 20
-2.663195551184572
 30
0.0
 11
-102.7354858255837
 21
-2.663195551184572
 31
0.0
  0
LINE
  5
699D
330
A
100
AcDbEntity
  8
0
  6
Continuous
 62
     8
370
     0
100
AcDbLine
 10
-126.7354858255837
 20
-15.16319555118457
 30
0.0
 11
-126.7354858255837
 21
-14.66319555118457
 31
0.0
  0
LINE
  5
699E
330
A
100
AcDbEntity
  8
0
  6
Continuous
 62
     8
370
     0
100
AcDbLine
 10
-102.7354858255837
 20
-15.16319555118457
 30
0.0
 11
-102.7354858255837
 21
-14.66319555118457
 31
0.0
  0
LINE
  5
699F
330
A
100
AcDbEntity
  8
0
  6
Continuous
 62
     8
370
     0
100
AcDbLine
 10
-102.7354858255837
 20
-2.663195551184572
 30
0.0
 11
-102.7354858255837
 21
-2.163195551184572
 31
0.0
  0
LINE
  5
69A0
330
A
100
AcDbEntity
  8
0
  6
Continuous
 62
     8
370
     0
100
AcDbLine
 10
-123.7354858255837
 20
-15.16319555118457
 30
0.0
 11
-123.7354858255837
 21
-60.16319555118457
 31
0.0
  0
LINE
  5
69A1
330
A
100
AcDbEntity
  8
0
  6
Continuous
 62
     8
370
     0
100
AcDbLine
 10
-105.7354858255837
 20
-60.16319555118457
 30
0.0
 11
-105.7354858255837
 21
-15.16319555118457
 31
0.0
  0
LINE
  5
69A2
330
A
100
AcDbEntity
  8
ASSI
100
AcDbLine
 10
-114.7354858255837
 20
-74.99732248018461
 30
0.0
 11
-114.7354858255837
 21
-52.83155518038461
 31
0.0
  0
LINE
  5
69A3
330
A
100
AcDbEntity
  8
0
100
AcDbLine
 10
304.2632565325163
 20
-69.16319555118457
 30
0.0
 11
304.2632565325163
 21
-61.16319555118457
 31
0.0
  0
LINE
  5
69A4
330
A
100
AcDbEntity
  8
0
100
AcDbLine
 10
298.2632565325163
 20
-61.16319555118457
 30
0.0
 11
298.2632565325163
 21
-69.16319555118457
 31
0.0
  0
LINE
  5
69A5
330
A
100
AcDbEntity
  8
0
100
AcDbLine
 10
288.7632565325163
 20
-127.6631955511846
 30
0.0
 11
288.7632565325163
 21
-115.6631955511846
 31
0.0
  0
ARC
  5
69A6
330
A
100
AcDbEntity
  8
0
100
AcDbCircle
 10
289.2632565325163
 20
-127.6631955511846
 30
0.0
 40
0.5000000000001137
100
AcDbArc
 50
180.0
 51
270.0
  0
LINE
  5
69A7
330
A
100
AcDbEntity
  8
0
100
AcDbLine
 10
313.2632565325163
 20
-128.1631955511846
 30
0.0
 11
289.2632565325163
 21
-128.1631955511846
 31
0.0
  0
LINE
  5
69A8
330
A
100
AcDbEntity
  8
0
100
AcDbLine
 10
289.2632565325163
 20
-115.1631955511846
 30
0.0
 11
313.2632565325163
 21
-115.1631955511846
 31
0.0
  0
ARC
  5
69A9
330
A
100
AcDbEntity
  8
0
100
AcDbCircle
 10
289.2632565325163
 20
-115.6631955511846
 30
0.0
 40
0.5000000000001137
100
AcDbArc
 50
90.0
 51
180.0
  0
LINE
  5
69AA
330
A
100
AcDbEntity
  8
0
100
AcDbLine
 10
313.7632565325163
 20
-115.6631955511846
 30
0.0
 11
313.7632565325163
 21
-127.6631955511846
 31
0.0
  0
ARC
  5
69AB
330
A
100
AcDbEntity
  8
0
100
AcDbCircle
 10
313.2632565325163
 20
-127.6631955511846
 30
0.0
 40
0.5
100
AcDbArc
 50
270.0
 51
0.0
  0
ARC
  5
69AC
330
A
100
AcDbEntity
  8
0
100
AcDbCircle
 10
313.2632565325163
 20
-115.6631955511846
 30
0.0
 40
0.5
100
AcDbArc
 50
0.0
 51
90.0
  0
LINE
  5
69AD
330
A
100
AcDbEntity
  8
0
100
AcDbLine
 10
291.7632565325163
 20
-115.1631955511846
 30
0.0
 11
291.7632565325163
 21
-70.16319555118457
 31
0.0
  0
LINE
  5
69AE
330
A
100
AcDbEntity
  8
0
100
AcDbLine
 10
291.7632565325163
 20
-70.16319555118457
 30
0.0
 11
292.2632565325163
 21
-70.16319555118457
 31
0.0
  0
LINE
  5
69AF
330
A
100
AcDbEntity
  8
0
100
AcDbLine
 10
310.2632565325163
 20
-70.16319555118457
 30
0.0
 11
292.2632565325163
 21
-70.16319555118457
 31
0.0
  0
LINE
  5
69B0
330
A
100
AcDbEntity
  8
0
100
AcDbLine
 10
310.7632565325163
 20
-70.16319555118457
 30
0.0
 11
310.7632565325163
 21
-115.1631955511846
 31
0.0
  0
LINE
  5
69B1
330
A
100
AcDbEntity
  8
0
100
AcDbLine
 10
310.2632565325163
 20
-70.16319555118457
 30
0.0
 11
310.7632565325163
 21
-70.16319555118457
 31
0.0
  0
LINE
  5
69B2
330
A
100
AcDbEntity
  8
0
100
AcDbLine
 10
291.7632565325163
 20
-61.16319555118457
 30
0.0
 11
291.7632565325163
 21
-60.16319555118457
 31
0.0
  0
LINE
  5
69B3
330
A
100
AcDbEntity
  8
0
100
AcDbLine
 10
292.7632565325163
 20
-61.16319555118457
 30
0.0
 11
291.7632565325163
 21
-61.16319555118457
 31
0.0
  0
LINE
  5
69B4
330
A
100
AcDbEntity
  8
0
100
AcDbLine
 10
309.7632565325163
 20
-60.16319555118457
 30
0.0
 11
292.7632565325163
 21
-60.16319555118457
 31
0.0
  0
LINE
  5
69B5
330
A
100
AcDbEntity
  8
0
100
AcDbLine
 10
309.7632565325163
 20
-61.16319555118457
 30
0.0
 11
292.7632565325163
 21
-61.16319555118457
 31
0.0
  0
LINE
  5
69B6
330
A
100
AcDbEntity
  8
0
100
AcDbLine
 10
310.7632565325163
 20
-61.16319555118457
 30
0.0
 11
310.7632565325163
 21
-60.16319555118457
 31
0.0
  0
LINE
  5
69B7
330
A
100
AcDbEntity
  8
0
100
AcDbLine
 10
310.7632565325163
 20
-61.16319555118457
 30
0.0
 11
309.7632565325163
 21
-61.16319555118457
 31
0.0
  0
LINE
  5
69B8
330
A
100
AcDbEntity
  8
0
100
AcDbLine
 10
291.7632565325163
 20
-70.16319555118457
 30
0.0
 11
291.7632565325163
 21
-69.16319555118457
 31
0.0
  0
LINE
  5
69B9
330
A
100
AcDbEntity
  8
0
100
AcDbLine
 10
292.7632565325163
 20
-69.16319555118457
 30
0.0
 11
291.7632565325163
 21
-69.16319555118457
 31
0.0
  0
LINE
  5
69BA
330
A
100
AcDbEntity
  8
0
100
AcDbLine
 10
309.7632565325163
 20
-70.16319555118457
 30
0.0
 11
292.7632565325163
 21
-70.16319555118457
 31
0.0
  0
LINE
  5
69BB
330
A
100
AcDbEntity
  8
0
100
AcDbLine
 10
309.7632565325163
 20
-69.16319555118457
 30
0.0
 11
292.7632565325163
 21
-69.16319555118457
 31
0.0
  0
LINE
  5
69BC
330
A
100
AcDbEntity
  8
0
100
AcDbLine
 10
310.7632565325163
 20
-70.16319555118457
 30
0.0
 11
310.7632565325163
 21
-69.16319555118457
 31
0.0
  0
LINE
  5
69BD
330
A
100
AcDbEntity
  8
0
100
AcDbLine
 10
310.7632565325163
 20
-69.16319555118457
 30
0.0
 11
309.7632565325163
 21
-69.16319555118457
 31
0.0
  0
ARC
  5
69BE
330
A
100
AcDbEntity
  8
0
100
AcDbCircle
 10
289.2632565325163
 20
-2.663195551184572
 30
0.0
 40
0.5
100
AcDbArc
 50
90.0
 51
180.0
  0
LINE
  5
69BF
330
A
100
AcDbEntity
  8
0
100
AcDbLine
 10
288.7632565325163
 20
-14.66319555118457
 30
0.0
 11
288.7632565325163
 21
-2.663195551184572
 31
0.0
  0
ARC
  5
69C0
330
A
100
AcDbEntity
  8
0
100
AcDbCircle
 10
289.2632565325163
 20
-14.66319555118457
 30
0.0
 40
0.5000000000000568
100
AcDbArc
 50
180.0
 51
270.0
  0
LINE
  5
69C1
330
A
100
AcDbEntity
  8
0
100
AcDbLine
 10
313.2632565325163
 20
-15.16319555118457
 30
0.0
 11
289.2632565325163
 21
-15.16319555118457
 31
0.0
  0
LINE
  5
69C2
330
A
100
AcDbEntity
  8
0
100
AcDbLine
 10
289.2632565325163
 20
-2.163195551184572
 30
0.0
 11
313.2632565325163
 21
-2.163195551184572
 31
0.0
  0
ARC
  5
69C3
330
A
100
AcDbEntity
  8
0
100
AcDbCircle
 10
313.2632565325163
 20
-2.663195551184572
 30
0.0
 40
0.5
100
AcDbArc
 50
0.0
 51
90.0
  0
ARC
  5
69C4
330
A
100
AcDbEntity
  8
0
100
AcDbCircle
 10
313.2632565325163
 20
-14.66319555118457
 30
0.0
 40
0.5000000000000568
100
AcDbArc
 50
270.0
 51
0.0
  0
LINE
  5
69C5
330
A
100
AcDbEntity
  8
0
100
AcDbLine
 10
313.7632565325163
 20
-2.663195551184572
 30
0.0
 11
313.7632565325163
 21
-14.66319555118457
 31
0.0
  0
LINE
  5
69C6
330
A
100
AcDbEntity
  8
0
100
AcDbLine
 10
292.2632565325163
 20
-60.16319555118457
 30
0.0
 11
291.7632565325163
 21
-60.16319555118457
 31
0.0
  0
LINE
  5
69C7
330
A
100
AcDbEntity
  8
0
100
AcDbLine
 10
291.7632565325163
 20
-60.16319555118457
 30
0.0
 11
291.7632565325163
 21
-15.16319555118457
 31
0.0
  0
LINE
  5
69C8
330
A
100
AcDbEntity
  8
0
100
AcDbLine
 10
310.2632565325163
 20
-60.16319555118457
 30
0.0
 11
292.2632565325163
 21
-60.16319555118457
 31
0.0
  0
LINE
  5
69C9
330
A
100
AcDbEntity
  8
0
100
AcDbLine
 10
310.7632565325163
 20
-15.16319555118457
 30
0.0
 11
310.7632565325163
 21
-60.16319555118457
 31
0.0
  0
LINE
  5
69CA
330
A
100
AcDbEntity
  8
0
100
AcDbLine
 10
310.7632565325163
 20
-60.16319555118457
 30
0.0
 11
310.2632565325163
 21
-60.16319555118457
 31
0.0
  0
LINE
  5
69CB
330
A
100
AcDbEntity
  8
0
  6
Continuous
 62
     8
370
     0
100
AcDbLine
 10
288.7632565325163
 20
-115.6631955511846
 30
0.0
 11
289.2632565325163
 21
-115.6631955511846
 31
0.0
  0
LINE
  5
69CC
330
A
100
AcDbEntity
  8
0
  6
Continuous
 62
     8
370
     0
100
AcDbLine
 10
289.2632565325163
 20
-115.6631955511846
 30
0.0
 11
289.2632565325163
 21
-127.6631955511846
 31
0.0
  0
LINE
  5
69CD
330
A
100
AcDbEntity
  8
0
  6
Continuous
 62
     8
370
     0
100
AcDbLine
 10
288.7632565325163
 20
-127.6631955511846
 30
0.0
 11
289.2632565325163
 21
-127.6631955511846
 31
0.0
  0
LINE
  5
69CE
330
A
100
AcDbEntity
  8
0
  6
Continuous
 62
     8
370
     0
100
AcDbLine
 10
289.2632565325163
 20
-127.6631955511846
 30
0.0
 11
289.2632565325163
 21
-128.1631955511846
 31
0.0
  0
LINE
  5
69CF
330
A
100
AcDbEntity
  8
0
  6
Continuous
 62
     8
370
     0
100
AcDbLine
 10
289.2632565325163
 20
-127.6631955511846
 30
0.0
 11
313.2632565325163
 21
-127.6631955511846
 31
0.0
  0
LINE
  5
69D0
330
A
100
AcDbEntity
  8
0
  6
Continuous
 62
     8
370
     0
100
AcDbLine
 10
313.2632565325163
 20
-127.6631955511846
 30
0.0
 11
313.2632565325163
 21
-128.1631955511846
 31
0.0
  0
LINE
  5
69D1
330
A
100
AcDbEntity
  8
0
  6
Continuous
 62
     8
370
     0
100
AcDbLine
 10
313.2632565325163
 20
-115.1631955511846
 30
0.0
 11
313.2632565325163
 21
-115.6631955511846
 31
0.0
  0
LINE
  5
69D2
330
A
100
AcDbEntity
  8
0
  6
Continuous
 62
     8
370
     0
100
AcDbLine
 10
313.2632565325163
 20
-115.6631955511846
 30
0.0
 11
289.2632565325163
 21
-115.6631955511846
 31
0.0
  0
LINE
  5
69D3
330
A
100
AcDbEntity
  8
0
  6
Continuous
 62
     8
370
     0
100
AcDbLine
 10
289.2632565325163
 20
-115.1631955511846
 30
0.0
 11
289.2632565325163
 21
-115.6631955511846
 31
0.0
  0
LINE
  5
69D4
330
A
100
AcDbEntity
  8
0
  6
Continuous
 62
     8
370
     0
100
AcDbLine
 10
313.2632565325163
 20
-127.6631955511846
 30
0.0
 11
313.2632565325163
 21
-115.6631955511846
 31
0.0
  0
LINE
  5
69D5
330
A
100
AcDbEntity
  8
0
  6
Continuous
 62
     8
370
     0
100
AcDbLine
 10
313.2632565325163
 20
-115.6631955511846
 30
0.0
 11
313.7632565325163
 21
-115.6631955511846
 31
0.0
  0
LINE
  5
69D6
330
A
100
AcDbEntity
  8
0
  6
Continuous
 62
     8
370
     0
100
AcDbLine
 10
313.2632565325163
 20
-127.6631955511846
 30
0.0
 11
313.7632565325163
 21
-127.6631955511846
 31
0.0
  0
LINE
  5
69D7
330
A
100
AcDbEntity
  8
0
  6
Continuous
 62
     8
370
     0
100
AcDbLine
 10
292.2632565325163
 20
-70.16319555118457
 30
0.0
 11
292.2632565325163
 21
-115.1631955511846
 31
0.0
  0
LINE
  5
69D8
330
A
100
AcDbEntity
  8
0
  6
Continuous
 62
     8
370
     0
100
AcDbLine
 10
310.2632565325163
 20
-115.1631955511846
 30
0.0
 11
310.2632565325163
 21
-70.16319555118457
 31
0.0
  0
LINE
  5
69D9
330
A
100
AcDbEntity
  8
0
  6
Continuous
 62
     8
370
     0
100
AcDbLine
 10
292.7632565325163
 20
-61.16319555118457
 30
0.0
 11
292.7632565325163
 21
-60.16319555118457
 31
0.0
  0
LINE
  5
69DA
330
A
100
AcDbEntity
  8
0
  6
Continuous
 62
     8
370
     0
100
AcDbLine
 10
309.7632565325163
 20
-61.16319555118457
 30
0.0
 11
309.7632565325163
 21
-60.16319555118457
 31
0.0
  0
LINE
  5
69DB
330
A
100
AcDbEntity
  8
0
  6
Continuous
 62
     8
370
     0
100
AcDbLine
 10
292.7632565325163
 20
-70.16319555118457
 30
0.0
 11
292.7632565325163
 21
-69.16319555118457
 31
0.0
  0
LINE
  5
69DC
330
A
100
AcDbEntity
  8
0
  6
Continuous
 62
     8
370
     0
100
AcDbLine
 10
309.7632565325163
 20
-70.16319555118457
 30
0.0
 11
309.7632565325163
 21
-69.16319555118457
 31
0.0
  0
LINE
  5
69DD
330
A
100
AcDbEntity
  8
0
  6
Continuous
 62
     8
370
     0
100
AcDbLine
 10
288.7632565325163
 20
-2.663195551184572
 30
0.0
 11
289.2632565325163
 21
-2.663195551184572
 31
0.0
  0
LINE
  5
69DE
330
A
100
AcDbEntity
  8
0
  6
Continuous
 62
     8
370
     0
100
AcDbLine
 10
289.2632565325163
 20
-2.663195551184572
 30
0.0
 11
289.2632565325163
 21
-2.163195551184572
 31
0.0
  0
LINE
  5
69DF
330
A
100
AcDbEntity
  8
0
  6
Continuous
 62
     8
370
     0
100
AcDbLine
 10
289.2632565325163
 20
-2.663195551184572
 30
0.0
 11
289.2632565325163
 21
-14.66319555118457
 31
0.0
  0
LINE
  5
69E0
330
A
100
AcDbEntity
  8
0
  6
Continuous
 62
     8
370
     0
100
AcDbLine
 10
288.7632565325163
 20
-14.66319555118457
 30
0.0
 11
289.2632565325163
 21
-14.66319555118457
 31
0.0
  0
LINE
  5
69E1
330
A
100
AcDbEntity
  8
0
  6
Continuous
 62
     8
370
     0
100
AcDbLine
 10
289.2632565325163
 20
-15.16319555118457
 30
0.0
 11
289.2632565325163
 21
-14.66319555118457
 31
0.0
  0
LINE
  5
69E2
330
A
100
AcDbEntity
  8
0
  6
Continuous
 62
     8
370
     0
100
AcDbLine
 10
289.2632565325163
 20
-14.66319555118457
 30
0.0
 11
313.2632565325163
 21
-14.66319555118457
 31
0.0
  0
LINE
  5
69E3
330
A
100
AcDbEntity
  8
0
  6
Continuous
 62
     8
370
     0
100
AcDbLine
 10
313.2632565325163
 20
-15.16319555118457
 30
0.0
 11
313.2632565325163
 21
-14.66319555118457
 31
0.0
  0
LINE
  5
69E4
330
A
100
AcDbEntity
  8
0
  6
Continuous
 62
     8
370
     0
100
AcDbLine
 10
313.2632565325163
 20
-2.663195551184572
 30
0.0
 11
289.2632565325163
 21
-2.663195551184572
 31
0.0
  0
LINE
  5
69E5
330
A
100
AcDbEntity
  8
0
  6
Continuous
 62
     8
370
     0
100
AcDbLine
 10
313.2632565325163
 20
-2.663195551184572
 30
0.0
 11
313.2632565325163
 21
-2.163195551184572
 31
0.0
  0
LINE
  5
69E6
330
A
100
AcDbEntity
  8
0
  6
Continuous
 62
     8
370
     0
100
AcDbLine
 10
313.2632565325163
 20
-14.66319555118457
 30
0.0
 11
313.2632565325163
 21
-2.663195551184572
 31
0.0
  0
LINE
  5
69E7
330
A
100
AcDbEntity
  8
0
  6
Continuous
 62
     8
370
     0
100
AcDbLine
 10
313.2632565325163
 20
-2.663195551184572
 30
0.0
 11
313.7632565325163
 21
-2.663195551184572
 31
0.0
  0
LINE
  5
69E8
330
A
100
AcDbEntity
  8
0
  6
Continuous
 62
     8
370
     0
100
AcDbLine
 10
313.2632565325163
 20
-14.66319555118457
 30
0.0
 11
313.7632565325163
 21
-14.66319555118457
 31
0.0
  0
LINE
  5
69E9
330
A
100
AcDbEntity
  8
0
  6
Continuous
 62
     8
370
     0
100
AcDbLine
 10
292.2632565325163
 20
-15.16319555118457
 30
0.0
 11
292.2632565325163
 21
-60.16319555118457
 31
0.0
  0
LINE
  5
69EA
330
A
100
AcDbEntity
  8
0
  6
Continuous
 62
     8
370
     0
100
AcDbLine
 10
310.2632565325163
 20
-60.16319555118457
 30
0.0
 11
310.2632565325163
 21
-15.16319555118457
 31
0.0
  0
LINE
  5
69EB
330
A
100
AcDbEntity
  8
0
100
AcDbLine
 10
250.5019639561162
 20
50.64484005701547
 30
0.0
 11
-53.49803604388376
 21
50.64484005701547
 31
0.0
  0
ARC
  5
69EC
330
A
100
AcDbEntity
  8
0
100
AcDbCircle
 10
250.5019639561162
 20
51.14484005701547
 30
0.0
 40
0.5
100
AcDbArc
 50
270.0
 51
0.0
  0
LINE
  5
69ED
330
A
100
AcDbEntity
  8
0
100
AcDbLine
 10
251.0019639561162
 20
75.14484005701547
 30
0.0
 11
251.0019639561162
 21
51.14484005701547
 31
0.0
  0
LINE
  5
69EE
330
A
100
AcDbEntity
  8
0
100
AcDbLine
 10
-53.49803604388376
 20
75.64484005701547
 30
0.0
 11
250.5019639561162
 21
75.64484005701547
 31
0.0
  0
ARC
  5
69EF
330
A
100
AcDbEntity
  8
0
100
AcDbCircle
 10
-53.49803604388376
 20
51.14484005701547
 30
0.0
 40
0.5
100
AcDbArc
 50
180.0
 51
270.0
  0
LINE
  5
69F0
330
A
100
AcDbEntity
  8
0
100
AcDbLine
 10
-53.99803604388376
 20
51.14484005701547
 30
0.0
 11
-53.99803604388376
 21
75.14484005701547
 31
0.0
  0
ARC
  5
69F1
330
A
100
AcDbEntity
  8
0
100
AcDbCircle
 10
250.5019639561162
 20
75.14484005701547
 30
0.0
 40
0.5
100
AcDbArc
 50
0.0
 51
90.0
  0
ARC
  5
69F2
330
A
100
AcDbEntity
  8
0
100
AcDbCircle
 10
-53.49803604388376
 20
75.14484005701547
 30
0.0
 40
0.5
100
AcDbArc
 50
90.0
 51
180.0
  0
LINE
  5
69F3
330
A
100
AcDbEntity
  8
0
  6
Continuous
 62
     8
370
     0
100
AcDbLine
 10
-53.49803604388376
 20
51.14484005701547
 30
0.0
 11
-53.49803604388376
 21
50.64484005701547
 31
0.0
  0
LINE
  5
69F4
330
A
100
AcDbEntity
  8
0
  6
Continuous
 62
     8
370
     0
100
AcDbLine
 10
-53.49803604388376
 20
51.14484005701547
 30
0.0
 11
250.5019639561162
 21
51.14484005701547
 31
0.0
  0
LINE
  5
69F5
330
A
100
AcDbEntity
  8
0
  6
Continuous
 62
     8
370
     0
100
AcDbLine
 10
250.5019639561162
 20
50.64484005701547
 30
0.0
 11
250.5019639561162
 21
51.14484005701547
 31
0.0
  0
LINE
  5
69F6
330
A
100
AcDbEntity
  8
0
  6
Continuous
 62
     8
370
     0
100
AcDbLine
 10
-53.49803604388376
 20
75.14484005701547
 30
0.0
 11
-53.49803604388376
 21
51.14484005701547
 31
0.0
  0
LINE
  5
69F7
330
A
100
AcDbEntity
  8
0
  6
Continuous
 62
     8
370
     0
100
AcDbLine
 10
250.5019639561162
 20
75.14484005701547
 30
0.0
 11
-53.49803604388376
 21
75.14484005701547
 31
0.0
  0
LINE
  5
69F8
330
A
100
AcDbEntity
  8
0
  6
Continuous
 62
     8
370
     0
100
AcDbLine
 10
250.5019639561162
 20
51.14484005701547
 30
0.0
 11
250.5019639561162
 21
75.14484005701547
 31
0.0
  0
LINE
  5
69F9
330
A
100
AcDbEntity
  8
0
  6
Continuous
 62
     8
370
     0
100
AcDbLine
 10
250.5019639561162
 20
51.14484005701547
 30
0.0
 11
251.0019639561162
 21
51.14484005701547
 31
0.0
  0
LINE
  5
69FA
330
A
100
AcDbEntity
  8
0
  6
Continuous
 62
     8
370
     0
100
AcDbLine
 10
250.5019639561162
 20
75.14484005701547
 30
0.0
 11
251.0019639561162
 21
75.14484005701547
 31
0.0
  0
LINE
  5
69FB
330
A
100
AcDbEntity
  8
0
  6
Continuous
 62
     8
370
     0
100
AcDbLine
 10
-53.49803604388376
 20
75.64484005701547
 30
0.0
 11
-53.49803604388376
 21
75.14484005701547
 31
0.0
  0
LINE
  5
69FC
330
A
100
AcDbEntity
  8
0
  6
Continuous
 62
     8
370
     0
100
AcDbLine
 10
250.5019639561162
 20
75.14484005701547
 30
0.0
 11
250.5019639561162
 21
75.64484005701547
 31
0.0
  0
LINE
  5
69FD
330
A
100
AcDbEntity
  8
0
  6
Continuous
 62
     8
370
     0
100
AcDbLine
 10
-53.99803604388376
 20
51.14484005701547
 30
0.0
 11
-53.49803604388376
 21
51.14484005701547
 31
0.0
  0
LINE
  5
69FE
330
A
100
AcDbEntity
  8
0
  6
Continuous
 62
     8
370
     0
100
AcDbLine
 10
-53.99803604388376
 20
75.14484005701547
 30
0.0
 11
-53.49803604388376
 21
75.14484005701547
 31
0.0
  0
ARC
  5
69FF
330
A
100
AcDbEntity
  8
0
100
AcDbCircle
 10
198.6138257352162
 20
-196.8544996244846
 30
0.0
 40
0.5000000000000144
100
AcDbArc
 50
0.0
 51
65.85389154869289
  0
LINE
  5
6A00
330
A
100
AcDbEntity
  8
0
100
AcDbLine
 10
199.1138257352162
 20
-490.4959508163845
 30
0.0
 11
199.1138257352162
 21
-196.8544996244846
 31
0.0
  0
LINE
  5
6A01
330
A
100
AcDbEntity
  8
0
100
AcDbLine
 10
198.8183581983162
 20
-196.3982469844846
 30
0.0
 11
186.8183581983162
 21
-191.0187941513846
 31
0.0
  0
LINE
  5
6A02
330
A
100
AcDbEntity
  8
0
100
AcDbLine
 10
199.1138257352162
 20
-229.2302390796846
 30
0.0
 11
236.5918757895163
 21
-223.6299223423846
 31
0.0
  0
ARC
  5
6A03
330
A
100
AcDbEntity
  8
0
100
AcDbCircle
 10
176.2215208898162
 20
-193.0279610620846
 30
0.0
 40
0.5000000000000568
100
AcDbArc
 50
98.49878070350134
 51
180.0
  0
LINE
  5
6A04
330
A
100
AcDbEntity
  8
0
100
AcDbLine
 10
175.7215208898162
 20
-193.0279610620846
 30
0.0
 11
175.7215208898162
 21
-486.6694122539845
 31
0.0
  0
LINE
  5
6A05
330
A
100
AcDbEntity
  8
0
100
AcDbLine
 10
186.5399315532162
 20
-190.9805372871846
 30
0.0
 11
176.1476267077163
 21
-192.5334515577846
 31
0.0
  0
ARC
  5
6A06
330
A
100
AcDbEntity
  8
0
100
AcDbCircle
 10
186.6138257352162
 20
-191.4750467914846
 30
0.0
 40
0.5000000000000161
100
AcDbArc
 50
65.85389154869289
 51
98.49878070350182
  0
LINE
  5
6A07
330
A
100
AcDbEntity
  8
0
100
AcDbLine
 10
227.4440874254162
 20
-201.2196488357846
 30
0.0
 11
199.1138257352162
 21
-205.4530184610845
 31
0.0
  0
ARC
  5
6A08
330
A
100
AcDbEntity
  8
0
100
AcDbCircle
 10
188.2215208898162
 20
-492.0488650869846
 30
0.0
 40
0.5000000000000583
100
AcDbArc
 50
245.8538915487087
 51
278.4987807035009
  0
LINE
  5
6A09
330
A
100
AcDbEntity
  8
0
100
AcDbLine
 10
188.2954150719163
 20
-492.5433745912845
 30
0.0
 11
198.6877199173163
 21
-490.9904603206846
 31
0.0
  0
LINE
  5
6A0A
330
A
100
AcDbEntity
  8
0
100
AcDbLine
 10
176.0169884267162
 20
-487.1256648939845
 30
0.0
 11
188.0169884267162
 21
-492.5051177269846
 31
0.0
  0
LINE
  5
6A0B
330
A
100
AcDbEntity
  8
0
100
AcDbLine
 10
199.1138257352162
 20
-474.5753989570845
 30
0.0
 11
236.5918757895163
 21
-468.9750822198846
 31
0.0
  0
ARC
  5
6A0C
330
A
100
AcDbEntity
  8
0
100
AcDbCircle
 10
198.6138257352162
 20
-490.4959508163845
 30
0.0
 40
0.5000000000000021
100
AcDbArc
 50
278.4987807035018
 51
0.0
  0
LINE
  5
6A0D
330
A
100
AcDbEntity
  8
0
100
AcDbLine
 10
227.4440874254162
 20
-446.5648087132845
 30
0.0
 11
199.1138257352162
 21
-450.7981783384845
 31
0.0
  0
ARC
  5
6A0E
330
A
100
AcDbEntity
  8
0
100
AcDbCircle
 10
176.2215208898162
 20
-486.6694122539845
 30
0.0
 40
0.5000000000000404
100
AcDbArc
 50
180.0
 51
245.8538915487087
  0
LINE
  5
6A0F
330
A
100
AcDbEntity
  8
0
100
AcDbLine
 10
237.6340070112162
 20
-214.6188958881846
 30
0.0
 11
240.6286393305163
 21
-214.1714102405846
 31
0.0
  0
LINE
  5
6A10
330
A
100
AcDbEntity
  8
0
100
AcDbLine
 10
239.7419091459162
 20
-208.2372961887846
 30
0.0
 11
237.6340070112162
 21
-208.5522784140845
 31
0.0
  0
LINE
  5
6A11
330
A
100
AcDbEntity
  8
0
100
AcDbLine
 10
237.6340070112162
 20
-459.9640557655846
 30
0.0
 11
240.6286393305163
 21
-459.5165701179845
 31
0.0
  0
LINE
  5
6A12
330
A
100
AcDbEntity
  8
0
100
AcDbLine
 10
239.7419091459162
 20
-453.5824560661846
 30
0.0
 11
237.6340070112162
 21
-453.8974382914845
 31
0.0
  0
LINE
  5
6A13
330
A
100
AcDbEntity
  8
0
100
AcDbLine
 10
236.7315493263162
 20
-468.8273702062846
 30
0.0
 11
237.2817953753163
 21
-468.7451473544846
 31
0.0
  0
LINE
  5
6A14
330
A
100
AcDbEntity
  8
0
100
AcDbLine
 10
228.4862186471163
 20
-446.5359245335845
 30
0.0
 11
227.6923988693162
 21
-446.6545444238845
 31
0.0
  0
LINE
  5
6A15
330
A
100
AcDbEntity
  8
0
100
AcDbLine
 10
244.2099986056163
 20
-222.3647112965846
 30
0.0
 11
245.0760240094163
 21
-222.2353017740846
 31
0.0
  0
LINE
  5
6A16
330
A
100
AcDbEntity
  8
0
100
AcDbLine
 10
236.2804472811163
 20
-200.0260789531845
 30
0.0
 11
235.4144218774162
 21
-200.1554884756846
 31
0.0
  0
LINE
  5
6A17
330
A
100
AcDbEntity
  8
0
100
AcDbLine
 10
236.7315493263162
 20
-223.4822103288845
 30
0.0
 11
237.2817953753163
 21
-223.3999874769846
 31
0.0
  0
LINE
  5
6A18
330
A
100
AcDbEntity
  8
0
100
AcDbLine
 10
228.4862186471163
 20
-201.1907646560845
 30
0.0
 11
227.6923988693162
 21
-201.3093845464846
 31
0.0
  0
LINE
  5
6A19
330
A
100
AcDbEntity
  8
0
100
AcDbLine
 10
244.2099986056163
 20
-467.7098711739845
 30
0.0
 11
245.0760240094163
 21
-467.5804616514846
 31
0.0
  0
LINE
  5
6A1A
330
A
100
AcDbEntity
  8
0
100
AcDbLine
 10
236.2804472811163
 20
-445.3712388305846
 30
0.0
 11
235.4144218774162
 21
-445.5006483531845
 31
0.0
  0
LINE
  5
6A1B
330
A
100
AcDbEntity
  8
0
100
AcDbLine
 10
245.2521298273163
 20
-222.3358271168846
 30
0.0
 11
284.2232729976163
 21
-216.5123986020845
 31
0.0
  0
LINE
  5
6A1C
330
A
100
AcDbEntity
  8
0
100
AcDbLine
 10
275.0754846335163
 20
-194.1021250954846
 30
0.0
 11
236.1043414632162
 21
-199.9255536102846
 31
0.0
  0
ARC
  5
6A1D
330
A
100
AcDbEntity
  8
0
100
AcDbCircle
 10
296.4746963629162
 20
-182.2312235761846
 30
0.0
 40
0.5000000000001137
100
AcDbArc
 50
0.0
 51
65.85389154869821
  0
LINE
  5
6A1E
330
A
100
AcDbEntity
  8
0
100
AcDbLine
 10
296.9746963629162
 20
-475.8726747680846
 30
0.0
 11
296.9746963629162
 21
-182.2312235761846
 31
0.0
  0
LINE
  5
6A1F
330
A
100
AcDbEntity
  8
0
100
AcDbLine
 10
296.6792288259163
 20
-181.7749709361846
 30
0.0
 11
284.6792288259163
 21
-176.3955181031846
 31
0.0
  0
ARC
  5
6A20
330
A
100
AcDbEntity
  8
0
100
AcDbCircle
 10
274.0823915174163
 20
-178.4046850137846
 30
0.0
 40
0.5000000000001137
100
AcDbArc
 50
98.49878070350039
 51
180.0
  0
LINE
  5
6A21
330
A
100
AcDbEntity
  8
0
100
AcDbLine
 10
273.5823915174163
 20
-178.4046850137846
 30
0.0
 11
273.5823915174163
 21
-194.3252368730846
 31
0.0
  0
LINE
  5
6A22
330
A
100
AcDbEntity
  8
0
100
AcDbLine
 10
273.5823915174163
 20
-218.1024574916846
 30
0.0
 11
273.5823915174163
 21
-439.6703967504845
 31
0.0
  0
LINE
  5
6A23
330
A
100
AcDbEntity
  8
0
100
AcDbLine
 10
273.5823915174163
 20
-463.4476173690846
 30
0.0
 11
273.5823915174163
 21
-472.0461362056845
 31
0.0
  0
LINE
  5
6A24
330
A
100
AcDbEntity
  8
0
100
AcDbLine
 10
284.4008021808163
 20
-176.3572612388846
 30
0.0
 11
274.0084973354163
 21
-177.9101755094846
 31
0.0
  0
ARC
  5
6A25
330
A
100
AcDbEntity
  8
0
100
AcDbCircle
 10
284.4746963629162
 20
-176.8517707431846
 30
0.0
 40
0.5000000000000724
100
AcDbArc
 50
65.85389154869554
 51
98.49878070350087
  0
LINE
  5
6A26
330
A
100
AcDbEntity
  8
0
100
AcDbLine
 10
245.2521298273163
 20
-467.6809869942846
 30
0.0
 11
284.2232729976163
 21
-461.8575584794846
 31
0.0
  0
LINE
  5
6A27
330
A
100
AcDbEntity
  8
0
100
AcDbLine
 10
275.0754846335163
 20
-439.4472849728846
 30
0.0
 11
236.1043414632162
 21
-445.2707134877846
 31
0.0
  0
ARC
  5
6A28
330
A
100
AcDbEntity
  8
0
100
AcDbCircle
 10
286.0823915174163
 20
-477.4255890386846
 30
0.0
 40
0.5000000000001101
100
AcDbArc
 50
245.8538915486968
 51
278.4987807034999
  0
LINE
  5
6A29
330
A
100
AcDbEntity
  8
0
100
AcDbLine
 10
286.1562856995163
 20
-477.9200985429845
 30
0.0
 11
296.5485905449162
 21
-476.3671842723846
 31
0.0
  0
LINE
  5
6A2A
330
A
100
AcDbEntity
  8
0
100
AcDbLine
 10
273.8778590544163
 20
-472.5023888456845
 30
0.0
 11
285.8778590544163
 21
-477.8818416786846
 31
0.0
  0
ARC
  5
6A2B
330
A
100
AcDbEntity
  8
0
100
AcDbCircle
 10
296.4746963629162
 20
-475.8726747680846
 30
0.0
 40
0.5000000000001137
100
AcDbArc
 50
278.4987807034999
 51
0.0
  0
ARC
  5
6A2C
330
A
100
AcDbEntity
  8
0
100
AcDbCircle
 10
274.0823915174163
 20
-472.0461362056845
 30
0.0
 40
0.5000000000001231
100
AcDbArc
 50
180.0
 51
245.8538915486996
  0
ARC
  5
6A2D
330
A
100
AcDbEntity
  8
0
100
AcDbCircle
 10
236.0840772946162
 20
-205.7981224675846
 30
0.0
 40
0.686772216242751
100
AcDbArc
 50
354.7620086217997
 51
50.81677645149638
  0
LINE
  5
6A2E
330
A
100
AcDbEntity
  8
0
100
AcDbLine
 10
236.7679816074162
 20
-223.2474847720846
 30
0.0
 11
236.7679816074162
 21
-205.8608198988845
 31
0.0
  0
LINE
  5
6A2F
330
A
100
AcDbEntity
  8
0
100
AcDbLine
 10
236.5179816074162
 20
-205.2657850517846
 30
0.0
 11
227.5179816074162
 21
-201.2311954269845
 31
0.0
  0
LWPOLYLINE
  5
6A30
330
A
100
AcDbEntity
  8
0
100
AcDbPolyline
 90
        8
 70
   128
 43
0.0
 10
236.7679816074162
 20
-223.2474847720846
 10
236.7631779275163
 20
-223.3395527315846
 10
236.7489514905162
 20
-223.4237757093846
 10
236.7258490105163
 20
-223.4969170637846
 10
236.6947583027163
 20
-223.5561660135846
 10
236.6568741657162
 20
-223.5992456547846
 10
236.6136524655162
 20
-223.6245004608846
 10
236.5918757895163
 20
-223.6299223423846
  0
LWPOLYLINE
  5
6A31
330
A
100
AcDbEntity
  8
0
100
AcDbPolyline
 90
        3
 70
   128
 43
0.0
 10
227.4440874254162
 20
-201.2196488357846
 10
227.4692090269162
 20
-201.2186112742846
 10
227.5179816074162
 20
-201.2311954269845
  0
ARC
  5
6A32
330
A
100
AcDbEntity
  8
0
100
AcDbCircle
 10
236.0840772946162
 20
-451.1432823449846
 30
0.0
 40
0.6867722162428493
100
AcDbArc
 50
354.7620086218006
 51
50.81677645150238
  0
LINE
  5
6A33
330
A
100
AcDbEntity
  8
0
100
AcDbLine
 10
236.7679816074162
 20
-468.5926446495846
 30
0.0
 11
236.7679816074162
 21
-451.2059797763845
 31
0.0
  0
LINE
  5
6A34
330
A
100
AcDbEntity
  8
0
100
AcDbLine
 10
236.5179816074162
 20
-450.6109449291845
 30
0.0
 11
227.5179816074162
 21
-446.5763553043845
 31
0.0
  0
LWPOLYLINE
  5
6A35
330
A
100
AcDbEntity
  8
0
100
AcDbPolyline
 90
        8
 70
   128
 43
0.0
 10
236.7679816074162
 20
-468.5926446495846
 10
236.7631779275163
 20
-468.6847126089846
 10
236.7489514905162
 20
-468.7689355868846
 10
236.7258490105163
 20
-468.8420769412846
 10
236.6947583027163
 20
-468.9013258909846
 10
236.6568741657162
 20
-468.9444055321845
 10
236.6136524655162
 20
-468.9696603382846
 10
236.5918757895163
 20
-468.9750822198846
  0
LWPOLYLINE
  5
6A36
330
A
100
AcDbEntity
  8
0
100
AcDbPolyline
 90
        3
 70
   128
 43
0.0
 10
227.4440874254162
 20
-446.5648087132845
 10
227.4692090269162
 20
-446.5637711516846
 10
227.5179816074162
 20
-446.5763553043845
  0
LINE
  5
6A37
330
A
100
AcDbEntity
  8
0
100
AcDbLine
 10
236.2679816074162
 20
-450.4988729951846
 30
0.0
 11
227.7679816074162
 21
-446.6884272384846
 31
0.0
  0
LINE
  5
6A38
330
A
100
AcDbEntity
  8
0
100
AcDbLine
 10
236.7679816074162
 20
-468.1096817363846
 30
0.0
 11
236.7679816074162
 21
-451.6889426894846
 31
0.0
  0
ARC
  5
6A39
330
A
100
AcDbEntity
  8
0
100
AcDbCircle
 10
236.2661983855163
 20
-451.4341383042845
 30
0.0
 40
1.373544432484994
100
AcDbArc
 50
354.7620086217999
 51
50.81677645150209
  0
LINE
  5
6A3A
330
A
100
AcDbEntity
  8
0
100
AcDbLine
 10
237.6340070112162
 20
-467.9802722138846
 30
0.0
 11
237.6340070112162
 21
-451.5595331668845
 31
0.0
  0
LINE
  5
6A3B
330
A
100
AcDbEntity
  8
0
100
AcDbLine
 10
237.1340070112162
 20
-450.3694634725846
 30
0.0
 11
228.6340070112162
 21
-446.5590177158846
 31
0.0
  0
LWPOLYLINE
  5
6A3C
330
A
100
AcDbEntity
  8
0
100
AcDbPolyline
 90
        8
 70
   128
 43
0.0
 10
237.2817953753163
 20
-468.7451473544846
 10
237.3253487274162
 20
-468.7343035913846
 10
237.4117921277162
 20
-468.6837939790846
 10
237.4875604018163
 20
-468.5976346967846
 10
237.5497418173162
 20
-468.4791367972846
 10
237.5959467774162
 20
-468.3328540884846
 10
237.6243996514163
 20
-468.1644081327846
 10
237.6340070112162
 20
-467.9802722138846
  0
LWPOLYLINE
  5
6A3D
330
A
100
AcDbEntity
  8
0
100
AcDbPolyline
 90
        3
 70
   128
 43
0.0
 10
228.6340070112162
 20
-446.5590177158846
 10
228.5364618502163
 20
-446.5338494103846
 10
228.4862186471163
 20
-446.5359245335845
  0
LWPOLYLINE
  5
6A3E
330
A
100
AcDbEntity
  8
0
100
AcDbPolyline
 90
        3
 70
   128
 43
0.0
 10
239.8122102415163
 20
-208.2657298246846
 10
239.3553397211163
 20
-208.1939518336845
 10
238.9957811524163
 20
-208.3487895317846
  0
LWPOLYLINE
  5
6A3F
330
A
100
AcDbEntity
  8
0
100
AcDbPolyline
 90
       12
 70
   128
 43
0.0
 10
239.8825113371163
 20
-214.2829035835846
 10
240.0432257540162
 20
-214.3245867291846
 10
240.4847300371163
 20
-214.2594164671846
 10
240.8664779850162
 20
-213.9277437646846
 10
241.1545496173162
 20
-213.3590391967846
 10
241.3233485053163
 20
-212.6038346600845
 10
241.3578761271162
 20
-211.7292333918846
 10
241.2550645519162
 20
-210.8129475528846
 10
241.0240490393163
 20
-209.9363931609846
 10
240.6853563315162
 20
-209.1774559206846
 10
240.2690807618162
 20
-208.6035707361846
 10
239.8122102415163
 20
-208.2657298246846
  0
LINE
  5
6A40
330
A
100
AcDbEntity
  8
0
100
AcDbLine
 10
244.0622102415163
 20
-203.9890274147846
 30
0.0
 11
235.5622102415163
 21
-200.1785816580846
 31
0.0
  0
ARC
  5
6A41
330
A
100
AcDbEntity
  8
0
100
AcDbCircle
 10
243.1944016158162
 20
-205.0537022464846
 30
0.0
 40
1.373544432484972
100
AcDbArc
 50
354.7620086218023
 51
50.81677645149617
  0
LINE
  5
6A42
330
A
100
AcDbEntity
  8
0
100
AcDbLine
 10
244.5622102415163
 20
-221.5998361559846
 30
0.0
 11
244.5622102415163
 21
-205.1790971090845
 31
0.0
  0
LWPOLYLINE
  5
6A43
330
A
100
AcDbEntity
  8
0
100
AcDbPolyline
 90
        9
 70
   128
 43
0.0
 10
244.0622102415163
 20
-222.3416181142845
 10
244.1597554025162
 20
-222.3667864197846
 10
244.2535519576163
 20
-222.3538675335845
 10
244.3399953580163
 20
-222.3033579212846
 10
244.4157636321163
 20
-222.2171986388846
 10
244.4779450476162
 20
-222.0987007393845
 10
244.5241500077162
 20
-221.9524180305846
 10
244.5526028817162
 20
-221.7839720749846
 10
244.5622102415163
 20
-221.5998361559846
  0
LINE
  5
6A44
330
A
100
AcDbEntity
  8
0
100
AcDbLine
 10
237.6340070112162
 20
-219.4599334410846
 30
0.0
 11
244.0622102415163
 21
-222.3416181142845
 31
0.0
  0
LINE
  5
6A45
330
A
100
AcDbEntity
  8
0
100
AcDbLine
 10
235.0622102415163
 20
-200.9203636162846
 30
0.0
 11
235.0622102415163
 21
-204.0955425116846
 31
0.0
  0
LWPOLYLINE
  5
6A46
330
A
100
AcDbEntity
  8
0
100
AcDbPolyline
 90
        9
 70
   128
 43
0.0
 10
235.5622102415163
 20
-200.1785816580846
 10
235.4646650805163
 20
-200.1534133525846
 10
235.3708685253163
 20
-200.1663322387845
 10
235.2844251250162
 20
-200.2168418510846
 10
235.2086568509162
 20
-200.3030011333846
 10
235.1464754353162
 20
-200.4214990328845
 10
235.1002704752162
 20
-200.5677817416846
 10
235.0718176013163
 20
-200.7362276973846
 10
235.0622102415163
 20
-200.9203636162846
  0
ARC
  5
6A47
330
A
100
AcDbEntity
  8
0
100
AcDbCircle
 10
244.0604270196162
 20
-204.9242927238846
 30
0.0
 40
1.373544432485195
100
AcDbArc
 50
354.7620086218008
 51
50.81677645150292
  0
LINE
  5
6A48
330
A
100
AcDbEntity
  8
0
100
AcDbLine
 10
245.4282356452162
 20
-221.4704266334846
 30
0.0
 11
245.4282356452162
 21
-205.0496875865846
 31
0.0
  0
LINE
  5
6A49
330
A
100
AcDbEntity
  8
0
100
AcDbLine
 10
244.9282356452162
 20
-203.8596178921846
 30
0.0
 11
236.4282356452162
 21
-200.0491721354846
 31
0.0
  0
LWPOLYLINE
  5
6A4A
330
A
100
AcDbEntity
  8
0
100
AcDbPolyline
 90
        8
 70
   128
 43
0.0
 10
245.0760240094163
 20
-222.2353017740846
 10
245.1195773614163
 20
-222.2244580109846
 10
245.2060207618163
 20
-222.1739483986846
 10
245.2817890358162
 20
-222.0877891163846
 10
245.3439704514162
 20
-221.9692912168846
 10
245.3901754115162
 20
-221.8230085080846
 10
245.4186282855162
 20
-221.6545625523846
 10
245.4282356452162
 20
-221.4704266334846
  0
LWPOLYLINE
  5
6A4B
330
A
100
AcDbEntity
  8
0
100
AcDbPolyline
 90
        3
 70
   128
 43
0.0
 10
236.4282356452162
 20
-200.0491721354846
 10
236.3306904842162
 20
-200.0240038299846
 10
236.2804472811163
 20
-200.0260789531845
  0
ARC
  5
6A4C
330
A
100
AcDbEntity
  8
0
100
AcDbCircle
 10
236.2661983855163
 20
-206.0889784268845
 30
0.0
 40
1.37354443248459
100
AcDbArc
 50
354.7620086217986
 51
50.81677645159898
  0
LINE
  5
6A4D
330
A
100
AcDbEntity
  8
0
100
AcDbLine
 10
236.2679816074162
 20
-205.1537131176846
 30
0.0
 11
227.7679816074162
 21
-201.3432673609846
 31
0.0
  0
LINE
  5
6A4E
330
A
100
AcDbEntity
  8
0
100
AcDbLine
 10
236.7679816074162
 20
-222.7645218589846
 30
0.0
 11
236.7679816074162
 21
-206.3437828120846
 31
0.0
  0
LINE
  5
6A4F
330
A
100
AcDbEntity
  8
0
100
AcDbLine
 10
237.6340070112162
 20
-222.6351123363846
 30
0.0
 11
237.6340070112162
 21
-206.2143732894846
 31
0.0
  0
LINE
  5
6A50
330
A
100
AcDbEntity
  8
0
100
AcDbLine
 10
237.1340070112162
 20
-205.0243035951846
 30
0.0
 11
228.6340070112162
 21
-201.2138578384846
 31
0.0
  0
LWPOLYLINE
  5
6A51
330
A
100
AcDbEntity
  8
0
100
AcDbPolyline
 90
        8
 70
   128
 43
0.0
 10
237.2817953753163
 20
-223.3999874769846
 10
237.3253487274162
 20
-223.3891437139846
 10
237.4117921277162
 20
-223.3386341016845
 10
237.4875604018163
 20
-223.2524748192845
 10
237.5497418173162
 20
-223.1339769197846
 10
237.5959467774162
 20
-222.9876942109846
 10
237.6243996514163
 20
-222.8192482553845
 10
237.6340070112162
 20
-222.6351123363846
  0
LWPOLYLINE
  5
6A52
330
A
100
AcDbEntity
  8
0
100
AcDbPolyline
 90
        3
 70
   128
 43
0.0
 10
228.6340070112162
 20
-201.2138578384846
 10
228.5364618502163
 20
-201.1886895329845
 10
228.4862186471163
 20
-201.1907646560845
  0
ARC
  5
6A53
330
A
100
AcDbEntity
  8
0
100
AcDbCircle
 10
243.1944016158162
 20
-450.3988621238846
 30
0.0
 40
1.373544432485412
100
AcDbArc
 50
354.7620086217993
 51
50.81677645149856
  0
ARC
  5
6A54
330
A
100
AcDbEntity
  8
0
100
AcDbCircle
 10
244.0604270196162
 20
-450.2694526012846
 30
0.0
 40
1.373544432485195
100
AcDbArc
 50
354.7620086218008
 51
50.81677645149775
  0
LWPOLYLINE
  5
6A55
330
A
100
AcDbEntity
  8
0
100
AcDbPolyline
 90
        3
 70
   128
 43
0.0
 10
239.8122102415163
 20
-453.6108897020846
 10
239.3553397211163
 20
-453.5391117110846
 10
238.9957811524163
 20
-453.6939494091846
  0
LWPOLYLINE
  5
6A56
330
A
100
AcDbEntity
  8
0
100
AcDbPolyline
 90
       12
 70
   128
 43
0.0
 10
239.8825113371163
 20
-459.6280634609845
 10
240.0432257540162
 20
-459.6697466066846
 10
240.4847300371163
 20
-459.6045763445846
 10
240.8664779850162
 20
-459.2729036420845
 10
241.1545496173162
 20
-458.7041990741845
 10
241.3233485053163
 20
-457.9489945374846
 10
241.3578761271162
 20
-457.0743932692845
 10
241.2550645519162
 20
-456.1581074302845
 10
241.0240490393163
 20
-455.2815530383846
 10
240.6853563315162
 20
-454.5226157980845
 10
240.2690807618162
 20
-453.9487306135845
 10
239.8122102415163
 20
-453.6108897020846
  0
LINE
  5
6A57
330
A
100
AcDbEntity
  8
0
100
AcDbLine
 10
244.0622102415163
 20
-449.3341872921845
 30
0.0
 11
235.5622102415163
 21
-445.5237415354846
 31
0.0
  0
LINE
  5
6A58
330
A
100
AcDbEntity
  8
0
100
AcDbLine
 10
244.5622102415163
 20
-466.9449960334846
 30
0.0
 11
244.5622102415163
 21
-450.5242569864845
 31
0.0
  0
LWPOLYLINE
  5
6A59
330
A
100
AcDbEntity
  8
0
100
AcDbPolyline
 90
        9
 70
   128
 43
0.0
 10
244.0622102415163
 20
-467.6867779916846
 10
244.1597554025162
 20
-467.7119462971846
 10
244.2535519576163
 20
-467.6990274109846
 10
244.3399953580163
 20
-467.6485177986846
 10
244.4157636321163
 20
-467.5623585163846
 10
244.4779450476162
 20
-467.4438606168845
 10
244.5241500077162
 20
-467.2975779079845
 10
244.5526028817162
 20
-467.1291319523846
 10
244.5622102415163
 20
-466.9449960334846
  0
LINE
  5
6A5A
330
A
100
AcDbEntity
  8
0
100
AcDbLine
 10
237.6340070112162
 20
-464.8050933184846
 30
0.0
 11
244.0622102415163
 21
-467.6867779916846
 31
0.0
  0
LINE
  5
6A5B
330
A
100
AcDbEntity
  8
0
100
AcDbLine
 10
235.0622102415163
 20
-446.2655234936846
 30
0.0
 11
235.0622102415163
 21
-449.4407023890845
 31
0.0
  0
LWPOLYLINE
  5
6A5C
330
A
100
AcDbEntity
  8
0
100
AcDbPolyline
 90
        9
 70
   128
 43
0.0
 10
235.5622102415163
 20
-445.5237415354846
 10
235.4646650805163
 20
-445.4985732299846
 10
235.3708685253163
 20
-445.5114921161846
 10
235.2844251250162
 20
-445.5620017284846
 10
235.2086568509162
 20
-445.6481610107846
 10
235.1464754353162
 20
-445.7666589102845
 10
235.1002704752162
 20
-445.9129416190846
 10
235.0718176013163
 20
-446.0813875747846
 10
235.0622102415163
 20
-446.2655234936846
  0
LINE
  5
6A5D
330
A
100
AcDbEntity
  8
0
100
AcDbLine
 10
245.4282356452162
 20
-466.8155865108846
 30
0.0
 11
245.4282356452162
 21
-450.3948474639845
 31
0.0
  0
LINE
  5
6A5E
330
A
100
AcDbEntity
  8
0
100
AcDbLine
 10
244.9282356452162
 20
-449.2047777696846
 30
0.0
 11
236.4282356452162
 21
-445.3943320128845
 31
0.0
  0
LWPOLYLINE
  5
6A5F
330
A
100
AcDbEntity
  8
0
100
AcDbPolyline
 90
        8
 70
   128
 43
0.0
 10
245.0760240094163
 20
-467.5804616514846
 10
245.1195773614163
 20
-467.5696178884846
 10
245.2060207618163
 20
-467.5191082761846
 10
245.2817890358162
 20
-467.4329489937846
 10
245.3439704514162
 20
-467.3144510942845
 10
245.3901754115162
 20
-467.1681683854846
 10
245.4186282855162
 20
-466.9997224297846
 10
245.4282356452162
 20
-466.8155865108846
  0
LWPOLYLINE
  5
6A60
330
A
100
AcDbEntity
  8
0
100
AcDbPolyline
 90
        3
 70
   128
 43
0.0
 10
236.4282356452162
 20
-445.3943320128845
 10
236.3306904842162
 20
-445.3691637074846
 10
236.2804472811163
 20
-445.3712388305846
  0
ARC
  5
6A61
330
A
100
AcDbEntity
  8
0
100
AcDbCircle
 10
244.7443313324162
 20
-204.5040272420846
 30
0.0
 40
0.6867722162420854
100
AcDbArc
 50
354.7620086218039
 51
50.81677645159809
  0
ARC
  5
6A62
330
A
100
AcDbEntity
  8
0
100
AcDbCircle
 10
283.7154745027162
 20
-198.6805987272846
 30
0.0
 40
0.6867722162418746
100
AcDbArc
 50
354.7620086217975
 51
50.81677645159495
  0
LWPOLYLINE
  5
6A63
330
A
100
AcDbEntity
  8
0
100
AcDbPolyline
 90
        7
 70
   128
 43
0.0
 10
236.1782356452162
 20
-199.9371002014846
 10
236.1294630647162
 20
-199.9245160487845
 10
236.0825647872163
 20
-199.9309754917846
 10
236.0393430870163
 20
-199.9562302979846
 10
236.0014589500163
 20
-199.9993099391846
 10
235.9703682422163
 20
-200.0585588888846
 10
235.9646679263162
 20
-200.0732656238846
  0
LINE
  5
6A64
330
A
100
AcDbEntity
  8
0
100
AcDbLine
 10
245.1782356452162
 20
-203.9716898262845
 30
0.0
 11
236.1782356452162
 21
-199.9371002014846
 31
0.0
  0
LINE
  5
6A65
330
A
100
AcDbEntity
  8
0
100
AcDbLine
 10
245.4282356452162
 20
-204.5667246733846
 30
0.0
 11
245.4282356452162
 21
-221.9533895465846
 31
0.0
  0
LWPOLYLINE
  5
6A66
330
A
100
AcDbEntity
  8
0
100
AcDbPolyline
 90
        9
 70
   128
 43
0.0
 10
245.1782356452162
 20
-222.3242805256846
 10
245.2270082258162
 20
-222.3368646784846
 10
245.2739065033163
 20
-222.3304052353845
 10
245.3171282035163
 20
-222.3051504291846
 10
245.3550123405163
 20
-222.2620707880845
 10
245.3861030483163
 20
-222.2028218382845
 10
245.4092055284162
 20
-222.1296804838846
 10
245.4234319654163
 20
-222.0454575060846
 10
245.4282356452162
 20
-221.9533895465846
  0
LINE
  5
6A67
330
A
100
AcDbEntity
  8
0
100
AcDbLine
 10
245.1782356452162
 20
-222.3242805256846
 30
0.0
 11
245.0038183833162
 21
-222.2460914062846
 31
0.0
  0
LINE
  5
6A68
330
A
100
AcDbEntity
  8
0
100
AcDbLine
 10
284.3993788155162
 20
-198.7432961585846
 30
0.0
 11
284.3993788155162
 21
-216.1299610317845
 31
0.0
  0
LINE
  5
6A69
330
A
100
AcDbEntity
  8
0
100
AcDbLine
 10
284.1493788155162
 20
-198.1482613113845
 30
0.0
 11
275.1493788155162
 21
-194.1136716866846
 31
0.0
  0
LWPOLYLINE
  5
6A6A
330
A
100
AcDbEntity
  8
0
100
AcDbPolyline
 90
        8
 70
   128
 43
0.0
 10
284.3993788155162
 20
-216.1299610317845
 10
284.3945751357163
 20
-216.2220289912846
 10
284.3803486987163
 20
-216.3062519690845
 10
284.3572462186163
 20
-216.3793933234846
 10
284.3261555108163
 20
-216.4386422732846
 10
284.2882713738163
 20
-216.4817219143846
 10
284.2450496736163
 20
-216.5069767205846
 10
284.2232729976163
 20
-216.5123986020845
  0
LWPOLYLINE
  5
6A6B
330
A
100
AcDbEntity
  8
0
100
AcDbPolyline
 90
        3
 70
   128
 43
0.0
 10
275.0754846335163
 20
-194.1021250954846
 10
275.1006062350162
 20
-194.1010875338845
 10
275.1493788155162
 20
-194.1136716866846
  0
LWPOLYLINE
  5
6A6C
330
A
100
AcDbEntity
  8
0
100
AcDbPolyline
 90
        3
 70
   128
 43
0.0
 10
275.0754846335163
 20
-439.4472849728846
 10
275.1006062350162
 20
-439.4462474113845
 10
275.1493788155162
 20
-439.4588315640846
  0
LWPOLYLINE
  5
6A6D
330
A
100
AcDbEntity
  8
0
100
AcDbPolyline
 90
        8
 70
   128
 43
0.0
 10
284.3993788155162
 20
-461.4751209091846
 10
284.3945751357163
 20
-461.5671888686846
 10
284.3803486987163
 20
-461.6514118464846
 10
284.3572462186163
 20
-461.7245532008845
 10
284.3261555108163
 20
-461.7838021506846
 10
284.2882713738163
 20
-461.8268817918845
 10
284.2450496736163
 20
-461.8521365979846
 10
284.2232729976163
 20
-461.8575584794846
  0
LINE
  5
6A6E
330
A
100
AcDbEntity
  8
0
100
AcDbLine
 10
284.3993788155162
 20
-444.0884560359846
 30
0.0
 11
284.3993788155162
 21
-461.4751209091846
 31
0.0
  0
ARC
  5
6A6F
330
A
100
AcDbEntity
  8
0
100
AcDbCircle
 10
283.7154745027162
 20
-444.0257586046845
 30
0.0
 40
0.6867722162421469
100
AcDbArc
 50
354.7620086218001
 51
50.81677645159959
  0
LINE
  5
6A70
330
A
100
AcDbEntity
  8
0
100
AcDbLine
 10
284.1493788155162
 20
-443.4934211888846
 30
0.0
 11
275.1493788155162
 21
-439.4588315640846
 31
0.0
  0
ARC
  5
6A71
330
A
100
AcDbEntity
  8
0
100
AcDbCircle
 10
244.7443313324162
 20
-449.8491871194846
 30
0.0
 40
0.686772216242623
100
AcDbArc
 50
354.7620086217988
 51
50.81677645149775
  0
LWPOLYLINE
  5
6A72
330
A
100
AcDbEntity
  8
0
100
AcDbPolyline
 90
        7
 70
   128
 43
0.0
 10
236.1782356452162
 20
-445.2822600788846
 10
236.1294630647162
 20
-445.2696759261846
 10
236.0825647872163
 20
-445.2761353692846
 10
236.0393430870163
 20
-445.3013901753845
 10
236.0014589500163
 20
-445.3444698165846
 10
235.9703682422163
 20
-445.4037187662846
 10
235.9646679263162
 20
-445.4184255012846
  0
LINE
  5
6A73
330
A
100
AcDbEntity
  8
0
100
AcDbLine
 10
245.1782356452162
 20
-449.3168497036846
 30
0.0
 11
236.1782356452162
 21
-445.2822600788846
 31
0.0
  0
LINE
  5
6A74
330
A
100
AcDbEntity
  8
0
100
AcDbLine
 10
245.4282356452162
 20
-449.9118845507846
 30
0.0
 11
245.4282356452162
 21
-467.2985494239846
 31
0.0
  0
LWPOLYLINE
  5
6A75
330
A
100
AcDbEntity
  8
0
100
AcDbPolyline
 90
        9
 70
   128
 43
0.0
 10
245.1782356452162
 20
-467.6694404031846
 10
245.2270082258162
 20
-467.6820245558846
 10
245.2739065033163
 20
-467.6755651127846
 10
245.3171282035163
 20
-467.6503103066846
 10
245.3550123405163
 20
-467.6072306654846
 10
245.3861030483163
 20
-467.5479817157845
 10
245.4092055284162
 20
-467.4748403612846
 10
245.4234319654163
 20
-467.3906173834846
 10
245.4282356452162
 20
-467.2985494239846
  0
LINE
  5
6A76
330
A
100
AcDbEntity
  8
0
100
AcDbLine
 10
245.1782356452162
 20
-467.6694404031846
 30
0.0
 11
245.0038183833162
 21
-467.5912512836846
 31
0.0
  0
ARC
  5
6A77
330
A
100
AcDbEntity
  8
0
  6
Continuous
 62
     8
370
     0
100
AcDbCircle
 10
187.7876165770163
 20
-198.4567883977846
 30
0.0
 40
0.6867722162425175
100
AcDbArc
 50
354.7620086218027
 51
50.81677645149176
  0
ARC
  5
6A78
330
A
100
AcDbEntity
  8
0
  6
Continuous
 62
     8
370
     0
100
AcDbCircle
 10
188.2284616977163
 20
-197.0762397885845
 30
0.0
 40
1.463569917787408
100
AcDbArc
 50
252.5061756326971
 51
279.5595627655993
  0
ARC
  5
6A79
330
A
100
AcDbEntity
  8
0
  6
Continuous
 62
     8
370
     0
100
AcDbCircle
 10
188.3381541859162
 20
-198.4616812279846
 30
0.0
 40
0.5497450891330665
100
AcDbArc
 50
102.248897533401
 51
181.0878797104012
  0
LINE
  5
6A7A
330
A
100
AcDbEntity
  8
0
  6
Continuous
 62
     8
370
     0
100
AcDbLine
 10
188.4715208898162
 20
-198.5194858290846
 30
0.0
 11
188.4715208898162
 21
-492.1609370209845
 31
0.0
  0
ARC
  5
6A7B
330
A
100
AcDbEntity
  8
0
  6
Continuous
 62
     8
370
     0
100
AcDbCircle
 10
188.2284616977163
 20
-490.7176909804846
 30
0.0
 40
1.463569917788982
100
AcDbArc
 50
252.5061756328006
 51
279.5595627655979
  0
LINE
  5
6A7C
330
A
100
AcDbEntity
  8
0
  6
Continuous
 62
     8
370
     0
100
AcDbLine
 10
187.7885081879162
 20
-492.1135698482846
 30
0.0
 11
187.7885081879162
 21
-198.4721186563846
 31
0.0
  0
LINE
  5
6A7D
330
A
100
AcDbEntity
  8
0
  6
Continuous
 62
     8
370
     0
100
AcDbLine
 10
188.2215208898162
 20
-197.9244509819846
 30
0.0
 11
198.6138257352162
 21
-196.3715367113846
 31
0.0
  0
ARC
  5
6A7E
330
A
100
AcDbEntity
  8
0
  6
Continuous
 62
     8
370
     0
100
AcDbCircle
 10
198.1799214224162
 20
-196.9038741271846
 30
0.0
 40
0.6867722162427927
100
AcDbArc
 50
354.7620086217997
 51
50.81677645149938
  0
LINE
  5
6A7F
330
A
100
AcDbEntity
  8
0
  6
Continuous
 62
     8
370
     0
100
AcDbLine
 10
198.8638257352162
 20
-196.9665715584846
 30
0.0
 11
188.4715208898162
 21
-198.5194858290846
 31
0.0
  0
LINE
  5
6A80
330
A
100
AcDbEntity
  8
0
  6
Continuous
 62
     8
370
     0
100
AcDbLine
 10
198.8638257352162
 20
-490.6080227503846
 30
0.0
 11
198.8638257352162
 21
-196.9665715584846
 31
0.0
  0
LINE
  5
6A81
330
A
100
AcDbEntity
  8
0
  6
Continuous
 62
     8
370
     0
100
AcDbLine
 10
188.4715208898162
 20
-492.1609370209845
 30
0.0
 11
198.8638257352162
 21
-490.6080227503846
 31
0.0
  0
LINE
  5
6A82
330
A
100
AcDbEntity
  8
0
  6
Continuous
 62
     8
370
     0
100
AcDbLine
 10
176.2215208898162
 20
-192.5449981489846
 30
0.0
 11
188.2215208898162
 21
-197.9244509819846
 31
0.0
  0
LINE
  5
6A83
330
A
100
AcDbEntity
  8
0
  6
Continuous
 62
     8
370
     0
100
AcDbLine
 10
187.7885081879162
 20
-198.4721186563846
 30
0.0
 11
175.7885081879162
 21
-193.0926658233846
 31
0.0
  0
ARC
  5
6A84
330
A
100
AcDbEntity
  8
0
  6
Continuous
 62
     8
370
     0
100
AcDbCircle
 10
176.3381541859162
 20
-193.0822283949846
 30
0.0
 40
0.5497450891331012
100
AcDbArc
 50
102.2488975334003
 51
181.0878797104012
  0
LINE
  5
6A85
330
A
100
AcDbEntity
  8
0
  6
Continuous
 62
     8
370
     0
100
AcDbLine
 10
175.7885081879162
 20
-486.7341170152846
 30
0.0
 11
187.7885081879162
 21
-492.1135698482846
 31
0.0
  0
LINE
  5
6A86
330
A
100
AcDbEntity
  8
0
  6
Continuous
 62
     8
370
     0
100
AcDbLine
 10
175.7885081879162
 20
-193.0926658233846
 30
0.0
 11
175.7885081879162
 21
-486.7341170152846
 31
0.0
  0
LINE
  5
6A87
330
A
100
AcDbEntity
  8
0
  6
Continuous
 62
     8
370
     0
100
AcDbLine
 10
186.6138257352162
 20
-190.9920838782846
 30
0.0
 11
176.2215208898162
 21
-192.5449981489846
 31
0.0
  0
LINE
  5
6A88
330
A
100
AcDbEntity
  8
0
  6
Continuous
 62
     8
370
     0
100
AcDbLine
 10
198.6138257352162
 20
-196.3715367113846
 30
0.0
 11
186.6138257352162
 21
-190.9920838782846
 31
0.0
  0
ARC
  5
6A89
330
A
100
AcDbEntity
  8
0
  6
Continuous
 62
     8
370
     0
100
AcDbCircle
 10
198.6708951290162
 20
-196.7309841740846
 30
0.0
 40
0.3639497138276682
100
AcDbArc
 50
66.0979500754987
 51
99.02153663250104
  0
LWPOLYLINE
  5
6A8A
330
A
100
AcDbEntity
  8
0
  6
Continuous
 62
     8
370
     0
100
AcDbPolyline
 90
        7
 70
   128
 43
0.0
 10
199.1138257352162
 20
-196.8544996244846
 10
199.1127551968162
 20
-196.8629634121846
 10
199.0967886484162
 20
-196.8879932734845
 10
199.0622621060163
 20
-196.9117359926846
 10
199.0105024054162
 20
-196.9332791503846
 10
198.9434986428163
 20
-196.9517948549845
 10
198.8638257352162
 20
-196.9665715584846
  0
LWPOLYLINE
  5
6A8B
330
A
100
AcDbEntity
  8
0
  6
Continuous
 62
     8
370
     0
100
AcDbPolyline
 90
        7
 70
   128
 43
0.0
 10
198.8638257352162
 20
-490.6080227503846
 10
198.9434986428163
 20
-490.5932460468846
 10
199.0105024054162
 20
-490.5747303421846
 10
199.0622621060163
 20
-490.5531871845845
 10
199.0967886484162
 20
-490.5294444653846
 10
199.1127551968162
 20
-490.5044146040846
 10
199.1138257352162
 20
-490.4959508163845
  0
ARC
  5
6A8C
330
A
100
AcDbEntity
  8
0
  6
Continuous
 62
     8
370
     0
100
AcDbCircle
 10
186.6708951290162
 20
-191.3515313410845
 30
0.0
 40
0.3639497138283713
100
AcDbArc
 50
66.0979500754895
 51
99.02153663250186
  0
LINE
  5
6A8D
330
A
100
AcDbEntity
  8
0
  6
Continuous
 62
     8
370
     0
100
AcDbLine
 10
236.7679816074162
 20
-205.8608198988845
 30
0.0
 11
199.1138257352162
 21
-211.4874519955846
 31
0.0
  0
LINE
  5
6A8E
330
A
100
AcDbEntity
  8
0
  6
Continuous
 62
     8
370
     0
100
AcDbLine
 10
199.1138257352162
 20
-210.8550598370846
 30
0.0
 11
236.5179816074162
 21
-205.2657850517846
 31
0.0
  0
LINE
  5
6A8F
330
A
100
AcDbEntity
  8
0
  6
Continuous
 62
     8
370
     0
100
AcDbLine
 10
199.1138257352162
 20
-228.8741168687845
 30
0.0
 11
236.7679816074162
 21
-223.2474847720846
 31
0.0
  0
LINE
  5
6A90
330
A
100
AcDbEntity
  8
0
  6
Continuous
 62
     8
370
     0
100
AcDbLine
 10
227.5179816074162
 20
-201.2311954269845
 30
0.0
 11
199.1138257352162
 21
-205.4756070040846
 31
0.0
  0
ARC
  5
6A91
330
A
100
AcDbEntity
  8
0
  6
Continuous
 62
     8
370
     0
100
AcDbCircle
 10
175.8061480111163
 20
-193.0073761768846
 30
0.0
 40
0.0870947022483338
100
AcDbArc
 50
193.6712494456728
 51
258.3146961630515
  0
LWPOLYLINE
  5
6A92
330
A
100
AcDbEntity
  8
0
  6
Continuous
 62
     8
370
     0
100
AcDbPolyline
 90
        3
 70
   128
 43
0.0
 10
176.1476267077163
 20
-192.5334515577846
 10
176.1727483093163
 20
-192.5324139961846
 10
176.2215208898162
 20
-192.5449981489846
  0
ARC
  5
6A93
330
A
100
AcDbEntity
  8
0
  6
Continuous
 62
     8
370
     0
100
AcDbCircle
 10
175.8061480111163
 20
-486.6488273687846
 30
0.0
 40
0.0870947022482551
100
AcDbArc
 50
193.6712494456178
 51
258.3146961631134
  0
LWPOLYLINE
  5
6A94
330
A
100
AcDbEntity
  8
0
  6
Continuous
 62
     8
370
     0
100
AcDbPolyline
 90
        3
 70
   128
 43
0.0
 10
186.5399315532162
 20
-190.9805372871846
 10
186.5650531547162
 20
-190.9794997255846
 10
186.6138257352162
 20
-190.9920838782846
  0
LINE
  5
6A95
330
A
100
AcDbEntity
  8
0
  6
Continuous
 62
     8
370
     0
100
AcDbLine
 10
236.7679816074162
 20
-451.2059797763845
 30
0.0
 11
199.1138257352162
 21
-456.8326118730845
 31
0.0
  0
LINE
  5
6A96
330
A
100
AcDbEntity
  8
0
  6
Continuous
 62
     8
370
     0
100
AcDbLine
 10
199.1138257352162
 20
-456.2002197144845
 30
0.0
 11
236.5179816074162
 21
-450.6109449291845
 31
0.0
  0
LINE
  5
6A97
330
A
100
AcDbEntity
  8
0
  6
Continuous
 62
     8
370
     0
100
AcDbLine
 10
199.1138257352162
 20
-474.2192767462845
 30
0.0
 11
236.7679816074162
 21
-468.5926446495846
 31
0.0
  0
LWPOLYLINE
  5
6A98
330
A
100
AcDbEntity
  8
0
  6
Continuous
 62
     8
370
     0
100
AcDbPolyline
 90
        8
 70
   128
 43
0.0
 10
188.4715208898162
 20
-492.1609370209845
 10
188.4667172099163
 20
-492.2530049804845
 10
188.4524907729162
 20
-492.3372279582846
 10
188.4293882929162
 20
-492.4103693126846
 10
188.3982975851162
 20
-492.4696182624846
 10
188.3604134481162
 20
-492.5126979035846
 10
188.3171917479162
 20
-492.5379527097846
 10
188.2954150719163
 20
-492.5433745912845
  0
ARC
  5
6A99
330
A
100
AcDbEntity
  8
0
  6
Continuous
 62
     8
370
     0
100
AcDbCircle
 10
188.2015309399162
 20
-492.1349949251846
 30
0.0
 40
0.4135780791775783
100
AcDbArc
 50
177.0305094082981
 51
243.4992447704045
  0
LWPOLYLINE
  5
6A9A
330
A
100
AcDbEntity
  8
0
  6
Continuous
 62
     8
370
     0
100
AcDbPolyline
 90
        8
 70
   128
 43
0.0
 10
198.8638257352162
 20
-490.6080227503846
 10
198.8590220553162
 20
-490.7000907098845
 10
198.8447956183163
 20
-490.7843136876846
 10
198.8216931383163
 20
-490.8574550420846
 10
198.7906024305163
 20
-490.9167039917846
 10
198.7527182935163
 20
-490.9597836329846
 10
198.7094965933162
 20
-490.9850384391846
 10
198.6877199173163
 20
-490.9904603206846
  0
LINE
  5
6A9B
330
A
100
AcDbEntity
  8
0
  6
Continuous
 62
     8
370
     0
100
AcDbLine
 10
227.5179816074162
 20
-446.5763553043845
 30
0.0
 11
199.1138257352162
 21
-450.8207668814846
 31
0.0
  0
ARC
  5
6A9C
330
A
100
AcDbEntity
  8
0
  6
Continuous
 62
     8
370
     0
100
AcDbCircle
 10
176.2015309399162
 20
-486.7555420921846
 30
0.0
 40
0.4135780791775805
100
AcDbArc
 50
177.0305094083059
 51
243.4992447704045
  0
LINE
  5
6A9D
330
A
100
AcDbEntity
  8
0
  6
Continuous
 62
     8
370
     0
100
AcDbLine
 10
236.7679816074162
 20
-451.6889426894846
 30
0.0
 11
237.6340070112162
 21
-451.5595331668845
 31
0.0
  0
LINE
  5
6A9E
330
A
100
AcDbEntity
  8
0
  6
Continuous
 62
     8
370
     0
100
AcDbLine
 10
236.2679816074162
 20
-450.4988729951846
 30
0.0
 11
237.1340070112162
 21
-450.3694634725846
 31
0.0
  0
LINE
  5
6A9F
330
A
100
AcDbEntity
  8
0
  6
Continuous
 62
     8
370
     0
100
AcDbLine
 10
236.7679816074162
 20
-468.1096817363846
 30
0.0
 11
237.6340070112162
 21
-467.9802722138846
 31
0.0
  0
LINE
  5
6AA0
330
A
100
AcDbEntity
  8
0
  6
Continuous
 62
     8
370
     0
100
AcDbLine
 10
227.7679816074162
 20
-446.6884272384846
 30
0.0
 11
228.6340070112162
 21
-446.5590177158846
 31
0.0
  0
LINE
  5
6AA1
330
A
100
AcDbEntity
  8
0
  6
Continuous
 62
     8
370
     0
100
AcDbLine
 10
244.5622102415163
 20
-205.1790971090845
 30
0.0
 11
245.4282356452162
 21
-205.0496875865846
 31
0.0
  0
LINE
  5
6AA2
330
A
100
AcDbEntity
  8
0
  6
Continuous
 62
     8
370
     0
100
AcDbLine
 10
244.0622102415163
 20
-203.9890274147846
 30
0.0
 11
244.9282356452162
 21
-203.8596178921846
 31
0.0
  0
LINE
  5
6AA3
330
A
100
AcDbEntity
  8
0
  6
Continuous
 62
     8
370
     0
100
AcDbLine
 10
244.5622102415163
 20
-221.5998361559846
 30
0.0
 11
245.4282356452162
 21
-221.4704266334846
 31
0.0
  0
LINE
  5
6AA4
330
A
100
AcDbEntity
  8
0
  6
Continuous
 62
     8
370
     0
100
AcDbLine
 10
235.5622102415163
 20
-200.1785816580846
 30
0.0
 11
236.4282356452162
 21
-200.0491721354846
 31
0.0
  0
LINE
  5
6AA5
330
A
100
AcDbEntity
  8
0
  6
Continuous
 62
     8
370
     0
100
AcDbLine
 10
236.7679816074162
 20
-206.3437828120846
 30
0.0
 11
237.6340070112162
 21
-206.2143732894846
 31
0.0
  0
LINE
  5
6AA6
330
A
100
AcDbEntity
  8
0
  6
Continuous
 62
     8
370
     0
100
AcDbLine
 10
236.2679816074162
 20
-205.1537131176846
 30
0.0
 11
237.1340070112162
 21
-205.0243035951846
 31
0.0
  0
LINE
  5
6AA7
330
A
100
AcDbEntity
  8
0
  6
Continuous
 62
     8
370
     0
100
AcDbLine
 10
236.7679816074162
 20
-222.7645218589846
 30
0.0
 11
237.6340070112162
 21
-222.6351123363846
 31
0.0
  0
LINE
  5
6AA8
330
A
100
AcDbEntity
  8
0
  6
Continuous
 62
     8
370
     0
100
AcDbLine
 10
227.7679816074162
 20
-201.3432673609846
 30
0.0
 11
228.6340070112162
 21
-201.2138578384846
 31
0.0
  0
LINE
  5
6AA9
330
A
100
AcDbEntity
  8
0
  6
Continuous
 62
     8
370
     0
100
AcDbLine
 10
244.5622102415163
 20
-450.5242569864845
 30
0.0
 11
245.4282356452162
 21
-450.3948474639845
 31
0.0
  0
LINE
  5
6AAA
330
A
100
AcDbEntity
  8
0
  6
Continuous
 62
     8
370
     0
100
AcDbLine
 10
244.0622102415163
 20
-449.3341872921845
 30
0.0
 11
244.9282356452162
 21
-449.2047777696846
 31
0.0
  0
LINE
  5
6AAB
330
A
100
AcDbEntity
  8
0
  6
Continuous
 62
     8
370
     0
100
AcDbLine
 10
244.5622102415163
 20
-466.9449960334846
 30
0.0
 11
245.4282356452162
 21
-466.8155865108846
 31
0.0
  0
LINE
  5
6AAC
330
A
100
AcDbEntity
  8
0
  6
Continuous
 62
     8
370
     0
100
AcDbLine
 10
235.5622102415163
 20
-445.5237415354846
 30
0.0
 11
236.4282356452162
 21
-445.3943320128845
 31
0.0
  0
LINE
  5
6AAD
330
A
100
AcDbEntity
  8
0
  6
Continuous
 62
     8
370
     0
100
AcDbLine
 10
284.3993788155162
 20
-198.7432961585846
 30
0.0
 11
245.4282356452162
 21
-204.5667246733846
 31
0.0
  0
LINE
  5
6AAE
330
A
100
AcDbEntity
  8
0
  6
Continuous
 62
     8
370
     0
100
AcDbLine
 10
245.1782356452162
 20
-203.9716898262845
 30
0.0
 11
284.1493788155162
 21
-198.1482613113845
 31
0.0
  0
LINE
  5
6AAF
330
A
100
AcDbEntity
  8
0
  6
Continuous
 62
     8
370
     0
100
AcDbLine
 10
245.4282356452162
 20
-221.9533895465846
 30
0.0
 11
284.3993788155162
 21
-216.1299610317845
 31
0.0
  0
LINE
  5
6AB0
330
A
100
AcDbEntity
  8
0
  6
Continuous
 62
     8
370
     0
100
AcDbLine
 10
275.1493788155162
 20
-194.1136716866846
 30
0.0
 11
236.1782356452162
 21
-199.9371002014846
 31
0.0
  0
ARC
  5
6AB1
330
A
100
AcDbEntity
  8
0
  6
Continuous
 62
     8
370
     0
100
AcDbCircle
 10
285.6484872046162
 20
-183.8335123494846
 30
0.0
 40
0.6867722162425254
100
AcDbArc
 50
354.7620086218027
 51
50.81677645150509
  0
ARC
  5
6AB2
330
A
100
AcDbEntity
  8
0
  6
Continuous
 62
     8
370
     0
100
AcDbCircle
 10
286.0893323254163
 20
-182.4529637402845
 30
0.0
 40
1.463569917788672
100
AcDbArc
 50
252.5061756328011
 51
279.5595627656002
  0
ARC
  5
6AB3
330
A
100
AcDbEntity
  8
0
  6
Continuous
 62
     8
370
     0
100
AcDbCircle
 10
286.1990248135163
 20
-183.8384051796846
 30
0.0
 40
0.5497450891331
100
AcDbArc
 50
102.2488975334003
 51
181.0878797104012
  0
LINE
  5
6AB4
330
A
100
AcDbEntity
  8
0
  6
Continuous
 62
     8
370
     0
100
AcDbLine
 10
286.3323915174163
 20
-183.8962097807846
 30
0.0
 11
286.3323915174163
 21
-477.5376609726845
 31
0.0
  0
ARC
  5
6AB5
330
A
100
AcDbEntity
  8
0
  6
Continuous
 62
     8
370
     0
100
AcDbCircle
 10
286.0893323254163
 20
-476.0944149321846
 30
0.0
 40
1.463569917787782
100
AcDbArc
 50
252.5061756327992
 51
279.5595627656013
  0
LINE
  5
6AB6
330
A
100
AcDbEntity
  8
0
  6
Continuous
 62
     8
370
     0
100
AcDbLine
 10
285.6493788155162
 20
-477.4902937999846
 30
0.0
 11
285.6493788155162
 21
-183.8488426080846
 31
0.0
  0
LINE
  5
6AB7
330
A
100
AcDbEntity
  8
0
  6
Continuous
 62
     8
370
     0
100
AcDbLine
 10
286.0823915174163
 20
-183.3011749336846
 30
0.0
 11
296.4746963629162
 21
-181.7482606630846
 31
0.0
  0
ARC
  5
6AB8
330
A
100
AcDbEntity
  8
0
  6
Continuous
 62
     8
370
     0
100
AcDbCircle
 10
296.0407920500163
 20
-182.2805980788846
 30
0.0
 40
0.6867722162430576
100
AcDbArc
 50
354.7620086219015
 51
50.81677645150401
  0
LINE
  5
6AB9
330
A
100
AcDbEntity
  8
0
  6
Continuous
 62
     8
370
     0
100
AcDbLine
 10
296.7246963629162
 20
-182.3432955101846
 30
0.0
 11
286.3323915174163
 21
-183.8962097807846
 31
0.0
  0
LINE
  5
6ABA
330
A
100
AcDbEntity
  8
0
  6
Continuous
 62
     8
370
     0
100
AcDbLine
 10
296.7246963629162
 20
-475.9847467020846
 30
0.0
 11
296.7246963629162
 21
-182.3432955101846
 31
0.0
  0
LINE
  5
6ABB
330
A
100
AcDbEntity
  8
0
  6
Continuous
 62
     8
370
     0
100
AcDbLine
 10
286.3323915174163
 20
-477.5376609726845
 30
0.0
 11
296.7246963629162
 21
-475.9847467020846
 31
0.0
  0
LINE
  5
6ABC
330
A
100
AcDbEntity
  8
0
  6
Continuous
 62
     8
370
     0
100
AcDbLine
 10
285.6493788155162
 20
-183.8488426080846
 30
0.0
 11
273.6493788155162
 21
-178.4693897750846
 31
0.0
  0
ARC
  5
6ABD
330
A
100
AcDbEntity
  8
0
  6
Continuous
 62
     8
370
     0
100
AcDbCircle
 10
274.1990248135163
 20
-178.4589523466846
 30
0.0
 40
0.5497450891328755
100
AcDbArc
 50
102.2488975334054
 51
181.0878797104964
  0
LINE
  5
6ABE
330
A
100
AcDbEntity
  8
0
  6
Continuous
 62
     8
370
     0
100
AcDbLine
 10
274.0823915174163
 20
-177.9217221006846
 30
0.0
 11
286.0823915174163
 21
-183.3011749336846
 31
0.0
  0
LINE
  5
6ABF
330
A
100
AcDbEntity
  8
0
  6
Continuous
 62
     8
370
     0
100
AcDbLine
 10
273.6493788155162
 20
-472.1108409669846
 30
0.0
 11
285.6493788155162
 21
-477.4902937999846
 31
0.0
  0
LINE
  5
6AC0
330
A
100
AcDbEntity
  8
0
  6
Continuous
 62
     8
370
     0
100
AcDbLine
 10
273.6493788155162
 20
-178.4693897750846
 30
0.0
 11
273.6493788155162
 21
-194.3152270116846
 31
0.0
  0
LINE
  5
6AC1
330
A
100
AcDbEntity
  8
0
  6
Continuous
 62
     8
370
     0
100
AcDbLine
 10
273.6493788155162
 20
-218.0924476302846
 30
0.0
 11
273.6493788155162
 21
-439.6603868890846
 31
0.0
  0
LINE
  5
6AC2
330
A
100
AcDbEntity
  8
0
  6
Continuous
 62
     8
370
     0
100
AcDbLine
 10
273.6493788155162
 20
-463.4376075076846
 30
0.0
 11
273.6493788155162
 21
-472.1108409669846
 31
0.0
  0
LINE
  5
6AC3
330
A
100
AcDbEntity
  8
0
  6
Continuous
 62
     8
370
     0
100
AcDbLine
 10
284.4746963629162
 20
-176.3688078299846
 30
0.0
 11
274.0823915174163
 21
-177.9217221006846
 31
0.0
  0
LINE
  5
6AC4
330
A
100
AcDbEntity
  8
0
  6
Continuous
 62
     8
370
     0
100
AcDbLine
 10
296.4746963629162
 20
-181.7482606630846
 30
0.0
 11
284.4746963629162
 21
-176.3688078299846
 31
0.0
  0
ARC
  5
6AC5
330
A
100
AcDbEntity
  8
0
  6
Continuous
 62
     8
370
     0
100
AcDbCircle
 10
296.5317657566163
 20
-182.1077081257846
 30
0.0
 40
0.3639497138289066
100
AcDbArc
 50
66.09795007560571
 51
99.02153663250621
  0
LWPOLYLINE
  5
6AC6
330
A
100
AcDbEntity
  8
0
  6
Continuous
 62
     8
370
     0
100
AcDbPolyline
 90
        7
 70
   128
 43
0.0
 10
296.9746963629162
 20
-182.2312235761846
 10
296.9736258245163
 20
-182.2396873638846
 10
296.9576592760163
 20
-182.2647172252846
 10
296.9231327336163
 20
-182.2884599443846
 10
296.8713730330163
 20
-182.3100031020846
 10
296.8043692704163
 20
-182.3285188066845
 10
296.7246963629162
 20
-182.3432955101846
  0
LWPOLYLINE
  5
6AC7
330
A
100
AcDbEntity
  8
0
  6
Continuous
 62
     8
370
     0
100
AcDbPolyline
 90
        7
 70
   128
 43
0.0
 10
296.7246963629162
 20
-475.9847467020846
 10
296.8043692704163
 20
-475.9699699985846
 10
296.8713730330163
 20
-475.9514542939846
 10
296.9231327336163
 20
-475.9299111362845
 10
296.9576592760163
 20
-475.9061684170846
 10
296.9736258245163
 20
-475.8811385557846
 10
296.9746963629162
 20
-475.8726747680846
  0
ARC
  5
6AC8
330
A
100
AcDbEntity
  8
0
  6
Continuous
 62
     8
370
     0
100
AcDbCircle
 10
284.5317657566163
 20
-176.7282552927845
 30
0.0
 40
0.3639497138280893
100
AcDbArc
 50
66.09795007550773
 51
99.0215366325089
  0
LWPOLYLINE
  5
6AC9
330
A
100
AcDbEntity
  8
0
  6
Continuous
 62
     8
370
     0
100
AcDbPolyline
 90
        3
 70
   128
 43
0.0
 10
274.0084973354163
 20
-177.9101755094846
 10
274.0336189369162
 20
-177.9091379478846
 10
274.0823915174163
 20
-177.9217221006846
  0
ARC
  5
6ACA
330
A
100
AcDbEntity
  8
0
  6
Continuous
 62
     8
370
     0
100
AcDbCircle
 10
273.6670186387163
 20
-178.3841001285846
 30
0.0
 40
0.087094702248285
100
AcDbArc
 50
193.6712494456905
 51
258.3146961631209
  0
ARC
  5
6ACB
330
A
100
AcDbEntity
  8
0
  6
Continuous
 62
     8
370
     0
100
AcDbCircle
 10
273.6670186387163
 20
-472.0255513204846
 30
0.0
 40
0.0870947022482989
100
AcDbArc
 50
193.6712494456905
 51
258.3146961631209
  0
LWPOLYLINE
  5
6ACC
330
A
100
AcDbEntity
  8
0
  6
Continuous
 62
     8
370
     0
100
AcDbPolyline
 90
        3
 70
   128
 43
0.0
 10
284.4008021808163
 20
-176.3572612388846
 10
284.4259237824162
 20
-176.3562236772846
 10
284.4746963629162
 20
-176.3688078299846
  0
LINE
  5
6ACD
330
A
100
AcDbEntity
  8
0
  6
Continuous
 62
     8
370
     0
100
AcDbLine
 10
284.3993788155162
 20
-444.0884560359846
 30
0.0
 11
245.4282356452162
 21
-449.9118845507846
 31
0.0
  0
LINE
  5
6ACE
330
A
100
AcDbEntity
  8
0
  6
Continuous
 62
     8
370
     0
100
AcDbLine
 10
245.1782356452162
 20
-449.3168497036846
 30
0.0
 11
284.1493788155162
 21
-443.4934211888846
 31
0.0
  0
LINE
  5
6ACF
330
A
100
AcDbEntity
  8
0
  6
Continuous
 62
     8
370
     0
100
AcDbLine
 10
245.4282356452162
 20
-467.2985494239846
 30
0.0
 11
284.3993788155162
 21
-461.4751209091846
 31
0.0
  0
LINE
  5
6AD0
330
A
100
AcDbEntity
  8
0
  6
Continuous
 62
     8
370
     0
100
AcDbLine
 10
275.1493788155162
 20
-439.4588315640846
 30
0.0
 11
236.1782356452162
 21
-445.2822600788846
 31
0.0
  0
ARC
  5
6AD1
330
A
100
AcDbEntity
  8
0
  6
Continuous
 62
     8
370
     0
100
AcDbCircle
 10
286.0624015675163
 20
-477.5117188768846
 30
0.0
 40
0.4135780791779433
100
AcDbArc
 50
177.0305094083949
 51
243.4992447703974
  0
LWPOLYLINE
  5
6AD2
330
A
100
AcDbEntity
  8
0
  6
Continuous
 62
     8
370
     0
100
AcDbPolyline
 90
        8
 70
   128
 43
0.0
 10
286.1562856995163
 20
-477.9200985429845
 10
286.1780623755163
 20
-477.9146766614846
 10
286.2212840757163
 20
-477.8894218552846
 10
286.2591682127163
 20
-477.8463422141846
 10
286.2902589205163
 20
-477.7870932643846
 10
286.3133614006163
 20
-477.7139519099845
 10
286.3275878375163
 20
-477.6297289321845
 10
286.3323915174163
 20
-477.5376609726845
  0
LWPOLYLINE
  5
6AD3
330
A
100
AcDbEntity
  8
0
  6
Continuous
 62
     8
370
     0
100
AcDbPolyline
 90
        8
 70
   128
 43
0.0
 10
296.5485905449162
 20
-476.3671842723846
 10
296.5703672209163
 20
-476.3617623908846
 10
296.6135889211163
 20
-476.3365075846846
 10
296.6514730582163
 20
-476.2934279435846
 10
296.6825637659163
 20
-476.2341789937846
 10
296.7056662460163
 20
-476.1610376393846
 10
296.7198926830163
 20
-476.0768146615845
 10
296.7246963629162
 20
-475.9847467020846
  0
ARC
  5
6AD4
330
A
100
AcDbEntity
  8
0
  6
Continuous
 62
     8
370
     0
100
AcDbCircle
 10
274.0624015675163
 20
-472.1322660438846
 30
0.0
 40
0.4135780791775877
100
AcDbArc
 50
177.0305094082981
 51
243.499244770408
  0
ENDSEC
  0
SECTION
  2
OBJECTS
  0
DICTIONARY
  5
19
330
0
100
AcDbDictionary
281
     1
  3
ACAD_DETAILVIEWSTYLE
350
63CC
  3
ACAD_GROUP
350
1A
  3
ACAD_IMAGE_VARS
350
63CA
  3
ACAD_LAYOUT
350
1E
  3
ACAD_MLINESTYLE
350
1B
  3
ACAD_PLOTSETTINGS
350
22
  3
ACAD_PLOTSTYLENAME
350
1F
  3
ACAD_SCALELIST
350
3179
  3
ACAD_SECTIONVIEWSTYLE
350
63CD
  3
ACAD_WIPEOUT_VARS
350
23
  3
AcDbVariableDictionary
350
630B
  3
APPDATA
350
63C8
  3
ASE_INDEX_DICTIONARY
350
5E44
  3
DWGPROPS
350
6AEF
  0
DICTIONARY
  5
5E41
330
14
100
AcDbDictionary
280
     1
281
     1
  3
ADSK_XREC_LAYER_RECONCILED
360
5E42
  0
DICTIONARY
  5
31A7
330
A
100
AcDbDictionary
280
     1
281
     1
  3
ACAD_SORTENTS
360
31A8
  0
DICTIONARY
  5
63CC
102
{ACAD_REACTORS
330
19
102
}
330
19
100
AcDbDictionary
281
     1
  0
DICTIONARY
  5
1A
102
{ACAD_REACTORS
330
19
102
}
330
19
100
AcDbDictionary
281
     1
  0
RASTERVARIABLES
  5
63CA
102
{ACAD_REACTORS
330
19
102
}
330
19
100
AcDbRasterVariables
 90
        0
 70
     1
 71
     1
 72
     0
  0
DICTIONARY
  5
1E
102
{ACAD_REACTORS
330
19
102
}
330
19
100
AcDbDictionary
281
     1
  3
Layout1
350
21
  3
Model
350
20
  0
DICTIONARY
  5
1B
102
{ACAD_REACTORS
330
19
102
}
330
19
100
AcDbDictionary
281
     1
  3
Standard
350
1C
  0
DICTIONARY
  5
22
102
{ACAD_REACTORS
330
19
102
}
330
19
100
AcDbDictionary
281
     1
  0
ACDBDICTIONARYWDFLT
  5
1F
102
{ACAD_REACTORS
330
19
102
}
330
19
100
AcDbDictionary
281
     1
  3
Normal
350
1D
100
AcDbDictionaryWithDefault
340
1D
  0
DICTIONARY
  5
3179
102
{ACAD_REACTORS
330
19
102
}
330
19
100
AcDbDictionary
281
     1
  3
A0
350
317A
  3
A1
350
317B
  3
A2
350
317C
  3
A3
350
317D
  3
A4
350
317E
  3
A5
350
317F
  3
A6
350
3180
  3
A7
350
3181
  3
A8
350
3182
  3
A9
350
3183
  3
B0
350
3184
  3
B1
350
3185
  3
B2
350
3186
  3
B3
350
3187
  3
B4
350
3188
  3
B5
350
3189
  3
B6
350
318A
  3
B7
350
318B
  3
B8
350
318C
  3
B9
350
318D
  3
C0
350
318E
  3
C1
350
318F
  3
C2
350
3190
  3
C3
350
3191
  3
C4
350
3192
  3
C5
350
3193
  3
C6
350
3194
  3
C7
350
3195
  3
C8
350
3196
  3
C9
350
3197
  3
D0
350
3198
  3
D1
350
3199
  3
D2
350
319A
  0
DICTIONARY
  5
63CD
102
{ACAD_REACTORS
330
19
102
}
330
19
100
AcDbDictionary
281
     1
  0
WIPEOUTVARIABLES
  5
23
330
19
100
AcDbWipeoutVariables
 70
     1
  0
DICTIONARY
  5
630B
102
{ACAD_REACTORS
330
19
102
}
330
19
100
AcDbDictionary
281
     1
  3
DIMASSOC
350
6318
  3
INDEXCTL
350
6317
  3
SORTENTS
350
6316
  0
DICTIONARY
  5
63C8
102
{ACAD_REACTORS
330
19
102
}
330
19
100
AcDbDictionary
281
     1
  0
DICTIONARY
  5
5E44
102
{ACAD_REACTORS
330
19
102
}
330
19
100
AcDbDictionary
281
     1
  3
ASEBlockHierarchyIndexRecord
350
5E46
1001
DCO15
1040
1685075681.336
  0
XRECORD
  5
6AEF
102
{ACAD_REACTORS
330
19
102
}
330
19
100
AcDbXrecord
280
     1
  1
DWGPROPS COOKIE
  2

  3

  4

  6

  7

  8
raffaele
  9

300
=
301
=
302
=
303
=
304
=
305
=
306
=
307
=
308
=
309
=
 40
0.0
 41
2455303.644583333
 42
2457380.330124584
  1

 90
        0
  0
XRECORD
  5
5E42
102
{ACAD_REACTORS
330
5E41
102
}
330
5E41
100
AcDbXrecord
280
     1
290
     1
  0
SORTENTSTABLE
  5
31A8
102
{ACAD_REACTORS
330
31A7
102
}
330
31A7
100
AcDbSortentsTable
330
A
331
0
  5
5E30
  0
LAYOUT
  5
21
102
{ACAD_REACTORS
330
1E
102
}
330
1E
100
AcDbPlotSettings
  1

  2

  4

  6

 40
0.0
 41
0.0
 42
0.0
 43
0.0
 44
0.0
 45
0.0
 46
0.0
 47
0.0
 48
0.0
 49
0.0
140
0.0
141
0.0
142
1.0
143
1.0
 70
     0
 72
     0
 73
     0
 74
     0
  7

 75
     0
147
1.0
148
0.0
149
0.0
100
AcDbLayout
  1
Layout1
 70
     0
 71
     1
 10
0.0
 20
0.0
 11
12.0
 21
9.0
 12
0.0
 22
0.0
 32
0.0
 14
1.000000000000000E+20
 24
1.000000000000000E+20
 34
1.000000000000000E+20
 15
-1.000000000000000E+20
 25
-1.000000000000000E+20
 35
-1.000000000000000E+20
146
0.0
 13
0.0
 23
0.0
 33
0.0
 16
1.0
 26
0.0
 36
0.0
 17
0.0
 27
1.0
 37
0.0
 76
     0
330
B
  0
LAYOUT
  5
20
102
{ACAD_REACTORS
330
1E
102
}
330
1E
100
AcDbPlotSettings
  1

  2

  4

  6

 40
0.0
 41
0.0
 42
0.0
 43
0.0
 44
0.0
 45
0.0
 46
0.0
 47
0.0
 48
0.0
 49
0.0
140
0.0
141
0.0
142
1.0
143
1.0
 70
  1024
 72
     0
 73
     0
 74
     0
  7

 75
     0
147
1.0
148
0.0
149
0.0
100
AcDbLayout
  1
Model
 70
     0
 71
     0
 10
0.0
 20
0.0
 11
0.0
 21
0.0
 12
0.0
 22
0.0
 32
0.0
 14
-127.2354858255837
 24
-492.5488650869846
 34
0.0
 15
321.9535903154082
 25
75.64484005701547
 35
0.0
146
0.0
 13
0.0
 23
0.0
 33
0.0
 16
0.0
 26
0.0
 36
0.0
 17
0.0
 27
0.0
 37
0.0
 76
     0
330
A
331
15
  0
MLINESTYLE
  5
1C
102
{ACAD_REACTORS
330
1B
102
}
330
1B
100
AcDbMlineStyle
  2
STANDARD
 70
     0
  3

 62
     0
 51
90.0
 52
90.0
 71
     2
 49
0.5
 62
   256
  6
BYLAYER
 49
-0.5
 62
   256
  6
BYLAYER
  0
ACDBPLACEHOLDER
  5
1D
102
{ACAD_REACTORS
330
1F
102
}
330
1F
  0
SCALE
  5
317A
102
{ACAD_REACTORS
330
3179
102
}
330
3179
100
AcDbScale
 70
     0
300
1:1
140
1.0
141
1.0
290
     1
  0
SCALE
  5
317B
102
{ACAD_REACTORS
330
3179
102
}
330
3179
100
AcDbScale
 70
     0
300
1:2
140
1.0
141
2.0
290
     0
  0
SCALE
  5
317C
102
{ACAD_REACTORS
330
3179
102
}
330
3179
100
AcDbScale
 70
     0
300
1:4
140
1.0
141
4.0
290
     0
  0
SCALE
  5
317D
102
{ACAD_REACTORS
330
3179
102
}
330
3179
100
AcDbScale
 70
     0
300
1:5
140
1.0
141
5.0
290
     0
  0
SCALE
  5
317E
102
{ACAD_REACTORS
330
3179
102
}
330
3179
100
AcDbScale
 70
     0
300
1:8
140
1.0
141
8.0
290
     0
  0
SCALE
  5
317F
102
{ACAD_REACTORS
330
3179
102
}
330
3179
100
AcDbScale
 70
     0
300
1:10
140
1.0
141
10.0
290
     0
  0
SCALE
  5
3180
102
{ACAD_REACTORS
330
3179
102
}
330
3179
100
AcDbScale
 70
     0
300
1:16
140
1.0
141
16.0
290
     0
  0
SCALE
  5
3181
102
{ACAD_REACTORS
330
3179
102
}
330
3179
100
AcDbScale
 70
     0
300
1:20
140
1.0
141
20.0
290
     0
  0
SCALE
  5
3182
102
{ACAD_REACTORS
330
3179
102
}
330
3179
100
AcDbScale
 70
     0
300
1:30
140
1.0
141
30.0
290
     0
  0
SCALE
  5
3183
102
{ACAD_REACTORS
330
3179
102
}
330
3179
100
AcDbScale
 70
     0
300
1:40
140
1.0
141
40.0
290
     0
  0
SCALE
  5
3184
102
{ACAD_REACTORS
330
3179
102
}
330
3179
100
AcDbScale
 70
     0
300
1:50
140
1.0
141
50.0
290
     0
  0
SCALE
  5
3185
102
{ACAD_REACTORS
330
3179
102
}
330
3179
100
AcDbScale
 70
     0
300
1:100
140
1.0
141
100.0
290
     0
  0
SCALE
  5
3186
102
{ACAD_REACTORS
330
3179
102
}
330
3179
100
AcDbScale
 70
     0
300
2:1
140
2.0
141
1.0
290
     0
  0
SCALE
  5
3187
102
{ACAD_REACTORS
330
3179
102
}
330
3179
100
AcDbScale
 70
     0
300
4:1
140
4.0
141
1.0
290
     0
  0
SCALE
  5
3188
102
{ACAD_REACTORS
330
3179
102
}
330
3179
100
AcDbScale
 70
     0
300
8:1
140
8.0
141
1.0
290
     0
  0
SCALE
  5
3189
102
{ACAD_REACTORS
330
3179
102
}
330
3179
100
AcDbScale
 70
     0
300
10:1
140
10.0
141
1.0
290
     0
  0
SCALE
  5
318A
102
{ACAD_REACTORS
330
3179
102
}
330
3179
100
AcDbScale
 70
     0
300
100:1
140
100.0
141
1.0
290
     0
  0
SCALE
  5
318B
102
{ACAD_REACTORS
330
3179
102
}
330
3179
100
AcDbScale
 70
     0
300
1/128" = 1'-0"
140
0.0078125
141
12.0
290
     0
  0
SCALE
  5
318C
102
{ACAD_REACTORS
330
3179
102
}
330
3179
100
AcDbScale
 70
     0
300
1/64" = 1'-0"
140
0.015625
141
12.0
290
     0
  0
SCALE
  5
318D
102
{ACAD_REACTORS
330
3179
102
}
330
3179
100
AcDbScale
 70
     0
300
1/32" = 1'-0"
140
0.03125
141
12.0
290
     0
  0
SCALE
  5
318E
102
{ACAD_REACTORS
330
3179
102
}
330
3179
100
AcDbScale
 70
     0
300
1/16" = 1'-0"
140
0.0625
141
12.0
290
     0
  0
SCALE
  5
318F
102
{ACAD_REACTORS
330
3179
102
}
330
3179
100
AcDbScale
 70
     0
300
3/32" = 1'-0"
140
0.09375
141
12.0
290
     0
  0
SCALE
  5
3190
102
{ACAD_REACTORS
330
3179
102
}
330
3179
100
AcDbScale
 70
     0
300
1/8" = 1'-0"
140
0.125
141
12.0
290
     0
  0
SCALE
  5
3191
102
{ACAD_REACTORS
330
3179
102
}
330
3179
100
AcDbScale
 70
     0
300
3/16" = 1'-0"
140
0.1875
141
12.0
290
     0
  0
SCALE
  5
3192
102
{ACAD_REACTORS
330
3179
102
}
330
3179
100
AcDbScale
 70
     0
300
1/4" = 1'-0"
140
0.25
141
12.0
290
     0
  0
SCALE
  5
3193
102
{ACAD_REACTORS
330
3179
102
}
330
3179
100
AcDbScale
 70
     0
300
3/8" = 1'-0"
140
0.375
141
12.0
290
     0
  0
SCALE
  5
3194
102
{ACAD_REACTORS
330
3179
102
}
330
3179
100
AcDbScale
 70
     0
300
1/2" = 1'-0"
140
0.5
141
12.0
290
     0
  0
SCALE
  5
3195
102
{ACAD_REACTORS
330
3179
102
}
330
3179
100
AcDbScale
 70
     0
300
3/4" = 1'-0"
140
0.75
141
12.0
290
     0
  0
SCALE
  5
3196
102
{ACAD_REACTORS
330
3179
102
}
330
3179
100
AcDbScale
 70
     0
300
1" = 1'-0"
140
1.0
141
12.0
290
     0
  0
SCALE
  5
3197
102
{ACAD_REACTORS
330
3179
102
}
330
3179
100
AcDbScale
 70
     0
300
1-1/2" = 1'-0"
140
1.5
141
12.0
290
     0
  0
SCALE
  5
3198
102
{ACAD_REACTORS
330
3179
102
}
330
3179
100
AcDbScale
 70
     0
300
3" = 1'-0"
140
3.0
141
12.0
290
     0
  0
SCALE
  5
3199
102
{ACAD_REACTORS
330
3179
102
}
330
3179
100
AcDbScale
 70
     0
300
6" = 1'-0"
140
6.0
141
12.0
290
     0
  0
SCALE
  5
319A
102
{ACAD_REACTORS
330
3179
102
}
330
3179
100
AcDbScale
 70
     0
300
1'-0" = 1'-0"
140
12.0
141
12.0
290
     0
  0
DICTIONARYVAR
  5
6318
102
{ACAD_REACTORS
330
630B
102
}
330
630B
100
DictionaryVariables
280
     0
  1
1
  0
DICTIONARYVAR
  5
6317
102
{ACAD_REACTORS
330
630B
102
}
330
630B
100
DictionaryVariables
280
     0
  1
0
  0
DICTIONARYVAR
  5
6316
102
{ACAD_REACTORS
330
630B
102
}
330
630B
100
DictionaryVariables
280
     0
  1
127
  0
XRECORD
  5
5E46
102
{ACAD_REACTORS
330
5E44
102
}
330
5E44
100
AcDbXrecord
280
     1
  0
ENDSEC
  0
EOF
