  0
SECTION
  2
HEADER
  9
$ACADVER
  1
AC1015
  9
$ACADMAINTVER
 70
     6
  9
$DWGCODEPAGE
  3
ANSI_1252
  9
$INSBASE
 10
0.0
 20
0.0
 30
0.0
  9
$EXTMIN
 10
419.6126741676242
 20
-474.7704689972447
 30
0.0
  9
$EXTMAX
 10
832.4588155785914
 20
49.64685789773382
 30
0.0
  9
$LIMMIN
 10
-66.34999999999982
 20
-2008.85
  9
$LIMMAX
 10
3734.350000000001
 20
346.85
  9
$ORTHOMODE
 70
     1
  9
$REGENMODE
 70
     1
  9
$FILLMODE
 70
     1
  9
$QTEXTMODE
 70
     0
  9
$MIRRTEXT
 70
     1
  9
$LTSCALE
 40
10.0
  9
$ATTMODE
 70
     1
  9
$TEXTSIZE
 40
0.0
  9
$TRACEWID
 40
0.05
  9
$TEXTSTYLE
  7
Standard
  9
$CLAYER
  8
0
  9
$CELTYPE
  6
Continuous
  9
$CECOLOR
 62
   256
  9
$CELTSCALE
 40
1.0
  9
$DISPSILH
 70
     0
  9
$DIMSCALE
 40
1.0
  9
$DIMASZ
 40
1.25
  9
$DIMEXO
 40
0.0
  9
$DIMDLI
 40
0.38
  9
$DIMRND
 40
0.0
  9
$DIMDLE
 40
0.0
  9
$DIMEXE
 40
0.75
  9
$DIMTP
 40
0.0
  9
$DIMTM
 40
0.0
  9
$DIMTXT
 40
2.5
  9
$DIMCEN
 40
0.09
  9
$DIMTSZ
 40
0.0
  9
$DIMTOL
 70
     0
  9
$DIMLIM
 70
     0
  9
$DIMTIH
 70
     0
  9
$DIMTOH
 70
     0
  9
$DIMSE1
 70
     0
  9
$DIMSE2
 70
     0
  9
$DIMTAD
 70
     1
  9
$DIMZIN
 70
     0
  9
$DIMBLK
  1

  9
$DIMASO
 70
     1
  9
$DIMSHO
 70
     1
  9
$DIMPOST
  1

  9
$DIMAPOST
  1

  9
$DIMALT
 70
     0
  9
$DIMALTD
 70
     2
  9
$DIMALTF
 40
25.4
  9
$DIMLFAC
 40
1.0
  9
$DIMTOFL
 70
     0
  9
$DIMTVP
 40
0.0
  9
$DIMTIX
 70
     0
  9
$DIMSOXD
 70
     0
  9
$DIMSAH
 70
     0
  9
$DIMBLK1
  1

  9
$DIMBLK2
  1

  9
$DIMSTYLE
  2
Standard
  9
$DIMCLRD
 70
     7
  9
$DIMCLRE
 70
     7
  9
$DIMCLRT
 70
     7
  9
$DIMTFAC
 40
0.8
  9
$DIMGAP
 40
1.25
  9
$DIMJUST
 70
     0
  9
$DIMSD1
 70
     0
  9
$DIMSD2
 70
     0
  9
$DIMTOLJ
 70
     1
  9
$DIMTZIN
 70
     0
  9
$DIMALTZ
 70
     0
  9
$DIMALTTZ
 70
     0
  9
$DIMUPT
 70
     0
  9
$DIMDEC
 70
     2
  9
$DIMTDEC
 70
     2
  9
$DIMALTU
 70
     2
  9
$DIMALTTD
 70
     2
  9
$DIMTXSTY
  7
Standard
  9
$DIMAUNIT
 70
     0
  9
$DIMADEC
 70
     2
  9
$DIMALTRND
 40
0.0
  9
$DIMAZIN
 70
     0
  9
$DIMDSEP
 70
     0
  9
$DIMATFIT
 70
     3
  9
$DIMFRAC
 70
     0
  9
$DIMLDRBLK
  1

  9
$DIMLUNIT
 70
     2
  9
$DIMLWD
 70
     0
  9
$DIMLWE
 70
     0
  9
$DIMTMOVE
 70
     0
  9
$LUNITS
 70
     2
  9
$LUPREC
 70
     4
  9
$SKETCHINC
 40
0.1
  9
$FILLETRAD
 40
0.0
  9
$AUNITS
 70
     0
  9
$AUPREC
 70
     0
  9
$MENU
  1
acad
  9
$ELEVATION
 40
0.0
  9
$PELEVATION
 40
0.0
  9
$THICKNESS
 40
0.0
  9
$LIMCHECK
 70
     0
  9
$CHAMFERA
 40
0.0
  9
$CHAMFERB
 40
0.0
  9
$CHAMFERC
 40
0.0
  9
$CHAMFERD
 40
0.0
  9
$SKPOLY
 70
     0
  9
$TDCREATE
 40
2455303.68625
  9
$TDUCREATE
 40
2455303.644583333
  9
$TDUPDATE
 40
2457380.371458252
  9
$TDUUPDATE
 40
2457380.329791585
  9
$TDINDWG
 40
0.0180521759
  9
$TDUSRTIMER
 40
2457380.329612257
  9
$USRTIMER
 70
     1
  9
$ANGBASE
 50
0.0
  9
$ANGDIR
 70
     0
  9
$PDMODE
 70
     0
  9
$PDSIZE
 40
0.0
  9
$PLINEWID
 40
0.0
  9
$SPLFRAME
 70
     0
  9
$SPLINETYPE
 70
     6
  9
$SPLINESEGS
 70
     8
  9
$HANDSEED
  5
6B98
  9
$SURFTAB1
 70
     6
  9
$SURFTAB2
 70
     6
  9
$SURFTYPE
 70
     6
  9
$SURFU
 70
     6
  9
$SURFV
 70
     6
  9
$UCSBASE
  2

  9
$UCSNAME
  2

  9
$UCSORG
 10
0.0
 20
0.0
 30
0.0
  9
$UCSXDIR
 10
1.0
 20
0.0
 30
0.0
  9
$UCSYDIR
 10
0.0
 20
1.0
 30
0.0
  9
$UCSORTHOREF
  2

  9
$UCSORTHOVIEW
 70
     0
  9
$UCSORGTOP
 10
0.0
 20
0.0
 30
0.0
  9
$UCSORGBOTTOM
 10
0.0
 20
0.0
 30
0.0
  9
$UCSORGLEFT
 10
0.0
 20
0.0
 30
0.0
  9
$UCSORGRIGHT
 10
0.0
 20
0.0
 30
0.0
  9
$UCSORGFRONT
 10
0.0
 20
0.0
 30
0.0
  9
$UCSORGBACK
 10
0.0
 20
0.0
 30
0.0
  9
$PUCSBASE
  2

  9
$PUCSNAME
  2

  9
$PUCSORG
 10
0.0
 20
0.0
 30
0.0
  9
$PUCSXDIR
 10
1.0
 20
0.0
 30
0.0
  9
$PUCSYDIR
 10
0.0
 20
1.0
 30
0.0
  9
$PUCSORTHOREF
  2

  9
$PUCSORTHOVIEW
 70
     0
  9
$PUCSORGTOP
 10
0.0
 20
0.0
 30
0.0
  9
$PUCSORGBOTTOM
 10
0.0
 20
0.0
 30
0.0
  9
$PUCSORGLEFT
 10
0.0
 20
0.0
 30
0.0
  9
$PUCSORGRIGHT
 10
0.0
 20
0.0
 30
0.0
  9
$PUCSORGFRONT
 10
0.0
 20
0.0
 30
0.0
  9
$PUCSORGBACK
 10
0.0
 20
0.0
 30
0.0
  9
$USERI1
 70
     0
  9
$USERI2
 70
     0
  9
$USERI3
 70
     0
  9
$USERI4
 70
     0
  9
$USERI5
 70
     0
  9
$USERR1
 40
0.0
  9
$USERR2
 40
0.0
  9
$USERR3
 40
0.0
  9
$USERR4
 40
0.0
  9
$USERR5
 40
0.0
  9
$WORLDVIEW
 70
     1
  9
$SHADEDGE
 70
     3
  9
$SHADEDIF
 70
    70
  9
$TILEMODE
 70
     1
  9
$MAXACTVP
 70
    16
  9
$PINSBASE
 10
0.0
 20
0.0
 30
0.0
  9
$PLIMCHECK
 70
     0
  9
$PEXTMIN
 10
1.000000000000000E+20
 20
1.000000000000000E+20
 30
1.000000000000000E+20
  9
$PEXTMAX
 10
-1.000000000000000E+20
 20
-1.000000000000000E+20
 30
-1.000000000000000E+20
  9
$PLIMMIN
 10
0.0
 20
0.0
  9
$PLIMMAX
 10
0.0
 20
0.0
  9
$UNITMODE
 70
     0
  9
$VISRETAIN
 70
     0
  9
$PLINEGEN
 70
     1
  9
$PSLTSCALE
 70
     0
  9
$TREEDEPTH
 70
  3020
  9
$CMLSTYLE
  2
Standard
  9
$CMLJUST
 70
     0
  9
$CMLSCALE
 40
1.0
  9
$PROXYGRAPHICS
 70
     0
  9
$MEASUREMENT
 70
     1
  9
$CELWEIGHT
370
     0
  9
$ENDCAPS
280
     0
  9
$JOINSTYLE
280
     0
  9
$LWDISPLAY
290
     0
  9
$INSUNITS
 70
     0
  9
$HYPERLINKBASE
  1

  9
$STYLESHEET
  1

  9
$XEDIT
290
     1
  9
$CEPSNTYPE
380
     0
  9
$PSTYLEMODE
290
     1
  9
$FINGERPRINTGUID
  2

  9
$VERSIONGUID
  2
{F4EBED15-1162-4C99-A73B-43F77661297F}
  9
$EXTNAMES
290
     1
  9
$PSVPSCALE
 40
0.0
  9
$OLESTARTUP
290
     0
  0
ENDSEC
  0
SECTION
  2
CLASSES
  0
CLASS
  1
IMAGE
  2
AcDbRasterImage
  3
ISM
 90
      127
280
     0
281
     1
  0
CLASS
  1
DICTIONARYVAR
  2
AcDbDictionaryVar
  3
ObjectDBX Classes
 90
        0
280
     0
281
     0
  0
CLASS
  1
RASTERVARIABLES
  2
AcDbRasterVariables
  3
ISM
 90
        0
280
     0
281
     0
  0
CLASS
  1
IMAGEDEF
  2
AcDbRasterImageDef
  3
ISM
 90
        0
280
     0
281
     0
  0
CLASS
  1
IMAGEDEF_REACTOR
  2
AcDbRasterImageDefReactor
  3
ISM
 90
        1
280
     0
281
     0
  0
CLASS
  1
IDBUFFER
  2
AcDbIdBuffer
  3
ObjectDBX Classes
 90
        0
280
     0
281
     0
  0
CLASS
  1
SPATIAL_FILTER
  2
AcDbSpatialFilter
  3
ObjectDBX Classes
 90
        0
280
     0
281
     0
  0
CLASS
  1
SORTENTSTABLE
  2
AcDbSortentsTable
  3
ObjectDBX Classes
 90
        0
280
     0
281
     0
  0
CLASS
  1
LAYER_INDEX
  2
AcDbLayerIndex
  3
ObjectDBX Classes
 90
        0
280
     0
281
     0
  0
CLASS
  1
SPATIAL_INDEX
  2
AcDbSpatialIndex
  3
AutoCAD 2000
 90
        0
280
     0
281
     0
  0
CLASS
  1
OBJECT_PTR
  2
CAseDLPNTableRecord
  3
ASE-LPNTableRecord
 90
        1
280
     0
281
     0
  0
CLASS
  1
LAYOUT
  2
AcDbLayout
  3
ObjectDBX Classes
 90
        0
280
     0
281
     0
  0
CLASS
  1
PLOTSETTINGS
  2
AcDbPlotSettings
  3
ObjectDBX Classes
 90
        0
280
     0
281
     0
  0
CLASS
  1
ACDBDICTIONARYWDFLT
  2
AcDbDictionaryWithDefault
  3
ObjectDBX Classes
 90
        0
280
     0
281
     0
  0
CLASS
  1
ACDBPLACEHOLDER
  2
AcDbPlaceHolder
  3
ObjectDBX Classes
 90
        0
280
     0
281
     0
  0
CLASS
  1
VBA_PROJECT
  2
AcDbVbaProject
  3
ObjectDBX Classes
 90
        0
280
     0
281
     0
  0
CLASS
  1
WIPEOUT
  2
AcDbWipeout
  3
WipeOut|AutoCAD Express Tool|expresstools@autodesk.com
 90
      127
280
     0
281
     1
  0
CLASS
  1
WIPEOUTVARIABLES
  2
AcDbWipeoutVariables
  3
WipeOut|AutoCAD Express Tool|expresstools@autodesk.com
 90
        0
280
     0
281
     0
  0
CLASS
  1
RTEXT
  2
RText
  3
RText|AutoCAD Express Tool|expresstools@autodesk.com
 90
        0
280
     0
281
     1
  0
CLASS
  1
ARCALIGNEDTEXT
  2
AcDbArcAlignedText
  3
ATEXT|AutoCAD Express Tool|expresstools@autodesk.com
 90
        0
280
     0
281
     1
  0
CLASS
  1
MATERIAL
  2
AcDbMaterial
  3
ObjectDBX Classes
 90
     1153
280
     0
281
     0
  0
CLASS
  1
VISUALSTYLE
  2
AcDbVisualStyle
  3
ObjectDBX Classes
 90
     4095
280
     0
281
     0
  0
CLASS
  1
TABLESTYLE
  2
AcDbTableStyle
  3
ObjectDBX Classes
 90
     4095
280
     0
281
     0
  0
CLASS
  1
SCALE
  2
AcDbScale
  3
ObjectDBX Classes
 90
     1153
280
     0
281
     0
  0
CLASS
  1
MLEADERSTYLE
  2
AcDbMLeaderStyle
  3
ACDB_MLEADERSTYLE_CLASS
 90
     4095
280
     0
281
     0
  0
CLASS
  1
CELLSTYLEMAP
  2
AcDbCellStyleMap
  3
ObjectDBX Classes
 90
     1152
280
     0
281
     0
  0
CLASS
  1
SUN
  2
AcDbSun
  3
SCENEOE
 90
     1153
280
     0
281
     0
  0
ENDSEC
  0
SECTION
  2
TABLES
  0
TABLE
  2
VPORT
  5
7
330
0
100
AcDbSymbolTable
 70
     1
  0
VPORT
  5
15
330
7
100
AcDbSymbolTableRecord
100
AcDbViewportTableRecord
  2
*ACTIVE
 70
     0
 10
0.0
 20
0.0
 11
1.0
 21
1.0
 12
626.0357448731078
 22
-212.5618055497554
 13
0.0
 23
0.0
 14
1.0
 24
1.0
 15
0.0
 25
0.0
 16
0.0
 26
0.0
 36
1.0
 17
0.0
 27
0.0
 37
0.0
 40
534.9056734328781
 41
2.322535211267605
 42
50.0
 43
0.0
 44
0.0
 50
0.0
 51
0.0
 71
    16
 72
   100
 73
     1
 74
     1
 75
     0
 76
     0
 77
     0
 78
     0
281
     0
 65
     0
110
0.0
120
0.0
130
0.0
111
1.0
121
0.0
131
0.0
112
0.0
122
1.0
132
0.0
 79
     0
146
0.0
  0
ENDTAB
  0
TABLE
  2
LTYPE
  5
4
330
0
100
AcDbSymbolTable
 70
     2
  0
LTYPE
  5
11
330
4
100
AcDbSymbolTableRecord
100
AcDbLinetypeTableRecord
  2
ByBlock
 70
     0
  3

 72
    65
 73
     0
 40
0.0
  0
LTYPE
  5
12
330
4
100
AcDbSymbolTableRecord
100
AcDbLinetypeTableRecord
  2
ByLayer
 70
     0
  3

 72
    65
 73
     0
 40
0.0
  0
LTYPE
  5
13
330
4
100
AcDbSymbolTableRecord
100
AcDbLinetypeTableRecord
  2
Continuous
 70
     0
  3
Solid line
 72
    65
 73
     0
 40
0.0
  0
LTYPE
  5
1E4
330
4
100
AcDbSymbolTableRecord
100
AcDbLinetypeTableRecord
  2
CENTER
 70
     0
  3
____ _ ____ _ ____ _ ____ _ ____ _ ____ _ ____
 72
    65
 73
     4
 40
2.0
 49
1.25
 74
     0
 49
-0.25
 74
     0
 49
0.25
 74
     0
 49
-0.25
 74
     0
  0
ENDTAB
  0
TABLE
  2
LAYER
  5
2
330
0
100
AcDbSymbolTable
 70
     2
  0
LAYER
  5
14
102
{ACAD_XDICTIONARY
360
5E41
102
}
330
2
100
AcDbSymbolTableRecord
100
AcDbLayerTableRecord
  2
0
 70
     0
 62
     7
  6
Continuous
370
    -3
390
1D
  0
LAYER
  5
635B
330
2
100
AcDbSymbolTableRecord
100
AcDbLayerTableRecord
  2
Defpoints
 70
     0
 62
     7
  6
Continuous
290
     0
370
    -3
390
1D
  0
ENDTAB
  0
TABLE
  2
STYLE
  5
3
330
0
100
AcDbSymbolTable
 70
     1
  0
STYLE
  5
17
330
3
100
AcDbSymbolTableRecord
100
AcDbTextStyleTableRecord
  2
Standard
 70
     0
 40
0.0
 41
1.0
 50
0.0
 71
     0
 42
0.0
  3
I011000D.TTF
  4

1001
ACAD
1000
IsonormD
1071
        0
  0
ENDTAB
  0
TABLE
  2
VIEW
  5
5
330
0
100
AcDbSymbolTable
 70
     0
  0
ENDTAB
  0
TABLE
  2
UCS
  5
6
330
0
100
AcDbSymbolTable
 70
     0
  0
ENDTAB
  0
TABLE
  2
APPID
  5
8
330
0
100
AcDbSymbolTable
 70
     8
  0
APPID
  5
16
330
8
100
AcDbSymbolTableRecord
100
AcDbRegAppTableRecord
  2
ACAD
 70
     0
  0
APPID
  5
26
330
8
100
AcDbSymbolTableRecord
100
AcDbRegAppTableRecord
  2
TopSolid'Draft
 70
     0
  0
APPID
  5
319D
330
8
100
AcDbSymbolTableRecord
100
AcDbRegAppTableRecord
  2
ACAD_MLEADERVER
 70
     0
  0
APPID
  5
5E45
330
8
100
AcDbSymbolTableRecord
100
AcDbRegAppTableRecord
  2
DCO15
 70
     0
  0
APPID
  5
6340
330
8
100
AcDbSymbolTableRecord
100
AcDbRegAppTableRecord
  2
ACAD_EXEMPT_FROM_CAD_STANDARDS
 70
     0
  0
APPID
  5
636D
330
8
100
AcDbSymbolTableRecord
100
AcDbRegAppTableRecord
  2
ACAD_DSTYLE_DIMJAG
 70
     0
  0
APPID
  5
636E
330
8
100
AcDbSymbolTableRecord
100
AcDbRegAppTableRecord
  2
ACAD_DSTYLE_DIMTALN
 70
     0
  0
APPID
  5
66D4
330
8
100
AcDbSymbolTableRecord
100
AcDbRegAppTableRecord
  2
ACAD_DSTYLE_DIMRADIAL_EXTENSION
 70
     0
  0
ENDTAB
  0
TABLE
  2
DIMSTYLE
  5
9
330
0
100
AcDbSymbolTable
 70
     2
100
AcDbDimStyleTable
  0
DIMSTYLE
105
18
330
9
100
AcDbSymbolTableRecord
100
AcDbDimStyleTableRecord
  2
Standard
 70
     0
 41
1.25
 42
0.0
 44
0.75
 73
     0
 74
     0
 77
     1
140
2.5
146
0.8
147
1.25
176
     7
177
     7
271
     2
178
     7
271
     2
340
17
  0
DIMSTYLE
105
63CF
330
9
100
AcDbSymbolTableRecord
100
AcDbDimStyleTableRecord
  2
ISO-25
 70
     0
 41
2.5
 42
0.625
 43
3.75
 44
1.25
 73
     0
 74
     0
 77
     1
 78
     8
140
2.5
141
2.5
143
0.0393700787
147
0.625
171
     3
172
     1
178
     0
271
     2
272
     2
274
     3
278
    44
283
     0
284
     8
340
17
  0
ENDTAB
  0
TABLE
  2
BLOCK_RECORD
  5
1
330
0
100
AcDbSymbolTable
 70
     3
  0
BLOCK_RECORD
  5
A
102
{ACAD_XDICTIONARY
360
31A7
102
}
330
1
100
AcDbSymbolTableRecord
100
AcDbBlockTableRecord
  2
*MODEL_SPACE
340
20
  0
BLOCK_RECORD
  5
B
330
1
100
AcDbSymbolTableRecord
100
AcDbBlockTableRecord
  2
*PAPER_SPACE
340
21
  0
ENDTAB
  0
ENDSEC
  0
SECTION
  2
BLOCKS
  0
BLOCK
  5
D
330
A
100
AcDbEntity
  8
0
100
AcDbBlockBegin
  2
*MODEL_SPACE
 70
     0
 10
0.0
 20
0.0
 30
0.0
  3
*MODEL_SPACE
  1
*MODEL_SPACE
  0
ENDBLK
  5
E
330
A
100
AcDbEntity
  8
0
100
AcDbBlockEnd
  0
BLOCK
  5
F
330
B
100
AcDbEntity
 67
     1
  8
0
100
AcDbBlockBegin
  2
*PAPER_SPACE
 70
     0
 10
0.0
 20
0.0
 30
0.0
  3
*PAPER_SPACE
  1
*PAPER_SPACE
  0
ENDBLK
  5
10
330
B
100
AcDbEntity
 67
     1
  8
0
100
AcDbBlockEnd
  0
ENDSEC
  0
SECTION
  2
ENTITIES
  0
TEXT
  5
6327
330
A
100
AcDbEntity
  8
0
  6
Continuous
 62
     7
370
     0
100
AcDbText
 10
790.0482815436517
 20
39.63163931954865
 30
0.0
 40
10.0
  1
502W30
 50
359.78
100
AcDbText
  0
LINE
  5
6872
330
A
100
AcDbEntity
  8
0
100
AcDbLine
 10
819.6003849208242
 20
-79.49026200414471
 30
0.0
 11
819.6003849208242
 21
-71.49026200414471
 31
0.0
  0
LINE
  5
6873
330
A
100
AcDbEntity
  8
0
100
AcDbLine
 10
813.6003849208242
 20
-71.49026200414471
 30
0.0
 11
813.6003849208242
 21
-79.49026200414471
 31
0.0
  0
ARC
  5
6874
330
A
100
AcDbEntity
  8
0
100
AcDbCircle
 10
825.6003849208242
 20
-140.9902620041447
 30
0.0
 40
0.5000000000000568
100
AcDbArc
 50
270.0
 51
0.0
  0
ARC
  5
6875
330
A
100
AcDbEntity
  8
0
100
AcDbCircle
 10
807.6003849208242
 20
-140.9902620041447
 30
0.0
 40
0.5000000000000568
100
AcDbArc
 50
180.0
 51
270.0
  0
LINE
  5
6876
330
A
100
AcDbEntity
  8
0
100
AcDbLine
 10
826.1003849208242
 20
-80.49026200414471
 30
0.0
 11
826.1003849208242
 21
-140.9902620041447
 31
0.0
  0
LINE
  5
6877
330
A
100
AcDbEntity
  8
0
100
AcDbLine
 10
825.6003849208242
 20
-80.49026200414471
 30
0.0
 11
826.1003849208242
 21
-80.49026200414471
 31
0.0
  0
LINE
  5
6878
330
A
100
AcDbEntity
  8
0
100
AcDbLine
 10
825.6003849208242
 20
-141.4902620041447
 30
0.0
 11
807.6003849208242
 21
-141.4902620041447
 31
0.0
  0
CIRCLE
  5
6879
330
A
100
AcDbEntity
  8
0
100
AcDbCircle
 10
816.6003849208242
 20
-88.49026200414471
 30
0.0
 40
2.100000000000023
  0
LINE
  5
687A
330
A
100
AcDbEntity
  8
0
100
AcDbLine
 10
807.6003849208242
 20
-80.49026200414471
 30
0.0
 11
825.6003849208242
 21
-80.49026200414471
 31
0.0
  0
LINE
  5
687B
330
A
100
AcDbEntity
  8
0
100
AcDbLine
 10
807.1003849208242
 20
-140.9902620041447
 30
0.0
 11
807.1003849208242
 21
-80.49026200414471
 31
0.0
  0
LINE
  5
687C
330
A
100
AcDbEntity
  8
0
100
AcDbLine
 10
807.1003849208242
 20
-80.49026200414471
 30
0.0
 11
807.6003849208242
 21
-80.49026200414471
 31
0.0
  0
LINE
  5
687D
330
A
100
AcDbEntity
  8
0
100
AcDbLine
 10
826.1003849208242
 20
-71.49026200414471
 30
0.0
 11
826.1003849208242
 21
-70.49026200414471
 31
0.0
  0
LINE
  5
687E
330
A
100
AcDbEntity
  8
0
100
AcDbLine
 10
826.1003849208242
 20
-71.49026200414471
 30
0.0
 11
825.1003849208242
 21
-71.49026200414471
 31
0.0
  0
LINE
  5
687F
330
A
100
AcDbEntity
  8
0
100
AcDbLine
 10
807.1003849208242
 20
-71.49026200414471
 30
0.0
 11
807.1003849208242
 21
-70.49026200414471
 31
0.0
  0
LINE
  5
6880
330
A
100
AcDbEntity
  8
0
100
AcDbLine
 10
808.1003849208242
 20
-71.49026200414471
 30
0.0
 11
807.1003849208242
 21
-71.49026200414471
 31
0.0
  0
LINE
  5
6881
330
A
100
AcDbEntity
  8
0
100
AcDbLine
 10
825.1003849208242
 20
-70.49026200414471
 30
0.0
 11
808.1003849208242
 21
-70.49026200414471
 31
0.0
  0
LINE
  5
6882
330
A
100
AcDbEntity
  8
0
100
AcDbLine
 10
825.1003849208242
 20
-71.49026200414471
 30
0.0
 11
808.1003849208242
 21
-71.49026200414471
 31
0.0
  0
LINE
  5
6883
330
A
100
AcDbEntity
  8
0
100
AcDbLine
 10
826.1003849208242
 20
-80.49026200414471
 30
0.0
 11
826.1003849208242
 21
-79.49026200414471
 31
0.0
  0
LINE
  5
6884
330
A
100
AcDbEntity
  8
0
100
AcDbLine
 10
826.1003849208242
 20
-79.49026200414471
 30
0.0
 11
825.1003849208242
 21
-79.49026200414471
 31
0.0
  0
LINE
  5
6885
330
A
100
AcDbEntity
  8
0
100
AcDbLine
 10
825.1003849208242
 20
-80.49026200414471
 30
0.0
 11
808.1003849208242
 21
-80.49026200414471
 31
0.0
  0
LINE
  5
6886
330
A
100
AcDbEntity
  8
0
100
AcDbLine
 10
825.1003849208242
 20
-79.49026200414471
 30
0.0
 11
808.1003849208242
 21
-79.49026200414471
 31
0.0
  0
LINE
  5
6887
330
A
100
AcDbEntity
  8
0
100
AcDbLine
 10
807.1003849208242
 20
-80.49026200414471
 30
0.0
 11
807.1003849208242
 21
-79.49026200414471
 31
0.0
  0
LINE
  5
6888
330
A
100
AcDbEntity
  8
0
100
AcDbLine
 10
808.1003849208242
 20
-79.49026200414471
 30
0.0
 11
807.1003849208242
 21
-79.49026200414471
 31
0.0
  0
CIRCLE
  5
6889
330
A
100
AcDbEntity
  8
0
100
AcDbCircle
 10
816.6003849208242
 20
-88.49026200414471
 30
0.0
 40
1.750000000015475
  0
LINE
  5
688A
330
A
100
AcDbEntity
  8
0
100
AcDbLine
 10
815.2683060182242
 20
-87.93447505684475
 30
0.0
 11
815.4530198541242
 21
-89.36598269994471
 31
0.0
  0
LINE
  5
688B
330
A
100
AcDbEntity
  8
0
100
AcDbLine
 10
816.7850987566242
 20
-89.92176964724473
 30
0.0
 11
817.9324638233243
 21
-89.04604895144473
 31
0.0
  0
LINE
  5
688C
330
A
100
AcDbEntity
  8
0
100
AcDbLine
 10
817.9324638233243
 20
-89.04604895144473
 30
0.0
 11
817.7477499875242
 21
-87.61454130834471
 31
0.0
  0
LINE
  5
688D
330
A
100
AcDbEntity
  8
0
100
AcDbLine
 10
816.4156710850243
 20
-87.05875436104475
 30
0.0
 11
815.2683060182242
 21
-87.93447505684475
 31
0.0
  0
LINE
  5
688E
330
A
100
AcDbEntity
  8
0
100
AcDbLine
 10
817.7477499875242
 20
-87.61454130834471
 30
0.0
 11
816.4156710850243
 21
-87.05875436104475
 31
0.0
  0
LINE
  5
688F
330
A
100
AcDbEntity
  8
0
100
AcDbLine
 10
815.4530198541242
 20
-89.36598269994471
 30
0.0
 11
816.7850987566242
 21
-89.92176964724473
 31
0.0
  0
LINE
  5
6890
330
A
100
AcDbEntity
  8
0
100
AcDbLine
 10
807.1003849208242
 20
-70.49026200414471
 30
0.0
 11
807.1003849208242
 21
-9.99026200414471
 31
0.0
  0
LINE
  5
6891
330
A
100
AcDbEntity
  8
0
100
AcDbLine
 10
807.6003849208242
 20
-70.49026200414471
 30
0.0
 11
807.1003849208242
 21
-70.49026200414471
 31
0.0
  0
LINE
  5
6892
330
A
100
AcDbEntity
  8
0
100
AcDbLine
 10
807.6003849208242
 20
-70.49026200414471
 30
0.0
 11
825.6003849208242
 21
-70.49026200414471
 31
0.0
  0
LINE
  5
6893
330
A
100
AcDbEntity
  8
0
100
AcDbLine
 10
826.1003849208242
 20
-9.99026200414471
 30
0.0
 11
826.1003849208242
 21
-70.49026200414471
 31
0.0
  0
LINE
  5
6894
330
A
100
AcDbEntity
  8
0
100
AcDbLine
 10
826.1003849208242
 20
-70.49026200414471
 30
0.0
 11
825.6003849208242
 21
-70.49026200414471
 31
0.0
  0
ARC
  5
6895
330
A
100
AcDbEntity
  8
0
100
AcDbCircle
 10
825.6003849208242
 20
-9.99026200414471
 30
0.0
 40
0.5000000000000568
100
AcDbArc
 50
0.0
 51
90.0
  0
LINE
  5
6896
330
A
100
AcDbEntity
  8
0
100
AcDbLine
 10
807.6003849208242
 20
-9.49026200414471
 30
0.0
 11
825.6003849208242
 21
-9.49026200414471
 31
0.0
  0
ARC
  5
6897
330
A
100
AcDbEntity
  8
0
100
AcDbCircle
 10
807.6003849208242
 20
-9.99026200414471
 30
0.0
 40
0.5000000000000568
100
AcDbArc
 50
90.0
 51
180.0
  0
LINE
  5
6898
330
A
100
AcDbEntity
  8
0
  6
Continuous
 62
     8
370
     0
100
AcDbLine
 10
825.6003849208242
 20
-140.9902620041447
 30
0.0
 11
825.6003849208242
 21
-141.4902620041447
 31
0.0
  0
LINE
  5
6899
330
A
100
AcDbEntity
  8
0
  6
Continuous
 62
     8
370
     0
100
AcDbLine
 10
826.1003849208242
 20
-140.9902620041447
 30
0.0
 11
825.6003849208242
 21
-140.9902620041447
 31
0.0
  0
LINE
  5
689A
330
A
100
AcDbEntity
  8
0
  6
Continuous
 62
     8
370
     0
100
AcDbLine
 10
807.6003849208242
 20
-140.9902620041447
 30
0.0
 11
807.1003849208242
 21
-140.9902620041447
 31
0.0
  0
LINE
  5
689B
330
A
100
AcDbEntity
  8
0
  6
Continuous
 62
     8
370
     0
100
AcDbLine
 10
807.6003849208242
 20
-141.4902620041447
 30
0.0
 11
807.6003849208242
 21
-140.9902620041447
 31
0.0
  0
LINE
  5
689C
330
A
100
AcDbEntity
  8
0
  6
Continuous
 62
     8
370
     0
100
AcDbLine
 10
825.6003849208242
 20
-140.9902620041447
 30
0.0
 11
825.6003849208242
 21
-80.49026200414471
 31
0.0
  0
LINE
  5
689D
330
A
100
AcDbEntity
  8
0
  6
Continuous
 62
     8
370
     0
100
AcDbLine
 10
807.6003849208242
 20
-140.9902620041447
 30
0.0
 11
825.6003849208242
 21
-140.9902620041447
 31
0.0
  0
LINE
  5
689E
330
A
100
AcDbEntity
  8
0
  6
Continuous
 62
     8
370
     0
100
AcDbLine
 10
807.6003849208242
 20
-80.49026200414471
 30
0.0
 11
807.6003849208242
 21
-140.9902620041447
 31
0.0
  0
LINE
  5
689F
330
A
100
AcDbEntity
  8
0
  6
Continuous
 62
     8
370
     0
100
AcDbLine
 10
825.1003849208242
 20
-71.49026200414471
 30
0.0
 11
825.1003849208242
 21
-70.49026200414471
 31
0.0
  0
LINE
  5
68A0
330
A
100
AcDbEntity
  8
0
  6
Continuous
 62
     8
370
     0
100
AcDbLine
 10
808.1003849208242
 20
-71.49026200414471
 30
0.0
 11
808.1003849208242
 21
-70.49026200414471
 31
0.0
  0
LINE
  5
68A1
330
A
100
AcDbEntity
  8
0
  6
Continuous
 62
     8
370
     0
100
AcDbLine
 10
825.1003849208242
 20
-80.49026200414471
 30
0.0
 11
825.1003849208242
 21
-79.49026200414471
 31
0.0
  0
LINE
  5
68A2
330
A
100
AcDbEntity
  8
0
  6
Continuous
 62
     8
370
     0
100
AcDbLine
 10
808.1003849208242
 20
-80.49026200414471
 30
0.0
 11
808.1003849208242
 21
-79.49026200414471
 31
0.0
  0
LINE
  5
68A3
330
A
100
AcDbEntity
  8
0
  6
Continuous
 62
     8
370
     0
100
AcDbLine
 10
807.1003849208242
 20
-9.99026200414471
 30
0.0
 11
807.6003849208242
 21
-9.99026200414471
 31
0.0
  0
LINE
  5
68A4
330
A
100
AcDbEntity
  8
0
  6
Continuous
 62
     8
370
     0
100
AcDbLine
 10
807.6003849208242
 20
-9.99026200414471
 30
0.0
 11
807.6003849208242
 21
-70.49026200414471
 31
0.0
  0
LINE
  5
68A5
330
A
100
AcDbEntity
  8
0
  6
Continuous
 62
     8
370
     0
100
AcDbLine
 10
825.6003849208242
 20
-9.99026200414471
 30
0.0
 11
807.6003849208242
 21
-9.99026200414471
 31
0.0
  0
LINE
  5
68A6
330
A
100
AcDbEntity
  8
0
  6
Continuous
 62
     8
370
     0
100
AcDbLine
 10
825.6003849208242
 20
-70.49026200414471
 30
0.0
 11
825.6003849208242
 21
-9.99026200414471
 31
0.0
  0
LINE
  5
68A7
330
A
100
AcDbEntity
  8
0
  6
Continuous
 62
     8
370
     0
100
AcDbLine
 10
825.6003849208242
 20
-9.99026200414471
 30
0.0
 11
826.1003849208242
 21
-9.99026200414471
 31
0.0
  0
LINE
  5
68A8
330
A
100
AcDbEntity
  8
0
  6
Continuous
 62
     8
370
     0
100
AcDbLine
 10
825.6003849208242
 20
-9.99026200414471
 30
0.0
 11
825.6003849208242
 21
-9.49026200414471
 31
0.0
  0
LINE
  5
68A9
330
A
100
AcDbEntity
  8
0
  6
Continuous
 62
     8
370
     0
100
AcDbLine
 10
807.6003849208242
 20
-9.49026200414471
 30
0.0
 11
807.6003849208242
 21
-9.99026200414471
 31
0.0
  0
LINE
  5
68AA
330
A
100
AcDbEntity
  8
0
100
AcDbLine
 10
498.2042684159242
 20
-79.49026200414471
 30
0.0
 11
498.2042684159242
 21
-71.49026200414471
 31
0.0
  0
LINE
  5
68AB
330
A
100
AcDbEntity
  8
0
100
AcDbLine
 10
492.2042684159242
 20
-71.49026200414471
 30
0.0
 11
492.2042684159242
 21
-79.49026200414471
 31
0.0
  0
LINE
  5
68AC
330
A
100
AcDbEntity
  8
0
100
AcDbLine
 10
752.2042684159242
 20
-79.49026200414471
 30
0.0
 11
752.2042684159242
 21
-71.49026200414471
 31
0.0
  0
LINE
  5
68AD
330
A
100
AcDbEntity
  8
0
100
AcDbLine
 10
746.2042684159242
 20
-71.49026200414471
 30
0.0
 11
746.2042684159242
 21
-79.49026200414471
 31
0.0
  0
LINE
  5
68AE
330
A
100
AcDbEntity
  8
0
100
AcDbLine
 10
758.7042684159242
 20
-80.49026200414471
 30
0.0
 11
758.7042684159242
 21
-140.9902620041447
 31
0.0
  0
LINE
  5
68AF
330
A
100
AcDbEntity
  8
0
100
AcDbLine
 10
758.2042684159242
 20
-80.49026200414471
 30
0.0
 11
758.7042684159242
 21
-80.49026200414471
 31
0.0
  0
ARC
  5
68B0
330
A
100
AcDbEntity
  8
0
100
AcDbCircle
 10
758.2042684159242
 20
-140.9902620041447
 30
0.0
 40
0.5000000000000568
100
AcDbArc
 50
270.0
 51
0.0
  0
LINE
  5
68B1
330
A
100
AcDbEntity
  8
0
100
AcDbLine
 10
486.2042684159242
 20
-80.49026200414471
 30
0.0
 11
504.2042684159242
 21
-80.49026200414471
 31
0.0
  0
LINE
  5
68B2
330
A
100
AcDbEntity
  8
0
100
AcDbLine
 10
740.2042684159242
 20
-80.49026200414471
 30
0.0
 11
758.2042684159242
 21
-80.49026200414471
 31
0.0
  0
LINE
  5
68B3
330
A
100
AcDbEntity
  8
0
100
AcDbLine
 10
758.2042684159242
 20
-141.4902620041447
 30
0.0
 11
486.2042684159242
 21
-141.4902620041447
 31
0.0
  0
LINE
  5
68B4
330
A
100
AcDbEntity
  8
0
100
AcDbLine
 10
504.2042684159242
 20
-122.9902620041447
 30
0.0
 11
504.7042684159242
 21
-122.4902620041447
 31
0.0
  0
LINE
  5
68B5
330
A
100
AcDbEntity
  8
0
100
AcDbLine
 10
504.7042684159242
 20
-122.4902620041447
 30
0.0
 11
739.7042684159242
 21
-122.4902620041447
 31
0.0
  0
LINE
  5
68B6
330
A
100
AcDbEntity
  8
0
100
AcDbLine
 10
740.2042684159242
 20
-122.9902620041447
 30
0.0
 11
739.7042684159242
 21
-122.4902620041447
 31
0.0
  0
LINE
  5
68B7
330
A
100
AcDbEntity
  8
0
100
AcDbLine
 10
739.7042684159242
 20
-122.4902620041447
 30
0.0
 11
739.7042684159242
 21
-80.49026200414471
 31
0.0
  0
LINE
  5
68B8
330
A
100
AcDbEntity
  8
0
100
AcDbLine
 10
739.7042684159242
 20
-80.49026200414471
 30
0.0
 11
740.2042684159242
 21
-80.49026200414471
 31
0.0
  0
LINE
  5
68B9
330
A
100
AcDbEntity
  8
0
100
AcDbLine
 10
504.7042684159242
 20
-80.49026200414471
 30
0.0
 11
504.7042684159242
 21
-122.4902620041447
 31
0.0
  0
LINE
  5
68BA
330
A
100
AcDbEntity
  8
0
100
AcDbLine
 10
504.2042684159242
 20
-80.49026200414471
 30
0.0
 11
504.7042684159242
 21
-80.49026200414471
 31
0.0
  0
LINE
  5
68BB
330
A
100
AcDbEntity
  8
0
100
AcDbLine
 10
485.7042684159242
 20
-140.9902620041447
 30
0.0
 11
485.7042684159242
 21
-80.49026200414471
 31
0.0
  0
LINE
  5
68BC
330
A
100
AcDbEntity
  8
0
100
AcDbLine
 10
485.7042684159242
 20
-80.49026200414471
 30
0.0
 11
486.2042684159242
 21
-80.49026200414471
 31
0.0
  0
ARC
  5
68BD
330
A
100
AcDbEntity
  8
0
100
AcDbCircle
 10
486.2042684159242
 20
-140.9902620041447
 30
0.0
 40
0.5000000000000568
100
AcDbArc
 50
180.0
 51
270.0
  0
LINE
  5
68BE
330
A
100
AcDbEntity
  8
0
100
AcDbLine
 10
757.7042684159242
 20
-71.49026200414471
 30
0.0
 11
740.7042684159242
 21
-71.49026200414471
 31
0.0
  0
LINE
  5
68BF
330
A
100
AcDbEntity
  8
0
100
AcDbLine
 10
757.7042684159242
 20
-70.49026200414471
 30
0.0
 11
740.7042684159242
 21
-70.49026200414471
 31
0.0
  0
LINE
  5
68C0
330
A
100
AcDbEntity
  8
0
100
AcDbLine
 10
758.7042684159242
 20
-71.49026200414471
 30
0.0
 11
758.7042684159242
 21
-70.49026200414471
 31
0.0
  0
LINE
  5
68C1
330
A
100
AcDbEntity
  8
0
100
AcDbLine
 10
758.7042684159242
 20
-71.49026200414471
 30
0.0
 11
757.7042684159242
 21
-71.49026200414471
 31
0.0
  0
LINE
  5
68C2
330
A
100
AcDbEntity
  8
0
100
AcDbLine
 10
739.7042684159242
 20
-71.49026200414471
 30
0.0
 11
739.7042684159242
 21
-70.49026200414471
 31
0.0
  0
LINE
  5
68C3
330
A
100
AcDbEntity
  8
0
100
AcDbLine
 10
740.7042684159242
 20
-71.49026200414471
 30
0.0
 11
739.7042684159242
 21
-71.49026200414471
 31
0.0
  0
LINE
  5
68C4
330
A
100
AcDbEntity
  8
0
100
AcDbLine
 10
757.7042684159242
 20
-80.49026200414471
 30
0.0
 11
740.7042684159242
 21
-80.49026200414471
 31
0.0
  0
LINE
  5
68C5
330
A
100
AcDbEntity
  8
0
100
AcDbLine
 10
757.7042684159242
 20
-79.49026200414471
 30
0.0
 11
740.7042684159242
 21
-79.49026200414471
 31
0.0
  0
LINE
  5
68C6
330
A
100
AcDbEntity
  8
0
100
AcDbLine
 10
758.7042684159242
 20
-80.49026200414471
 30
0.0
 11
758.7042684159242
 21
-79.49026200414471
 31
0.0
  0
LINE
  5
68C7
330
A
100
AcDbEntity
  8
0
100
AcDbLine
 10
758.7042684159242
 20
-79.49026200414471
 30
0.0
 11
757.7042684159242
 21
-79.49026200414471
 31
0.0
  0
LINE
  5
68C8
330
A
100
AcDbEntity
  8
0
100
AcDbLine
 10
739.7042684159242
 20
-80.49026200414471
 30
0.0
 11
739.7042684159242
 21
-79.49026200414471
 31
0.0
  0
LINE
  5
68C9
330
A
100
AcDbEntity
  8
0
100
AcDbLine
 10
740.7042684159242
 20
-79.49026200414471
 30
0.0
 11
739.7042684159242
 21
-79.49026200414471
 31
0.0
  0
LINE
  5
68CA
330
A
100
AcDbEntity
  8
0
100
AcDbLine
 10
503.7042684159242
 20
-71.49026200414471
 30
0.0
 11
486.7042684159242
 21
-71.49026200414471
 31
0.0
  0
LINE
  5
68CB
330
A
100
AcDbEntity
  8
0
100
AcDbLine
 10
503.7042684159242
 20
-70.49026200414471
 30
0.0
 11
486.7042684159242
 21
-70.49026200414471
 31
0.0
  0
LINE
  5
68CC
330
A
100
AcDbEntity
  8
0
100
AcDbLine
 10
504.7042684159242
 20
-71.49026200414471
 30
0.0
 11
504.7042684159242
 21
-70.49026200414471
 31
0.0
  0
LINE
  5
68CD
330
A
100
AcDbEntity
  8
0
100
AcDbLine
 10
504.7042684159242
 20
-71.49026200414471
 30
0.0
 11
503.7042684159242
 21
-71.49026200414471
 31
0.0
  0
LINE
  5
68CE
330
A
100
AcDbEntity
  8
0
100
AcDbLine
 10
485.7042684159242
 20
-71.49026200414471
 30
0.0
 11
485.7042684159242
 21
-70.49026200414471
 31
0.0
  0
LINE
  5
68CF
330
A
100
AcDbEntity
  8
0
100
AcDbLine
 10
486.7042684159242
 20
-71.49026200414471
 30
0.0
 11
485.7042684159242
 21
-71.49026200414471
 31
0.0
  0
LINE
  5
68D0
330
A
100
AcDbEntity
  8
0
100
AcDbLine
 10
503.7042684159242
 20
-80.49026200414471
 30
0.0
 11
486.7042684159242
 21
-80.49026200414471
 31
0.0
  0
LINE
  5
68D1
330
A
100
AcDbEntity
  8
0
100
AcDbLine
 10
503.7042684159242
 20
-79.49026200414471
 30
0.0
 11
486.7042684159242
 21
-79.49026200414471
 31
0.0
  0
LINE
  5
68D2
330
A
100
AcDbEntity
  8
0
100
AcDbLine
 10
504.7042684159242
 20
-80.49026200414471
 30
0.0
 11
504.7042684159242
 21
-79.49026200414471
 31
0.0
  0
LINE
  5
68D3
330
A
100
AcDbEntity
  8
0
100
AcDbLine
 10
504.7042684159242
 20
-79.49026200414471
 30
0.0
 11
503.7042684159242
 21
-79.49026200414471
 31
0.0
  0
LINE
  5
68D4
330
A
100
AcDbEntity
  8
0
100
AcDbLine
 10
485.7042684159242
 20
-80.49026200414471
 30
0.0
 11
485.7042684159242
 21
-79.49026200414471
 31
0.0
  0
LINE
  5
68D5
330
A
100
AcDbEntity
  8
0
100
AcDbLine
 10
486.7042684159242
 20
-79.49026200414471
 30
0.0
 11
485.7042684159242
 21
-79.49026200414471
 31
0.0
  0
LINE
  5
68D6
330
A
100
AcDbEntity
  8
0
100
AcDbLine
 10
758.7042684159242
 20
-9.99026200414471
 30
0.0
 11
758.7042684159242
 21
-70.49026200414471
 31
0.0
  0
LINE
  5
68D7
330
A
100
AcDbEntity
  8
0
100
AcDbLine
 10
758.7042684159242
 20
-70.49026200414471
 30
0.0
 11
758.2042684159242
 21
-70.49026200414471
 31
0.0
  0
ARC
  5
68D8
330
A
100
AcDbEntity
  8
0
100
AcDbCircle
 10
758.2042684159242
 20
-9.99026200414471
 30
0.0
 40
0.4999999999999432
100
AcDbArc
 50
0.0
 51
90.0
  0
LINE
  5
68D9
330
A
100
AcDbEntity
  8
0
100
AcDbLine
 10
504.2042684159242
 20
-70.49026200414471
 30
0.0
 11
486.2042684159242
 21
-70.49026200414471
 31
0.0
  0
LINE
  5
68DA
330
A
100
AcDbEntity
  8
0
100
AcDbLine
 10
758.2042684159242
 20
-70.49026200414471
 30
0.0
 11
740.2042684159242
 21
-70.49026200414471
 31
0.0
  0
LINE
  5
68DB
330
A
100
AcDbEntity
  8
0
100
AcDbLine
 10
486.2042684159242
 20
-9.49026200414471
 30
0.0
 11
758.2042684159242
 21
-9.49026200414471
 31
0.0
  0
LINE
  5
68DC
330
A
100
AcDbEntity
  8
0
100
AcDbLine
 10
739.7042684159242
 20
-70.49026200414471
 30
0.0
 11
739.7042684159242
 21
-28.49026200414471
 31
0.0
  0
LINE
  5
68DD
330
A
100
AcDbEntity
  8
0
100
AcDbLine
 10
740.2042684159242
 20
-27.99026200414471
 30
0.0
 11
739.7042684159242
 21
-28.49026200414471
 31
0.0
  0
LINE
  5
68DE
330
A
100
AcDbEntity
  8
0
100
AcDbLine
 10
740.2042684159242
 20
-70.49026200414471
 30
0.0
 11
739.7042684159242
 21
-70.49026200414471
 31
0.0
  0
LINE
  5
68DF
330
A
100
AcDbEntity
  8
0
100
AcDbLine
 10
739.7042684159242
 20
-28.49026200414471
 30
0.0
 11
504.7042684159242
 21
-28.49026200414471
 31
0.0
  0
LINE
  5
68E0
330
A
100
AcDbEntity
  8
0
100
AcDbLine
 10
504.2042684159242
 20
-27.99026200414471
 30
0.0
 11
504.7042684159242
 21
-28.49026200414471
 31
0.0
  0
LINE
  5
68E1
330
A
100
AcDbEntity
  8
0
100
AcDbLine
 10
504.7042684159242
 20
-28.49026200414471
 30
0.0
 11
504.7042684159242
 21
-70.49026200414471
 31
0.0
  0
LINE
  5
68E2
330
A
100
AcDbEntity
  8
0
100
AcDbLine
 10
504.7042684159242
 20
-70.49026200414471
 30
0.0
 11
504.2042684159242
 21
-70.49026200414471
 31
0.0
  0
LINE
  5
68E3
330
A
100
AcDbEntity
  8
0
100
AcDbLine
 10
485.7042684159242
 20
-70.49026200414471
 30
0.0
 11
485.7042684159242
 21
-9.99026200414471
 31
0.0
  0
LINE
  5
68E4
330
A
100
AcDbEntity
  8
0
100
AcDbLine
 10
486.2042684159242
 20
-70.49026200414471
 30
0.0
 11
485.7042684159242
 21
-70.49026200414471
 31
0.0
  0
ARC
  5
68E5
330
A
100
AcDbEntity
  8
0
100
AcDbCircle
 10
486.2042684159242
 20
-9.99026200414471
 30
0.0
 40
0.5000000000000568
100
AcDbArc
 50
90.0
 51
180.0
  0
LINE
  5
68E6
330
A
100
AcDbEntity
  8
0
  6
Continuous
 62
     8
370
     0
100
AcDbLine
 10
758.7042684159242
 20
-140.9902620041447
 30
0.0
 11
758.2042684159242
 21
-140.9902620041447
 31
0.0
  0
LINE
  5
68E7
330
A
100
AcDbEntity
  8
0
  6
Continuous
 62
     8
370
     0
100
AcDbLine
 10
758.2042684159242
 20
-140.9902620041447
 30
0.0
 11
758.2042684159242
 21
-80.49026200414471
 31
0.0
  0
LINE
  5
68E8
330
A
100
AcDbEntity
  8
0
  6
Continuous
 62
     8
370
     0
100
AcDbLine
 10
758.2042684159242
 20
-140.9902620041447
 30
0.0
 11
758.2042684159242
 21
-141.4902620041447
 31
0.0
  0
LINE
  5
68E9
330
A
100
AcDbEntity
  8
0
  6
Continuous
 62
     8
370
     0
100
AcDbLine
 10
486.2042684159242
 20
-80.49026200414471
 30
0.0
 11
486.2042684159242
 21
-140.9902620041447
 31
0.0
  0
LINE
  5
68EA
330
A
100
AcDbEntity
  8
0
  6
Continuous
 62
     8
370
     0
100
AcDbLine
 10
504.2042684159242
 20
-122.9902620041447
 30
0.0
 11
504.2042684159242
 21
-80.49026200414471
 31
0.0
  0
LINE
  5
68EB
330
A
100
AcDbEntity
  8
0
  6
Continuous
 62
     8
370
     0
100
AcDbLine
 10
740.2042684159242
 20
-122.9902620041447
 30
0.0
 11
504.2042684159242
 21
-122.9902620041447
 31
0.0
  0
LINE
  5
68EC
330
A
100
AcDbEntity
  8
0
  6
Continuous
 62
     8
370
     0
100
AcDbLine
 10
740.2042684159242
 20
-80.49026200414471
 30
0.0
 11
740.2042684159242
 21
-122.9902620041447
 31
0.0
  0
LINE
  5
68ED
330
A
100
AcDbEntity
  8
0
  6
Continuous
 62
     8
370
     0
100
AcDbLine
 10
486.2042684159242
 20
-140.9902620041447
 30
0.0
 11
758.2042684159242
 21
-140.9902620041447
 31
0.0
  0
LINE
  5
68EE
330
A
100
AcDbEntity
  8
0
  6
Continuous
 62
     8
370
     0
100
AcDbLine
 10
486.2042684159242
 20
-140.9902620041447
 30
0.0
 11
486.2042684159242
 21
-141.4902620041447
 31
0.0
  0
LINE
  5
68EF
330
A
100
AcDbEntity
  8
0
  6
Continuous
 62
     8
370
     0
100
AcDbLine
 10
486.2042684159242
 20
-140.9902620041447
 30
0.0
 11
485.7042684159242
 21
-140.9902620041447
 31
0.0
  0
LINE
  5
68F0
330
A
100
AcDbEntity
  8
0
  6
Continuous
 62
     8
370
     0
100
AcDbLine
 10
757.7042684159242
 20
-71.49026200414471
 30
0.0
 11
757.7042684159242
 21
-70.49026200414471
 31
0.0
  0
LINE
  5
68F1
330
A
100
AcDbEntity
  8
0
  6
Continuous
 62
     8
370
     0
100
AcDbLine
 10
740.7042684159242
 20
-71.49026200414471
 30
0.0
 11
740.7042684159242
 21
-70.49026200414471
 31
0.0
  0
LINE
  5
68F2
330
A
100
AcDbEntity
  8
0
  6
Continuous
 62
     8
370
     0
100
AcDbLine
 10
757.7042684159242
 20
-80.49026200414471
 30
0.0
 11
757.7042684159242
 21
-79.49026200414471
 31
0.0
  0
LINE
  5
68F3
330
A
100
AcDbEntity
  8
0
  6
Continuous
 62
     8
370
     0
100
AcDbLine
 10
740.7042684159242
 20
-80.49026200414471
 30
0.0
 11
740.7042684159242
 21
-79.49026200414471
 31
0.0
  0
LINE
  5
68F4
330
A
100
AcDbEntity
  8
0
  6
Continuous
 62
     8
370
     0
100
AcDbLine
 10
503.7042684159242
 20
-71.49026200414471
 30
0.0
 11
503.7042684159242
 21
-70.49026200414471
 31
0.0
  0
LINE
  5
68F5
330
A
100
AcDbEntity
  8
0
  6
Continuous
 62
     8
370
     0
100
AcDbLine
 10
486.7042684159242
 20
-71.49026200414471
 30
0.0
 11
486.7042684159242
 21
-70.49026200414471
 31
0.0
  0
LINE
  5
68F6
330
A
100
AcDbEntity
  8
0
  6
Continuous
 62
     8
370
     0
100
AcDbLine
 10
503.7042684159242
 20
-80.49026200414471
 30
0.0
 11
503.7042684159242
 21
-79.49026200414471
 31
0.0
  0
LINE
  5
68F7
330
A
100
AcDbEntity
  8
0
  6
Continuous
 62
     8
370
     0
100
AcDbLine
 10
486.7042684159242
 20
-80.49026200414471
 30
0.0
 11
486.7042684159242
 21
-79.49026200414471
 31
0.0
  0
LINE
  5
68F8
330
A
100
AcDbEntity
  8
0
  6
Continuous
 62
     8
370
     0
100
AcDbLine
 10
758.2042684159242
 20
-70.49026200414471
 30
0.0
 11
758.2042684159242
 21
-9.99026200414471
 31
0.0
  0
LINE
  5
68F9
330
A
100
AcDbEntity
  8
0
  6
Continuous
 62
     8
370
     0
100
AcDbLine
 10
758.2042684159242
 20
-9.99026200414471
 30
0.0
 11
758.7042684159242
 21
-9.99026200414471
 31
0.0
  0
LINE
  5
68FA
330
A
100
AcDbEntity
  8
0
  6
Continuous
 62
     8
370
     0
100
AcDbLine
 10
758.2042684159242
 20
-9.99026200414471
 30
0.0
 11
758.2042684159242
 21
-9.49026200414471
 31
0.0
  0
LINE
  5
68FB
330
A
100
AcDbEntity
  8
0
  6
Continuous
 62
     8
370
     0
100
AcDbLine
 10
740.2042684159242
 20
-27.99026200414471
 30
0.0
 11
740.2042684159242
 21
-70.49026200414471
 31
0.0
  0
LINE
  5
68FC
330
A
100
AcDbEntity
  8
0
  6
Continuous
 62
     8
370
     0
100
AcDbLine
 10
504.2042684159242
 20
-27.99026200414471
 30
0.0
 11
740.2042684159242
 21
-27.99026200414471
 31
0.0
  0
LINE
  5
68FD
330
A
100
AcDbEntity
  8
0
  6
Continuous
 62
     8
370
     0
100
AcDbLine
 10
504.2042684159242
 20
-70.49026200414471
 30
0.0
 11
504.2042684159242
 21
-27.99026200414471
 31
0.0
  0
LINE
  5
68FE
330
A
100
AcDbEntity
  8
0
  6
Continuous
 62
     8
370
     0
100
AcDbLine
 10
486.2042684159242
 20
-9.99026200414471
 30
0.0
 11
486.2042684159242
 21
-70.49026200414471
 31
0.0
  0
LINE
  5
68FF
330
A
100
AcDbEntity
  8
0
  6
Continuous
 62
     8
370
     0
100
AcDbLine
 10
758.2042684159242
 20
-9.99026200414471
 30
0.0
 11
486.2042684159242
 21
-9.99026200414471
 31
0.0
  0
LINE
  5
6900
330
A
100
AcDbEntity
  8
0
  6
Continuous
 62
     8
370
     0
100
AcDbLine
 10
486.2042684159242
 20
-9.99026200414471
 30
0.0
 11
486.2042684159242
 21
-9.49026200414471
 31
0.0
  0
LINE
  5
6901
330
A
100
AcDbEntity
  8
0
  6
Continuous
 62
     8
370
     0
100
AcDbLine
 10
485.7042684159242
 20
-9.99026200414471
 30
0.0
 11
486.2042684159242
 21
-9.99026200414471
 31
0.0
  0
LINE
  5
6902
330
A
100
AcDbEntity
  8
0
100
AcDbLine
 10
758.2042684159242
 20
25.03303896675533
 30
0.0
 11
486.2042684159242
 21
25.03303896675533
 31
0.0
  0
LINE
  5
6903
330
A
100
AcDbEntity
  8
0
100
AcDbLine
 10
486.2042684159242
 20
44.03303896675538
 30
0.0
 11
758.2042684159242
 21
44.03303896675538
 31
0.0
  0
ARC
  5
6904
330
A
100
AcDbEntity
  8
0
100
AcDbCircle
 10
758.2042684159242
 20
25.53303896675533
 30
0.0
 40
0.5
100
AcDbArc
 50
270.0
 51
0.0
  0
LINE
  5
6905
330
A
100
AcDbEntity
  8
0
100
AcDbLine
 10
758.7042684159242
 20
43.53303896675538
 30
0.0
 11
758.7042684159242
 21
25.53303896675533
 31
0.0
  0
ARC
  5
6906
330
A
100
AcDbEntity
  8
0
100
AcDbCircle
 10
486.2042684159242
 20
25.53303896675533
 30
0.0
 40
0.5
100
AcDbArc
 50
180.0
 51
270.0
  0
LINE
  5
6907
330
A
100
AcDbEntity
  8
0
100
AcDbLine
 10
485.7042684159242
 20
25.53303896675533
 30
0.0
 11
485.7042684159242
 21
43.53303896675538
 31
0.0
  0
ARC
  5
6908
330
A
100
AcDbEntity
  8
0
100
AcDbCircle
 10
758.2042684159242
 20
43.53303896675538
 30
0.0
 40
0.5
100
AcDbArc
 50
0.0
 51
90.0
  0
ARC
  5
6909
330
A
100
AcDbEntity
  8
0
100
AcDbCircle
 10
486.2042684159242
 20
43.53303896675538
 30
0.0
 40
0.5
100
AcDbArc
 50
90.0
 51
180.0
  0
LINE
  5
690A
330
A
100
AcDbEntity
  8
0
  6
Continuous
 62
     8
370
     0
100
AcDbLine
 10
486.2042684159242
 20
25.53303896675533
 30
0.0
 11
758.2042684159242
 21
25.53303896675533
 31
0.0
  0
LINE
  5
690B
330
A
100
AcDbEntity
  8
0
  6
Continuous
 62
     8
370
     0
100
AcDbLine
 10
758.2042684159242
 20
25.53303896675533
 30
0.0
 11
758.2042684159242
 21
25.03303896675533
 31
0.0
  0
LINE
  5
690C
330
A
100
AcDbEntity
  8
0
  6
Continuous
 62
     8
370
     0
100
AcDbLine
 10
486.2042684159242
 20
25.53303896675533
 30
0.0
 11
486.2042684159242
 21
25.03303896675533
 31
0.0
  0
LINE
  5
690D
330
A
100
AcDbEntity
  8
0
  6
Continuous
 62
     8
370
     0
100
AcDbLine
 10
486.2042684159242
 20
43.53303896675538
 30
0.0
 11
486.2042684159242
 21
25.53303896675533
 31
0.0
  0
LINE
  5
690E
330
A
100
AcDbEntity
  8
0
  6
Continuous
 62
     8
370
     0
100
AcDbLine
 10
758.2042684159242
 20
43.53303896675538
 30
0.0
 11
486.2042684159242
 21
43.53303896675538
 31
0.0
  0
LINE
  5
690F
330
A
100
AcDbEntity
  8
0
  6
Continuous
 62
     8
370
     0
100
AcDbLine
 10
758.2042684159242
 20
25.53303896675533
 30
0.0
 11
758.2042684159242
 21
43.53303896675538
 31
0.0
  0
LINE
  5
6910
330
A
100
AcDbEntity
  8
0
  6
Continuous
 62
     8
370
     0
100
AcDbLine
 10
758.2042684159242
 20
44.03303896675538
 30
0.0
 11
758.2042684159242
 21
43.53303896675538
 31
0.0
  0
LINE
  5
6911
330
A
100
AcDbEntity
  8
0
  6
Continuous
 62
     8
370
     0
100
AcDbLine
 10
486.2042684159242
 20
44.03303896675538
 30
0.0
 11
486.2042684159242
 21
43.53303896675538
 31
0.0
  0
LINE
  5
6912
330
A
100
AcDbEntity
  8
0
  6
Continuous
 62
     8
370
     0
100
AcDbLine
 10
758.2042684159242
 20
25.53303896675533
 30
0.0
 11
758.7042684159242
 21
25.53303896675533
 31
0.0
  0
LINE
  5
6913
330
A
100
AcDbEntity
  8
0
  6
Continuous
 62
     8
370
     0
100
AcDbLine
 10
758.7042684159242
 20
43.53303896675538
 30
0.0
 11
758.2042684159242
 21
43.53303896675538
 31
0.0
  0
LINE
  5
6914
330
A
100
AcDbEntity
  8
0
  6
Continuous
 62
     8
370
     0
100
AcDbLine
 10
486.2042684159242
 20
25.53303896675533
 30
0.0
 11
485.7042684159242
 21
25.53303896675533
 31
0.0
  0
LINE
  5
6915
330
A
100
AcDbEntity
  8
0
  6
Continuous
 62
     8
370
     0
100
AcDbLine
 10
485.7042684159242
 20
43.53303896675538
 30
0.0
 11
486.2042684159242
 21
43.53303896675538
 31
0.0
  0
LINE
  5
6916
330
A
100
AcDbEntity
  8
0
100
AcDbLine
 10
726.4308128896242
 20
-454.1361745662447
 30
0.0
 11
726.4308128896242
 21
-227.0141958657447
 31
0.0
  0
LINE
  5
6917
330
A
100
AcDbEntity
  8
0
100
AcDbLine
 10
726.4308128896242
 20
-227.0267745474447
 30
0.0
 11
762.8107867325242
 21
-221.5905425097447
 31
0.0
  0
ARC
  5
6918
330
A
100
AcDbEntity
  8
0
100
AcDbCircle
 10
701.3423556214243
 20
-207.5040546218447
 30
0.0
 40
0.5
100
AcDbArc
 50
98.49878070350182
 51
180.0
  0
LINE
  5
6919
330
A
100
AcDbEntity
  8
0
100
AcDbLine
 10
700.8423556214243
 20
-207.5040546218447
 30
0.0
 11
700.8423556214243
 21
-470.2358793725447
 31
0.0
  0
LINE
  5
691A
330
A
100
AcDbEntity
  8
0
100
AcDbLine
 10
753.6629983683242
 20
-199.1802690032447
 30
0.0
 11
701.2684614394243
 21
-207.0095451175447
 31
0.0
  0
ARC
  5
691B
330
A
100
AcDbEntity
  8
0
100
AcDbCircle
 10
710.3423556214243
 20
-474.2704689972447
 30
0.0
 40
0.5000000000000183
100
AcDbArc
 50
245.8538915486942
 51
278.4987807035018
  0
LINE
  5
691C
330
A
100
AcDbEntity
  8
0
100
AcDbLine
 10
710.4162498035242
 20
-474.7649785015447
 30
0.0
 11
762.8107867325242
 21
-466.9357023872447
 31
0.0
  0
LINE
  5
691D
330
A
100
AcDbEntity
  8
0
100
AcDbLine
 10
701.1378231584242
 20
-470.6921320125447
 30
0.0
 11
710.1378231584242
 21
-474.7267216372447
 31
0.0
  0
ARC
  5
691E
330
A
100
AcDbEntity
  8
0
100
AcDbCircle
 10
701.3423556214243
 20
-470.2358793725447
 30
0.0
 40
0.5
100
AcDbArc
 50
180.0
 51
245.8538915486916
  0
LINE
  5
691F
330
A
100
AcDbEntity
  8
0
100
AcDbLine
 10
753.6629983683242
 20
-444.5254288806447
 30
0.0
 11
726.4308128896242
 21
-448.5947138062447
 31
0.0
  0
LINE
  5
6920
330
A
100
AcDbEntity
  8
0
100
AcDbLine
 10
763.8529179542243
 20
-457.9246759329447
 30
0.0
 11
766.8475502735242
 21
-457.4771902853447
 31
0.0
  0
LINE
  5
6921
330
A
100
AcDbEntity
  8
0
100
AcDbLine
 10
765.9608200889243
 20
-451.5430762335447
 30
0.0
 11
763.8529179542243
 21
-451.8580584588447
 31
0.0
  0
LINE
  5
6922
330
A
100
AcDbEntity
  8
0
100
AcDbLine
 10
763.8529179542243
 20
-212.5795160555447
 30
0.0
 11
766.8475502735242
 21
-212.1320304079447
 31
0.0
  0
LINE
  5
6923
330
A
100
AcDbEntity
  8
0
100
AcDbLine
 10
765.9608200889243
 20
-206.1979163561447
 30
0.0
 11
763.8529179542243
 21
-206.5128985814447
 31
0.0
  0
LINE
  5
6924
330
A
100
AcDbEntity
  8
0
100
AcDbLine
 10
770.4289095486242
 20
-220.3253314639447
 30
0.0
 11
771.2949349524242
 21
-220.1959219414447
 31
0.0
  0
LINE
  5
6925
330
A
100
AcDbEntity
  8
0
100
AcDbLine
 10
762.4993582241243
 20
-197.9866991205447
 30
0.0
 11
761.6333328204242
 21
-198.1161086430447
 31
0.0
  0
LINE
  5
6926
330
A
100
AcDbEntity
  8
0
100
AcDbLine
 10
762.9504602693243
 20
-221.4428304962447
 30
0.0
 11
763.5007063183243
 21
-221.3606076443447
 31
0.0
  0
LINE
  5
6927
330
A
100
AcDbEntity
  8
0
100
AcDbLine
 10
754.7051295901242
 20
-199.1513848235447
 30
0.0
 11
753.9113098123242
 21
-199.2700047138447
 31
0.0
  0
LINE
  5
6928
330
A
100
AcDbEntity
  8
0
100
AcDbLine
 10
770.4289095486242
 20
-465.6704913414447
 30
0.0
 11
771.2949349524242
 21
-465.5410818188447
 31
0.0
  0
LINE
  5
6929
330
A
100
AcDbEntity
  8
0
100
AcDbLine
 10
762.4993582241243
 20
-443.3318589979447
 30
0.0
 11
761.6333328204242
 21
-443.4612685205447
 31
0.0
  0
LINE
  5
692A
330
A
100
AcDbEntity
  8
0
100
AcDbLine
 10
762.9504602693243
 20
-466.7879903736447
 30
0.0
 11
763.5007063183243
 21
-466.7057675218447
 31
0.0
  0
LINE
  5
692B
330
A
100
AcDbEntity
  8
0
100
AcDbLine
 10
754.7051295901242
 20
-444.4965447009447
 30
0.0
 11
753.9113098123242
 21
-444.6151645912447
 31
0.0
  0
LINE
  5
692C
330
A
100
AcDbEntity
  8
0
100
AcDbLine
 10
771.4710407703242
 20
-220.2964472842447
 30
0.0
 11
807.8634551684243
 21
-214.8583562638447
 31
0.0
  0
LINE
  5
692D
330
A
100
AcDbEntity
  8
0
100
AcDbLine
 10
814.7177893351243
 20
-190.0568976633447
 30
0.0
 11
762.3232524062242
 21
-197.8861737776447
 31
0.0
  0
ARC
  5
692E
330
A
100
AcDbEntity
  8
0
100
AcDbCircle
 10
823.7916835172242
 20
-194.5859967924447
 30
0.0
 40
0.5000000000000144
100
AcDbArc
 50
0.0
 51
65.85389154869422
  0
LINE
  5
692F
330
A
100
AcDbEntity
  8
0
100
AcDbLine
 10
824.2916835172242
 20
-457.3178215430447
 30
0.0
 11
824.2916835172242
 21
-194.5859967924447
 31
0.0
  0
LINE
  5
6930
330
A
100
AcDbEntity
  8
0
100
AcDbLine
 10
823.9962159803242
 20
-194.1297441523447
 30
0.0
 11
814.9962159803242
 21
-190.0951545276447
 31
0.0
  0
LINE
  5
6931
330
A
100
AcDbEntity
  8
0
100
AcDbLine
 10
798.7032262491242
 20
-216.2271623586447
 30
0.0
 11
798.7032262491242
 21
-437.7951016175447
 31
0.0
  0
ARC
  5
6932
330
A
100
AcDbEntity
  8
0
100
AcDbCircle
 10
814.7916835172242
 20
-190.5514071676447
 30
0.0
 40
0.499999999999988
100
AcDbArc
 50
65.85389154869422
 51
98.4987807035028
  0
LINE
  5
6933
330
A
100
AcDbEntity
  8
0
100
AcDbLine
 10
771.4710407703242
 20
-465.6416071617447
 30
0.0
 11
823.8655776993243
 21
-457.8123310473447
 31
0.0
  0
LINE
  5
6934
330
A
100
AcDbEntity
  8
0
100
AcDbLine
 10
798.7156668043242
 20
-437.7932426347447
 30
0.0
 11
762.3232524062242
 21
-443.2313336551447
 31
0.0
  0
ARC
  5
6935
330
A
100
AcDbEntity
  8
0
100
AcDbCircle
 10
823.7916835172242
 20
-457.3178215430447
 30
0.0
 40
0.5000000000000091
100
AcDbArc
 50
278.4987807035018
 51
0.0
  0
ARC
  5
6936
330
A
100
AcDbEntity
  8
0
100
AcDbCircle
 10
762.3029882376243
 20
-203.7587426349447
 30
0.0
 40
0.6867722162425767
100
AcDbArc
 50
354.762008621798
 51
50.81677645150509
  0
LINE
  5
6937
330
A
100
AcDbEntity
  8
0
100
AcDbLine
 10
762.9868925504243
 20
-221.2081049395447
 30
0.0
 11
762.9868925504243
 21
-203.8214400663447
 31
0.0
  0
LINE
  5
6938
330
A
100
AcDbEntity
  8
0
100
AcDbLine
 10
762.9868925504243
 20
-466.5532648169447
 30
0.0
 11
762.9868925504243
 21
-449.1665999437447
 31
0.0
  0
LINE
  5
6939
330
A
100
AcDbEntity
  8
0
100
AcDbLine
 10
762.7368925504243
 20
-203.2264052191447
 30
0.0
 11
753.7368925504243
 21
-199.1918155943447
 31
0.0
  0
ELLIPSE
  5
693A
330
A
100
AcDbEntity
  8
0
100
AcDbEllipse
 10
725.9308128896242
 20
-454.5544327181447
 30
0.0
 11
0.4581951223713077
 21
0.5317501740199049
 31
0.0
210
0.0
220
0.0
230
1.0
 40
0.3763854404000001
 41
4.824158785899365
 42
5.871356337096003
  0
ELLIPSE
  5
693B
330
A
100
AcDbEntity
  8
0
100
AcDbEllipse
 10
725.9308128896242
 20
-226.5959377139447
 30
0.0
 11
0.4968801275879855
 21
-0.428148521594153
 31
0.0
210
0.0
220
0.0
230
1.0
 40
0.1302553102
 41
0.1117698055144166
 42
1.158967356711295
  0
LWPOLYLINE
  5
693C
330
A
100
AcDbEntity
  8
0
100
AcDbPolyline
 90
        8
 70
   128
 43
0.0
 10
762.9868925504243
 20
-221.2081049395447
 10
762.9820888705242
 20
-221.3001728989447
 10
762.9678624335243
 20
-221.3843958768447
 10
762.9447599535242
 20
-221.4575372312447
 10
762.9136692457242
 20
-221.5167861809447
 10
762.8757851087242
 20
-221.5598658221447
 10
762.8325634085243
 20
-221.5851206282447
 10
762.8107867325242
 20
-221.5905425097447
  0
LWPOLYLINE
  5
693D
330
A
100
AcDbEntity
  8
0
100
AcDbPolyline
 90
        3
 70
   128
 43
0.0
 10
753.6629983683242
 20
-199.1802690032447
 10
753.6881199699242
 20
-199.1792314416447
 10
753.7368925504243
 20
-199.1918155943447
  0
LWPOLYLINE
  5
693E
330
A
100
AcDbEntity
  8
0
100
AcDbPolyline
 90
        8
 70
   128
 43
0.0
 10
762.9868925504243
 20
-466.5532648169447
 10
762.9820888705242
 20
-466.6453327763447
 10
762.9678624335243
 20
-466.7295557542447
 10
762.9447599535242
 20
-466.8026971086447
 10
762.9136692457242
 20
-466.8619460583447
 10
762.8757851087242
 20
-466.9050256995447
 10
762.8325634085243
 20
-466.9302805057447
 10
762.8107867325242
 20
-466.9357023872447
  0
ARC
  5
693F
330
A
100
AcDbEntity
  8
0
100
AcDbCircle
 10
762.3029882376243
 20
-449.1039025124447
 30
0.0
 40
0.6867722162424661
100
AcDbArc
 50
354.7620086218019
 51
50.81677645150209
  0
LINE
  5
6940
330
A
100
AcDbEntity
  8
0
100
AcDbLine
 10
762.7368925504243
 20
-448.5715650965447
 30
0.0
 11
753.7368925504243
 21
-444.5369754718447
 31
0.0
  0
LWPOLYLINE
  5
6941
330
A
100
AcDbEntity
  8
0
100
AcDbPolyline
 90
        3
 70
   128
 43
0.0
 10
753.6629983683242
 20
-444.5254288806447
 10
753.6881199699242
 20
-444.5243913190447
 10
753.7368925504243
 20
-444.5369754718447
  0
LWPOLYLINE
  5
6942
330
A
100
AcDbEntity
  8
0
100
AcDbPolyline
 90
        3
 70
   128
 43
0.0
 10
766.0311211845242
 20
-206.2263499920447
 10
765.5944357214242
 20
-206.1518822814447
 10
765.2146920954242
 20
-206.3094096991447
  0
LWPOLYLINE
  5
6943
330
A
100
AcDbEntity
  8
0
100
AcDbPolyline
 90
       12
 70
   128
 43
0.0
 10
766.1014222801242
 20
-212.2435237509447
 10
766.4678066476242
 20
-212.2895578255447
 10
766.8691144515242
 20
-212.1154065509447
 10
767.2025330247243
 20
-211.7067449916447
 10
767.4410507773242
 20
-211.0966804767447
 10
767.5653444194243
 20
-210.3346368052447
 10
767.5653444194243
 20
-209.4823502231447
 10
767.4410507773242
 20
-208.6088679207447
 10
767.2025330247243
 20
-207.7849542392447
 10
766.8691144515242
 20
-207.0773577652447
 10
766.4678066476242
 20
-206.5434037567447
 10
766.0311211845242
 20
-206.2263499920447
  0
LINE
  5
6944
330
A
100
AcDbEntity
  8
0
100
AcDbLine
 10
770.2811211845242
 20
-201.9496475821447
 30
0.0
 11
761.7811211845242
 21
-198.1392018254447
 31
0.0
  0
ARC
  5
6945
330
A
100
AcDbEntity
  8
0
100
AcDbCircle
 10
769.4133125588243
 20
-203.0143224138447
 30
0.0
 40
1.373544432484983
100
AcDbArc
 50
354.7620086217999
 51
50.81677645149842
  0
LINE
  5
6946
330
A
100
AcDbEntity
  8
0
100
AcDbLine
 10
770.7811211845242
 20
-219.5604563233447
 30
0.0
 11
770.7811211845242
 21
-203.1397172764447
 31
0.0
  0
LWPOLYLINE
  5
6947
330
A
100
AcDbEntity
  8
0
100
AcDbPolyline
 90
        9
 70
   128
 43
0.0
 10
770.2811211845242
 20
-220.3022382816447
 10
770.3786663455242
 20
-220.3274065871447
 10
770.4724629006242
 20
-220.3144877009447
 10
770.5589063010243
 20
-220.2639780886447
 10
770.6346745751242
 20
-220.1778188063447
 10
770.6968559906243
 20
-220.0593209068447
 10
770.7430609507242
 20
-219.9130381979447
 10
770.7715138247243
 20
-219.7445922423447
 10
770.7811211845242
 20
-219.5604563233447
  0
LINE
  5
6948
330
A
100
AcDbEntity
  8
0
100
AcDbLine
 10
763.8529179542243
 20
-217.4205536084447
 30
0.0
 11
770.2811211845242
 21
-220.3022382816447
 31
0.0
  0
LINE
  5
6949
330
A
100
AcDbEntity
  8
0
100
AcDbLine
 10
761.2811211845242
 20
-198.8809837836447
 30
0.0
 11
761.2811211845242
 21
-202.0561626790447
 31
0.0
  0
LWPOLYLINE
  5
694A
330
A
100
AcDbEntity
  8
0
100
AcDbPolyline
 90
        9
 70
   128
 43
0.0
 10
761.7811211845242
 20
-198.1392018254447
 10
761.6835760235242
 20
-198.1140335199447
 10
761.5897794683242
 20
-198.1269524061447
 10
761.5033360679242
 20
-198.1774620184447
 10
761.4275677939243
 20
-198.2636213007447
 10
761.3653863783243
 20
-198.3821192002447
 10
761.3191814182242
 20
-198.5284019090447
 10
761.2907285443242
 20
-198.6968478647447
 10
761.2811211845242
 20
-198.8809837836447
  0
ARC
  5
694B
330
A
100
AcDbEntity
  8
0
100
AcDbCircle
 10
770.2793379626243
 20
-202.8849128912447
 30
0.0
 40
1.373544432485094
100
AcDbArc
 50
354.7620086218003
 51
50.81677645149992
  0
LINE
  5
694C
330
A
100
AcDbEntity
  8
0
100
AcDbLine
 10
771.6471465882242
 20
-219.4310468008447
 30
0.0
 11
771.6471465882242
 21
-203.0103077539447
 31
0.0
  0
LINE
  5
694D
330
A
100
AcDbEntity
  8
0
100
AcDbLine
 10
771.1471465882242
 20
-201.8202380596447
 30
0.0
 11
762.6471465882242
 21
-198.0097923028447
 31
0.0
  0
LWPOLYLINE
  5
694E
330
A
100
AcDbEntity
  8
0
100
AcDbPolyline
 90
        8
 70
   128
 43
0.0
 10
771.2949349524242
 20
-220.1959219414447
 10
771.3384883044242
 20
-220.1850781784447
 10
771.4249317048243
 20
-220.1345685661447
 10
771.5006999788243
 20
-220.0484092837447
 10
771.5628813944243
 20
-219.9299113842447
 10
771.6090863545242
 20
-219.7836286754447
 10
771.6375392284242
 20
-219.6151827197447
 10
771.6471465882242
 20
-219.4310468008447
  0
LWPOLYLINE
  5
694F
330
A
100
AcDbEntity
  8
0
100
AcDbPolyline
 90
        3
 70
   128
 43
0.0
 10
762.6471465882242
 20
-198.0097923028447
 10
762.5496014272242
 20
-197.9846239973447
 10
762.4993582241243
 20
-197.9866991205447
  0
ARC
  5
6950
330
A
100
AcDbEntity
  8
0
100
AcDbCircle
 10
762.4851093285242
 20
-204.0495985942447
 30
0.0
 40
1.373544432484719
100
AcDbArc
 50
354.7620086217991
 51
50.81677645149978
  0
LINE
  5
6951
330
A
100
AcDbEntity
  8
0
100
AcDbLine
 10
762.4868925504243
 20
-203.1143332851447
 30
0.0
 11
753.9868925504243
 21
-199.3038875283447
 31
0.0
  0
LINE
  5
6952
330
A
100
AcDbEntity
  8
0
100
AcDbLine
 10
762.9868925504243
 20
-220.7251420263447
 30
0.0
 11
762.9868925504243
 21
-204.3044029794447
 31
0.0
  0
LINE
  5
6953
330
A
100
AcDbEntity
  8
0
100
AcDbLine
 10
763.8529179542243
 20
-220.5957325038447
 30
0.0
 11
763.8529179542243
 21
-204.1749934568447
 31
0.0
  0
LINE
  5
6954
330
A
100
AcDbEntity
  8
0
100
AcDbLine
 10
763.3529179542243
 20
-202.9849237625447
 30
0.0
 11
754.8529179542243
 21
-199.1744780058447
 31
0.0
  0
LWPOLYLINE
  5
6955
330
A
100
AcDbEntity
  8
0
100
AcDbPolyline
 90
        8
 70
   128
 43
0.0
 10
763.5007063183243
 20
-221.3606076443447
 10
763.5442596704243
 20
-221.3497638813447
 10
763.6307030707242
 20
-221.2992542690447
 10
763.7064713448242
 20
-221.2130949867447
 10
763.7686527603242
 20
-221.0945970872447
 10
763.8148577204242
 20
-220.9483143784447
 10
763.8433105944242
 20
-220.7798684227447
 10
763.8529179542243
 20
-220.5957325038447
  0
LWPOLYLINE
  5
6956
330
A
100
AcDbEntity
  8
0
100
AcDbPolyline
 90
        3
 70
   128
 43
0.0
 10
754.8529179542243
 20
-199.1744780058447
 10
754.7553727932243
 20
-199.1493097003447
 10
754.7051295901242
 20
-199.1513848235447
  0
LWPOLYLINE
  5
6957
330
A
100
AcDbEntity
  8
0
100
AcDbPolyline
 90
        3
 70
   128
 43
0.0
 10
766.0311211845242
 20
-451.5715098694447
 10
765.5944357214242
 20
-451.4970421589447
 10
765.2146920954242
 20
-451.6545695765447
  0
LWPOLYLINE
  5
6958
330
A
100
AcDbEntity
  8
0
100
AcDbPolyline
 90
       12
 70
   128
 43
0.0
 10
766.1014222801242
 20
-457.5886836283447
 10
766.4678066476242
 20
-457.6347177030447
 10
766.8691144515242
 20
-457.4605664283447
 10
767.2025330247243
 20
-457.0519048690447
 10
767.4410507773242
 20
-456.4418403541447
 10
767.5653444194243
 20
-455.6797966826447
 10
767.5653444194243
 20
-454.8275101005447
 10
767.4410507773242
 20
-453.9540277981447
 10
767.2025330247243
 20
-453.1301141166447
 10
766.8691144515242
 20
-452.4225176426447
 10
766.4678066476242
 20
-451.8885636341447
 10
766.0311211845242
 20
-451.5715098694447
  0
LINE
  5
6959
330
A
100
AcDbEntity
  8
0
100
AcDbLine
 10
770.2811211845242
 20
-447.2948074595447
 30
0.0
 11
761.7811211845242
 21
-443.4843617028447
 31
0.0
  0
ARC
  5
695A
330
A
100
AcDbEntity
  8
0
100
AcDbCircle
 10
769.4133125588243
 20
-448.3594822912447
 30
0.0
 40
1.373544432484815
100
AcDbArc
 50
354.7620086217991
 51
50.81677645150128
  0
LINE
  5
695B
330
A
100
AcDbEntity
  8
0
100
AcDbLine
 10
770.7811211845242
 20
-464.9056162008447
 30
0.0
 11
770.7811211845242
 21
-448.4848771539447
 31
0.0
  0
LWPOLYLINE
  5
695C
330
A
100
AcDbEntity
  8
0
100
AcDbPolyline
 90
        9
 70
   128
 43
0.0
 10
770.2811211845242
 20
-465.6473981590447
 10
770.3786663455242
 20
-465.6725664645447
 10
770.4724629006242
 20
-465.6596475783447
 10
770.5589063010243
 20
-465.6091379660447
 10
770.6346745751242
 20
-465.5229786837447
 10
770.6968559906243
 20
-465.4044807842447
 10
770.7430609507242
 20
-465.2581980754447
 10
770.7715138247243
 20
-465.0897521197447
 10
770.7811211845242
 20
-464.9056162008447
  0
LINE
  5
695D
330
A
100
AcDbEntity
  8
0
100
AcDbLine
 10
763.8529179542243
 20
-462.7657134858447
 30
0.0
 11
770.2811211845242
 21
-465.6473981590447
 31
0.0
  0
LINE
  5
695E
330
A
100
AcDbEntity
  8
0
100
AcDbLine
 10
761.2811211845242
 20
-444.2261436611447
 30
0.0
 11
761.2811211845242
 21
-447.4013225564447
 31
0.0
  0
LWPOLYLINE
  5
695F
330
A
100
AcDbEntity
  8
0
100
AcDbPolyline
 90
        9
 70
   128
 43
0.0
 10
761.7811211845242
 20
-443.4843617028447
 10
761.6835760235242
 20
-443.4591933973447
 10
761.5897794683242
 20
-443.4721122835447
 10
761.5033360679242
 20
-443.5226218958447
 10
761.4275677939243
 20
-443.6087811782447
 10
761.3653863783243
 20
-443.7272790776447
 10
761.3191814182242
 20
-443.8735617865447
 10
761.2907285443242
 20
-444.0420077421447
 10
761.2811211845242
 20
-444.2261436611447
  0
ARC
  5
6960
330
A
100
AcDbEntity
  8
0
100
AcDbCircle
 10
770.2793379626243
 20
-448.2300727687447
 30
0.0
 40
1.373544432484981
100
AcDbArc
 50
354.7620086217999
 51
50.81677645149842
  0
LINE
  5
6961
330
A
100
AcDbEntity
  8
0
100
AcDbLine
 10
771.6471465882242
 20
-464.7762066782447
 30
0.0
 11
771.6471465882242
 21
-448.3554676313447
 31
0.0
  0
LINE
  5
6962
330
A
100
AcDbEntity
  8
0
100
AcDbLine
 10
771.1471465882242
 20
-447.1653979370447
 30
0.0
 11
762.6471465882242
 21
-443.3549521803447
 31
0.0
  0
LWPOLYLINE
  5
6963
330
A
100
AcDbEntity
  8
0
100
AcDbPolyline
 90
        8
 70
   128
 43
0.0
 10
771.2949349524242
 20
-465.5410818188447
 10
771.3384883044242
 20
-465.5302380558447
 10
771.4249317048243
 20
-465.4797284435447
 10
771.5006999788243
 20
-465.3935691611447
 10
771.5628813944243
 20
-465.2750712616447
 10
771.6090863545242
 20
-465.1287885528447
 10
771.6375392284242
 20
-464.9603425971447
 10
771.6471465882242
 20
-464.7762066782447
  0
LWPOLYLINE
  5
6964
330
A
100
AcDbEntity
  8
0
100
AcDbPolyline
 90
        3
 70
   128
 43
0.0
 10
762.6471465882242
 20
-443.3549521803447
 10
762.5496014272242
 20
-443.3297838748447
 10
762.4993582241243
 20
-443.3318589979447
  0
LINE
  5
6965
330
A
100
AcDbEntity
  8
0
100
AcDbLine
 10
762.4868925504243
 20
-448.4594931625447
 30
0.0
 11
753.9868925504243
 21
-444.6490474058447
 31
0.0
  0
LINE
  5
6966
330
A
100
AcDbEntity
  8
0
100
AcDbLine
 10
762.9868925504243
 20
-466.0703019037447
 30
0.0
 11
762.9868925504243
 21
-449.6495628568447
 31
0.0
  0
ARC
  5
6967
330
A
100
AcDbEntity
  8
0
100
AcDbCircle
 10
762.4851093285242
 20
-449.3947584716447
 30
0.0
 40
1.373544432484777
100
AcDbArc
 50
354.7620086217995
 51
50.8167764514961
  0
LINE
  5
6968
330
A
100
AcDbEntity
  8
0
100
AcDbLine
 10
763.8529179542243
 20
-465.9408923812447
 30
0.0
 11
763.8529179542243
 21
-449.5201533343447
 31
0.0
  0
LINE
  5
6969
330
A
100
AcDbEntity
  8
0
100
AcDbLine
 10
763.3529179542243
 20
-448.3300836399447
 30
0.0
 11
754.8529179542243
 21
-444.5196378832447
 31
0.0
  0
LWPOLYLINE
  5
696A
330
A
100
AcDbEntity
  8
0
100
AcDbPolyline
 90
        8
 70
   128
 43
0.0
 10
763.5007063183243
 20
-466.7057675218447
 10
763.5442596704243
 20
-466.6949237587447
 10
763.6307030707242
 20
-466.6444141464447
 10
763.7064713448242
 20
-466.5582548641447
 10
763.7686527603242
 20
-466.4397569646447
 10
763.8148577204242
 20
-466.2934742558447
 10
763.8433105944242
 20
-466.1250283001447
 10
763.8529179542243
 20
-465.9408923812447
  0
LWPOLYLINE
  5
696B
330
A
100
AcDbEntity
  8
0
100
AcDbPolyline
 90
        3
 70
   128
 43
0.0
 10
754.8529179542243
 20
-444.5196378832447
 10
754.7553727932243
 20
-444.4944695777447
 10
754.7051295901242
 20
-444.4965447009447
  0
ARC
  5
696C
330
A
100
AcDbEntity
  8
0
100
AcDbCircle
 10
770.9632422754242
 20
-202.4646474094447
 30
0.0
 40
0.6867722162424688
100
AcDbArc
 50
354.7620086218027
 51
50.81677645150209
  0
LWPOLYLINE
  5
696D
330
A
100
AcDbEntity
  8
0
100
AcDbPolyline
 90
        7
 70
   128
 43
0.0
 10
762.3971465882242
 20
-197.8977203688447
 10
762.3483740077243
 20
-197.8851362161447
 10
762.3014757302242
 20
-197.8915956592447
 10
762.2582540300243
 20
-197.9168504653447
 10
762.2203698929243
 20
-197.9599301065447
 10
762.1892791852242
 20
-198.0191790562447
 10
762.1835788693243
 20
-198.0338857912447
  0
LINE
  5
696E
330
A
100
AcDbEntity
  8
0
100
AcDbLine
 10
771.3971465882242
 20
-201.9323099936447
 30
0.0
 11
762.3971465882242
 21
-197.8977203688447
 31
0.0
  0
LINE
  5
696F
330
A
100
AcDbEntity
  8
0
100
AcDbLine
 10
771.6471465882242
 20
-202.5273448407447
 30
0.0
 11
771.6471465882242
 21
-219.9140097139447
 31
0.0
  0
LWPOLYLINE
  5
6970
330
A
100
AcDbEntity
  8
0
100
AcDbPolyline
 90
        9
 70
   128
 43
0.0
 10
771.3971465882242
 20
-220.2849006931447
 10
771.4459191687242
 20
-220.2974848458447
 10
771.4928174463242
 20
-220.2910254027447
 10
771.5360391465242
 20
-220.2657705966447
 10
771.5739232835242
 20
-220.2226909554447
 10
771.6050139913243
 20
-220.1634420056447
 10
771.6281164714242
 20
-220.0903006512447
 10
771.6423429083243
 20
-220.0060776734447
 10
771.6471465882242
 20
-219.9140097139447
  0
LINE
  5
6971
330
A
100
AcDbEntity
  8
0
100
AcDbLine
 10
771.3971465882242
 20
-220.2849006931447
 30
0.0
 11
771.2227293263243
 21
-220.2067115736447
 31
0.0
  0
LINE
  5
6972
330
A
100
AcDbEntity
  8
0
100
AcDbLine
 10
771.6471465882242
 20
-447.8725047182447
 30
0.0
 11
771.6471465882242
 21
-465.2591695914447
 31
0.0
  0
ELLIPSE
  5
6973
330
A
100
AcDbEntity
  8
0
100
AcDbEllipse
 10
808.2032262491242
 20
-214.3020330715447
 30
0.0
 11
0.4581951223713077
 21
0.5317501740199192
 31
0.0
210
0.0
220
0.0
230
1.0
 40
0.3763854404
 41
3.553421623673146
 42
4.824158785899343
  0
ELLIPSE
  5
6974
330
A
100
AcDbEntity
  8
0
100
AcDbEllipse
 10
808.2032262491242
 20
-442.2605280757447
 30
0.0
 11
0.4968801275878722
 21
-0.4281485215941391
 31
0.0
210
0.0
220
0.0
230
1.0
 40
0.1302553102
 41
1.158967356711103
 42
2.729763683507443
  0
LINE
  5
6975
330
A
100
AcDbEntity
  8
0
100
AcDbLine
 10
807.7702135472242
 20
-441.8422699238447
 30
0.0
 11
798.7702135472242
 21
-437.8076802991447
 31
0.0
  0
ELLIPSE
  5
6976
330
A
100
AcDbEntity
  8
0
100
AcDbEllipse
 10
799.2032262491242
 20
-438.2259384510447
 30
0.0
 11
0.4968801275879853
 21
-0.4281485215941387
 31
0.0
210
0.0
220
0.0
230
1.0
 40
0.1302553102
 41
2.729763683506081
 42
3.029822848074672
  0
ARC
  5
6977
330
A
100
AcDbEntity
  8
0
100
AcDbCircle
 10
770.9632422754242
 20
-447.8098072868447
 30
0.0
 40
0.6867722162424043
100
AcDbArc
 50
354.7620086218019
 51
50.81677645160421
  0
LWPOLYLINE
  5
6978
330
A
100
AcDbEntity
  8
0
100
AcDbPolyline
 90
        7
 70
   128
 43
0.0
 10
762.3971465882242
 20
-443.2428802462447
 10
762.3483740077243
 20
-443.2302960935447
 10
762.3014757302242
 20
-443.2367555366447
 10
762.2582540300243
 20
-443.2620103427447
 10
762.2203698929243
 20
-443.3050899839447
 10
762.1892791852242
 20
-443.3643389337447
 10
762.1835788693243
 20
-443.3790456686447
  0
LINE
  5
6979
330
A
100
AcDbEntity
  8
0
100
AcDbLine
 10
771.3971465882242
 20
-447.2774698710447
 30
0.0
 11
762.3971465882242
 21
-443.2428802462447
 31
0.0
  0
LWPOLYLINE
  5
697A
330
A
100
AcDbEntity
  8
0
100
AcDbPolyline
 90
        9
 70
   128
 43
0.0
 10
771.3971465882242
 20
-465.6300605705447
 10
771.4459191687242
 20
-465.6426447232447
 10
771.4928174463242
 20
-465.6361852801447
 10
771.5360391465242
 20
-465.6109304740447
 10
771.5739232835242
 20
-465.5678508328447
 10
771.6050139913243
 20
-465.5086018831447
 10
771.6281164714242
 20
-465.4354605287447
 10
771.6423429083243
 20
-465.3512375508447
 10
771.6471465882242
 20
-465.2591695914447
  0
LINE
  5
697B
330
A
100
AcDbEntity
  8
0
100
AcDbLine
 10
771.3971465882242
 20
-465.6300605705447
 30
0.0
 11
771.2227293263243
 21
-465.5518714510447
 31
0.0
  0
ARC
  5
697C
330
A
100
AcDbEntity
  8
0
  6
Continuous
 62
     8
370
     0
100
AcDbCircle
 10
710.4589889175243
 20
-211.5929115795447
 30
0.0
 40
0.5497450891332137
100
AcDbArc
 50
102.2488975335071
 51
181.0878797104007
  0
ARC
  5
697D
330
A
100
AcDbEntity
  8
0
  6
Continuous
 62
     8
370
     0
100
AcDbCircle
 10
709.9084513086243
 20
-211.5880187493447
 30
0.0
 40
0.6867722162425413
100
AcDbArc
 50
354.7620086217971
 51
50.81677645150209
  0
ARC
  5
697E
330
A
100
AcDbEntity
  8
0
  6
Continuous
 62
     8
370
     0
100
AcDbCircle
 10
710.3492964294242
 20
-210.2074701401447
 30
0.0
 40
1.463569917788526
100
AcDbArc
 50
252.5061756328036
 51
279.5595627656008
  0
LINE
  5
697F
330
A
100
AcDbEntity
  8
0
  6
Continuous
 62
     8
370
     0
100
AcDbLine
 10
709.9093429195243
 20
-474.3351737585447
 30
0.0
 11
709.9093429195243
 21
-211.6033490079447
 31
0.0
  0
LINE
  5
6980
330
A
100
AcDbEntity
  8
0
  6
Continuous
 62
     8
370
     0
100
AcDbLine
 10
710.5923556214243
 20
-211.6507161806447
 30
0.0
 11
710.5923556214243
 21
-474.3825409312447
 31
0.0
  0
ARC
  5
6981
330
A
100
AcDbEntity
  8
0
  6
Continuous
 62
     8
370
     0
100
AcDbCircle
 10
710.3492964294242
 20
-472.9392948907447
 30
0.0
 40
1.463569917788604
100
AcDbArc
 50
252.5061756328051
 51
279.5595627656004
  0
LINE
  5
6982
330
A
100
AcDbEntity
  8
0
  6
Continuous
 62
     8
370
     0
100
AcDbLine
 10
762.9868925504243
 20
-203.8214400663447
 30
0.0
 11
710.5923556214243
 21
-211.6507161806447
 31
0.0
  0
LINE
  5
6983
330
A
100
AcDbEntity
  8
0
  6
Continuous
 62
     8
370
     0
100
AcDbLine
 10
710.3423556214243
 20
-211.0556813334447
 30
0.0
 11
762.7368925504243
 21
-203.2264052191447
 31
0.0
  0
LINE
  5
6984
330
A
100
AcDbEntity
  8
0
  6
Continuous
 62
     8
370
     0
100
AcDbLine
 10
726.1808128896242
 20
-226.7080096479447
 30
0.0
 11
762.9868925504243
 21
-221.2081049395447
 31
0.0
  0
LINE
  5
6985
330
A
100
AcDbEntity
  8
0
  6
Continuous
 62
     8
370
     0
100
AcDbLine
 10
726.1808128896242
 20
-454.6665046521447
 30
0.0
 11
726.1808128896242
 21
-226.7080096479447
 31
0.0
  0
LINE
  5
6986
330
A
100
AcDbEntity
  8
0
  6
Continuous
 62
     8
370
     0
100
AcDbLine
 10
762.9868925504243
 20
-449.1665999437447
 30
0.0
 11
726.1808128896242
 21
-454.6665046521447
 31
0.0
  0
LINE
  5
6987
330
A
100
AcDbEntity
  8
0
  6
Continuous
 62
     8
370
     0
100
AcDbLine
 10
710.5923556214243
 20
-474.3825409312447
 30
0.0
 11
762.9868925504243
 21
-466.5532648169447
 31
0.0
  0
LINE
  5
6988
330
A
100
AcDbEntity
  8
0
  6
Continuous
 62
     8
370
     0
100
AcDbLine
 10
709.9093429195243
 20
-211.6033490079447
 30
0.0
 11
700.9093429195243
 21
-207.5687593831447
 31
0.0
  0
ARC
  5
6989
330
A
100
AcDbEntity
  8
0
  6
Continuous
 62
     8
370
     0
100
AcDbCircle
 10
701.4589889175243
 20
-207.5583219547447
 30
0.0
 40
0.5497450891329868
100
AcDbArc
 50
102.2488975334144
 51
181.0878797104012
  0
LINE
  5
698A
330
A
100
AcDbEntity
  8
0
  6
Continuous
 62
     8
370
     0
100
AcDbLine
 10
701.3423556214243
 20
-207.0210917087447
 30
0.0
 11
710.3423556214243
 21
-211.0556813334447
 31
0.0
  0
LINE
  5
698B
330
A
100
AcDbEntity
  8
0
  6
Continuous
 62
     8
370
     0
100
AcDbLine
 10
700.9093429195243
 20
-470.3005841337447
 30
0.0
 11
709.9093429195243
 21
-474.3351737585447
 31
0.0
  0
LINE
  5
698C
330
A
100
AcDbEntity
  8
0
  6
Continuous
 62
     8
370
     0
100
AcDbLine
 10
700.9093429195243
 20
-207.5687593831447
 30
0.0
 11
700.9093429195243
 21
-470.3005841337447
 31
0.0
  0
LINE
  5
698D
330
A
100
AcDbEntity
  8
0
  6
Continuous
 62
     8
370
     0
100
AcDbLine
 10
753.7368925504243
 20
-199.1918155943447
 30
0.0
 11
701.3423556214243
 21
-207.0210917087447
 31
0.0
  0
ARC
  5
698E
330
A
100
AcDbEntity
  8
0
  6
Continuous
 62
     8
370
     0
100
AcDbCircle
 10
700.9269827427242
 20
-207.4834697366447
 30
0.0
 40
0.087094702248285
100
AcDbArc
 50
193.6712494456905
 51
258.3146961630477
  0
LWPOLYLINE
  5
698F
330
A
100
AcDbEntity
  8
0
  6
Continuous
 62
     8
370
     0
100
AcDbPolyline
 90
        3
 70
   128
 43
0.0
 10
701.3423556214243
 20
-207.0210917087447
 10
701.2935830409242
 20
-207.0085075559447
 10
701.2684614394243
 20
-207.0095451175447
  0
ARC
  5
6990
330
A
100
AcDbEntity
  8
0
  6
Continuous
 62
     8
370
     0
100
AcDbCircle
 10
700.9269827427242
 20
-470.2152944872447
 30
0.0
 40
0.0870947022483428
100
AcDbArc
 50
193.6712494457268
 51
258.3146961630553
  0
LWPOLYLINE
  5
6991
330
A
100
AcDbEntity
  8
0
  6
Continuous
 62
     8
370
     0
100
AcDbPolyline
 90
        8
 70
   128
 43
0.0
 10
710.4162498035242
 20
-474.7649785015447
 10
710.4380264795243
 20
-474.7595566200447
 10
710.4812481797242
 20
-474.7343018139447
 10
710.5191323167242
 20
-474.6912221727447
 10
710.5502230245243
 20
-474.6319732229447
 10
710.5733255046242
 20
-474.5588318685447
 10
710.5875519415242
 20
-474.4746088907447
 10
710.5923556214243
 20
-474.3825409312447
  0
ARC
  5
6992
330
A
100
AcDbEntity
  8
0
  6
Continuous
 62
     8
370
     0
100
AcDbCircle
 10
710.3223656715243
 20
-474.3565988355447
 30
0.0
 40
0.4135780791774117
100
AcDbArc
 50
177.0305094082972
 51
243.4992447703939
  0
ARC
  5
6993
330
A
100
AcDbEntity
  8
0
  6
Continuous
 62
     8
370
     0
100
AcDbCircle
 10
701.3223656715243
 20
-470.3220092107447
 30
0.0
 40
0.4135780791772992
100
AcDbArc
 50
177.0305094082964
 51
243.4992447704011
  0
LINE
  5
6994
330
A
100
AcDbEntity
  8
0
  6
Continuous
 62
     8
370
     0
100
AcDbLine
 10
726.4308128896242
 20
-453.9967551823447
 30
0.0
 11
762.7368925504243
 21
-448.5715650965447
 31
0.0
  0
LINE
  5
6995
330
A
100
AcDbEntity
  8
0
  6
Continuous
 62
     8
370
     0
100
AcDbLine
 10
753.7368925504243
 20
-444.5369754718447
 30
0.0
 11
726.4308128896242
 21
-448.6173023492447
 31
0.0
  0
LINE
  5
6996
330
A
100
AcDbEntity
  8
0
  6
Continuous
 62
     8
370
     0
100
AcDbLine
 10
770.7811211845242
 20
-203.1397172764447
 30
0.0
 11
771.6471465882242
 21
-203.0103077539447
 31
0.0
  0
LINE
  5
6997
330
A
100
AcDbEntity
  8
0
  6
Continuous
 62
     8
370
     0
100
AcDbLine
 10
770.2811211845242
 20
-201.9496475821447
 30
0.0
 11
771.1471465882242
 21
-201.8202380596447
 31
0.0
  0
LINE
  5
6998
330
A
100
AcDbEntity
  8
0
  6
Continuous
 62
     8
370
     0
100
AcDbLine
 10
770.7811211845242
 20
-219.5604563233447
 30
0.0
 11
771.6471465882242
 21
-219.4310468008447
 31
0.0
  0
LINE
  5
6999
330
A
100
AcDbEntity
  8
0
  6
Continuous
 62
     8
370
     0
100
AcDbLine
 10
761.7811211845242
 20
-198.1392018254447
 30
0.0
 11
762.6471465882242
 21
-198.0097923028447
 31
0.0
  0
LINE
  5
699A
330
A
100
AcDbEntity
  8
0
  6
Continuous
 62
     8
370
     0
100
AcDbLine
 10
762.9868925504243
 20
-204.3044029794447
 30
0.0
 11
763.8529179542243
 21
-204.1749934568447
 31
0.0
  0
LINE
  5
699B
330
A
100
AcDbEntity
  8
0
  6
Continuous
 62
     8
370
     0
100
AcDbLine
 10
762.4868925504243
 20
-203.1143332851447
 30
0.0
 11
763.3529179542243
 21
-202.9849237625447
 31
0.0
  0
LINE
  5
699C
330
A
100
AcDbEntity
  8
0
  6
Continuous
 62
     8
370
     0
100
AcDbLine
 10
762.9868925504243
 20
-220.7251420263447
 30
0.0
 11
763.8529179542243
 21
-220.5957325038447
 31
0.0
  0
LINE
  5
699D
330
A
100
AcDbEntity
  8
0
  6
Continuous
 62
     8
370
     0
100
AcDbLine
 10
753.9868925504243
 20
-199.3038875283447
 30
0.0
 11
754.8529179542243
 21
-199.1744780058447
 31
0.0
  0
LINE
  5
699E
330
A
100
AcDbEntity
  8
0
  6
Continuous
 62
     8
370
     0
100
AcDbLine
 10
770.7811211845242
 20
-448.4848771539447
 30
0.0
 11
771.6471465882242
 21
-448.3554676313447
 31
0.0
  0
LINE
  5
699F
330
A
100
AcDbEntity
  8
0
  6
Continuous
 62
     8
370
     0
100
AcDbLine
 10
770.2811211845242
 20
-447.2948074595447
 30
0.0
 11
771.1471465882242
 21
-447.1653979370447
 31
0.0
  0
LINE
  5
69A0
330
A
100
AcDbEntity
  8
0
  6
Continuous
 62
     8
370
     0
100
AcDbLine
 10
770.7811211845242
 20
-464.9056162008447
 30
0.0
 11
771.6471465882242
 21
-464.7762066782447
 31
0.0
  0
LINE
  5
69A1
330
A
100
AcDbEntity
  8
0
  6
Continuous
 62
     8
370
     0
100
AcDbLine
 10
761.7811211845242
 20
-443.4843617028447
 30
0.0
 11
762.6471465882242
 21
-443.3549521803447
 31
0.0
  0
LINE
  5
69A2
330
A
100
AcDbEntity
  8
0
  6
Continuous
 62
     8
370
     0
100
AcDbLine
 10
762.9868925504243
 20
-449.6495628568447
 30
0.0
 11
763.8529179542243
 21
-449.5201533343447
 31
0.0
  0
LINE
  5
69A3
330
A
100
AcDbEntity
  8
0
  6
Continuous
 62
     8
370
     0
100
AcDbLine
 10
762.4868925504243
 20
-448.4594931625447
 30
0.0
 11
763.3529179542243
 21
-448.3300836399447
 31
0.0
  0
LINE
  5
69A4
330
A
100
AcDbEntity
  8
0
  6
Continuous
 62
     8
370
     0
100
AcDbLine
 10
762.9868925504243
 20
-466.0703019037447
 30
0.0
 11
763.8529179542243
 21
-465.9408923812447
 31
0.0
  0
LINE
  5
69A5
330
A
100
AcDbEntity
  8
0
  6
Continuous
 62
     8
370
     0
100
AcDbLine
 10
753.9868925504243
 20
-444.6490474058447
 30
0.0
 11
754.8529179542243
 21
-444.5196378832447
 31
0.0
  0
LINE
  5
69A6
330
A
100
AcDbEntity
  8
0
  6
Continuous
 62
     8
370
     0
100
AcDbLine
 10
771.3971465882242
 20
-201.9323099936447
 30
0.0
 11
823.7916835172242
 21
-194.1030338792447
 31
0.0
  0
ARC
  5
69A7
330
A
100
AcDbEntity
  8
0
  6
Continuous
 62
     8
370
     0
100
AcDbCircle
 10
823.3577792044242
 20
-194.6353712951447
 30
0.0
 40
0.6867722162425249
100
AcDbArc
 50
354.762008621798
 51
50.81677645149475
  0
LINE
  5
69A8
330
A
100
AcDbEntity
  8
0
  6
Continuous
 62
     8
370
     0
100
AcDbLine
 10
824.0416835172242
 20
-194.6980687264447
 30
0.0
 11
771.6471465882242
 21
-202.5273448407447
 31
0.0
  0
LINE
  5
69A9
330
A
100
AcDbEntity
  8
0
  6
Continuous
 62
     8
370
     0
100
AcDbLine
 10
771.6471465882242
 20
-465.2591695914447
 30
0.0
 11
824.0416835172242
 21
-457.4298934770447
 31
0.0
  0
LINE
  5
69AA
330
A
100
AcDbEntity
  8
0
  6
Continuous
 62
     8
370
     0
100
AcDbLine
 10
808.4532262491242
 20
-442.3726000097447
 30
0.0
 11
771.6471465882242
 21
-447.8725047182447
 31
0.0
  0
LINE
  5
69AB
330
A
100
AcDbEntity
  8
0
  6
Continuous
 62
     8
370
     0
100
AcDbLine
 10
808.4532262491242
 20
-214.4141050055447
 30
0.0
 11
808.4532262491242
 21
-442.3726000097447
 31
0.0
  0
LINE
  5
69AC
330
A
100
AcDbEntity
  8
0
  6
Continuous
 62
     8
370
     0
100
AcDbLine
 10
771.6471465882242
 20
-219.9140097139447
 30
0.0
 11
808.4532262491242
 21
-214.4141050055447
 31
0.0
  0
LINE
  5
69AD
330
A
100
AcDbEntity
  8
0
  6
Continuous
 62
     8
370
     0
100
AcDbLine
 10
824.0416835172242
 20
-457.4298934770447
 30
0.0
 11
824.0416835172242
 21
-194.6980687264447
 31
0.0
  0
LINE
  5
69AE
330
A
100
AcDbEntity
  8
0
  6
Continuous
 62
     8
370
     0
100
AcDbLine
 10
814.7916835172242
 20
-190.0684442545447
 30
0.0
 11
762.3971465882242
 21
-197.8977203688447
 31
0.0
  0
LINE
  5
69AF
330
A
100
AcDbEntity
  8
0
  6
Continuous
 62
     8
370
     0
100
AcDbLine
 10
823.7916835172242
 20
-194.1030338792447
 30
0.0
 11
814.7916835172242
 21
-190.0684442545447
 31
0.0
  0
LWPOLYLINE
  5
69B0
330
A
100
AcDbEntity
  8
0
  6
Continuous
 62
     8
370
     0
100
AcDbPolyline
 90
        3
 70
   128
 43
0.0
 10
814.7177893351243
 20
-190.0568976633447
 10
814.7429109367242
 20
-190.0558601017447
 10
814.7916835172242
 20
-190.0684442545447
  0
LINE
  5
69B1
330
A
100
AcDbEntity
  8
0
  6
Continuous
 62
     8
370
     0
100
AcDbLine
 10
807.7702135472242
 20
-441.8422699238447
 30
0.0
 11
807.7702135472242
 21
-214.8722892889447
 31
0.0
  0
LINE
  5
69B2
330
A
100
AcDbEntity
  8
0
  6
Continuous
 62
     8
370
     0
100
AcDbLine
 10
798.7702135472242
 20
-216.2171524972447
 30
0.0
 11
798.7702135472242
 21
-437.8076802991447
 31
0.0
  0
LWPOLYLINE
  5
69B3
330
A
100
AcDbEntity
  8
0
  6
Continuous
 62
     8
370
     0
100
AcDbPolyline
 90
        7
 70
   128
 43
0.0
 10
824.2916835172242
 20
-194.5859967924447
 10
824.2906129788242
 20
-194.5944605801447
 10
824.2746464303243
 20
-194.6194904414447
 10
824.2401198880243
 20
-194.6432331606447
 10
824.1883601873242
 20
-194.6647763182447
 10
824.1213564248242
 20
-194.6832920229447
 10
824.0416835172242
 20
-194.6980687264447
  0
ARC
  5
69B4
330
A
100
AcDbEntity
  8
0
  6
Continuous
 62
     8
370
     0
100
AcDbCircle
 10
823.8487529110242
 20
-194.4624813420447
 30
0.0
 40
0.3639497138284679
100
AcDbArc
 50
66.09795007549675
 51
99.02153663249976
  0
LWPOLYLINE
  5
69B5
330
A
100
AcDbEntity
  8
0
  6
Continuous
 62
     8
370
     0
100
AcDbPolyline
 90
        7
 70
   128
 43
0.0
 10
824.2916835172242
 20
-457.3178215430447
 10
824.2906129788242
 20
-457.3262853307447
 10
824.2746464303243
 20
-457.3513151920447
 10
824.2401198880243
 20
-457.3750579112447
 10
824.1883601873242
 20
-457.3966010689447
 10
824.1213564248242
 20
-457.4151167735447
 10
824.0416835172242
 20
-457.4298934770447
  0
ARC
  5
69B6
330
A
100
AcDbEntity
  8
0
  6
Continuous
 62
     8
370
     0
100
AcDbCircle
 10
814.8487529110242
 20
-190.4278917172447
 30
0.0
 40
0.3639497138293395
100
AcDbArc
 50
66.09795007559475
 51
99.0215366324052
  0
LINE
  5
69B7
330
A
100
AcDbEntity
  8
0
  6
Continuous
 62
     8
370
     0
100
AcDbLine
 10
771.3971465882242
 20
-447.2774698710447
 30
0.0
 11
807.7702135472242
 21
-441.8422699238447
 31
0.0
  0
LINE
  5
69B8
330
A
100
AcDbEntity
  8
0
  6
Continuous
 62
     8
370
     0
100
AcDbLine
 10
798.7702135472242
 20
-437.8076802991447
 30
0.0
 11
762.3971465882242
 21
-443.2428802462447
 31
0.0
  0
LWPOLYLINE
  5
69B9
330
A
100
AcDbEntity
  8
0
  6
Continuous
 62
     8
370
     0
100
AcDbPolyline
 90
        8
 70
   128
 43
0.0
 10
824.0416835172242
 20
-457.4298934770447
 10
824.0368798373242
 20
-457.5219614365447
 10
824.0226534003243
 20
-457.6061844143447
 10
823.9995509203243
 20
-457.6793257687447
 10
823.9684602125242
 20
-457.7385747185447
 10
823.9305760755242
 20
-457.7816543596447
 10
823.8873543753242
 20
-457.8069091658447
 10
823.8655776993243
 20
-457.8123310473447
  0
LINE
  5
69BA
330
A
100
AcDbEntity
  8
0
100
AcDbLine
 10
432.1126741676242
 20
-79.49026200414471
 30
0.0
 11
432.1126741676242
 21
-71.49026200414471
 31
0.0
  0
LINE
  5
69BB
330
A
100
AcDbEntity
  8
0
100
AcDbLine
 10
426.1126741676242
 20
-71.49026200414471
 30
0.0
 11
426.1126741676242
 21
-79.49026200414471
 31
0.0
  0
ARC
  5
69BC
330
A
100
AcDbEntity
  8
0
100
AcDbCircle
 10
438.1126741676242
 20
-140.9902620041447
 30
0.0
 40
0.5000000000000568
100
AcDbArc
 50
270.0
 51
0.0
  0
LINE
  5
69BD
330
A
100
AcDbEntity
  8
0
100
AcDbLine
 10
438.6126741676242
 20
-80.49026200414471
 30
0.0
 11
438.6126741676242
 21
-140.9902620041447
 31
0.0
  0
LINE
  5
69BE
330
A
100
AcDbEntity
  8
0
100
AcDbLine
 10
438.1126741676242
 20
-80.49026200414471
 30
0.0
 11
420.1126741676242
 21
-80.49026200414471
 31
0.0
  0
LINE
  5
69BF
330
A
100
AcDbEntity
  8
0
100
AcDbLine
 10
438.1126741676242
 20
-141.4902620041447
 30
0.0
 11
420.1126741676242
 21
-141.4902620041447
 31
0.0
  0
ARC
  5
69C0
330
A
100
AcDbEntity
  8
0
100
AcDbCircle
 10
420.1126741676242
 20
-140.9902620041447
 30
0.0
 40
0.5000000000000568
100
AcDbArc
 50
180.0
 51
270.0
  0
LINE
  5
69C1
330
A
100
AcDbEntity
  8
0
100
AcDbLine
 10
419.6126741676242
 20
-140.9902620041447
 30
0.0
 11
419.6126741676242
 21
-80.49026200414471
 31
0.0
  0
LINE
  5
69C2
330
A
100
AcDbEntity
  8
0
100
AcDbLine
 10
419.6126741676242
 20
-80.49026200414471
 30
0.0
 11
420.1126741676242
 21
-80.49026200414471
 31
0.0
  0
LINE
  5
69C3
330
A
100
AcDbEntity
  8
0
100
AcDbLine
 10
438.6126741676242
 20
-71.49026200414471
 30
0.0
 11
438.6126741676242
 21
-70.49026200414471
 31
0.0
  0
LINE
  5
69C4
330
A
100
AcDbEntity
  8
0
100
AcDbLine
 10
438.6126741676242
 20
-71.49026200414471
 30
0.0
 11
437.6126741676242
 21
-71.49026200414471
 31
0.0
  0
LINE
  5
69C5
330
A
100
AcDbEntity
  8
0
100
AcDbLine
 10
437.6126741676242
 20
-71.49026200414471
 30
0.0
 11
420.6126741676242
 21
-71.49026200414471
 31
0.0
  0
LINE
  5
69C6
330
A
100
AcDbEntity
  8
0
100
AcDbLine
 10
437.6126741676242
 20
-70.49026200414471
 30
0.0
 11
420.6126741676242
 21
-70.49026200414471
 31
0.0
  0
LINE
  5
69C7
330
A
100
AcDbEntity
  8
0
100
AcDbLine
 10
419.6126741676242
 20
-71.49026200414471
 30
0.0
 11
419.6126741676242
 21
-70.49026200414471
 31
0.0
  0
LINE
  5
69C8
330
A
100
AcDbEntity
  8
0
100
AcDbLine
 10
420.6126741676242
 20
-71.49026200414471
 30
0.0
 11
419.6126741676242
 21
-71.49026200414471
 31
0.0
  0
LINE
  5
69C9
330
A
100
AcDbEntity
  8
0
100
AcDbLine
 10
438.6126741676242
 20
-80.49026200414471
 30
0.0
 11
438.6126741676242
 21
-79.49026200414471
 31
0.0
  0
LINE
  5
69CA
330
A
100
AcDbEntity
  8
0
100
AcDbLine
 10
438.6126741676242
 20
-80.49026200414471
 30
0.0
 11
438.1126741676242
 21
-80.49026200414471
 31
0.0
  0
LINE
  5
69CB
330
A
100
AcDbEntity
  8
0
100
AcDbLine
 10
438.6126741676242
 20
-79.49026200414471
 30
0.0
 11
437.6126741676242
 21
-79.49026200414471
 31
0.0
  0
LINE
  5
69CC
330
A
100
AcDbEntity
  8
0
100
AcDbLine
 10
437.6126741676242
 20
-80.49026200414471
 30
0.0
 11
420.6126741676242
 21
-80.49026200414471
 31
0.0
  0
LINE
  5
69CD
330
A
100
AcDbEntity
  8
0
100
AcDbLine
 10
437.6126741676242
 20
-79.49026200414471
 30
0.0
 11
420.6126741676242
 21
-79.49026200414471
 31
0.0
  0
LINE
  5
69CE
330
A
100
AcDbEntity
  8
0
100
AcDbLine
 10
419.6126741676242
 20
-80.49026200414471
 30
0.0
 11
419.6126741676242
 21
-79.49026200414471
 31
0.0
  0
LINE
  5
69CF
330
A
100
AcDbEntity
  8
0
100
AcDbLine
 10
420.6126741676242
 20
-79.49026200414471
 30
0.0
 11
419.6126741676242
 21
-79.49026200414471
 31
0.0
  0
ARC
  5
69D0
330
A
100
AcDbEntity
  8
0
100
AcDbCircle
 10
438.1126741676242
 20
-9.99026200414471
 30
0.0
 40
0.5
100
AcDbArc
 50
0.0
 51
90.0
  0
LINE
  5
69D1
330
A
100
AcDbEntity
  8
0
100
AcDbLine
 10
438.6126741676242
 20
-9.99026200414471
 30
0.0
 11
438.6126741676242
 21
-70.49026200414471
 31
0.0
  0
LINE
  5
69D2
330
A
100
AcDbEntity
  8
0
100
AcDbLine
 10
438.6126741676242
 20
-70.49026200414471
 30
0.0
 11
438.1126741676242
 21
-70.49026200414471
 31
0.0
  0
LINE
  5
69D3
330
A
100
AcDbEntity
  8
0
100
AcDbLine
 10
420.1126741676242
 20
-9.49026200414471
 30
0.0
 11
438.1126741676242
 21
-9.49026200414471
 31
0.0
  0
LINE
  5
69D4
330
A
100
AcDbEntity
  8
0
100
AcDbLine
 10
438.1126741676242
 20
-70.49026200414471
 30
0.0
 11
420.1126741676242
 21
-70.49026200414471
 31
0.0
  0
LINE
  5
69D5
330
A
100
AcDbEntity
  8
0
100
AcDbLine
 10
419.6126741676242
 20
-70.49026200414471
 30
0.0
 11
419.6126741676242
 21
-9.99026200414471
 31
0.0
  0
LINE
  5
69D6
330
A
100
AcDbEntity
  8
0
100
AcDbLine
 10
420.1126741676242
 20
-70.49026200414471
 30
0.0
 11
419.6126741676242
 21
-70.49026200414471
 31
0.0
  0
ARC
  5
69D7
330
A
100
AcDbEntity
  8
0
100
AcDbCircle
 10
420.1126741676242
 20
-9.99026200414471
 30
0.0
 40
0.5
100
AcDbArc
 50
90.0
 51
180.0
  0
LINE
  5
69D8
330
A
100
AcDbEntity
  8
0
  6
Continuous
 62
     8
370
     0
100
AcDbLine
 10
438.1126741676242
 20
-141.4902620041447
 30
0.0
 11
438.1126741676242
 21
-140.9902620041447
 31
0.0
  0
LINE
  5
69D9
330
A
100
AcDbEntity
  8
0
  6
Continuous
 62
     8
370
     0
100
AcDbLine
 10
438.6126741676242
 20
-140.9902620041447
 30
0.0
 11
438.1126741676242
 21
-140.9902620041447
 31
0.0
  0
LINE
  5
69DA
330
A
100
AcDbEntity
  8
0
  6
Continuous
 62
     8
370
     0
100
AcDbLine
 10
438.1126741676242
 20
-140.9902620041447
 30
0.0
 11
438.1126741676242
 21
-80.49026200414471
 31
0.0
  0
LINE
  5
69DB
330
A
100
AcDbEntity
  8
0
  6
Continuous
 62
     8
370
     0
100
AcDbLine
 10
420.1126741676242
 20
-140.9902620041447
 30
0.0
 11
438.1126741676242
 21
-140.9902620041447
 31
0.0
  0
LINE
  5
69DC
330
A
100
AcDbEntity
  8
0
  6
Continuous
 62
     8
370
     0
100
AcDbLine
 10
420.1126741676242
 20
-80.49026200414471
 30
0.0
 11
420.1126741676242
 21
-140.9902620041447
 31
0.0
  0
LINE
  5
69DD
330
A
100
AcDbEntity
  8
0
  6
Continuous
 62
     8
370
     0
100
AcDbLine
 10
420.1126741676242
 20
-140.9902620041447
 30
0.0
 11
420.1126741676242
 21
-141.4902620041447
 31
0.0
  0
LINE
  5
69DE
330
A
100
AcDbEntity
  8
0
  6
Continuous
 62
     8
370
     0
100
AcDbLine
 10
420.1126741676242
 20
-140.9902620041447
 30
0.0
 11
419.6126741676242
 21
-140.9902620041447
 31
0.0
  0
LINE
  5
69DF
330
A
100
AcDbEntity
  8
0
  6
Continuous
 62
     8
370
     0
100
AcDbLine
 10
437.6126741676242
 20
-71.49026200414471
 30
0.0
 11
437.6126741676242
 21
-70.49026200414471
 31
0.0
  0
LINE
  5
69E0
330
A
100
AcDbEntity
  8
0
  6
Continuous
 62
     8
370
     0
100
AcDbLine
 10
420.6126741676242
 20
-71.49026200414471
 30
0.0
 11
420.6126741676242
 21
-70.49026200414471
 31
0.0
  0
LINE
  5
69E1
330
A
100
AcDbEntity
  8
0
  6
Continuous
 62
     8
370
     0
100
AcDbLine
 10
437.6126741676242
 20
-80.49026200414471
 30
0.0
 11
437.6126741676242
 21
-79.49026200414471
 31
0.0
  0
LINE
  5
69E2
330
A
100
AcDbEntity
  8
0
  6
Continuous
 62
     8
370
     0
100
AcDbLine
 10
420.6126741676242
 20
-80.49026200414471
 30
0.0
 11
420.6126741676242
 21
-79.49026200414471
 31
0.0
  0
LINE
  5
69E3
330
A
100
AcDbEntity
  8
0
  6
Continuous
 62
     8
370
     0
100
AcDbLine
 10
438.1126741676242
 20
-9.99026200414471
 30
0.0
 11
438.6126741676242
 21
-9.99026200414471
 31
0.0
  0
LINE
  5
69E4
330
A
100
AcDbEntity
  8
0
  6
Continuous
 62
     8
370
     0
100
AcDbLine
 10
438.1126741676242
 20
-9.49026200414471
 30
0.0
 11
438.1126741676242
 21
-9.99026200414471
 31
0.0
  0
LINE
  5
69E5
330
A
100
AcDbEntity
  8
0
  6
Continuous
 62
     8
370
     0
100
AcDbLine
 10
438.1126741676242
 20
-70.49026200414471
 30
0.0
 11
438.1126741676242
 21
-9.99026200414471
 31
0.0
  0
LINE
  5
69E6
330
A
100
AcDbEntity
  8
0
  6
Continuous
 62
     8
370
     0
100
AcDbLine
 10
438.1126741676242
 20
-9.99026200414471
 30
0.0
 11
420.1126741676242
 21
-9.99026200414471
 31
0.0
  0
LINE
  5
69E7
330
A
100
AcDbEntity
  8
0
  6
Continuous
 62
     8
370
     0
100
AcDbLine
 10
420.1126741676242
 20
-9.99026200414471
 30
0.0
 11
420.1126741676242
 21
-9.49026200414471
 31
0.0
  0
LINE
  5
69E8
330
A
100
AcDbEntity
  8
0
  6
Continuous
 62
     8
370
     0
100
AcDbLine
 10
420.1126741676242
 20
-9.99026200414471
 30
0.0
 11
420.1126741676242
 21
-70.49026200414471
 31
0.0
  0
LINE
  5
69E9
330
A
100
AcDbEntity
  8
0
  6
Continuous
 62
     8
370
     0
100
AcDbLine
 10
419.6126741676242
 20
-9.99026200414471
 30
0.0
 11
420.1126741676242
 21
-9.99026200414471
 31
0.0
  0
LINE
  5
6B86
330
A
100
AcDbEntity
  8
0
  6
CENTER
 62
     1
100
AcDbLine
 10
816.6003850137242
 20
-60.15379498690801
 30
0.0
 11
816.6003850137242
 21
-88.03387937690945
 31
0.0
  0
LINE
  5
6B87
330
A
100
AcDbEntity
  8
0
  6
CENTER
 62
     1
100
AcDbLine
 10
749.2042685088243
 20
-60.15379498690801
 30
0.0
 11
749.2042685088243
 21
-88.03387937690945
 31
0.0
  0
LINE
  5
6B88
330
A
100
AcDbEntity
  8
0
  6
CENTER
 62
     1
100
AcDbLine
 10
495.2042685088243
 20
-60.15379498690801
 30
0.0
 11
495.2042685088243
 21
-88.03387937690945
 31
0.0
  0
LINE
  5
6B89
330
A
100
AcDbEntity
  8
0
  6
CENTER
 62
     1
100
AcDbLine
 10
429.1126740073743
 20
-60.15379562840805
 30
0.0
 11
429.1126740073743
 21
-88.03388001840949
 31
0.0
  0
ENDSEC
  0
SECTION
  2
OBJECTS
  0
DICTIONARY
  5
19
330
0
100
AcDbDictionary
281
     1
  3
ACAD_DETAILVIEWSTYLE
350
63CC
  3
ACAD_GROUP
350
1A
  3
ACAD_IMAGE_VARS
350
63CA
  3
ACAD_LAYOUT
350
1E
  3
ACAD_MLINESTYLE
350
1B
  3
ACAD_PLOTSETTINGS
350
22
  3
ACAD_PLOTSTYLENAME
350
1F
  3
ACAD_SCALELIST
350
3179
  3
ACAD_SECTIONVIEWSTYLE
350
63CD
  3
ACAD_WIPEOUT_VARS
350
23
  3
AcDbVariableDictionary
350
630B
  3
APPDATA
350
63C8
  3
ASE_INDEX_DICTIONARY
350
5E44
  3
DWGPROPS
350
6B97
  0
DICTIONARY
  5
5E41
330
14
100
AcDbDictionary
280
     1
281
     1
  3
ADSK_XREC_LAYER_RECONCILED
360
5E42
  0
DICTIONARY
  5
31A7
330
A
100
AcDbDictionary
280
     1
281
     1
  3
ACAD_SORTENTS
360
31A8
  0
DICTIONARY
  5
63CC
102
{ACAD_REACTORS
330
19
102
}
330
19
100
AcDbDictionary
281
     1
  0
DICTIONARY
  5
1A
102
{ACAD_REACTORS
330
19
102
}
330
19
100
AcDbDictionary
281
     1
  0
RASTERVARIABLES
  5
63CA
102
{ACAD_REACTORS
330
19
102
}
330
19
100
AcDbRasterVariables
 90
        0
 70
     1
 71
     1
 72
     0
  0
DICTIONARY
  5
1E
102
{ACAD_REACTORS
330
19
102
}
330
19
100
AcDbDictionary
281
     1
  3
Layout1
350
21
  3
Model
350
20
  0
DICTIONARY
  5
1B
102
{ACAD_REACTORS
330
19
102
}
330
19
100
AcDbDictionary
281
     1
  3
Standard
350
1C
  0
DICTIONARY
  5
22
102
{ACAD_REACTORS
330
19
102
}
330
19
100
AcDbDictionary
281
     1
  0
ACDBDICTIONARYWDFLT
  5
1F
102
{ACAD_REACTORS
330
19
102
}
330
19
100
AcDbDictionary
281
     1
  3
Normal
350
1D
100
AcDbDictionaryWithDefault
340
1D
  0
DICTIONARY
  5
3179
102
{ACAD_REACTORS
330
19
102
}
330
19
100
AcDbDictionary
281
     1
  3
A0
350
317A
  3
A1
350
317B
  3
A2
350
317C
  3
A3
350
317D
  3
A4
350
317E
  3
A5
350
317F
  3
A6
350
3180
  3
A7
350
3181
  3
A8
350
3182
  3
A9
350
3183
  3
B0
350
3184
  3
B1
350
3185
  3
B2
350
3186
  3
B3
350
3187
  3
B4
350
3188
  3
B5
350
3189
  3
B6
350
318A
  3
B7
350
318B
  3
B8
350
318C
  3
B9
350
318D
  3
C0
350
318E
  3
C1
350
318F
  3
C2
350
3190
  3
C3
350
3191
  3
C4
350
3192
  3
C5
350
3193
  3
C6
350
3194
  3
C7
350
3195
  3
C8
350
3196
  3
C9
350
3197
  3
D0
350
3198
  3
D1
350
3199
  3
D2
350
319A
  0
DICTIONARY
  5
63CD
102
{ACAD_REACTORS
330
19
102
}
330
19
100
AcDbDictionary
281
     1
  0
WIPEOUTVARIABLES
  5
23
330
19
100
AcDbWipeoutVariables
 70
     1
  0
DICTIONARY
  5
630B
102
{ACAD_REACTORS
330
19
102
}
330
19
100
AcDbDictionary
281
     1
  3
DIMASSOC
350
6318
  3
INDEXCTL
350
6317
  3
SORTENTS
350
6316
  0
DICTIONARY
  5
63C8
102
{ACAD_REACTORS
330
19
102
}
330
19
100
AcDbDictionary
281
     1
  0
DICTIONARY
  5
5E44
102
{ACAD_REACTORS
330
19
102
}
330
19
100
AcDbDictionary
281
     1
  3
ASEBlockHierarchyIndexRecord
350
5E46
1001
DCO15
1040
1685075681.336
  0
XRECORD
  5
6B97
102
{ACAD_REACTORS
330
19
102
}
330
19
100
AcDbXrecord
280
     1
  1
DWGPROPS COOKIE
  2

  3

  4

  6

  7

  8
raffaele
  9

300
=
301
=
302
=
303
=
304
=
305
=
306
=
307
=
308
=
309
=
 40
0.0
 41
2455303.644583333
 42
2457380.329791585
  1

 90
        0
  0
XRECORD
  5
5E42
102
{ACAD_REACTORS
330
5E41
102
}
330
5E41
100
AcDbXrecord
280
     1
290
     1
  0
SORTENTSTABLE
  5
31A8
102
{ACAD_REACTORS
330
31A7
102
}
330
31A7
100
AcDbSortentsTable
330
A
331
0
  5
5E30
  0
LAYOUT
  5
21
102
{ACAD_REACTORS
330
1E
102
}
330
1E
100
AcDbPlotSettings
  1

  2

  4

  6

 40
0.0
 41
0.0
 42
0.0
 43
0.0
 44
0.0
 45
0.0
 46
0.0
 47
0.0
 48
0.0
 49
0.0
140
0.0
141
0.0
142
1.0
143
1.0
 70
     0
 72
     0
 73
     0
 74
     0
  7

 75
     0
147
1.0
148
0.0
149
0.0
100
AcDbLayout
  1
Layout1
 70
     0
 71
     1
 10
0.0
 20
0.0
 11
12.0
 21
9.0
 12
0.0
 22
0.0
 32
0.0
 14
1.000000000000000E+20
 24
1.000000000000000E+20
 34
1.000000000000000E+20
 15
-1.000000000000000E+20
 25
-1.000000000000000E+20
 35
-1.000000000000000E+20
146
0.0
 13
0.0
 23
0.0
 33
0.0
 16
1.0
 26
0.0
 36
0.0
 17
0.0
 27
1.0
 37
0.0
 76
     0
330
B
  0
LAYOUT
  5
20
102
{ACAD_REACTORS
330
1E
102
}
330
1E
100
AcDbPlotSettings
  1

  2

  4

  6

 40
0.0
 41
0.0
 42
0.0
 43
0.0
 44
0.0
 45
0.0
 46
0.0
 47
0.0
 48
0.0
 49
0.0
140
0.0
141
0.0
142
1.0
143
1.0
 70
  1024
 72
     0
 73
     0
 74
     0
  7

 75
     0
147
1.0
148
0.0
149
0.0
100
AcDbLayout
  1
Model
 70
     0
 71
     0
 10
0.0
 20
0.0
 11
0.0
 21
0.0
 12
0.0
 22
0.0
 32
0.0
 14
419.6126741676242
 24
-474.7704689972447
 34
0.0
 15
832.4588155785914
 25
49.64685789773382
 35
0.0
146
0.0
 13
0.0
 23
0.0
 33
0.0
 16
0.0
 26
0.0
 36
0.0
 17
0.0
 27
0.0
 37
0.0
 76
     0
330
A
331
15
  0
MLINESTYLE
  5
1C
102
{ACAD_REACTORS
330
1B
102
}
330
1B
100
AcDbMlineStyle
  2
STANDARD
 70
     0
  3

 62
     0
 51
90.0
 52
90.0
 71
     2
 49
0.5
 62
   256
  6
BYLAYER
 49
-0.5
 62
   256
  6
BYLAYER
  0
ACDBPLACEHOLDER
  5
1D
102
{ACAD_REACTORS
330
1F
102
}
330
1F
  0
SCALE
  5
317A
102
{ACAD_REACTORS
330
3179
102
}
330
3179
100
AcDbScale
 70
     0
300
1:1
140
1.0
141
1.0
290
     1
  0
SCALE
  5
317B
102
{ACAD_REACTORS
330
3179
102
}
330
3179
100
AcDbScale
 70
     0
300
1:2
140
1.0
141
2.0
290
     0
  0
SCALE
  5
317C
102
{ACAD_REACTORS
330
3179
102
}
330
3179
100
AcDbScale
 70
     0
300
1:4
140
1.0
141
4.0
290
     0
  0
SCALE
  5
317D
102
{ACAD_REACTORS
330
3179
102
}
330
3179
100
AcDbScale
 70
     0
300
1:5
140
1.0
141
5.0
290
     0
  0
SCALE
  5
317E
102
{ACAD_REACTORS
330
3179
102
}
330
3179
100
AcDbScale
 70
     0
300
1:8
140
1.0
141
8.0
290
     0
  0
SCALE
  5
317F
102
{ACAD_REACTORS
330
3179
102
}
330
3179
100
AcDbScale
 70
     0
300
1:10
140
1.0
141
10.0
290
     0
  0
SCALE
  5
3180
102
{ACAD_REACTORS
330
3179
102
}
330
3179
100
AcDbScale
 70
     0
300
1:16
140
1.0
141
16.0
290
     0
  0
SCALE
  5
3181
102
{ACAD_REACTORS
330
3179
102
}
330
3179
100
AcDbScale
 70
     0
300
1:20
140
1.0
141
20.0
290
     0
  0
SCALE
  5
3182
102
{ACAD_REACTORS
330
3179
102
}
330
3179
100
AcDbScale
 70
     0
300
1:30
140
1.0
141
30.0
290
     0
  0
SCALE
  5
3183
102
{ACAD_REACTORS
330
3179
102
}
330
3179
100
AcDbScale
 70
     0
300
1:40
140
1.0
141
40.0
290
     0
  0
SCALE
  5
3184
102
{ACAD_REACTORS
330
3179
102
}
330
3179
100
AcDbScale
 70
     0
300
1:50
140
1.0
141
50.0
290
     0
  0
SCALE
  5
3185
102
{ACAD_REACTORS
330
3179
102
}
330
3179
100
AcDbScale
 70
     0
300
1:100
140
1.0
141
100.0
290
     0
  0
SCALE
  5
3186
102
{ACAD_REACTORS
330
3179
102
}
330
3179
100
AcDbScale
 70
     0
300
2:1
140
2.0
141
1.0
290
     0
  0
SCALE
  5
3187
102
{ACAD_REACTORS
330
3179
102
}
330
3179
100
AcDbScale
 70
     0
300
4:1
140
4.0
141
1.0
290
     0
  0
SCALE
  5
3188
102
{ACAD_REACTORS
330
3179
102
}
330
3179
100
AcDbScale
 70
     0
300
8:1
140
8.0
141
1.0
290
     0
  0
SCALE
  5
3189
102
{ACAD_REACTORS
330
3179
102
}
330
3179
100
AcDbScale
 70
     0
300
10:1
140
10.0
141
1.0
290
     0
  0
SCALE
  5
318A
102
{ACAD_REACTORS
330
3179
102
}
330
3179
100
AcDbScale
 70
     0
300
100:1
140
100.0
141
1.0
290
     0
  0
SCALE
  5
318B
102
{ACAD_REACTORS
330
3179
102
}
330
3179
100
AcDbScale
 70
     0
300
1/128" = 1'-0"
140
0.0078125
141
12.0
290
     0
  0
SCALE
  5
318C
102
{ACAD_REACTORS
330
3179
102
}
330
3179
100
AcDbScale
 70
     0
300
1/64" = 1'-0"
140
0.015625
141
12.0
290
     0
  0
SCALE
  5
318D
102
{ACAD_REACTORS
330
3179
102
}
330
3179
100
AcDbScale
 70
     0
300
1/32" = 1'-0"
140
0.03125
141
12.0
290
     0
  0
SCALE
  5
318E
102
{ACAD_REACTORS
330
3179
102
}
330
3179
100
AcDbScale
 70
     0
300
1/16" = 1'-0"
140
0.0625
141
12.0
290
     0
  0
SCALE
  5
318F
102
{ACAD_REACTORS
330
3179
102
}
330
3179
100
AcDbScale
 70
     0
300
3/32" = 1'-0"
140
0.09375
141
12.0
290
     0
  0
SCALE
  5
3190
102
{ACAD_REACTORS
330
3179
102
}
330
3179
100
AcDbScale
 70
     0
300
1/8" = 1'-0"
140
0.125
141
12.0
290
     0
  0
SCALE
  5
3191
102
{ACAD_REACTORS
330
3179
102
}
330
3179
100
AcDbScale
 70
     0
300
3/16" = 1'-0"
140
0.1875
141
12.0
290
     0
  0
SCALE
  5
3192
102
{ACAD_REACTORS
330
3179
102
}
330
3179
100
AcDbScale
 70
     0
300
1/4" = 1'-0"
140
0.25
141
12.0
290
     0
  0
SCALE
  5
3193
102
{ACAD_REACTORS
330
3179
102
}
330
3179
100
AcDbScale
 70
     0
300
3/8" = 1'-0"
140
0.375
141
12.0
290
     0
  0
SCALE
  5
3194
102
{ACAD_REACTORS
330
3179
102
}
330
3179
100
AcDbScale
 70
     0
300
1/2" = 1'-0"
140
0.5
141
12.0
290
     0
  0
SCALE
  5
3195
102
{ACAD_REACTORS
330
3179
102
}
330
3179
100
AcDbScale
 70
     0
300
3/4" = 1'-0"
140
0.75
141
12.0
290
     0
  0
SCALE
  5
3196
102
{ACAD_REACTORS
330
3179
102
}
330
3179
100
AcDbScale
 70
     0
300
1" = 1'-0"
140
1.0
141
12.0
290
     0
  0
SCALE
  5
3197
102
{ACAD_REACTORS
330
3179
102
}
330
3179
100
AcDbScale
 70
     0
300
1-1/2" = 1'-0"
140
1.5
141
12.0
290
     0
  0
SCALE
  5
3198
102
{ACAD_REACTORS
330
3179
102
}
330
3179
100
AcDbScale
 70
     0
300
3" = 1'-0"
140
3.0
141
12.0
290
     0
  0
SCALE
  5
3199
102
{ACAD_REACTORS
330
3179
102
}
330
3179
100
AcDbScale
 70
     0
300
6" = 1'-0"
140
6.0
141
12.0
290
     0
  0
SCALE
  5
319A
102
{ACAD_REACTORS
330
3179
102
}
330
3179
100
AcDbScale
 70
     0
300
1'-0" = 1'-0"
140
12.0
141
12.0
290
     0
  0
DICTIONARYVAR
  5
6318
102
{ACAD_REACTORS
330
630B
102
}
330
630B
100
DictionaryVariables
280
     0
  1
1
  0
DICTIONARYVAR
  5
6317
102
{ACAD_REACTORS
330
630B
102
}
330
630B
100
DictionaryVariables
280
     0
  1
0
  0
DICTIONARYVAR
  5
6316
102
{ACAD_REACTORS
330
630B
102
}
330
630B
100
DictionaryVariables
280
     0
  1
127
  0
XRECORD
  5
5E46
102
{ACAD_REACTORS
330
5E44
102
}
330
5E44
100
AcDbXrecord
280
     1
  0
ENDSEC
  0
EOF
