  0
SECTION
  2
HEADER
  9
$ACADVER
  1
AC1015
  9
$ACADMAINTVER
 70
    20
  9
$DWGCODEPAGE
  3
ANSI_1252
  9
$INSBASE
 10
0.0
 20
0.0
 30
0.0
  9
$EXTMIN
 10
-58.05683775980196
 20
-70.58077991745722
 30
-0.0000000000000043
  9
$EXTMAX
 10
84.89856417098781
 20
60.97839107728578
 30
0.0000000000000113
  9
$LIMMIN
 10
-66.34999999999982
 20
-2008.85
  9
$LIMMAX
 10
3734.350000000001
 20
346.85
  9
$ORTHOMODE
 70
     1
  9
$REGENMODE
 70
     1
  9
$FILLMODE
 70
     1
  9
$QTEXTMODE
 70
     0
  9
$MIRRTEXT
 70
     1
  9
$LTSCALE
 40
10.0
  9
$ATTMODE
 70
     1
  9
$TEXTSIZE
 40
0.0
  9
$TRACEWID
 40
0.05
  9
$TEXTSTYLE
  7
Standard
  9
$CLAYER
  8
0
  9
$CELTYPE
  6
Continuous
  9
$CECOLOR
 62
   256
  9
$CELTSCALE
 40
1.0
  9
$DISPSILH
 70
     0
  9
$DIMSCALE
 40
1.0
  9
$DIMASZ
 40
1.25
  9
$DIMEXO
 40
0.0
  9
$DIMDLI
 40
0.38
  9
$DIMRND
 40
0.0
  9
$DIMDLE
 40
0.0
  9
$DIMEXE
 40
0.75
  9
$DIMTP
 40
0.0
  9
$DIMTM
 40
0.0
  9
$DIMTXT
 40
2.5
  9
$DIMCEN
 40
0.09
  9
$DIMTSZ
 40
0.0
  9
$DIMTOL
 70
     0
  9
$DIMLIM
 70
     0
  9
$DIMTIH
 70
     0
  9
$DIMTOH
 70
     0
  9
$DIMSE1
 70
     0
  9
$DIMSE2
 70
     0
  9
$DIMTAD
 70
     1
  9
$DIMZIN
 70
     0
  9
$DIMBLK
  1

  9
$DIMASO
 70
     1
  9
$DIMSHO
 70
     1
  9
$DIMPOST
  1

  9
$DIMAPOST
  1

  9
$DIMALT
 70
     0
  9
$DIMALTD
 70
     2
  9
$DIMALTF
 40
25.4
  9
$DIMLFAC
 40
1.0
  9
$DIMTOFL
 70
     0
  9
$DIMTVP
 40
0.0
  9
$DIMTIX
 70
     0
  9
$DIMSOXD
 70
     0
  9
$DIMSAH
 70
     0
  9
$DIMBLK1
  1

  9
$DIMBLK2
  1

  9
$DIMSTYLE
  2
Standard
  9
$DIMCLRD
 70
     7
  9
$DIMCLRE
 70
     7
  9
$DIMCLRT
 70
     7
  9
$DIMTFAC
 40
0.8
  9
$DIMGAP
 40
1.25
  9
$DIMJUST
 70
     0
  9
$DIMSD1
 70
     0
  9
$DIMSD2
 70
     0
  9
$DIMTOLJ
 70
     1
  9
$DIMTZIN
 70
     0
  9
$DIMALTZ
 70
     0
  9
$DIMALTTZ
 70
     0
  9
$DIMUPT
 70
     0
  9
$DIMDEC
 70
     2
  9
$DIMTDEC
 70
     4
  9
$DIMALTU
 70
     2
  9
$DIMALTTD
 70
     2
  9
$DIMTXSTY
  7
Standard
  9
$DIMAUNIT
 70
     0
  9
$DIMADEC
 70
     0
  9
$DIMALTRND
 40
0.0
  9
$DIMAZIN
 70
     0
  9
$DIMDSEP
 70
     0
  9
$DIMATFIT
 70
     3
  9
$DIMFRAC
 70
     0
  9
$DIMLDRBLK
  1

  9
$DIMLUNIT
 70
     2
  9
$DIMLWD
 70
     0
  9
$DIMLWE
 70
     0
  9
$DIMTMOVE
 70
     0
  9
$LUNITS
 70
     2
  9
$LUPREC
 70
     4
  9
$SKETCHINC
 40
0.1
  9
$FILLETRAD
 40
0.0
  9
$AUNITS
 70
     0
  9
$AUPREC
 70
     0
  9
$MENU
  1
acad
  9
$ELEVATION
 40
0.0
  9
$PELEVATION
 40
0.0
  9
$THICKNESS
 40
0.0
  9
$LIMCHECK
 70
     0
  9
$CHAMFERA
 40
0.0
  9
$CHAMFERB
 40
0.0
  9
$CHAMFERC
 40
0.0
  9
$CHAMFERD
 40
0.0
  9
$SKPOLY
 70
     0
  9
$TDCREATE
 40
2455303.727916667
  9
$TDUCREATE
 40
2455303.644583334
  9
$TDUPDATE
 40
2455306.434751204
  9
$TDUUPDATE
 40
2455306.351417871
  9
$TDINDWG
 40
0.0042665278
  9
$TDUSRTIMER
 40
0.0042665278
  9
$USRTIMER
 70
     1
  9
$ANGBASE
 50
0.0
  9
$ANGDIR
 70
     0
  9
$PDMODE
 70
     0
  9
$PDSIZE
 40
0.0
  9
$PLINEWID
 40
0.0
  9
$SPLFRAME
 70
     0
  9
$SPLINETYPE
 70
     6
  9
$SPLINESEGS
 70
     8
  9
$HANDSEED
  5
641D
  9
$SURFTAB1
 70
     6
  9
$SURFTAB2
 70
     6
  9
$SURFTYPE
 70
     6
  9
$SURFU
 70
     6
  9
$SURFV
 70
     6
  9
$UCSBASE
  2

  9
$UCSNAME
  2

  9
$UCSORG
 10
0.0
 20
0.0
 30
0.0
  9
$UCSXDIR
 10
1.0
 20
0.0
 30
0.0
  9
$UCSYDIR
 10
0.0
 20
1.0
 30
0.0
  9
$UCSORTHOREF
  2

  9
$UCSORTHOVIEW
 70
     0
  9
$UCSORGTOP
 10
0.0
 20
0.0
 30
0.0
  9
$UCSORGBOTTOM
 10
0.0
 20
0.0
 30
0.0
  9
$UCSORGLEFT
 10
0.0
 20
0.0
 30
0.0
  9
$UCSORGRIGHT
 10
0.0
 20
0.0
 30
0.0
  9
$UCSORGFRONT
 10
0.0
 20
0.0
 30
0.0
  9
$UCSORGBACK
 10
0.0
 20
0.0
 30
0.0
  9
$PUCSBASE
  2

  9
$PUCSNAME
  2

  9
$PUCSORG
 10
0.0
 20
0.0
 30
0.0
  9
$PUCSXDIR
 10
1.0
 20
0.0
 30
0.0
  9
$PUCSYDIR
 10
0.0
 20
1.0
 30
0.0
  9
$PUCSORTHOREF
  2

  9
$PUCSORTHOVIEW
 70
     0
  9
$PUCSORGTOP
 10
0.0
 20
0.0
 30
0.0
  9
$PUCSORGBOTTOM
 10
0.0
 20
0.0
 30
0.0
  9
$PUCSORGLEFT
 10
0.0
 20
0.0
 30
0.0
  9
$PUCSORGRIGHT
 10
0.0
 20
0.0
 30
0.0
  9
$PUCSORGFRONT
 10
0.0
 20
0.0
 30
0.0
  9
$PUCSORGBACK
 10
0.0
 20
0.0
 30
0.0
  9
$USERI1
 70
     0
  9
$USERI2
 70
     0
  9
$USERI3
 70
     0
  9
$USERI4
 70
     0
  9
$USERI5
 70
     0
  9
$USERR1
 40
0.0
  9
$USERR2
 40
0.0
  9
$USERR3
 40
0.0
  9
$USERR4
 40
0.0
  9
$USERR5
 40
0.0
  9
$WORLDVIEW
 70
     1
  9
$SHADEDGE
 70
     3
  9
$SHADEDIF
 70
    70
  9
$TILEMODE
 70
     1
  9
$MAXACTVP
 70
    16
  9
$PINSBASE
 10
0.0
 20
0.0
 30
0.0
  9
$PLIMCHECK
 70
     0
  9
$PEXTMIN
 10
1.000000000000000E+20
 20
1.000000000000000E+20
 30
1.000000000000000E+20
  9
$PEXTMAX
 10
-1.000000000000000E+20
 20
-1.000000000000000E+20
 30
-1.000000000000000E+20
  9
$PLIMMIN
 10
0.0
 20
0.0
  9
$PLIMMAX
 10
12.0
 20
9.0
  9
$UNITMODE
 70
     0
  9
$VISRETAIN
 70
     0
  9
$PLINEGEN
 70
     1
  9
$PSLTSCALE
 70
     0
  9
$TREEDEPTH
 70
  3020
  9
$CMLSTYLE
  2
Standard
  9
$CMLJUST
 70
     0
  9
$CMLSCALE
 40
1.0
  9
$PROXYGRAPHICS
 70
     0
  9
$MEASUREMENT
 70
     1
  9
$CELWEIGHT
370
     0
  9
$ENDCAPS
280
     0
  9
$JOINSTYLE
280
     0
  9
$LWDISPLAY
290
     0
  9
$INSUNITS
 70
     0
  9
$HYPERLINKBASE
  1

  9
$STYLESHEET
  1

  9
$XEDIT
290
     1
  9
$CEPSNTYPE
380
     0
  9
$PSTYLEMODE
290
     1
  9
$FINGERPRINTGUID
  2

  9
$VERSIONGUID
  2
{2FB6DA89-31F3-4480-9CBD-1DB522FF20ED}
  9
$EXTNAMES
290
     1
  9
$PSVPSCALE
 40
0.0
  9
$OLESTARTUP
290
     0
  0
ENDSEC
  0
SECTION
  2
CLASSES
  0
CLASS
  1
IMAGE
  2
AcDbRasterImage
  3
ISM
 90
    34943
280
     0
281
     1
  0
CLASS
  1
DICTIONARYVAR
  2
AcDbDictionaryVar
  3
ObjectDBX Classes
 90
        0
280
     0
281
     0
  0
CLASS
  1
RASTERVARIABLES
  2
AcDbRasterVariables
  3
ISM
 90
    32768
280
     0
281
     0
  0
CLASS
  1
IMAGEDEF
  2
AcDbRasterImageDef
  3
ISM
 90
    32768
280
     0
281
     0
  0
CLASS
  1
IMAGEDEF_REACTOR
  2
AcDbRasterImageDefReactor
  3
ISM
 90
    32769
280
     0
281
     0
  0
CLASS
  1
IDBUFFER
  2
AcDbIdBuffer
  3
ObjectDBX Classes
 90
    32768
280
     0
281
     0
  0
CLASS
  1
SPATIAL_FILTER
  2
AcDbSpatialFilter
  3
ObjectDBX Classes
 90
    32768
280
     0
281
     0
  0
CLASS
  1
SORTENTSTABLE
  2
AcDbSortentsTable
  3
ObjectDBX Classes
 90
        0
280
     0
281
     0
  0
CLASS
  1
LAYER_INDEX
  2
AcDbLayerIndex
  3
ObjectDBX Classes
 90
    32768
280
     0
281
     0
  0
CLASS
  1
SPATIAL_INDEX
  2
AcDbSpatialIndex
  3
ObjectDBX Classes
 90
    32768
280
     0
281
     0
  0
CLASS
  1
OBJECT_PTR
  2
CAseDLPNTableRecord
  3
ASE-LPNTableRecord
 90
    32769
280
     0
281
     0
  0
CLASS
  1
LAYOUT
  2
AcDbLayout
  3
ObjectDBX Classes
 90
        0
280
     0
281
     0
  0
CLASS
  1
PLOTSETTINGS
  2
AcDbPlotSettings
  3
ObjectDBX Classes
 90
    32768
280
     0
281
     0
  0
CLASS
  1
ACDBDICTIONARYWDFLT
  2
AcDbDictionaryWithDefault
  3
ObjectDBX Classes
 90
        0
280
     0
281
     0
  0
CLASS
  1
ACDBPLACEHOLDER
  2
AcDbPlaceHolder
  3
ObjectDBX Classes
 90
        0
280
     0
281
     0
  0
CLASS
  1
VBA_PROJECT
  2
AcDbVbaProject
  3
acad
 90
    32768
280
     0
281
     0
  0
CLASS
  1
WIPEOUT
  2
AcDbWipeout
  3
"WipeOut|Product Desc: Object Enabler for WipeOut entity                        |Company: Autodesk, Inc.                        |WEB Address: www.autodesk.com"
 90
    34943
280
     0
281
     1
  0
CLASS
  1
WIPEOUTVARIABLES
  2
AcDbWipeoutVariables
  3
"WipeOut|Product Desc:     WipeOut Dbx Application|Company:          Autodesk, Inc.|WEB Address:      www.autodesk.com"
 90
        0
280
     0
281
     0
  0
CLASS
  1
RTEXT
  2
RText
  3
RText|AutoCAD Express Tool|expresstools@autodesk.com
 90
    35839
280
     0
281
     1
  0
CLASS
  1
ARCALIGNEDTEXT
  2
AcDbArcAlignedText
  3
ATEXT|AutoCAD Express Tool|expresstools@autodesk.com
 90
    32768
280
     0
281
     1
  0
CLASS
  1
MATERIAL
  2
AcDbMaterial
  3
ObjectDBX Classes
 90
     1153
280
     0
281
     0
  0
CLASS
  1
VISUALSTYLE
  2
AcDbVisualStyle
  3
ObjectDBX Classes
 90
     4095
280
     0
281
     0
  0
CLASS
  1
TABLESTYLE
  2
AcDbTableStyle
  3
ObjectDBX Classes
 90
     4095
280
     0
281
     0
  0
CLASS
  1
SCALE
  2
AcDbScale
  3
ObjectDBX Classes
 90
     1153
280
     0
281
     0
  0
CLASS
  1
MLEADERSTYLE
  2
AcDbMLeaderStyle
  3
ACDB_MLEADERSTYLE_CLASS
 90
     4095
280
     0
281
     0
  0
CLASS
  1
CELLSTYLEMAP
  2
AcDbCellStyleMap
  3
ObjectDBX Classes
 90
     1152
280
     0
281
     0
  0
ENDSEC
  0
SECTION
  2
TABLES
  0
TABLE
  2
VPORT
  5
7
330
0
100
AcDbSymbolTable
 70
     1
  0
VPORT
  5
15
330
7
100
AcDbSymbolTableRecord
100
AcDbViewportTableRecord
  2
*ACTIVE
 70
     0
 10
0.0
 20
0.0
 11
1.0
 21
1.0
 12
12.41521011237594
 22
-6.143517744946507
 13
0.0
 23
0.0
 14
1.0
 24
1.0
 15
0.0
 25
0.0
 16
0.0
 26
0.0
 36
1.0
 17
0.0
 27
0.0
 37
0.0
 40
148.8476707828316
 41
1.611330698287219
 42
50.0
 43
0.0
 44
0.0
 50
0.0
 51
0.0
 71
     0
 72
   100
 73
     1
 74
     1
 75
     0
 76
     0
 77
     0
 78
     0
281
     0
 65
     0
110
0.0
120
0.0
130
0.0
111
1.0
121
0.0
131
0.0
112
0.0
122
1.0
132
0.0
 79
     0
146
0.0
  0
ENDTAB
  0
TABLE
  2
LTYPE
  5
4
330
0
100
AcDbSymbolTable
 70
     4
  0
LTYPE
  5
11
330
4
100
AcDbSymbolTableRecord
100
AcDbLinetypeTableRecord
  2
ByBlock
 70
     0
  3

 72
    65
 73
     0
 40
0.0
  0
LTYPE
  5
12
330
4
100
AcDbSymbolTableRecord
100
AcDbLinetypeTableRecord
  2
ByLayer
 70
     0
  3

 72
    65
 73
     0
 40
0.0
  0
LTYPE
  5
13
330
4
100
AcDbSymbolTableRecord
100
AcDbLinetypeTableRecord
  2
Continuous
 70
     0
  3
Solid line
 72
    65
 73
     0
 40
0.0
  0
LTYPE
  5
1E4
330
4
100
AcDbSymbolTableRecord
100
AcDbLinetypeTableRecord
  2
CENTER
 70
     0
  3
____ _ ____ _ ____ _ ____ _ ____ _ ____ _ ____
 72
    65
 73
     4
 40
2.0
 49
1.25
 74
     0
 49
-0.25
 74
     0
 49
0.25
 74
     0
 49
-0.25
 74
     0
  0
ENDTAB
  0
TABLE
  2
LAYER
  5
2
330
0
100
AcDbSymbolTable
 70
     1
  0
LAYER
  5
14
102
{ACAD_XDICTIONARY
360
5E41
102
}
330
2
100
AcDbSymbolTableRecord
100
AcDbLayerTableRecord
  2
0
 70
     0
 62
     7
  6
Continuous
370
    -3
390
1D
  0
ENDTAB
  0
TABLE
  2
STYLE
  5
3
330
0
100
AcDbSymbolTable
 70
     1
  0
STYLE
  5
17
330
3
100
AcDbSymbolTableRecord
100
AcDbTextStyleTableRecord
  2
Standard
 70
     0
 40
0.0
 41
1.0
 50
0.0
 71
     0
 42
0.0
  3
I011000D.TTF
  4

1001
ACAD
1000
IsonormD
1071
        0
  0
ENDTAB
  0
TABLE
  2
VIEW
  5
5
330
0
100
AcDbSymbolTable
 70
     0
  0
ENDTAB
  0
TABLE
  2
UCS
  5
6
330
0
100
AcDbSymbolTable
 70
     0
  0
ENDTAB
  0
TABLE
  2
APPID
  5
8
330
0
100
AcDbSymbolTable
 70
     5
  0
APPID
  5
16
330
8
100
AcDbSymbolTableRecord
100
AcDbRegAppTableRecord
  2
ACAD
 70
     0
  0
APPID
  5
26
330
8
100
AcDbSymbolTableRecord
100
AcDbRegAppTableRecord
  2
TopSolid'Draft
 70
     0
  0
APPID
  5
319D
330
8
100
AcDbSymbolTableRecord
100
AcDbRegAppTableRecord
  2
ACAD_MLEADERVER
 70
     0
  0
APPID
  5
5E45
330
8
100
AcDbSymbolTableRecord
100
AcDbRegAppTableRecord
  2
DCO15
 70
     0
  0
APPID
  5
638E
330
8
100
AcDbSymbolTableRecord
100
AcDbRegAppTableRecord
  2
ACAD_EXEMPT_FROM_CAD_STANDARDS
 70
     0
  0
ENDTAB
  0
TABLE
  2
DIMSTYLE
  5
9
330
0
100
AcDbSymbolTable
 70
     2
100
AcDbDimStyleTable
 71
     1
340
18
  0
DIMSTYLE
105
18
330
9
100
AcDbSymbolTableRecord
100
AcDbDimStyleTableRecord
  2
Standard
 70
     0
 41
1.25
 42
0.0
 44
0.75
 73
     0
 74
     0
 77
     1
140
2.5
146
0.8
147
1.25
176
     7
177
     7
178
     7
271
     2
340
17
  0
ENDTAB
  0
TABLE
  2
BLOCK_RECORD
  5
1
330
0
100
AcDbSymbolTable
 70
     3
  0
BLOCK_RECORD
  5
A
102
{ACAD_XDICTIONARY
360
31A7
102
}
330
1
100
AcDbSymbolTableRecord
100
AcDbBlockTableRecord
  2
*MODEL_SPACE
340
20
  0
BLOCK_RECORD
  5
B
330
1
100
AcDbSymbolTableRecord
100
AcDbBlockTableRecord
  2
*PAPER_SPACE
340
21
  0
ENDTAB
  0
ENDSEC
  0
SECTION
  2
BLOCKS
  0
BLOCK
  5
D
330
A
100
AcDbEntity
  8
0
100
AcDbBlockBegin
  2
*MODEL_SPACE
 70
     0
 10
0.0
 20
0.0
 30
0.0
  3
*MODEL_SPACE
  1

  0
ENDBLK
  5
E
330
A
100
AcDbEntity
  8
0
100
AcDbBlockEnd
  0
BLOCK
  5
F
330
B
100
AcDbEntity
 67
     1
  8
0
100
AcDbBlockBegin
  2
*PAPER_SPACE
 70
     0
 10
0.0
 20
0.0
 30
0.0
  3
*PAPER_SPACE
  1

  0
ENDBLK
  5
10
330
B
100
AcDbEntity
 67
     1
  8
0
100
AcDbBlockEnd
  0
ENDSEC
  0
SECTION
  2
ENTITIES
  0
LINE
  5
177F
330
A
100
AcDbEntity
  8
0
  6
CENTER
 62
     1
100
AcDbLine
 10
-7.199999999999818
 20
0.0
 30
0.0
 11
7.200000000000045
 21
0.0
 31
0.0
  0
LINE
  5
1780
330
A
100
AcDbEntity
  8
0
  6
CENTER
 62
     1
100
AcDbLine
 10
0.0
 20
-19.36950485230693
 30
0.0
 11
0.0
 21
7.200000000000095
 31
0.0
  0
LINE
  5
1781
330
A
100
AcDbEntity
  8
0
  6
CENTER
 62
     1
100
AcDbLine
 10
-4.099999999999909
 20
52.69999999949508
 30
0.0
 11
4.100000000000136
 21
52.69999999949508
 31
0.0
  0
LINE
  5
1782
330
A
100
AcDbEntity
  8
0
  6
CENTER
 62
     1
100
AcDbLine
 10
0.0
 20
48.59999999949508
 30
0.0
 11
0.0
 21
56.79999999949505
 31
0.0
  0
LINE
  5
1783
330
A
100
AcDbEntity
  8
0
  6
CENTER
 62
     1
100
AcDbLine
 10
-0.0000000003180958
 20
-58.4999999991048
 30
0.0
 11
0.0000000001120952
 21
-46.99999999910479
 31
0.0
  0
LINE
  5
190B
330
A
100
AcDbEntity
  8
0
  6
CENTER
 62
     1
100
AcDbLine
 10
-55.99999999949705
 20
0.0000000003176979
 30
0.0
 11
-44.49999999949705
 21
-0.0000000001121236
 31
0.0
  0
LINE
  5
190C
330
A
100
AcDbEntity
  8
0
  6
CENTER
 62
     1
100
AcDbLine
 10
60.99999999910505
 20
0.0000000003176979
 30
0.0
 11
49.49999999910506
 21
-0.0000000001121236
 31
0.0
  0
LINE
  5
4914
330
A
100
AcDbEntity
  8
0
  6
Continuous
 62
     9
370
     0
100
AcDbLine
 10
79.66420979779787
 20
-40.74222243198956
 30
0.0
 11
81.09529330339796
 21
-39.57374764264521
 31
0.0
  0
ELLIPSE
  5
4915
330
A
100
AcDbEntity
  8
0
  6
Continuous
 62
     7
370
     0
100
AcDbEllipse
 10
81.09529330339796
 20
-43.22523135934764
 30
0.0
 11
-2.529822128134683
 21
3.098386676965922
 31
0.0000000000000001
210
0.0000000000000001
220
0.0
230
1.0
 40
0.8164965809277259
 41
3.926990816987256
 42
5.497787143782153
  0
LINE
  5
4916
330
A
100
AcDbEntity
  8
0
  6
Continuous
 62
     9
370
     0
100
AcDbLine
 10
84.67300206739901
 20
-43.95552810268811
 30
0.0
 11
83.24191856179892
 21
-45.12400289203247
 31
0.0
  0
ELLIPSE
  5
4917
330
A
100
AcDbEntity
  8
0
  6
Continuous
 62
     7
370
     0
100
AcDbEllipse
 10
79.66420979779787
 20
-44.39370614869198
 30
0.0
 11
2.529822128134683
 21
-3.098386676965922
 31
-0.0000000000000001
210
0.0000000000000001
220
0.0
230
1.0
 40
0.8164965809277259
 41
0.7853981633974542
 42
2.356194490192358
  0
ELLIPSE
  5
4918
330
A
100
AcDbEntity
  8
0
  6
Continuous
 62
     7
370
     0
100
AcDbEllipse
 10
58.19795721379205
 20
-40.01192568864906
 30
0.0
 11
2.529822128134683
 21
-3.098386676965922
 31
-0.0000000000000001
210
0.0000000000000001
220
0.0
230
1.0
 40
0.8164965809277259
 41
2.356194490192304
 42
3.141592653589792
  0
LINE
  5
4919
330
A
100
AcDbEntity
  8
0
  6
Continuous
 62
     7
370
     0
100
AcDbLine
 10
58.19795721379205
 20
-36.36044197194664
 30
0.0
 11
79.66420979779787
 21
-40.74222243198956
 31
0.0
  0
LINE
  5
491A
330
A
100
AcDbEntity
  8
0
  6
Continuous
 62
     7
370
     0
100
AcDbLine
 10
83.24191856179892
 20
-45.12400289203247
 30
0.0
 11
83.24191856179892
 21
-67.032905192247
 31
0.0
  0
LINE
  5
491B
330
A
100
AcDbEntity
  8
0
  6
Continuous
 62
     7
370
     0
100
AcDbLine
 10
83.24191856179892
 20
-67.032905192247
 30
0.0
 11
80.37975154997093
 21
-66.4486677974466
 31
0.0
  0
LINE
  5
491C
330
A
100
AcDbEntity
  8
0
  6
Continuous
 62
     9
370
     0
100
AcDbLine
 10
59.62904071939192
 20
-35.19196718260231
 30
0.0
 11
58.19795721379205
 21
-36.36044197194664
 31
0.0
  0
LINE
  5
491D
330
A
100
AcDbEntity
  8
0
  6
Continuous
 62
     7
370
     0
100
AcDbLine
 10
59.62904071939192
 20
-35.19196718260231
 30
0.0
 11
81.09529330339796
 21
-39.57374764264521
 31
0.0
  0
LINE
  5
491E
330
A
100
AcDbEntity
  8
0
  6
Continuous
 62
     7
370
     0
100
AcDbLine
 10
83.24191856179892
 20
-67.032905192247
 30
0.0
 11
84.67300206739901
 21
-65.8644304029026
 31
0.0
  0
LINE
  5
491F
330
A
100
AcDbEntity
  8
0
  6
Continuous
 62
     7
370
     0
100
AcDbLine
 10
84.67300206739901
 20
-43.95552810268811
 30
0.0
 11
84.67300206739901
 21
-65.8644304029026
 31
0.0
  0
ELLIPSE
  5
4920
330
A
100
AcDbEntity
  8
0
  6
Continuous
 62
     7
370
     0
100
AcDbEllipse
 10
59.62904071939192
 20
-38.84345089930473
 30
0.0
 11
-2.529822128134683
 21
3.098386676965922
 31
0.0000000000000001
210
0.0000000000000001
220
0.0
230
1.0
 40
0.8164965809277259
 41
5.497787143782153
 42
6.283185307179581
  0
ELLIPSE
  5
4921
330
A
100
AcDbEntity
  8
0
  6
Continuous
 62
     7
370
     0
100
AcDbEllipse
 10
58.19795721379205
 20
-40.01192568864906
 30
0.0
 11
2.529822128134683
 21
-3.098386676965922
 31
-0.0000000000000001
210
0.0000000000000001
220
0.0
230
1.0
 40
0.8164965809277259
 41
3.141592653589792
 42
3.742856870102908
  0
ELLIPSE
  5
4922
330
A
100
AcDbEntity
  8
0
  6
Continuous
 62
     7
370
     0
100
AcDbEllipse
 10
57.84018633739288
 20
-40.30404438598517
 30
0.0
 11
2.023857702507791
 21
-2.478709341572751
 31
-0.0000000000000001
210
0.0000000000000001
220
0.0
230
1.0
 40
0.8164965809277259
 41
2.356194490192332
 42
3.14159265358979
  0
LINE
  5
4923
330
A
100
AcDbEntity
  8
0
  6
Continuous
 62
     7
370
     0
100
AcDbLine
 10
79.30643892139801
 20
-41.76463787266611
 30
0.0
 11
57.84018633739288
 21
-37.38285741262322
 31
0.0
  0
ELLIPSE
  5
4924
330
A
100
AcDbEntity
  8
0
  6
Continuous
 62
     7
370
     0
100
AcDbEllipse
 10
79.30643892139801
 20
-44.68582484602809
 30
0.0
 11
2.023857702507791
 21
-2.478709341572751
 31
-0.0000000000000001
210
0.0000000000000001
220
0.0
230
1.0
 40
0.8164965809277259
 41
0.7853981633974399
 42
2.356194490192332
  0
LINE
  5
4925
330
A
100
AcDbEntity
  8
0
  6
Continuous
 62
     7
370
     0
100
AcDbLine
 10
82.16860593259889
 20
-65.71837105423398
 30
0.0
 11
82.16860593259889
 21
-45.27006224070046
 31
0.0
  0
ELLIPSE
  5
4926
330
A
100
AcDbEntity
  8
0
  6
Continuous
 62
     7
370
     0
100
AcDbEllipse
 10
81.45306417979895
 20
-65.5723117055659
 30
0.0
 11
0.5059644256268925
 21
-0.6196773353931706
 31
0.0
210
0.0000000000000001
220
0.0
230
1.0
 40
0.8164965809277259
 41
5.497787143782261
 42
6.283185307179585
  0
LINE
  5
4927
330
A
100
AcDbEntity
  8
0
  6
Continuous
 62
     7
370
     0
100
AcDbLine
 10
80.37975154997798
 20
-66.08351942577758
 30
0.0
 11
81.45306417979895
 21
-66.30260844890639
 31
0.0
  0
LINE
  5
4928
330
A
100
AcDbEntity
  8
0
  6
Continuous
 62
     9
370
     0
100
AcDbLine
 10
79.66420979779787
 20
-41.47251917533004
 30
0.0
 11
79.30643892139801
 21
-41.76463787266611
 31
0.0
  0
ELLIPSE
  5
4929
330
A
100
AcDbEntity
  8
0
  6
Continuous
 62
     7
370
     0
100
AcDbEllipse
 10
79.66420979779787
 20
-44.39370614869198
 30
0.0
 11
2.023857702507791
 21
-2.478709341572764
 31
-0.0000000000000001
210
0.0000000000000001
220
0.0
230
1.0
 40
0.8164965809277259
 41
0.7853981633974338
 42
2.356194490192335
  0
LINE
  5
492A
330
A
100
AcDbEntity
  8
0
  6
Continuous
 62
     9
370
     0
100
AcDbLine
 10
82.52637680899898
 20
-44.97794354336435
 30
0.0
 11
82.16860593259889
 21
-45.27006224070046
 31
0.0
  0
LINE
  5
492B
330
A
100
AcDbEntity
  8
0
  6
Continuous
 62
     9
370
     0
100
AcDbLine
 10
58.19795721379205
 20
-37.09073871528714
 30
0.0
 11
57.84018633739288
 21
-37.38285741262322
 31
0.0
  0
LINE
  5
492C
330
A
100
AcDbEntity
  8
0
  6
Continuous
 62
     7
370
     0
100
AcDbLine
 10
79.66420979779787
 20
-41.47251917533004
 30
0.0
 11
58.19795721379205
 21
-37.09073871528714
 31
0.0
  0
LINE
  5
492D
330
A
100
AcDbEntity
  8
0
  6
Continuous
 62
     9
370
     0
100
AcDbLine
 10
82.52637680899898
 20
-65.42625235689789
 30
0.0
 11
82.16860593259889
 21
-65.71837105423398
 31
0.0
  0
LINE
  5
492E
330
A
100
AcDbEntity
  8
0
  6
Continuous
 62
     7
370
     0
100
AcDbLine
 10
82.52637680899898
 20
-65.42625235689789
 30
0.0
 11
82.52637680899898
 21
-44.97794354336435
 31
0.0
  0
ELLIPSE
  5
492F
330
A
100
AcDbEntity
  8
0
  6
Continuous
 62
     7
370
     0
100
AcDbEllipse
 10
81.81083505619904
 20
-65.28019300822979
 30
0.0
 11
0.5059644256268925
 21
-0.6196773353931706
 31
0.0
210
0.0000000000000001
220
0.0
230
1.0
 40
0.8164965809277259
 41
0.0
 42
0.7853981633975005
  0
ELLIPSE
  5
4930
330
A
100
AcDbEntity
  8
0
  6
Continuous
 62
     7
370
     0
100
AcDbEllipse
 10
81.45306417979895
 20
-65.5723117055659
 30
0.0
 11
0.5059644256268925
 21
-0.6196773353931706
 31
0.0
210
0.0000000000000001
220
0.0
230
1.0
 40
0.8164965809277259
 41
0.0
 42
0.7853981633975005
  0
ELLIPSE
  5
4931
330
A
100
AcDbEntity
  8
0
  6
Continuous
 62
     7
370
     0
100
AcDbEllipse
 10
57.84018633739288
 20
-40.30404438598517
 30
0.0
 11
2.023857702507791
 21
-2.478709341572751
 31
0.0
210
0.0
220
0.0
230
1.0
 40
0.8164965809277264
 41
3.14159265358979
 42
3.543782197577975
  0
ELLIPSE
  5
4932
330
A
100
AcDbEntity
  8
0
  6
Continuous
 62
     7
370
     0
100
AcDbEllipse
 10
58.19795721379205
 20
-40.01192568864906
 30
0.0
 11
2.023857702507791
 21
-2.478709341572764
 31
-0.0000000000000001
210
0.0000000000000001
220
0.0
230
1.0
 40
0.8164965809277259
 41
2.356194490192335
 42
3.141592653589798
  0
ELLIPSE
  5
4933
330
A
100
AcDbEntity
  8
0
  6
Continuous
 62
     7
370
     0
100
AcDbEllipse
 10
53.90470669708316
 20
-43.51735005604248
 30
0.0
 11
2.52982212785091
 21
-3.098386677197638
 31
-0.0000000000000002
210
0.0
220
-0.0000000000000001
230
1.0
 40
0.8164965809277127
 41
2.356194490267099
 42
3.141592653589794
  0
LINE
  5
4934
330
A
100
AcDbEntity
  8
0
  6
Continuous
 62
     7
370
     0
100
AcDbLine
 10
75.37095928074586
 20
-44.24764679965596
 30
0.0
 11
53.90470669715
 21
-39.86586633928679
 31
0.0
  0
ELLIPSE
  5
4935
330
A
100
AcDbEntity
  8
0
  6
Continuous
 62
     7
370
     0
100
AcDbEllipse
 10
75.37095928067902
 20
-47.89913051641163
 30
0.0
 11
2.52982212785091
 21
-3.098386677197638
 31
-0.0000000000000003
210
0.0
220
-0.0000000000000001
230
1.0
 40
0.8164965809277131
 41
0.7853981634722378
 42
2.356194490267099
  0
LINE
  5
4936
330
A
100
AcDbEntity
  8
0
  6
Continuous
 62
     7
370
     0
100
AcDbLine
 10
78.94866804421099
 20
-70.53832956034068
 30
0.0
 11
78.94866804461208
 21
-48.62942725980652
 31
0.0
  0
LINE
  5
4937
330
A
100
AcDbEntity
  8
0
  6
Continuous
 62
     7
370
     0
100
AcDbLine
 10
50.326997932749
 20
-64.69595561318178
 30
0.0
 11
78.94866804421099
 21
-70.53832956034068
 31
0.0
  0
LINE
  5
4938
330
A
100
AcDbEntity
  8
0
  6
Continuous
 62
     7
370
     0
100
AcDbLine
 10
50.32699793314987
 20
-42.78705331264762
 30
0.0
 11
50.326997932749
 21
-64.69595561318178
 31
0.0
  0
LINE
  5
4939
330
A
100
AcDbEntity
  8
0
  6
Continuous
 62
     9
370
     0
100
AcDbLine
 10
78.94866804461208
 20
-48.62942725980652
 30
0.0
 11
80.37975155031904
 21
-47.4609524705932
 31
0.0
  0
LINE
  5
493A
330
A
100
AcDbEntity
  8
0
  6
Continuous
 62
     9
370
     0
100
AcDbLine
 10
75.37095928074586
 20
-44.24764679965596
 30
0.0
 11
76.80204278645305
 21
-43.07917201044261
 31
0.0
  0
ELLIPSE
  5
493B
330
A
100
AcDbEntity
  8
0
  6
Continuous
 62
     7
370
     0
100
AcDbEllipse
 10
76.80204278638598
 20
-46.73065572719831
 30
0.0
 11
2.52982212785091
 21
-3.098386677197638
 31
-0.0000000000000001
210
0.0000000000000001
220
0.0
230
1.0
 40
0.8164965809277124
 41
0.7853981634722219
 42
2.356194490267098
  0
LINE
  5
493C
330
A
100
AcDbEntity
  8
0
  6
Continuous
 62
     7
370
     0
100
AcDbLine
 10
78.94866804421099
 20
-70.53832956034068
 30
0.0
 11
80.37975154991796
 21
-69.36985477112739
 31
0.0
  0
LINE
  5
493D
330
A
100
AcDbEntity
  8
0
  6
Continuous
 62
     7
370
     0
100
AcDbLine
 10
80.37975154991796
 20
-69.36985477112739
 30
0.0
 11
80.37975155031904
 21
-47.4609524705932
 31
0.0
  0
LINE
  5
493E
330
A
100
AcDbEntity
  8
0
  6
Continuous
 62
     9
370
     0
100
AcDbLine
 10
53.90470669715
 20
-39.86586633928679
 30
0.0
 11
55.33579020285697
 21
-38.69739155007347
 31
0.0
  0
LINE
  5
493F
330
A
100
AcDbEntity
  8
0
  6
Continuous
 62
     7
370
     0
100
AcDbLine
 10
76.80204278645305
 20
-43.07917201044261
 30
0.0
 11
55.33579020285697
 21
-38.69739155007347
 31
0.0
  0
ELLIPSE
  5
4940
330
A
100
AcDbEntity
  8
0
  6
Continuous
 62
     7
370
     0
100
AcDbEllipse
 10
53.90470669708316
 20
-43.51735005604248
 30
0.0
 11
2.52982212785091
 21
-3.098386677197638
 31
-0.0000000000000001
210
0.0000000000000001
220
0.0
230
1.0
 40
0.8164965809277124
 41
3.141592653589792
 42
3.926990817062026
  0
ELLIPSE
  5
4941
330
A
100
AcDbEntity
  8
0
  6
Continuous
 62
     7
370
     0
100
AcDbEllipse
 10
55.33579020278989
 20
-42.34887526682917
 30
0.0
 11
2.52982212785091
 21
-3.098386677197638
 31
-0.0000000000000002
210
0.0
220
-0.0000000000000001
230
1.0
 40
0.8164965809277127
 41
2.356194490267098
 42
3.141592653589794
  0
LINE
  5
4942
330
A
100
AcDbEntity
  8
0
  6
Continuous
 62
     7
370
     0
100
AcDbLine
 10
57.09921859125597
 20
-35.74506422233766
 30
0.0
 11
55.66813508565701
 21
-36.91353901168203
 31
0.0
  0
LINE
  5
4943
330
A
100
AcDbEntity
  8
0
  6
Continuous
 62
     7
370
     0
100
AcDbLine
 10
81.95902860542606
 20
-66.1919890409593
 30
0.0
 11
82.31679948182591
 21
-65.8998703436232
 31
0.0
  0
LINE
  5
4944
330
A
100
AcDbEntity
  8
0
  6
Continuous
 62
     7
370
     0
100
AcDbLine
 10
56.17409951128411
 20
-37.53321634707545
 30
0.0
 11
55.81632863488403
 21
-37.82533504441154
 31
0.0
  0
LINE
  5
4945
330
A
100
AcDbEntity
  8
0
  6
Continuous
 62
     7
370
     0
100
AcDbLine
 10
52.80596807493907
 20
-39.25048858963153
 30
0.0
 11
51.37488456923188
 21
-40.41896337884484
 31
0.0
  0
LINE
  5
4946
330
A
100
AcDbEntity
  8
0
  6
Continuous
 62
     7
370
     0
100
AcDbLine
 10
-45.999999999495
 20
17.5000000000063
 30
0.0
 11
-41.999999999495
 21
17.5000000000063
 31
0.0
  0
LINE
  5
4947
330
A
100
AcDbEntity
  8
0
  6
Continuous
 62
     9
370
     0
100
AcDbLine
 10
-41.999999999495
 20
12.50000000000449
 30
0.0
 11
-45.999999999495
 21
12.50000000000449
 31
0.0
  0
LINE
  5
4948
330
A
100
AcDbEntity
  8
0
  6
Continuous
 62
     7
370
     0
100
AcDbLine
 10
-45.999999999495
 20
12.50000000000449
 30
0.0
 11
-45.999999999495
 21
17.5000000000045
 31
0.0
  0
LINE
  5
4949
330
A
100
AcDbEntity
  8
0
  6
Continuous
 62
     7
370
     0
100
AcDbLine
 10
-41.999999999495
 20
17.5000000000045
 30
0.0
 11
-41.999999999495
 21
12.50000000000449
 31
0.0
  0
LINE
  5
494A
330
A
100
AcDbEntity
  8
0
  6
Continuous
 62
     7
370
     0
100
AcDbLine
 10
-45.999999999495
 20
-17.50000000000629
 30
0.0
 11
-41.999999999495
 21
-17.50000000000629
 31
0.0
  0
LINE
  5
494B
330
A
100
AcDbEntity
  8
0
  6
Continuous
 62
     7
370
     0
100
AcDbLine
 10
-45.999999999495
 20
12.50000000000449
 30
0.0
 11
-45.999999999495
 21
-17.50000000000629
 31
0.0
  0
LINE
  5
494C
330
A
100
AcDbEntity
  8
0
  6
Continuous
 62
     7
370
     0
100
AcDbLine
 10
-41.999999999495
 20
12.50000000000449
 30
0.0
 11
-41.999999999495
 21
-17.50000000000629
 31
0.0
  0
LINE
  5
494D
330
A
100
AcDbEntity
  8
0
  6
Continuous
 62
     7
370
     0
100
AcDbLine
 10
-46.999999999495
 20
-13.50000000000484
 30
0.0
 11
-52.99999999949704
 21
-13.50000000000484
 31
0.0
  0
LINE
  5
494E
330
A
100
AcDbEntity
  8
0
  6
Continuous
 62
     7
370
     0
100
AcDbLine
 10
-45.999999999495
 20
-17.50000000000629
 30
0.0
 11
-54.00000000089995
 21
-17.50000000000629
 31
0.0
  0
LINE
  5
494F
330
A
100
AcDbEntity
  8
0
  6
Continuous
 62
     9
370
     0
100
AcDbLine
 10
-45.999999999495
 20
12.50000000000449
 30
0.0
 11
-46.999999999495
 21
12.50000000000449
 31
0.0
  0
LINE
  5
4950
330
A
100
AcDbEntity
  8
0
  6
Continuous
 62
     9
370
     0
100
AcDbLine
 10
-45.999999999495
 20
-15.50000000000556
 30
0.0
 11
-46.999999999495
 21
-15.50000000000556
 31
0.0
  0
LINE
  5
4951
330
A
100
AcDbEntity
  8
0
  6
Continuous
 62
     7
370
     0
100
AcDbLine
 10
-46.999999999495
 20
-15.50000000000556
 30
0.0
 11
-46.999999999495
 21
12.50000000000449
 31
0.0
  0
LINE
  5
4952
330
A
100
AcDbEntity
  8
0
  6
Continuous
 62
     7
370
     0
100
AcDbLine
 10
-45.999999999495
 20
16.50000000000594
 30
0.0
 11
-46.999999999495
 21
16.50000000000594
 31
0.0
  0
LINE
  5
4953
330
A
100
AcDbEntity
  8
0
  6
Continuous
 62
     7
370
     0
100
AcDbLine
 10
-46.999999999495
 20
12.50000000000449
 30
0.0
 11
-46.999999999495
 21
16.50000000000449
 31
0.0
  0
LINE
  5
4954
330
A
100
AcDbEntity
  8
0
  6
Continuous
 62
     7
370
     0
100
AcDbLine
 10
-45.999999999495
 20
-16.50000000000592
 30
0.0
 11
-46.999999999495
 21
-16.50000000000592
 31
0.0
  0
LINE
  5
4955
330
A
100
AcDbEntity
  8
0
  6
Continuous
 62
     7
370
     0
100
AcDbLine
 10
-46.999999999495
 20
-16.50000000000556
 30
0.0
 11
-46.999999999495
 21
-15.50000000000556
 31
0.0
  0
LINE
  5
4956
330
A
100
AcDbEntity
  8
0
  6
Continuous
 62
     9
370
     0
100
AcDbLine
 10
-52.99999999949704
 20
12.50000000000449
 30
0.0
 11
-53.99999999949705
 21
12.50000000000449
 31
0.0
  0
LINE
  5
4957
330
A
100
AcDbEntity
  8
0
  6
Continuous
 62
     9
370
     0
100
AcDbLine
 10
-52.99999999949704
 20
-15.50000000000555
 30
0.0
 11
-53.99999999949705
 21
-15.50000000000555
 31
0.0
  0
LINE
  5
4958
330
A
100
AcDbEntity
  8
0
  6
Continuous
 62
     7
370
     0
100
AcDbLine
 10
-52.99999999949704
 20
-15.50000000000555
 30
0.0
 11
-52.99999999949704
 21
12.50000000000449
 31
0.0
  0
LINE
  5
4959
330
A
100
AcDbEntity
  8
0
  6
Continuous
 62
     7
370
     0
100
AcDbLine
 10
-52.99999999949704
 20
-16.50000000000592
 30
0.0
 11
-53.99999999949705
 21
-16.50000000000592
 31
0.0
  0
LINE
  5
495A
330
A
100
AcDbEntity
  8
0
  6
Continuous
 62
     7
370
     0
100
AcDbLine
 10
-52.99999999949704
 20
-16.50000000000556
 30
0.0
 11
-52.99999999949704
 21
-15.50000000000555
 31
0.0
  0
LINE
  5
495B
330
A
100
AcDbEntity
  8
0
  6
Continuous
 62
     7
370
     0
100
AcDbLine
 10
-52.99999999949704
 20
16.50000000000593
 30
0.0
 11
-53.99999999949705
 21
16.50000000000593
 31
0.0
  0
LINE
  5
495C
330
A
100
AcDbEntity
  8
0
  6
Continuous
 62
     7
370
     0
100
AcDbLine
 10
-52.99999999949704
 20
12.50000000000449
 30
0.0
 11
-52.99999999949704
 21
16.50000000000449
 31
0.0
  0
LINE
  5
495D
330
A
100
AcDbEntity
  8
0
  6
Continuous
 62
     7
370
     0
100
AcDbLine
 10
-53.99999999949705
 20
12.50000000000449
 30
0.0
 11
-53.99999999949705
 21
16.50000000000449
 31
0.0
  0
LINE
  5
495E
330
A
100
AcDbEntity
  8
0
  6
Continuous
 62
     9
370
     0
100
AcDbLine
 10
-57.99999999977808
 20
12.50000000039244
 30
0.0
 11
-53.99999999977808
 21
12.50000000024294
 31
0.0
  0
LINE
  5
495F
330
A
100
AcDbEntity
  8
0
  6
Continuous
 62
     7
370
     0
100
AcDbLine
 10
-57.99999999959095
 20
12.50000000039244
 30
0.0
 11
-57.99999999940405
 21
17.50000000039244
 31
0.0
  0
LINE
  5
4960
330
A
100
AcDbEntity
  8
0
  6
Continuous
 62
     7
370
     0
100
AcDbLine
 10
-57.99999999940405
 20
17.50000000039244
 30
0.0
 11
-53.99999999940405
 21
17.50000000024294
 31
0.0
  0
LINE
  5
4961
330
A
100
AcDbEntity
  8
0
  6
Continuous
 62
     7
370
     0
100
AcDbLine
 10
-53.99999999959096
 20
12.50000000024294
 30
0.0
 11
-53.99999999940405
 21
17.50000000024294
 31
0.0
  0
LINE
  5
4962
330
A
100
AcDbEntity
  8
0
  6
Continuous
 62
     7
370
     0
100
AcDbLine
 10
-58.00000000089994
 20
-17.49999999960755
 30
0.0
 11
-57.99999999977808
 21
12.50000000039244
 31
0.0
  0
LINE
  5
4963
330
A
100
AcDbEntity
  8
0
  6
Continuous
 62
     7
370
     0
100
AcDbLine
 10
-54.00000000089995
 20
-17.49999999975706
 30
0.0
 11
-53.99999999977808
 21
12.50000000024294
 31
0.0
  0
LINE
  5
4964
330
A
100
AcDbEntity
  8
0
  6
Continuous
 62
     7
370
     0
100
AcDbLine
 10
-58.00000000089994
 20
-17.49999999960755
 30
0.0
 11
-54.00000000089995
 21
-17.49999999975706
 31
0.0
  0
LINE
  5
4965
330
A
100
AcDbEntity
  8
0
  6
Continuous
 62
     7
370
     0
100
AcDbLine
 10
-46.999999999495
 20
4.999999999981312
 30
0.0
 11
-52.99999999949704
 21
5.00000000020556
 31
0.0
  0
LINE
  5
4966
330
A
100
AcDbEntity
  8
0
  6
Continuous
 62
     7
370
     0
100
AcDbLine
 10
-52.99999999949704
 20
-4.999999999794439
 30
0.0
 11
-46.999999999495
 21
-5.000000000018687
 31
0.0
  0
LINE
  5
4967
330
A
100
AcDbEntity
  8
0
  6
Continuous
 62
     9
370
     0
100
AcDbLine
 10
50.99999999910301
 20
12.50000000000449
 30
0.0
 11
46.99999999910301
 21
12.50000000000449
 31
0.0
  0
LINE
  5
4968
330
A
100
AcDbEntity
  8
0
  6
Continuous
 62
     7
370
     0
100
AcDbLine
 10
46.99999999910301
 20
12.50000000000449
 30
0.0
 11
46.99999999910301
 21
17.5000000000045
 31
0.0
  0
LINE
  5
4969
330
A
100
AcDbEntity
  8
0
  6
Continuous
 62
     7
370
     0
100
AcDbLine
 10
46.99999999910301
 20
17.5000000000063
 30
0.0
 11
50.99999999910301
 21
17.5000000000063
 31
0.0
  0
LINE
  5
496A
330
A
100
AcDbEntity
  8
0
  6
Continuous
 62
     7
370
     0
100
AcDbLine
 10
50.99999999910301
 20
17.5000000000045
 30
0.0
 11
50.99999999910301
 21
12.50000000000449
 31
0.0
  0
LINE
  5
496B
330
A
100
AcDbEntity
  8
0
  6
Continuous
 62
     7
370
     0
100
AcDbLine
 10
50.99999999910301
 20
-17.50000000000629
 30
0.0
 11
50.99999999910301
 21
12.50000000000449
 31
0.0
  0
LINE
  5
496C
330
A
100
AcDbEntity
  8
0
  6
Continuous
 62
     7
370
     0
100
AcDbLine
 10
46.99999999910301
 20
-17.50000000000629
 30
0.0
 11
46.99999999910301
 21
12.50000000000449
 31
0.0
  0
LINE
  5
496D
330
A
100
AcDbEntity
  8
0
  6
Continuous
 62
     7
370
     0
100
AcDbLine
 10
50.99999999910301
 20
-17.50000000000629
 30
0.0
 11
46.99999999910301
 21
-17.50000000000629
 31
0.0
  0
LINE
  5
496E
330
A
100
AcDbEntity
  8
0
  6
Continuous
 62
     7
370
     0
100
AcDbLine
 10
51.99999999910301
 20
-13.50000000000484
 30
0.0
 11
57.99999999910506
 21
-13.50000000000484
 31
0.0
  0
LINE
  5
496F
330
A
100
AcDbEntity
  8
0
  6
Continuous
 62
     7
370
     0
100
AcDbLine
 10
50.99999999910301
 20
-17.50000000000629
 30
0.0
 11
58.99999999901092
 21
-17.50000000000629
 31
0.0
  0
LINE
  5
4970
330
A
100
AcDbEntity
  8
0
  6
Continuous
 62
     9
370
     0
100
AcDbLine
 10
50.99999999910301
 20
-15.50000000000556
 30
0.0
 11
51.99999999910301
 21
-15.50000000000556
 31
0.0
  0
LINE
  5
4971
330
A
100
AcDbEntity
  8
0
  6
Continuous
 62
     9
370
     0
100
AcDbLine
 10
50.99999999910301
 20
12.50000000000449
 30
0.0
 11
51.99999999910301
 21
12.50000000000449
 31
0.0
  0
LINE
  5
4972
330
A
100
AcDbEntity
  8
0
  6
Continuous
 62
     7
370
     0
100
AcDbLine
 10
51.99999999910301
 20
12.50000000000449
 30
0.0
 11
51.99999999910301
 21
-15.50000000000556
 31
0.0
  0
LINE
  5
4973
330
A
100
AcDbEntity
  8
0
  6
Continuous
 62
     7
370
     0
100
AcDbLine
 10
50.99999999910301
 20
16.50000000000594
 30
0.0
 11
51.99999999910301
 21
16.50000000000594
 31
0.0
  0
LINE
  5
4974
330
A
100
AcDbEntity
  8
0
  6
Continuous
 62
     7
370
     0
100
AcDbLine
 10
51.99999999910301
 20
16.5000000000045
 30
0.0
 11
51.99999999910301
 21
12.50000000000449
 31
0.0
  0
LINE
  5
4975
330
A
100
AcDbEntity
  8
0
  6
Continuous
 62
     7
370
     0
100
AcDbLine
 10
50.99999999910301
 20
-16.50000000000592
 30
0.0
 11
51.99999999910301
 21
-16.50000000000592
 31
0.0
  0
LINE
  5
4976
330
A
100
AcDbEntity
  8
0
  6
Continuous
 62
     7
370
     0
100
AcDbLine
 10
51.99999999910301
 20
-15.50000000000556
 30
0.0
 11
51.99999999910301
 21
-16.50000000000556
 31
0.0
  0
LINE
  5
4977
330
A
100
AcDbEntity
  8
0
  6
Continuous
 62
     7
370
     0
100
AcDbLine
 10
57.99999999910506
 20
16.50000000000449
 30
0.0
 11
57.99999999910506
 21
12.50000000000449
 31
0.0
  0
LINE
  5
4978
330
A
100
AcDbEntity
  8
0
  6
Continuous
 62
     7
370
     0
100
AcDbLine
 10
57.99999999910506
 20
16.50000000000593
 30
0.0
 11
58.99999999910505
 21
16.50000000000593
 31
0.0
  0
LINE
  5
4979
330
A
100
AcDbEntity
  8
0
  6
Continuous
 62
     7
370
     0
100
AcDbLine
 10
58.99999999910505
 20
16.50000000000449
 30
0.0
 11
58.99999999910505
 21
12.50000000000449
 31
0.0
  0
LINE
  5
497A
330
A
100
AcDbEntity
  8
0
  6
Continuous
 62
     9
370
     0
100
AcDbLine
 10
57.99999999910506
 20
-15.50000000000555
 30
0.0
 11
58.99999999910505
 21
-15.50000000000555
 31
0.0
  0
LINE
  5
497B
330
A
100
AcDbEntity
  8
0
  6
Continuous
 62
     7
370
     0
100
AcDbLine
 10
57.99999999910506
 20
12.50000000000449
 30
0.0
 11
57.99999999910506
 21
-15.50000000000555
 31
0.0
  0
LINE
  5
497C
330
A
100
AcDbEntity
  8
0
  6
Continuous
 62
     9
370
     0
100
AcDbLine
 10
57.99999999910506
 20
12.50000000000449
 30
0.0
 11
58.99999999910505
 21
12.50000000000449
 31
0.0
  0
LINE
  5
497D
330
A
100
AcDbEntity
  8
0
  6
Continuous
 62
     7
370
     0
100
AcDbLine
 10
57.99999999910506
 20
-16.50000000000592
 30
0.0
 11
58.99999999910505
 21
-16.50000000000592
 31
0.0
  0
LINE
  5
497E
330
A
100
AcDbEntity
  8
0
  6
Continuous
 62
     7
370
     0
100
AcDbLine
 10
57.99999999910506
 20
-15.50000000000555
 30
0.0
 11
57.99999999910506
 21
-16.50000000000556
 31
0.0
  0
LINE
  5
497F
330
A
100
AcDbEntity
  8
0
  6
Continuous
 62
     7
370
     0
100
AcDbLine
 10
62.99999999788997
 20
17.50000000039244
 30
0.0
 11
58.99999999788997
 21
17.50000000024294
 31
0.0
  0
LINE
  5
4980
330
A
100
AcDbEntity
  8
0
  6
Continuous
 62
     9
370
     0
100
AcDbLine
 10
62.99999999788906
 20
12.50000000039244
 30
0.0
 11
58.99999999788906
 21
12.50000000024294
 31
0.0
  0
LINE
  5
4981
330
A
100
AcDbEntity
  8
0
  6
Continuous
 62
     7
370
     0
100
AcDbLine
 10
58.99999999788997
 20
17.50000000024294
 30
0.0
 11
58.9999999980771
 21
12.50000000024294
 31
0.0
  0
LINE
  5
4982
330
A
100
AcDbEntity
  8
0
  6
Continuous
 62
     7
370
     0
100
AcDbLine
 10
62.99999999788997
 20
17.50000000039244
 30
0.0
 11
62.99999999807596
 21
12.50000000039244
 31
0.0
  0
LINE
  5
4983
330
A
100
AcDbEntity
  8
0
  6
Continuous
 62
     7
370
     0
100
AcDbLine
 10
58.99999999788906
 20
12.50000000024294
 30
0.0
 11
58.99999999901092
 21
-17.49999999975706
 31
0.0
  0
LINE
  5
4984
330
A
100
AcDbEntity
  8
0
  6
Continuous
 62
     7
370
     0
100
AcDbLine
 10
62.99999999901093
 20
-17.49999999960755
 30
0.0
 11
58.99999999901092
 21
-17.49999999975706
 31
0.0
  0
LINE
  5
4985
330
A
100
AcDbEntity
  8
0
  6
Continuous
 62
     7
370
     0
100
AcDbLine
 10
62.99999999788906
 20
12.50000000039244
 30
0.0
 11
62.99999999901093
 21
-17.49999999960755
 31
0.0
  0
LINE
  5
4986
330
A
100
AcDbEntity
  8
0
  6
Continuous
 62
     7
370
     0
100
AcDbLine
 10
51.99999999910301
 20
-5.000000000018687
 30
0.0
 11
57.99999999910506
 21
-4.999999999794439
 31
0.0
  0
LINE
  5
4987
330
A
100
AcDbEntity
  8
0
  6
Continuous
 62
     7
370
     0
100
AcDbLine
 10
57.99999999910506
 20
5.00000000020556
 30
0.0
 11
51.99999999910301
 21
4.999999999981312
 31
0.0
  0
LINE
  5
4988
330
A
100
AcDbEntity
  8
0
  6
Continuous
 62
     9
370
     0
100
AcDbLine
 10
15.000000000005
 20
-48.49999999910263
 30
0.0
 11
15.000000000005
 21
-44.49999999910263
 31
0.0
  0
LINE
  5
4989
330
A
100
AcDbEntity
  8
0
  6
Continuous
 62
     7
370
     0
100
AcDbLine
 10
-15.000000000005
 20
-48.49999999910263
 30
0.0
 11
15.000000000005
 21
-48.49999999910263
 31
0.0
  0
LINE
  5
498A
330
A
100
AcDbEntity
  8
0
  6
Continuous
 62
     9
370
     0
100
AcDbLine
 10
-15.000000000005
 20
-44.49999999910262
 30
0.0
 11
-15.000000000005
 21
-48.49999999910263
 31
0.0
  0
LINE
  5
498B
330
A
100
AcDbEntity
  8
0
  6
Continuous
 62
     7
370
     0
100
AcDbLine
 10
-15.000000000005
 20
-44.49999999910262
 30
0.0
 11
15.000000000005
 21
-44.49999999910263
 31
0.0
  0
LINE
  5
498C
330
A
100
AcDbEntity
  8
0
  6
Continuous
 62
     7
370
     0
100
AcDbLine
 10
-20.00000000000705
 20
-48.49999999910263
 30
0.0
 11
-20.00000000000705
 21
-44.49999999910262
 31
0.0
  0
LINE
  5
498D
330
A
100
AcDbEntity
  8
0
  6
Continuous
 62
     7
370
     0
100
AcDbLine
 10
-15.000000000005
 20
-48.49999999910263
 30
0.0
 11
-20.000000000005
 21
-48.49999999910263
 31
0.0
  0
LINE
  5
498E
330
A
100
AcDbEntity
  8
0
  6
Continuous
 62
     7
370
     0
100
AcDbLine
 10
-20.000000000005
 20
-44.49999999910262
 30
0.0
 11
-15.000000000005
 21
-44.49999999910262
 31
0.0
  0
LINE
  5
498F
330
A
100
AcDbEntity
  8
0
  6
Continuous
 62
     7
370
     0
100
AcDbLine
 10
20.00000000000796
 20
-44.49999999910263
 30
0.0
 11
20.00000000000796
 21
-48.49999999910263
 31
0.0
  0
LINE
  5
4990
330
A
100
AcDbEntity
  8
0
  6
Continuous
 62
     7
370
     0
100
AcDbLine
 10
20.00000000000614
 20
-48.49999999910263
 30
0.0
 11
15.000000000005
 21
-48.49999999910263
 31
0.0
  0
LINE
  5
4991
330
A
100
AcDbEntity
  8
0
  6
Continuous
 62
     7
370
     0
100
AcDbLine
 10
15.000000000005
 20
-44.49999999910263
 30
0.0
 11
20.00000000000614
 21
-44.49999999910263
 31
0.0
  0
LINE
  5
4992
330
A
100
AcDbEntity
  8
0
  6
Continuous
 62
     7
370
     0
100
AcDbLine
 10
-7.500000000002955
 20
-49.49999999910263
 30
0.0
 11
-7.500000000002955
 21
-55.49999999910481
 31
0.0
  0
LINE
  5
4993
330
A
100
AcDbEntity
  8
0
  6
Continuous
 62
     7
370
     0
100
AcDbLine
 10
7.500000000002955
 20
-49.49999999910263
 30
0.0
 11
7.500000000002955
 21
-55.49999999910481
 31
0.0
  0
LINE
  5
4994
330
A
100
AcDbEntity
  8
0
  6
Continuous
 62
     9
370
     0
100
AcDbLine
 10
-15.000000000005
 20
-48.49999999910263
 30
0.0
 11
-15.000000000005
 21
-49.49999999910263
 31
0.0
  0
LINE
  5
4995
330
A
100
AcDbEntity
  8
0
  6
Continuous
 62
     9
370
     0
100
AcDbLine
 10
15.000000000005
 20
-48.49999999910263
 30
0.0
 11
15.000000000005
 21
-49.49999999910263
 31
0.0
  0
LINE
  5
4996
330
A
100
AcDbEntity
  8
0
  6
Continuous
 62
     7
370
     0
100
AcDbLine
 10
15.000000000005
 20
-49.49999999910263
 30
0.0
 11
-15.000000000005
 21
-49.49999999910263
 31
0.0
  0
LINE
  5
4997
330
A
100
AcDbEntity
  8
0
  6
Continuous
 62
     7
370
     0
100
AcDbLine
 10
19.00000000000705
 20
-48.49999999910263
 30
0.0
 11
19.00000000000705
 21
-49.49999999910263
 31
0.0
  0
LINE
  5
4998
330
A
100
AcDbEntity
  8
0
  6
Continuous
 62
     7
370
     0
100
AcDbLine
 10
19.00000000000614
 20
-49.49999999910263
 30
0.0
 11
15.000000000005
 21
-49.49999999910263
 31
0.0
  0
LINE
  5
4999
330
A
100
AcDbEntity
  8
0
  6
Continuous
 62
     7
370
     0
100
AcDbLine
 10
-19.00000000000705
 20
-48.49999999910263
 30
0.0
 11
-19.00000000000705
 21
-49.49999999910263
 31
0.0
  0
LINE
  5
499A
330
A
100
AcDbEntity
  8
0
  6
Continuous
 62
     7
370
     0
100
AcDbLine
 10
-15.000000000005
 20
-49.49999999910263
 30
0.0
 11
-19.000000000005
 21
-49.49999999910263
 31
0.0
  0
LINE
  5
499B
330
A
100
AcDbEntity
  8
0
  6
Continuous
 62
     7
370
     0
100
AcDbLine
 10
19.00000000000614
 20
-55.49999999910481
 30
0.0
 11
15.000000000005
 21
-55.49999999910481
 31
0.0
  0
LINE
  5
499C
330
A
100
AcDbEntity
  8
0
  6
Continuous
 62
     7
370
     0
100
AcDbLine
 10
19.00000000000705
 20
-55.49999999910481
 30
0.0
 11
19.00000000000705
 21
-56.49999999910479
 31
0.0
  0
LINE
  5
499D
330
A
100
AcDbEntity
  8
0
  6
Continuous
 62
     7
370
     0
100
AcDbLine
 10
19.00000000000614
 20
-56.49999999910479
 30
0.0
 11
15.000000000005
 21
-56.49999999910479
 31
0.0
  0
LINE
  5
499E
330
A
100
AcDbEntity
  8
0
  6
Continuous
 62
     7
370
     0
100
AcDbLine
 10
-19.00000000000705
 20
-55.49999999910479
 30
0.0
 11
-19.00000000000705
 21
-56.49999999910479
 31
0.0
  0
LINE
  5
499F
330
A
100
AcDbEntity
  8
0
  6
Continuous
 62
     7
370
     0
100
AcDbLine
 10
-15.000000000005
 20
-55.49999999910479
 30
0.0
 11
-19.000000000005
 21
-55.49999999910479
 31
0.0
  0
LINE
  5
49A0
330
A
100
AcDbEntity
  8
0
  6
Continuous
 62
     7
370
     0
100
AcDbLine
 10
-15.000000000005
 20
-56.49999999910479
 30
0.0
 11
-19.000000000005
 21
-56.49999999910479
 31
0.0
  0
LINE
  5
49A1
330
A
100
AcDbEntity
  8
0
  6
Continuous
 62
     9
370
     0
100
AcDbLine
 10
-15.000000000005
 20
-55.49999999910479
 30
0.0
 11
-15.000000000005
 21
-56.49999999910479
 31
0.0
  0
LINE
  5
49A2
330
A
100
AcDbEntity
  8
0
  6
Continuous
 62
     7
370
     0
100
AcDbLine
 10
15.000000000005
 20
-55.49999999910481
 30
0.0
 11
-15.000000000005
 21
-55.49999999910479
 31
0.0
  0
LINE
  5
49A3
330
A
100
AcDbEntity
  8
0
  6
Continuous
 62
     9
370
     0
100
AcDbLine
 10
15.000000000005
 20
-55.49999999910481
 30
0.0
 11
15.000000000005
 21
-56.49999999910479
 31
0.0
  0
LINE
  5
49A4
330
A
100
AcDbEntity
  8
0
  6
Continuous
 62
     9
370
     0
100
AcDbLine
 10
14.9999999996071
 20
-60.49999999901178
 30
0.0
 11
14.99999999975694
 21
-56.49999999901178
 31
0.0
  0
LINE
  5
49A5
330
A
100
AcDbEntity
  8
0
  6
Continuous
 62
     9
370
     0
100
AcDbLine
 10
-15.0000000003929
 20
-60.49999999788959
 30
0.0
 11
-15.00000000024306
 21
-56.4999999978896
 31
0.0
  0
LINE
  5
49A6
330
A
100
AcDbEntity
  8
0
  6
Continuous
 62
     7
370
     0
100
AcDbLine
 10
14.99999999975694
 20
-56.49999999901178
 30
0.0
 11
-15.00000000024306
 21
-56.4999999978896
 31
0.0
  0
LINE
  5
49A7
330
A
100
AcDbEntity
  8
0
  6
Continuous
 62
     7
370
     0
100
AcDbLine
 10
14.9999999996071
 20
-60.49999999901178
 30
0.0
 11
-15.0000000003929
 21
-60.49999999788959
 31
0.0
  0
LINE
  5
49A8
330
A
100
AcDbEntity
  8
0
  6
Continuous
 62
     7
370
     0
100
AcDbLine
 10
-20.0000000003929
 20
-60.4999999978894
 30
0.0
 11
-20.00000000024306
 21
-56.49999999788939
 31
0.0
  0
LINE
  5
49A9
330
A
100
AcDbEntity
  8
0
  6
Continuous
 62
     7
370
     0
100
AcDbLine
 10
-15.00000000024306
 20
-56.4999999980765
 30
0.0
 11
-20.00000000024306
 21
-56.49999999788939
 31
0.0
  0
LINE
  5
49AA
330
A
100
AcDbEntity
  8
0
  6
Continuous
 62
     7
370
     0
100
AcDbLine
 10
-15.0000000003929
 20
-60.49999999807649
 30
0.0
 11
-20.0000000003929
 21
-60.4999999978894
 31
0.0
  0
LINE
  5
49AB
330
A
100
AcDbEntity
  8
0
  6
Continuous
 62
     7
370
     0
100
AcDbLine
 10
19.9999999996071
 20
-60.4999999993858
 30
0.0
 11
19.99999999975694
 21
-56.4999999993858
 31
0.0
  0
LINE
  5
49AC
330
A
100
AcDbEntity
  8
0
  6
Continuous
 62
     7
370
     0
100
AcDbLine
 10
19.99999999975694
 20
-56.4999999993858
 30
0.0
 11
14.99999999975694
 21
-56.49999999919871
 31
0.0
  0
LINE
  5
49AD
330
A
100
AcDbEntity
  8
0
  6
Continuous
 62
     7
370
     0
100
AcDbLine
 10
19.9999999996071
 20
-60.4999999993858
 30
0.0
 11
14.9999999996071
 21
-60.49999999919871
 31
0.0
  0
LINE
  5
49AE
330
A
100
AcDbEntity
  8
0
  6
Continuous
 62
     7
370
     0
100
AcDbLine
 10
-4.9999999999809
 20
-49.49999999910263
 30
0.0
 11
-5.000000000206
 21
-55.49999999910481
 31
0.0
  0
LINE
  5
49AF
330
A
100
AcDbEntity
  8
0
  6
Continuous
 62
     7
370
     0
100
AcDbLine
 10
4.999999999794908
 20
-55.49999999910481
 30
0.0
 11
5.000000000019099
 21
-49.49999999910263
 31
0.0
  0
LINE
  5
49B0
330
A
100
AcDbEntity
  8
0
  6
Continuous
 62
     7
370
     0
100
AcDbLine
 10
7.500000000002955
 20
48.4999999994951
 30
0.0
 11
7.500000000002955
 21
58.4999999994951
 31
0.0
  0
LINE
  5
49B1
330
A
100
AcDbEntity
  8
0
  6
Continuous
 62
     7
370
     0
100
AcDbLine
 10
7.500000000002955
 20
58.4999999994951
 30
0.0
 11
-7.500000000002955
 21
58.4999999994951
 31
0.0
  0
LINE
  5
49B2
330
A
100
AcDbEntity
  8
0
  6
Continuous
 62
     7
370
     0
100
AcDbLine
 10
-20.00000000000705
 20
48.4999999994951
 30
0.0
 11
-20.00000000000705
 21
44.4999999994951
 31
0.0
  0
LINE
  5
49B3
330
A
100
AcDbEntity
  8
0
  6
Continuous
 62
     7
370
     0
100
AcDbLine
 10
-7.500000000002955
 20
48.4999999994951
 30
0.0
 11
-20.00000000000705
 21
48.4999999994951
 31
0.0
  0
LINE
  5
49B4
330
A
100
AcDbEntity
  8
0
  6
Continuous
 62
     7
370
     0
100
AcDbLine
 10
20.00000000000796
 20
48.49999999949511
 30
0.0
 11
7.500000000002955
 21
48.4999999994951
 31
0.0
  0
LINE
  5
49B5
330
A
100
AcDbEntity
  8
0
  6
Continuous
 62
     7
370
     0
100
AcDbLine
 10
20.00000000000796
 20
44.4999999994951
 30
0.0
 11
-20.00000000000705
 21
44.4999999994951
 31
0.0
  0
CIRCLE
  5
49B6
330
A
100
AcDbEntity
  8
0
  6
Continuous
 62
     7
370
     0
100
AcDbCircle
 10
0.0
 20
52.69999999949508
 30
0.0
 40
2.099999999999989
  0
LINE
  5
49B7
330
A
100
AcDbEntity
  8
0
  6
Continuous
 62
     7
370
     0
100
AcDbLine
 10
20.00000000000796
 20
48.49999999949511
 30
0.0
 11
20.00000000000796
 21
44.4999999994951
 31
0.0
  0
LINE
  5
49B8
330
A
100
AcDbEntity
  8
0
  6
Continuous
 62
     7
370
     0
100
AcDbLine
 10
-7.500000000002955
 20
48.4999999994951
 30
0.0
 11
-7.500000000002955
 21
58.4999999994951
 31
0.0
  0
LINE
  5
49B9
330
A
100
AcDbEntity
  8
0
  6
Continuous
 62
     9
370
     0
100
AcDbLine
 10
18.00000000000705
 20
48.4999999994951
 30
0.0
 11
18.00000000000705
 21
49.49999999949511
 31
0.0
  0
LINE
  5
49BA
330
A
100
AcDbEntity
  8
0
  6
Continuous
 62
     9
370
     0
100
AcDbLine
 10
9.815654614149934
 20
49.49999999949511
 30
0.0
 11
9.815654614149934
 21
48.4999999994951
 31
0.0
  0
LINE
  5
49BB
330
A
100
AcDbEntity
  8
0
  6
Continuous
 62
     7
370
     0
100
AcDbLine
 10
9.815654614149934
 20
49.49999999949511
 30
0.0
 11
18.00000000000705
 21
49.49999999949511
 31
0.0
  0
LINE
  5
49BC
330
A
100
AcDbEntity
  8
0
  6
Continuous
 62
     9
370
     0
100
AcDbLine
 10
-18.00000000000591
 20
48.4999999994951
 30
0.0
 11
-18.00000000000591
 21
49.4999999994951
 31
0.0
  0
LINE
  5
49BD
330
A
100
AcDbEntity
  8
0
  6
Continuous
 62
     9
370
     0
100
AcDbLine
 10
-9.815654614149934
 20
48.4999999994951
 30
0.0
 11
-9.815654614149934
 21
49.4999999994951
 31
0.0
  0
LINE
  5
49BE
330
A
100
AcDbEntity
  8
0
  6
Continuous
 62
     7
370
     0
100
AcDbLine
 10
-18.00000000000591
 20
49.4999999994951
 30
0.0
 11
-9.815654614149934
 21
49.4999999994951
 31
0.0
  0
LINE
  5
49BF
330
A
100
AcDbEntity
  8
0
  6
Continuous
 62
     9
370
     0
100
AcDbLine
 10
8.83606137291099
 20
48.4999999994951
 30
0.0
 11
8.83606137291099
 21
49.49999999949511
 31
0.0
  0
LINE
  5
49C0
330
A
100
AcDbEntity
  8
0
  6
Continuous
 62
     7
370
     0
100
AcDbLine
 10
8.83606137291099
 20
49.49999999949511
 30
0.0
 11
9.815654614149934
 21
49.49999999949511
 31
0.0
  0
LINE
  5
49C1
330
A
100
AcDbEntity
  8
0
  6
Continuous
 62
     7
370
     0
100
AcDbLine
 10
19.00000000000705
 20
48.4999999994951
 30
0.0
 11
19.00000000000705
 21
49.49999999949511
 31
0.0
  0
LINE
  5
49C2
330
A
100
AcDbEntity
  8
0
  6
Continuous
 62
     7
370
     0
100
AcDbLine
 10
18.00000000000705
 20
49.49999999949511
 30
0.0
 11
19.00000000000705
 21
49.49999999949511
 31
0.0
  0
LINE
  5
49C3
330
A
100
AcDbEntity
  8
0
  6
Continuous
 62
     7
370
     0
100
AcDbLine
 10
-19.00000000000705
 20
48.4999999994951
 30
0.0
 11
-19.00000000000705
 21
49.4999999994951
 31
0.0
  0
LINE
  5
49C4
330
A
100
AcDbEntity
  8
0
  6
Continuous
 62
     7
370
     0
100
AcDbLine
 10
-19.00000000000591
 20
49.4999999994951
 30
0.0
 11
-18.00000000000591
 21
49.4999999994951
 31
0.0
  0
LINE
  5
49C5
330
A
100
AcDbEntity
  8
0
  6
Continuous
 62
     9
370
     0
100
AcDbLine
 10
-8.83606137291099
 20
49.4999999994951
 30
0.0
 11
-8.83606137291099
 21
48.4999999994951
 31
0.0
  0
LINE
  5
49C6
330
A
100
AcDbEntity
  8
0
  6
Continuous
 62
     7
370
     0
100
AcDbLine
 10
-9.815654614149934
 20
49.4999999994951
 30
0.0
 11
-8.83606137291099
 21
49.4999999994951
 31
0.0
  0
LINE
  5
49C7
330
A
100
AcDbEntity
  8
0
  6
Continuous
 62
     7
370
     0
100
AcDbLine
 10
7.500000000002955
 20
49.49999999949511
 30
0.0
 11
8.83606137291099
 21
49.49999999949511
 31
0.0
  0
LINE
  5
49C8
330
A
100
AcDbEntity
  8
0
  6
Continuous
 62
     7
370
     0
100
AcDbLine
 10
-8.83606137291099
 20
49.4999999994951
 30
0.0
 11
-7.500000000002955
 21
49.4999999994951
 31
0.0
  0
LINE
  5
49C9
330
A
100
AcDbEntity
  8
0
  6
Continuous
 62
     9
370
     0
100
AcDbLine
 10
18.00000000000705
 20
55.49999999949726
 30
0.0
 11
18.00000000000705
 21
56.49999999949726
 31
0.0
  0
LINE
  5
49CA
330
A
100
AcDbEntity
  8
0
  6
Continuous
 62
     7
370
     0
100
AcDbLine
 10
9.815654614149934
 20
55.49999999949726
 30
0.0
 11
18.00000000000705
 21
55.49999999949726
 31
0.0
  0
LINE
  5
49CB
330
A
100
AcDbEntity
  8
0
  6
Continuous
 62
     9
370
     0
100
AcDbLine
 10
9.815654614149934
 20
56.49999999949726
 30
0.0
 11
9.815654614149934
 21
55.49999999949726
 31
0.0
  0
LINE
  5
49CC
330
A
100
AcDbEntity
  8
0
  6
Continuous
 62
     7
370
     0
100
AcDbLine
 10
-19.00000000000591
 20
55.49999999949726
 30
0.0
 11
-18.00000000000591
 21
55.49999999949726
 31
0.0
  0
LINE
  5
49CD
330
A
100
AcDbEntity
  8
0
  6
Continuous
 62
     7
370
     0
100
AcDbLine
 10
-19.00000000000705
 20
55.49999999949726
 30
0.0
 11
-19.00000000000705
 21
56.49999999949726
 31
0.0
  0
LINE
  5
49CE
330
A
100
AcDbEntity
  8
0
  6
Continuous
 62
     9
370
     0
100
AcDbLine
 10
-18.00000000000591
 20
55.49999999949726
 30
0.0
 11
-18.00000000000591
 21
56.49999999949726
 31
0.0
  0
LINE
  5
49CF
330
A
100
AcDbEntity
  8
0
  6
Continuous
 62
     9
370
     0
100
AcDbLine
 10
-9.815654614149934
 20
55.49999999949726
 30
0.0
 11
-9.815654614149934
 21
56.49999999949726
 31
0.0
  0
LINE
  5
49D0
330
A
100
AcDbEntity
  8
0
  6
Continuous
 62
     7
370
     0
100
AcDbLine
 10
-18.00000000000591
 20
55.49999999949726
 30
0.0
 11
-9.815654614149934
 21
55.49999999949726
 31
0.0
  0
LINE
  5
49D1
330
A
100
AcDbEntity
  8
0
  6
Continuous
 62
     7
370
     0
100
AcDbLine
 10
19.00000000000705
 20
55.49999999949726
 30
0.0
 11
19.00000000000705
 21
56.49999999949726
 31
0.0
  0
LINE
  5
49D2
330
A
100
AcDbEntity
  8
0
  6
Continuous
 62
     7
370
     0
100
AcDbLine
 10
18.00000000000705
 20
55.49999999949726
 30
0.0
 11
19.00000000000705
 21
55.49999999949726
 31
0.0
  0
LINE
  5
49D3
330
A
100
AcDbEntity
  8
0
  6
Continuous
 62
     9
370
     0
100
AcDbLine
 10
-8.83606137291099
 20
56.49999999949726
 30
0.0
 11
-8.83606137291099
 21
55.49999999949726
 31
0.0
  0
LINE
  5
49D4
330
A
100
AcDbEntity
  8
0
  6
Continuous
 62
     7
370
     0
100
AcDbLine
 10
-8.83606137291099
 20
55.49999999949726
 30
0.0
 11
-9.815654614149934
 21
55.49999999949726
 31
0.0
  0
LINE
  5
49D5
330
A
100
AcDbEntity
  8
0
  6
Continuous
 62
     9
370
     0
100
AcDbLine
 10
8.83606137291099
 20
55.49999999949726
 30
0.0
 11
8.83606137291099
 21
56.49999999949726
 31
0.0
  0
LINE
  5
49D6
330
A
100
AcDbEntity
  8
0
  6
Continuous
 62
     7
370
     0
100
AcDbLine
 10
9.815654614149934
 20
55.49999999949726
 30
0.0
 11
8.83606137291099
 21
55.49999999949726
 31
0.0
  0
LINE
  5
49D7
330
A
100
AcDbEntity
  8
0
  6
Continuous
 62
     7
370
     0
100
AcDbLine
 10
7.500000000002955
 20
55.49999999949726
 30
0.0
 11
8.83606137291099
 21
55.49999999949726
 31
0.0
  0
LINE
  5
49D8
330
A
100
AcDbEntity
  8
0
  6
Continuous
 62
     7
370
     0
100
AcDbLine
 10
-8.83606137291099
 20
55.49999999949726
 30
0.0
 11
-7.500000000002955
 21
55.49999999949726
 31
0.0
  0
LINE
  5
49D9
330
A
100
AcDbEntity
  8
0
  6
Continuous
 62
     7
370
     0
100
AcDbLine
 10
-20.0000000003929
 20
60.49999999940318
 30
0.0
 11
-20.00000000024306
 21
56.49999999940319
 31
0.0
  0
LINE
  5
49DA
330
A
100
AcDbEntity
  8
0
  6
Continuous
 62
     7
370
     0
100
AcDbLine
 10
-20.0000000003929
 20
60.49999999940318
 30
0.0
 11
19.9999999996071
 21
60.5000000008995
 31
0.0
  0
LINE
  5
49DB
330
A
100
AcDbEntity
  8
0
  6
Continuous
 62
     7
370
     0
100
AcDbLine
 10
19.9999999996071
 20
60.5000000008995
 30
0.0
 11
19.99999999975694
 21
56.5000000008995
 31
0.0
  0
LINE
  5
49DC
330
A
100
AcDbEntity
  8
0
  6
Continuous
 62
     7
370
     0
100
AcDbLine
 10
7.749999999756937
 20
56.50000000044125
 30
0.0
 11
19.99999999975694
 21
56.5000000008995
 31
0.0
  0
LINE
  5
49DD
330
A
100
AcDbEntity
  8
0
  6
Continuous
 62
     7
370
     0
100
AcDbLine
 10
7.749999999756937
 20
56.50000000044125
 30
0.0
 11
7.749999999675083
 21
58.70000000044125
 31
0.0
  0
LINE
  5
49DE
330
A
100
AcDbEntity
  8
0
  6
Continuous
 62
     7
370
     0
100
AcDbLine
 10
-7.750000000324916
 20
58.69999999986141
 30
0.0
 11
7.749999999675083
 21
58.70000000044125
 31
0.0
  0
LINE
  5
49DF
330
A
100
AcDbEntity
  8
0
  6
Continuous
 62
     7
370
     0
100
AcDbLine
 10
-7.750000000243062
 20
56.49999999986142
 30
0.0
 11
-7.750000000324916
 21
58.69999999986141
 31
0.0
  0
LINE
  5
49E0
330
A
100
AcDbEntity
  8
0
  6
Continuous
 62
     7
370
     0
100
AcDbLine
 10
-20.00000000024306
 20
56.49999999940319
 30
0.0
 11
-7.750000000243062
 21
56.49999999986142
 31
0.0
  0
LINE
  5
49E1
330
A
100
AcDbEntity
  8
0
  6
Continuous
 62
     7
370
     0
100
AcDbLine
 10
2.749999999681904
 20
58.4999999994951
 30
0.0
 11
2.749999999675083
 21
58.70000000008602
 31
0.0
  0
LINE
  5
49E2
330
A
100
AcDbEntity
  8
0
  6
Continuous
 62
     7
370
     0
100
AcDbLine
 10
7.749999999756937
 20
56.50000000027306
 30
0.0
 11
7.500000000002955
 21
56.50000000026371
 31
0.0
  0
LINE
  5
49E3
330
A
100
AcDbEntity
  8
0
  6
Continuous
 62
     7
370
     0
100
AcDbLine
 10
-2.750000000324916
 20
58.69999999988027
 30
0.0
 11
-2.750000000318095
 21
58.4999999994951
 31
0.0
  0
LINE
  5
49E4
330
A
100
AcDbEntity
  8
0
  6
Continuous
 62
     7
370
     0
100
AcDbLine
 10
-7.500000000002955
 20
56.49999999970259
 30
0.0
 11
-7.750000000243062
 21
56.49999999969324
 31
0.0
  0
ARC
  5
49E5
330
A
100
AcDbEntity
  8
0
  6
Continuous
 62
     7
370
     0
100
AcDbCircle
 10
-15.0000000003929
 20
12.50000000039244
 30
0.0
 40
5.0
100
AcDbArc
 50
90.0
 51
180.0
  0
LINE
  5
49E6
330
A
100
AcDbEntity
  8
0
  6
Continuous
 62
     7
370
     0
100
AcDbLine
 10
14.9999999996071
 20
17.50000000039244
 30
0.0
 11
-15.0000000003929
 21
17.50000000039244
 31
0.0
  0
ARC
  5
49E7
330
A
100
AcDbEntity
  8
0
  6
Continuous
 62
     7
370
     0
100
AcDbCircle
 10
14.9999999996071
 20
12.50000000039244
 30
0.0
 40
4.999999999999893
100
AcDbArc
 50
0.0
 51
90.0
  0
LINE
  5
49E8
330
A
100
AcDbEntity
  8
0
  6
Continuous
 62
     7
370
     0
100
AcDbLine
 10
19.9999999996071
 20
-17.49999999960755
 30
0.0
 11
19.9999999996071
 21
12.50000000039244
 31
0.0
  0
LINE
  5
49E9
330
A
100
AcDbEntity
  8
0
  6
Continuous
 62
     7
370
     0
100
AcDbLine
 10
-20.0000000003929
 20
-17.49999999960755
 30
0.0
 11
19.9999999996071
 21
-17.49999999960755
 31
0.0
  0
LINE
  5
49EA
330
A
100
AcDbEntity
  8
0
  6
Continuous
 62
     7
370
     0
100
AcDbLine
 10
-20.0000000003929
 20
12.50000000039244
 30
0.0
 11
-20.0000000003929
 21
-17.49999999960755
 31
0.0
  0
TEXT
  5
618F
330
A
100
AcDbEntity
  8
0
  6
Continuous
 62
     7
370
     0
100
AcDbText
 10
33.80436717971998
 20
47.50732064441291
 30
0.0
 40
10.0
  1
4500
100
AcDbText
  0
ARC
  5
63A6
330
A
100
AcDbEntity
  8
0
  6
CENTER
 62
     1
100
AcDbCircle
 10
0.0
 20
0.0
 30
0.0
 40
6.0
100
AcDbArc
 50
9.464043494936701
 51
170.5359565050633
  0
LINE
  5
63A7
330
A
100
AcDbEntity
  8
0
  6
CENTER
 62
     1
100
AcDbLine
 10
-9.000000000000001
 20
-17.49999999960755
 30
0.0
 11
-5.918333906953575
 21
0.9865717235982508
 31
0.0
  0
LINE
  5
63A8
330
A
100
AcDbEntity
  8
0
  6
CENTER
 62
     1
100
AcDbLine
 10
9.000000000000001
 20
-17.49999999960755
 30
0.0
 11
5.918333906953575
 21
0.9865717235982508
 31
0.0
  0
ENDSEC
  0
SECTION
  2
OBJECTS
  0
DICTIONARY
  5
19
330
0
100
AcDbDictionary
281
     1
  3
ACAD_COLOR
350
3176
  3
ACAD_GROUP
350
1A
  3
ACAD_LAYOUT
350
1E
  3
ACAD_MATERIAL
350
314C
  3
ACAD_MLEADERSTYLE
350
319B
  3
ACAD_MLINESTYLE
350
1B
  3
ACAD_PLOTSETTINGS
350
22
  3
ACAD_PLOTSTYLENAME
350
1F
  3
ACAD_SCALELIST
350
3179
  3
ACAD_TABLESTYLE
350
3177
  3
ACAD_VISUALSTYLE
350
3165
  3
ACAD_WIPEOUT_VARS
350
23
  3
ACDB_RECOMPOSE_DATA
350
630A
  3
AcDbVariableDictionary
350
630B
  3
ASE_INDEX_DICTIONARY
350
5E44
  3
DWGPROPS
350
6417
  0
DICTIONARY
  5
5E41
330
14
100
AcDbDictionary
280
     1
281
     1
  3
ADSK_XREC_LAYER_RECONCILED
360
5E42
  0
DICTIONARY
  5
31A7
330
A
100
AcDbDictionary
280
     1
281
     1
  3
ACAD_SORTENTS
360
31A8
  0
DICTIONARY
  5
3176
102
{ACAD_REACTORS
330
19
102
}
330
19
100
AcDbDictionary
281
     1
  0
DICTIONARY
  5
1A
102
{ACAD_REACTORS
330
19
102
}
330
19
100
AcDbDictionary
281
     1
  0
DICTIONARY
  5
1E
102
{ACAD_REACTORS
330
19
102
}
330
19
100
AcDbDictionary
281
     1
  3
Layout1
350
21
  3
Model
350
20
  0
DICTIONARY
  5
314C
102
{ACAD_REACTORS
330
19
102
}
330
19
100
AcDbDictionary
281
     1
  3
ByBlock
350
3155
  3
ByLayer
350
314D
  3
Global
350
315D
  0
DICTIONARY
  5
319B
102
{ACAD_REACTORS
330
19
102
}
330
19
100
AcDbDictionary
281
     1
  3
Standard
350
319C
  0
DICTIONARY
  5
1B
102
{ACAD_REACTORS
330
19
102
}
330
19
100
AcDbDictionary
281
     1
  3
Standard
350
1C
  0
DICTIONARY
  5
22
102
{ACAD_REACTORS
330
19
102
}
330
19
100
AcDbDictionary
281
     1
  0
ACDBDICTIONARYWDFLT
  5
1F
102
{ACAD_REACTORS
330
19
102
}
330
19
100
AcDbDictionary
281
     1
  3
Normal
350
1D
100
AcDbDictionaryWithDefault
340
1D
  0
DICTIONARY
  5
3179
102
{ACAD_REACTORS
330
19
102
}
330
19
100
AcDbDictionary
281
     1
  3
A0
350
317A
  3
A1
350
317B
  3
A2
350
317C
  3
A3
350
317D
  3
A4
350
317E
  3
A5
350
317F
  3
A6
350
3180
  3
A7
350
3181
  3
A8
350
3182
  3
A9
350
3183
  3
B0
350
3184
  3
B1
350
3185
  3
B2
350
3186
  3
B3
350
3187
  3
B4
350
3188
  3
B5
350
3189
  3
B6
350
318A
  3
B7
350
318B
  3
B8
350
318C
  3
B9
350
318D
  3
C0
350
318E
  3
C1
350
318F
  3
C2
350
3190
  3
C3
350
3191
  3
C4
350
3192
  3
C5
350
3193
  3
C6
350
3194
  3
C7
350
3195
  3
C8
350
3196
  3
C9
350
3197
  3
D0
350
3198
  3
D1
350
3199
  3
D2
350
319A
  0
DICTIONARY
  5
3177
102
{ACAD_REACTORS
330
19
102
}
330
19
100
AcDbDictionary
281
     1
  3
Standard
350
3178
  0
DICTIONARY
  5
3165
102
{ACAD_REACTORS
330
19
102
}
330
19
100
AcDbDictionary
281
     1
  3
2dWireframe
350
316B
  3
3D Hidden
350
316D
  3
3dWireframe
350
316C
  3
Basic
350
316A
  3
Brighten
350
3171
  3
ColorChange
350
3175
  3
Conceptual
350
316E
  3
Dim
350
3170
  3
Facepattern
350
3174
  3
Flat
350
3166
  3
FlatWithEdges
350
3167
  3
Gouraud
350
3168
  3
GouraudWithEdges
350
3169
  3
Linepattern
350
3173
  3
Realistic
350
316F
  3
Thicken
350
3172
  0
WIPEOUTVARIABLES
  5
23
330
19
100
AcDbWipeoutVariables
 70
     1
  0
XRECORD
  5
630A
102
{ACAD_REACTORS
330
19
102
}
330
19
100
AcDbXrecord
280
     1
 90
        1
330
3178
  0
DICTIONARY
  5
630B
102
{ACAD_REACTORS
330
19
102
}
330
19
100
AcDbDictionary
281
     1
  3
CANNOSCALE
350
630F
  3
CMLEADERSTYLE
350
630D
  3
CTABLESTYLE
350
630C
  3
DIMASSOC
350
6318
  3
INDEXCTL
350
6317
  3
LIGHTINGUNITS
350
6310
  3
MSLTSCALE
350
630E
  3
SORTENTS
350
6316
  0
DICTIONARY
  5
5E44
102
{ACAD_REACTORS
330
19
102
}
330
19
100
AcDbDictionary
281
     1
  3
ASEBlockHierarchyIndexRecord
350
5E46
1001
DCO15
1040
1685075681.336
  0
XRECORD
  5
6417
102
{ACAD_REACTORS
330
19
102
}
330
19
100
AcDbXrecord
280
     1
  1
DWGPROPS COOKIE
  2

  3

  4

  6

  7

  8
renzo.ceresoli
  9

300
=
301
=
302
=
303
=
304
=
305
=
306
=
307
=
308
=
309
=
 40
0.0042665277777778
 41
2455303.727916667
 42
2455306.434751204
  1

 90
        0
  0
XRECORD
  5
5E42
102
{ACAD_REACTORS
330
5E41
102
}
330
5E41
100
AcDbXrecord
280
     1
290
     1
  0
SORTENTSTABLE
  5
31A8
102
{ACAD_REACTORS
330
31A7
102
}
330
31A7
100
AcDbSortentsTable
330
A
331
4928
  5
4835
331
4943
  5
4850
331
495E
  5
4818
331
4971
  5
47E9
331
49DB
  5
47AD
331
498A
  5
47B9
331
49A5
  5
47D4
331
49C0
  5
4792
331
49EA
  5
4781
331
4941
  5
484E
331
495C
  5
4816
331
4926
  5
4833
331
4988
  5
47B7
331
49A3
  5
47D2
331
49BE
  5
4790
331
49D9
  5
47AB
331
49E8
  5
477F
331
493F
  5
484C
331
495A
  5
4814
331
4924
  5
4831
331
4986
  5
47FE
331
49A1
  5
47D0
331
49BC
  5
478E
331
49D7
  5
47A9
331
493D
  5
484A
331
4958
  5
4812
331
4922
  5
482F
331
499F
  5
47CE
331
49BA
  5
478C
331
49D5
  5
47A7
331
4956
  5
4810
331
4984
  5
47FC
331
493B
  5
4848
331
4920
  5
482D
331
499D
  5
47CC
331
49B8
  5
478A
331
49D3
  5
47A5
331
4954
  5
480E
331
496F
  5
47E7
331
4982
  5
47FA
331
4939
  5
4846
331
491E
  5
482B
331
499B
  5
47CA
331
49B6
  5
4788
331
49D1
  5
47A3
331
4952
  5
480C
331
496D
  5
47E5
331
4980
  5
47F8
331
4937
  5
4844
331
49CF
  5
47A1
331
491C
  5
4829
331
4999
  5
47C8
331
49B4
  5
4786
331
4950
  5
480A
331
496B
  5
47E3
331
497E
  5
47F6
331
4935
  5
4842
331
49CD
  5
479F
331
491A
  5
4827
331
4997
  5
47C6
331
49B2
  5
4784
331
494E
  5
4808
331
4969
  5
47E1
331
497C
  5
47F4
331
4933
  5
4840
331
49CB
  5
479D
331
49E6
  5
477D
331
1782
  5
49C3
331
4918
  5
4825
331
49B0
  5
4782
331
494C
  5
4806
331
4967
  5
47DF
331
497A
  5
47F2
331
4916
  5
4823
331
4931
  5
483E
331
4995
  5
47C4
331
49AE
  5
47DD
331
49C9
  5
479B
331
49E4
  5
47B6
331
1780
  5
4854
331
494A
  5
4804
331
4965
  5
481F
331
4978
  5
47F0
331
4914
  5
4821
331
492F
  5
483C
331
4993
  5
47C2
331
49AC
  5
47DB
331
49C7
  5
4799
331
49E2
  5
47B4
331
4963
  5
481D
331
4976
  5
47EE
331
4991
  5
47C0
331
492D
  5
483A
331
4948
  5
4802
331
49AA
  5
47D9
331
49C5
  5
4797
331
49E0
  5
47B2
331
498F
  5
47BE
331
4961
  5
481B
331
4974
  5
47EC
331
492B
  5
4838
331
4946
  5
4800
331
49A8
  5
47D7
331
49C3
  5
4795
331
49DE
  5
47B0
331
498D
  5
47BC
331
190B
  5
618F
331
495F
  5
4819
331
4972
  5
47EA
331
4929
  5
4836
331
4944
  5
4851
331
49C1
  5
4793
331
49DC
  5
47AE
331
498B
  5
47BA
331
49A6
  5
47D5
331
495D
  5
4817
331
4970
  5
47E8
331
4927
  5
4834
331
4942
  5
484F
331
49BF
  5
4791
331
49DA
  5
47AC
331
4989
  5
47B8
331
49A4
  5
47D3
331
49E9
  5
4780
331
495B
  5
4815
331
4925
  5
4832
331
4940
  5
484D
331
49BD
  5
478F
331
49D8
  5
47AA
331
4987
  5
47FF
331
49A2
  5
47D1
331
4923
  5
4830
331
493E
  5
484B
331
4959
  5
4813
331
49BB
  5
478D
331
49D6
  5
47A8
331
4985
  5
47FD
331
49A0
  5
47CF
331
4957
  5
4811
331
4921
  5
482E
331
493C
  5
4849
331
49B9
  5
478B
331
49D4
  5
47A6
331
4983
  5
47FB
331
499E
  5
47CD
331
4955
  5
480F
331
491F
  5
482C
331
493A
  5
4847
331
49D2
  5
47A4
331
496E
  5
47E6
331
4981
  5
47F9
331
499C
  5
47CB
331
4953
  5
480D
331
49B7
  5
4789
331
491D
  5
482A
331
4938
  5
4845
331
49D0
  5
47A2
331
496C
  5
47E4
331
497F
  5
47F7
331
499A
  5
47C9
331
4936
  5
4843
331
4951
  5
480B
331
49B5
  5
4787
331
49CE
  5
47A0
331
491B
  5
4828
331
497D
  5
47F5
331
4998
  5
47C7
331
49B3
  5
4785
331
4934
  5
4841
331
494F
  5
4809
331
496A
  5
47E2
331
49CC
  5
479E
331
49E7
  5
477E
331
1783
  5
49C4
331
4919
  5
4826
331
497B
  5
47F3
331
4996
  5
47C5
331
49B1
  5
4783
331
4917
  5
4824
331
4932
  5
483F
331
494D
  5
4807
331
4968
  5
47E0
331
49CA
  5
479C
331
49E5
  5
477C
331
49AF
  5
47DE
331
1781
  5
4857
331
4979
  5
47F1
331
4994
  5
47C3
331
4930
  5
483D
331
494B
  5
4805
331
4966
  5
4820
331
4915
  5
4822
331
49E3
  5
47B5
331
49AD
  5
47DC
331
49C8
  5
479A
331
177F
  5
4853
331
4977
  5
47EF
331
4992
  5
47C1
331
492E
  5
483B
331
4949
  5
4803
331
4964
  5
481E
331
49E1
  5
47B3
331
49AB
  5
47DA
331
49C6
  5
4798
331
4975
  5
47ED
331
4990
  5
47BF
331
492C
  5
4839
331
4947
  5
4801
331
4962
  5
481C
331
49DF
  5
47B1
331
498E
  5
47BD
331
49A9
  5
47D8
331
49C4
  5
4796
331
190C
  5
6384
331
618F
  5
63A3
331
492A
  5
4837
331
4945
  5
4852
331
4960
  5
481A
331
4973
  5
47EB
331
49DD
  5
47AF
331
498C
  5
47BB
331
49A7
  5
47D6
331
49C2
  5
4794
  0
LAYOUT
  5
21
102
{ACAD_XDICTIONARY
360
641A
102
}
102
{ACAD_REACTORS
330
1E
102
}
330
1E
100
AcDbPlotSettings
  1

  2

  4

  6

 40
0.0
 41
0.0
 42
0.0
 43
0.0
 44
0.0
 45
0.0
 46
0.0
 47
0.0
 48
0.0
 49
0.0
140
0.0
141
0.0
142
1.0
143
1.0
 70
     0
 72
     0
 73
     0
 74
     0
  7

 75
     0
147
1.0
148
0.0
149
0.0
100
AcDbLayout
  1
Layout1
 70
     0
 71
     1
 10
0.0
 20
0.0
 11
12.0
 21
9.0
 12
0.0
 22
0.0
 32
0.0
 14
1.000000000000000E+20
 24
1.000000000000000E+20
 34
1.000000000000000E+20
 15
-1.000000000000000E+20
 25
-1.000000000000000E+20
 35
-1.000000000000000E+20
146
0.0
 13
0.0
 23
0.0
 33
0.0
 16
1.0
 26
0.0
 36
0.0
 17
0.0
 27
1.0
 37
0.0
 76
     0
330
B
  0
LAYOUT
  5
20
102
{ACAD_XDICTIONARY
360
6418
102
}
102
{ACAD_REACTORS
330
1E
102
}
330
1E
100
AcDbPlotSettings
  1

  2

  4

  6

 40
0.0
 41
0.0
 42
0.0
 43
0.0
 44
0.0
 45
0.0
 46
0.0
 47
0.0
 48
0.0
 49
0.0
140
0.0
141
0.0
142
1.0
143
1.0
 70
  1024
 72
     0
 73
     0
 74
     0
  7

 75
     0
147
1.0
148
0.0
149
0.0
100
AcDbLayout
  1
Model
 70
     0
 71
     0
 10
0.0
 20
0.0
 11
0.0
 21
0.0
 12
0.0
 22
0.0
 32
0.0
 14
0.0
 24
0.0
 34
0.0
 15
0.0
 25
0.0
 35
0.0
146
0.0
 13
0.0
 23
0.0
 33
0.0
 16
0.0
 26
0.0
 36
0.0
 17
0.0
 27
0.0
 37
0.0
 76
     0
330
A
331
15
  0
MATERIAL
  5
3155
102
{ACAD_XDICTIONARY
360
3156
102
}
102
{ACAD_REACTORS
330
314C
102
}
330
314C
100
AcDbMaterial
  1
ByBlock
 72
     0
 43
0.0208333333333333
 43
0.0
 43
0.0
 43
0.0
 43
0.0
 43
0.0208333333333333
 43
0.0
 43
0.0
 43
0.0
 43
0.0
 43
1.0
 43
0.0
 43
0.0
 43
0.0
 43
0.0
 43
1.0
 77
     0
 47
0.0208333333333333
 47
0.0
 47
0.0
 47
0.0
 47
0.0
 47
0.0208333333333333
 47
0.0
 47
0.0
 47
0.0
 47
0.0
 47
1.0
 47
0.0
 47
0.0
 47
0.0
 47
0.0
 47
1.0
171
     0
 49
0.0208333333333333
 49
0.0
 49
0.0
 49
0.0
 49
0.0
 49
0.0208333333333333
 49
0.0
 49
0.0
 49
0.0
 49
0.0
 49
1.0
 49
0.0
 49
0.0
 49
0.0
 49
0.0
 49
1.0
175
     0
142
0.0208333333333333
142
0.0
142
0.0
142
0.0
142
0.0
142
0.0208333333333333
142
0.0
142
0.0
142
0.0
142
0.0
142
1.0
142
0.0
142
0.0
142
0.0
142
0.0
142
1.0
179
     0
144
0.0208333333333333
144
0.0
144
0.0
144
0.0
144
0.0
144
0.0208333333333333
144
0.0
144
0.0
144
0.0
144
0.0
144
1.0
144
0.0
144
0.0
144
0.0
144
0.0
144
1.0
147
0.0208333333333333
147
0.0
147
0.0
147
0.0
147
0.0
147
0.0208333333333333
147
0.0
147
0.0
147
0.0
147
0.0
147
1.0
147
0.0
147
0.0
147
0.0
147
0.0
147
1.0
  0
MATERIAL
  5
314D
102
{ACAD_XDICTIONARY
360
314E
102
}
102
{ACAD_REACTORS
330
314C
102
}
330
314C
100
AcDbMaterial
  1
ByLayer
 72
     0
 43
0.0208333333333333
 43
0.0
 43
0.0
 43
0.0
 43
0.0
 43
0.0208333333333333
 43
0.0
 43
0.0
 43
0.0
 43
0.0
 43
1.0
 43
0.0
 43
0.0
 43
0.0
 43
0.0
 43
1.0
 77
     0
 47
0.0208333333333333
 47
0.0
 47
0.0
 47
0.0
 47
0.0
 47
0.0208333333333333
 47
0.0
 47
0.0
 47
0.0
 47
0.0
 47
1.0
 47
0.0
 47
0.0
 47
0.0
 47
0.0
 47
1.0
171
     0
 49
0.0208333333333333
 49
0.0
 49
0.0
 49
0.0
 49
0.0
 49
0.0208333333333333
 49
0.0
 49
0.0
 49
0.0
 49
0.0
 49
1.0
 49
0.0
 49
0.0
 49
0.0
 49
0.0
 49
1.0
175
     0
142
0.0208333333333333
142
0.0
142
0.0
142
0.0
142
0.0
142
0.0208333333333333
142
0.0
142
0.0
142
0.0
142
0.0
142
1.0
142
0.0
142
0.0
142
0.0
142
0.0
142
1.0
179
     0
144
0.0208333333333333
144
0.0
144
0.0
144
0.0
144
0.0
144
0.0208333333333333
144
0.0
144
0.0
144
0.0
144
0.0
144
1.0
144
0.0
144
0.0
144
0.0
144
0.0
144
1.0
147
0.0208333333333333
147
0.0
147
0.0
147
0.0
147
0.0
147
0.0208333333333333
147
0.0
147
0.0
147
0.0
147
0.0
147
1.0
147
0.0
147
0.0
147
0.0
147
0.0
147
1.0
  0
MATERIAL
  5
315D
102
{ACAD_XDICTIONARY
360
315E
102
}
102
{ACAD_REACTORS
330
314C
102
}
330
314C
100
AcDbMaterial
  1
Global
 72
     0
 43
0.0208333333333333
 43
0.0
 43
0.0
 43
0.0
 43
0.0
 43
0.0208333333333333
 43
0.0
 43
0.0
 43
0.0
 43
0.0
 43
1.0
 43
0.0
 43
0.0
 43
0.0
 43
0.0
 43
1.0
 77
     0
 47
0.0208333333333333
 47
0.0
 47
0.0
 47
0.0
 47
0.0
 47
0.0208333333333333
 47
0.0
 47
0.0
 47
0.0
 47
0.0
 47
1.0
 47
0.0
 47
0.0
 47
0.0
 47
0.0
 47
1.0
171
     0
 49
0.0208333333333333
 49
0.0
 49
0.0
 49
0.0
 49
0.0
 49
0.0208333333333333
 49
0.0
 49
0.0
 49
0.0
 49
0.0
 49
1.0
 49
0.0
 49
0.0
 49
0.0
 49
0.0
 49
1.0
175
     0
142
0.0208333333333333
142
0.0
142
0.0
142
0.0
142
0.0
142
0.0208333333333333
142
0.0
142
0.0
142
0.0
142
0.0
142
1.0
142
0.0
142
0.0
142
0.0
142
0.0
142
1.0
179
     0
144
0.0208333333333333
144
0.0
144
0.0
144
0.0
144
0.0
144
0.0208333333333333
144
0.0
144
0.0
144
0.0
144
0.0
144
1.0
144
0.0
144
0.0
144
0.0
144
0.0
144
1.0
147
0.0208333333333333
147
0.0
147
0.0
147
0.0
147
0.0
147
0.0208333333333333
147
0.0
147
0.0
147
0.0
147
0.0
147
1.0
147
0.0
147
0.0
147
0.0
147
0.0
147
1.0
  0
MLEADERSTYLE
  5
319C
102
{ACAD_REACTORS
330
319B
102
}
330
319B
100
AcDbMLeaderStyle
170
     2
171
     1
172
     0
 90
        2
 40
0.0
 41
0.0
173
     1
 91
-1056964608
340
11
 92
       -2
290
     1
 42
2.0
291
     1
 43
0.36
  3
Standard
 44
4.0
300

342
17
174
     1
178
     6
175
     1
176
     0
 93
-1056964608
 45
4.0
292
     0
297
     0
 46
4.0
 94
-1056964608
 47
1.0
 49
1.0
140
1.0
293
     1
141
0.0
294
     1
177
     0
142
1.0
295
     0
296
     0
143
0.125
1001
ACAD_MLEADERVER
1070
     2
  0
MLINESTYLE
  5
1C
102
{ACAD_REACTORS
330
1B
102
}
330
1B
100
AcDbMlineStyle
  2
STANDARD
 70
     0
  3

 62
     0
 51
90.0
 52
90.0
 71
     2
 49
0.5
 62
   256
  6
BYLAYER
 49
-0.5
 62
   256
  6
BYLAYER
  0
ACDBPLACEHOLDER
  5
1D
102
{ACAD_REACTORS
330
1F
102
}
330
1F
  0
SCALE
  5
317A
102
{ACAD_REACTORS
330
3179
102
}
330
3179
100
AcDbScale
 70
     0
300
1:1
140
1.0
141
1.0
290
     1
  0
SCALE
  5
317B
102
{ACAD_REACTORS
330
3179
102
}
330
3179
100
AcDbScale
 70
     0
300
1:2
140
1.0
141
2.0
290
     0
  0
SCALE
  5
317C
102
{ACAD_REACTORS
330
3179
102
}
330
3179
100
AcDbScale
 70
     0
300
1:4
140
1.0
141
4.0
290
     0
  0
SCALE
  5
317D
102
{ACAD_REACTORS
330
3179
102
}
330
3179
100
AcDbScale
 70
     0
300
1:5
140
1.0
141
5.0
290
     0
  0
SCALE
  5
317E
102
{ACAD_REACTORS
330
3179
102
}
330
3179
100
AcDbScale
 70
     0
300
1:8
140
1.0
141
8.0
290
     0
  0
SCALE
  5
317F
102
{ACAD_REACTORS
330
3179
102
}
330
3179
100
AcDbScale
 70
     0
300
1:10
140
1.0
141
10.0
290
     0
  0
SCALE
  5
3180
102
{ACAD_REACTORS
330
3179
102
}
330
3179
100
AcDbScale
 70
     0
300
1:16
140
1.0
141
16.0
290
     0
  0
SCALE
  5
3181
102
{ACAD_REACTORS
330
3179
102
}
330
3179
100
AcDbScale
 70
     0
300
1:20
140
1.0
141
20.0
290
     0
  0
SCALE
  5
3182
102
{ACAD_REACTORS
330
3179
102
}
330
3179
100
AcDbScale
 70
     0
300
1:30
140
1.0
141
30.0
290
     0
  0
SCALE
  5
3183
102
{ACAD_REACTORS
330
3179
102
}
330
3179
100
AcDbScale
 70
     0
300
1:40
140
1.0
141
40.0
290
     0
  0
SCALE
  5
3184
102
{ACAD_REACTORS
330
3179
102
}
330
3179
100
AcDbScale
 70
     0
300
1:50
140
1.0
141
50.0
290
     0
  0
SCALE
  5
3185
102
{ACAD_REACTORS
330
3179
102
}
330
3179
100
AcDbScale
 70
     0
300
1:100
140
1.0
141
100.0
290
     0
  0
SCALE
  5
3186
102
{ACAD_REACTORS
330
3179
102
}
330
3179
100
AcDbScale
 70
     0
300
2:1
140
2.0
141
1.0
290
     0
  0
SCALE
  5
3187
102
{ACAD_REACTORS
330
3179
102
}
330
3179
100
AcDbScale
 70
     0
300
4:1
140
4.0
141
1.0
290
     0
  0
SCALE
  5
3188
102
{ACAD_REACTORS
330
3179
102
}
330
3179
100
AcDbScale
 70
     0
300
8:1
140
8.0
141
1.0
290
     0
  0
SCALE
  5
3189
102
{ACAD_REACTORS
330
3179
102
}
330
3179
100
AcDbScale
 70
     0
300
10:1
140
10.0
141
1.0
290
     0
  0
SCALE
  5
318A
102
{ACAD_REACTORS
330
3179
102
}
330
3179
100
AcDbScale
 70
     0
300
100:1
140
100.0
141
1.0
290
     0
  0
SCALE
  5
318B
102
{ACAD_REACTORS
330
3179
102
}
330
3179
100
AcDbScale
 70
     0
300
1/128" = 1'-0"
140
0.0078125
141
12.0
290
     0
  0
SCALE
  5
318C
102
{ACAD_REACTORS
330
3179
102
}
330
3179
100
AcDbScale
 70
     0
300
1/64" = 1'-0"
140
0.015625
141
12.0
290
     0
  0
SCALE
  5
318D
102
{ACAD_REACTORS
330
3179
102
}
330
3179
100
AcDbScale
 70
     0
300
1/32" = 1'-0"
140
0.03125
141
12.0
290
     0
  0
SCALE
  5
318E
102
{ACAD_REACTORS
330
3179
102
}
330
3179
100
AcDbScale
 70
     0
300
1/16" = 1'-0"
140
0.0625
141
12.0
290
     0
  0
SCALE
  5
318F
102
{ACAD_REACTORS
330
3179
102
}
330
3179
100
AcDbScale
 70
     0
300
3/32" = 1'-0"
140
0.09375
141
12.0
290
     0
  0
SCALE
  5
3190
102
{ACAD_REACTORS
330
3179
102
}
330
3179
100
AcDbScale
 70
     0
300
1/8" = 1'-0"
140
0.125
141
12.0
290
     0
  0
SCALE
  5
3191
102
{ACAD_REACTORS
330
3179
102
}
330
3179
100
AcDbScale
 70
     0
300
3/16" = 1'-0"
140
0.1875
141
12.0
290
     0
  0
SCALE
  5
3192
102
{ACAD_REACTORS
330
3179
102
}
330
3179
100
AcDbScale
 70
     0
300
1/4" = 1'-0"
140
0.25
141
12.0
290
     0
  0
SCALE
  5
3193
102
{ACAD_REACTORS
330
3179
102
}
330
3179
100
AcDbScale
 70
     0
300
3/8" = 1'-0"
140
0.375
141
12.0
290
     0
  0
SCALE
  5
3194
102
{ACAD_REACTORS
330
3179
102
}
330
3179
100
AcDbScale
 70
     0
300
1/2" = 1'-0"
140
0.5
141
12.0
290
     0
  0
SCALE
  5
3195
102
{ACAD_REACTORS
330
3179
102
}
330
3179
100
AcDbScale
 70
     0
300
3/4" = 1'-0"
140
0.75
141
12.0
290
     0
  0
SCALE
  5
3196
102
{ACAD_REACTORS
330
3179
102
}
330
3179
100
AcDbScale
 70
     0
300
1" = 1'-0"
140
1.0
141
12.0
290
     0
  0
SCALE
  5
3197
102
{ACAD_REACTORS
330
3179
102
}
330
3179
100
AcDbScale
 70
     0
300
1-1/2" = 1'-0"
140
1.5
141
12.0
290
     0
  0
SCALE
  5
3198
102
{ACAD_REACTORS
330
3179
102
}
330
3179
100
AcDbScale
 70
     0
300
3" = 1'-0"
140
3.0
141
12.0
290
     0
  0
SCALE
  5
3199
102
{ACAD_REACTORS
330
3179
102
}
330
3179
100
AcDbScale
 70
     0
300
6" = 1'-0"
140
6.0
141
12.0
290
     0
  0
SCALE
  5
319A
102
{ACAD_REACTORS
330
3179
102
}
330
3179
100
AcDbScale
 70
     0
300
1'-0" = 1'-0"
140
12.0
141
12.0
290
     0
  0
TABLESTYLE
  5
3178
102
{ACAD_XDICTIONARY
360
6308
102
}
102
{ACAD_REACTORS
330
3177
102
}
330
3177
100
AcDbTableStyle
  3
Standard
 70
     0
 71
     0
 40
1.5
 41
1.5
280
     0
281
     0
  7
Standard
140
4.5
170
     2
 62
     0
 63
     7
283
     0
274
    -2
284
     1
 64
     0
275
    -2
285
     1
 65
     0
276
    -2
286
     1
 66
     0
277
    -2
287
     1
 67
     0
278
    -2
288
     1
 68
     0
279
    -2
289
     1
 69
     0
  7
Standard
140
6.0
170
     5
 62
     0
 63
     7
283
     0
274
    -2
284
     1
 64
     0
275
    -2
285
     1
 65
     0
276
    -2
286
     1
 66
     0
277
    -2
287
     1
 67
     0
278
    -2
288
     1
 68
     0
279
    -2
289
     1
 69
     0
  7
Standard
140
4.5
170
     5
 62
     0
 63
     7
283
     0
274
    -2
284
     1
 64
     0
275
    -2
285
     1
 65
     0
276
    -2
286
     1
 66
     0
277
    -2
287
     1
 67
     0
278
    -2
288
     1
 68
     0
279
    -2
289
     1
 69
     0
  0
VISUALSTYLE
  5
316B
102
{ACAD_REACTORS
330
3165
102
}
330
3165
100
AcDbVisualStyle
  2
2dWireframe
 70
     4
 71
     0
 72
     2
 73
     0
 90
        0
 40
-0.6
 41
-30.0
 62
     5
 63
     7
 74
     1
 91
        4
 64
     7
 65
   257
 75
     1
175
     1
 42
1.0
 92
        0
 66
   257
 43
1.0
 76
     1
 77
     6
 78
     2
 67
     7
 79
     5
170
     0
171
     0
290
     0
174
     0
 93
        1
 44
0.0
173
     0
291
     0
 45
0.0
1001
ACAD
1000
AcDbSavedByObjectVersion
1070
     0
1000
AcDbSavedByObjectVersion
1070
     0
  0
VISUALSTYLE
  5
316D
102
{ACAD_REACTORS
330
3165
102
}
330
3165
100
AcDbVisualStyle
  2
3D Hidden
 70
     6
 71
     1
 72
     2
 73
     2
 90
        0
 40
-0.6
 41
-30.0
 62
     5
 63
     7
 74
     2
 91
        2
 64
     7
 65
   257
 75
     2
175
     1
 42
40.0
 92
        0
 66
   257
 43
1.0
 76
     1
 77
     6
 78
     2
 67
     7
 79
     3
170
     0
171
     0
290
     0
174
     0
 93
        1
 44
0.0
173
     0
291
     0
 45
0.0
1001
ACAD
1000
AcDbSavedByObjectVersion
1070
     0
1000
AcDbSavedByObjectVersion
1070
     0
  0
VISUALSTYLE
  5
316C
102
{ACAD_REACTORS
330
3165
102
}
330
3165
100
AcDbVisualStyle
  2
3dWireframe
 70
     5
 71
     0
 72
     2
 73
     0
 90
        0
 40
-0.6
 41
-30.0
 62
     5
 63
     7
 74
     1
 91
        4
 64
     7
 65
   257
 75
     1
175
     1
 42
1.0
 92
        0
 66
   257
 43
1.0
 76
     1
 77
     6
 78
     2
 67
     7
 79
     5
170
     0
171
     0
290
     0
174
     0
 93
        1
 44
0.0
173
     0
291
     0
 45
0.0
1001
ACAD
1000
AcDbSavedByObjectVersion
1070
     0
1000
AcDbSavedByObjectVersion
1070
     0
  0
VISUALSTYLE
  5
316A
102
{ACAD_REACTORS
330
3165
102
}
330
3165
100
AcDbVisualStyle
  2
Basic
 70
     7
 71
     1
 72
     0
 73
     1
 90
        0
 40
-0.6
 41
-30.0
 62
     5
 63
     7
 74
     0
 91
        4
 64
     7
 65
   257
 75
     1
175
     1
 42
1.0
 92
        8
 66
     7
 43
1.0
 76
     1
 77
     6
 78
     2
 67
     7
 79
     5
170
     0
171
     0
290
     0
174
     0
 93
        1
 44
0.0
173
     0
291
     1
 45
0.0
1001
ACAD
1000
AcDbSavedByObjectVersion
1070
     0
1000
AcDbSavedByObjectVersion
1070
     0
  0
VISUALSTYLE
  5
3171
102
{ACAD_REACTORS
330
3165
102
}
330
3165
100
AcDbVisualStyle
  2
Brighten
 70
    12
 71
     2
 72
     2
 73
     0
 90
        0
 40
-0.6
 41
-30.0
 62
     5
 63
     7
 74
     1
 91
        4
 64
     7
 65
   257
 75
     1
175
     1
 42
1.0
 92
        8
 66
     7
 43
1.0
 76
     1
 77
     6
 78
     2
 67
     7
 79
     5
170
     0
171
     0
290
     0
174
     0
 93
        1
 44
50.0
173
     0
291
     1
 45
0.0
1001
ACAD
1000
AcDbSavedByObjectVersion
1070
     0
1000
AcDbSavedByObjectVersion
1070
     0
  0
VISUALSTYLE
  5
3175
102
{ACAD_REACTORS
330
3165
102
}
330
3165
100
AcDbVisualStyle
  2
ColorChange
 70
    16
 71
     2
 72
     2
 73
     3
 90
        0
 40
-0.6
 41
-30.0
 62
     5
 63
     8
 74
     1
 91
        4
 64
     7
 65
   257
 75
     1
175
     1
 42
1.0
 92
        8
 66
     8
 43
1.0
 76
     1
 77
     6
 78
     2
 67
     7
 79
     5
170
     0
171
     0
290
     0
174
     0
 93
        1
 44
0.0
173
     0
291
     1
 45
0.0
1001
ACAD
1000
AcDbSavedByObjectVersion
1070
     0
1000
AcDbSavedByObjectVersion
1070
     0
  0
VISUALSTYLE
  5
316E
102
{ACAD_REACTORS
330
3165
102
}
330
3165
100
AcDbVisualStyle
  2
Conceptual
 70
     9
 71
     3
 72
     2
 73
     0
 90
        0
 40
-0.6
 41
-30.0
 62
     5
 63
     7
 74
     2
 91
        2
 64
     7
 65
   257
 75
     1
175
     1
 42
40.0
 92
        8
 66
     7
 43
1.0
 76
     1
 77
     6
 78
     2
 67
     7
 79
     3
170
     0
171
     0
290
     0
174
     0
 93
        1
 44
0.0
173
     0
291
     0
 45
0.0
1001
ACAD
1000
AcDbSavedByObjectVersion
1070
     0
1000
AcDbSavedByObjectVersion
1070
     0
  0
VISUALSTYLE
  5
3170
102
{ACAD_REACTORS
330
3165
102
}
330
3165
100
AcDbVisualStyle
  2
Dim
 70
    11
 71
     2
 72
     2
 73
     0
 90
        0
 40
-0.6
 41
-30.0
 62
     5
 63
     7
 74
     1
 91
        4
 64
     7
 65
   257
 75
     1
175
     1
 42
1.0
 92
        8
 66
     7
 43
1.0
 76
     1
 77
     6
 78
     2
 67
     7
 79
     5
170
     0
171
     0
290
     0
174
     0
 93
        1
 44
-50.0
173
     0
291
     1
 45
0.0
1001
ACAD
1000
AcDbSavedByObjectVersion
1070
     0
1000
AcDbSavedByObjectVersion
1070
     0
  0
VISUALSTYLE
  5
3174
102
{ACAD_REACTORS
330
3165
102
}
330
3165
100
AcDbVisualStyle
  2
Facepattern
 70
    15
 71
     2
 72
     2
 73
     0
 90
        0
 40
-0.6
 41
-30.0
 62
     5
 63
     7
 74
     1
 91
        4
 64
     7
 65
   257
 75
     1
175
     1
 42
1.0
 92
        8
 66
     7
 43
1.0
 76
     1
 77
     6
 78
     2
 67
     7
 79
     5
170
     0
171
     0
290
     0
174
     0
 93
        1
 44
0.0
173
     0
291
     1
 45
0.0
1001
ACAD
1000
AcDbSavedByObjectVersion
1070
     0
1000
AcDbSavedByObjectVersion
1070
     0
  0
VISUALSTYLE
  5
3166
102
{ACAD_REACTORS
330
3165
102
}
330
3165
100
AcDbVisualStyle
  2
Flat
 70
     0
 71
     2
 72
     1
 73
     1
 90
        2
 40
-0.6
 41
30.0
 62
     5
 63
     7
 74
     0
 91
        4
 64
     7
 65
   257
 75
     1
175
     1
 42
1.0
 92
        8
 66
     7
 43
1.0
 76
     1
 77
     6
 78
     2
 67
     7
 79
     5
170
     0
171
     0
290
     0
174
     0
 93
       13
 44
0.0
173
     0
291
     1
 45
0.0
1001
ACAD
1000
AcDbSavedByObjectVersion
1070
     0
1000
AcDbSavedByObjectVersion
1070
     0
  0
VISUALSTYLE
  5
3167
102
{ACAD_REACTORS
330
3165
102
}
330
3165
100
AcDbVisualStyle
  2
FlatWithEdges
 70
     1
 71
     2
 72
     1
 73
     1
 90
        2
 40
-0.6
 41
30.0
 62
     5
 63
     7
 74
     1
 91
        4
 64
     7
 65
   257
 75
     1
175
     1
 42
1.0
 92
        0
 66
   257
 43
1.0
 76
     1
 77
     6
 78
     2
 67
     7
 79
     5
170
     0
171
     0
290
     0
174
     0
 93
       13
 44
0.0
173
     0
291
     1
 45
0.0
1001
ACAD
1000
AcDbSavedByObjectVersion
1070
     0
1000
AcDbSavedByObjectVersion
1070
     0
  0
VISUALSTYLE
  5
3168
102
{ACAD_REACTORS
330
3165
102
}
330
3165
100
AcDbVisualStyle
  2
Gouraud
 70
     2
 71
     2
 72
     2
 73
     1
 90
        2
 40
-0.6
 41
30.0
 62
     5
 63
     7
 74
     0
 91
        4
 64
     7
 65
   257
 75
     1
175
     1
 42
1.0
 92
        0
 66
     7
 43
1.0
 76
     1
 77
     6
 78
     2
 67
     7
 79
     5
170
     0
171
     0
290
     0
174
     0
 93
       13
 44
0.0
173
     0
291
     1
 45
0.0
1001
ACAD
1000
AcDbSavedByObjectVersion
1070
     0
1000
AcDbSavedByObjectVersion
1070
     0
  0
VISUALSTYLE
  5
3169
102
{ACAD_REACTORS
330
3165
102
}
330
3165
100
AcDbVisualStyle
  2
GouraudWithEdges
 70
     3
 71
     2
 72
     2
 73
     1
 90
        2
 40
-0.6
 41
30.0
 62
     5
 63
     7
 74
     1
 91
        4
 64
     7
 65
   257
 75
     1
175
     1
 42
1.0
 92
        0
 66
   257
 43
1.0
 76
     1
 77
     6
 78
     2
 67
     7
 79
     5
170
     0
171
     0
290
     0
174
     0
 93
       13
 44
0.0
173
     0
291
     1
 45
0.0
1001
ACAD
1000
AcDbSavedByObjectVersion
1070
     0
1000
AcDbSavedByObjectVersion
1070
     0
  0
VISUALSTYLE
  5
3173
102
{ACAD_REACTORS
330
3165
102
}
330
3165
100
AcDbVisualStyle
  2
Linepattern
 70
    14
 71
     2
 72
     2
 73
     0
 90
        0
 40
-0.6
 41
-30.0
 62
     5
 63
     7
 74
     1
 91
        4
 64
     7
 65
   257
 75
     7
175
     7
 42
1.0
 92
        8
 66
     7
 43
1.0
 76
     1
 77
     6
 78
     2
 67
     7
 79
     5
170
     0
171
     0
290
     0
174
     0
 93
        1
 44
0.0
173
     0
291
     1
 45
0.0
1001
ACAD
1000
AcDbSavedByObjectVersion
1070
     0
1000
AcDbSavedByObjectVersion
1070
     0
  0
VISUALSTYLE
  5
316F
102
{ACAD_REACTORS
330
3165
102
}
330
3165
100
AcDbVisualStyle
  2
Realistic
 70
     8
 71
     2
 72
     2
 73
     0
 90
        0
 40
-0.6
 41
-30.0
 62
     5
 63
     7
 74
     1
 91
        0
 64
     7
 65
   257
 75
     1
175
     1
 42
1.0
 92
        8
 66
     8
 43
1.0
 76
     1
 77
     6
 78
     2
 67
     7
 79
     5
170
     0
171
     0
290
     0
174
     0
 93
       13
 44
0.0
173
     0
291
     0
 45
0.0
1001
ACAD
1000
AcDbSavedByObjectVersion
1070
     0
1000
AcDbSavedByObjectVersion
1070
     0
  0
VISUALSTYLE
  5
3172
102
{ACAD_REACTORS
330
3165
102
}
330
3165
100
AcDbVisualStyle
  2
Thicken
 70
    13
 71
     2
 72
     2
 73
     0
 90
        0
 40
-0.6
 41
-30.0
 62
     5
 63
     7
 74
     1
 91
        4
 64
     7
 65
   257
 75
     1
175
     1
 42
1.0
 92
       12
 66
     7
 43
1.0
 76
     1
 77
     6
 78
     2
 67
     7
 79
     5
170
     0
171
     0
290
     0
174
     0
 93
        1
 44
0.0
173
     0
291
     1
 45
0.0
1001
ACAD
1000
AcDbSavedByObjectVersion
1070
     0
1000
AcDbSavedByObjectVersion
1070
     0
  0
DICTIONARYVAR
  5
630F
102
{ACAD_REACTORS
330
630B
102
}
330
630B
100
DictionaryVariables
280
     0
  1
1:1
  0
DICTIONARYVAR
  5
630D
102
{ACAD_REACTORS
330
630B
102
}
330
630B
100
DictionaryVariables
280
     0
  1
STANDARD
  0
DICTIONARYVAR
  5
630C
102
{ACAD_REACTORS
330
630B
102
}
330
630B
100
DictionaryVariables
280
     0
  1
STANDARD
  0
DICTIONARYVAR
  5
6318
102
{ACAD_REACTORS
330
630B
102
}
330
630B
100
DictionaryVariables
280
     0
  1
1
  0
DICTIONARYVAR
  5
6317
102
{ACAD_REACTORS
330
630B
102
}
330
630B
100
DictionaryVariables
280
     0
  1
0
  0
DICTIONARYVAR
  5
6310
102
{ACAD_REACTORS
330
630B
102
}
330
630B
100
DictionaryVariables
280
     0
  1
0
  0
DICTIONARYVAR
  5
630E
102
{ACAD_REACTORS
330
630B
102
}
330
630B
100
DictionaryVariables
280
     0
  1
0
  0
DICTIONARYVAR
  5
6316
102
{ACAD_REACTORS
330
630B
102
}
330
630B
100
DictionaryVariables
280
     0
  1
127
  0
XRECORD
  5
5E46
102
{ACAD_REACTORS
330
5E44
102
}
330
5E44
100
AcDbXrecord
280
     1
  0
DICTIONARY
  5
641A
330
21
100
AcDbDictionary
280
     1
281
     1
  3
ACAD_XREC_ROUNDTRIP
360
641B
  0
DICTIONARY
  5
6418
330
20
100
AcDbDictionary
280
     1
281
     1
  3
ACAD_XREC_ROUNDTRIP
360
6419
  0
DICTIONARY
  5
3156
330
3155
100
AcDbDictionary
280
     1
281
     1
  3
ACAD_XREC_ROUNDTRIP
360
6320
  3
BUMPTILE
360
3158
  3
DIFFUSETILE
360
3157
  3
OPACITYTILE
360
315B
  3
REFLECTIONTILE
360
315A
  3
REFRACTIONTILE
360
315C
  3
SPECULARTILE
360
3159
  0
DICTIONARY
  5
314E
330
314D
100
AcDbDictionary
280
     1
281
     1
  3
ACAD_XREC_ROUNDTRIP
360
631F
  3
BUMPTILE
360
3150
  3
DIFFUSETILE
360
314F
  3
OPACITYTILE
360
3153
  3
REFLECTIONTILE
360
3152
  3
REFRACTIONTILE
360
3154
  3
SPECULARTILE
360
3151
  0
DICTIONARY
  5
315E
330
315D
100
AcDbDictionary
280
     1
281
     1
  3
ACAD_XREC_ROUNDTRIP
360
6321
  3
BUMPTILE
360
3160
  3
DIFFUSETILE
360
315F
  3
OPACITYTILE
360
3163
  3
REFLECTIONTILE
360
3162
  3
REFRACTIONTILE
360
3164
  3
SPECULARTILE
360
3161
  0
DICTIONARY
  5
6308
330
3178
100
AcDbDictionary
280
     1
281
     1
  3
ACAD_ROUNDTRIP_2008_TABLESTYLE_CELLSTYLEMAP
360
6416
  3
ACAD_XREC_ROUNDTRIP
360
641C
  0
XRECORD
  5
641B
102
{ACAD_REACTORS
330
641A
102
}
330
641A
100
AcDbXrecord
280
     1
102
SHADEPLOT
 70
     0
102
SHADEPLOTRESLEVEL
 70
     2
102
SHADEPLOTCUSTOMDPI
 70
   300
  0
XRECORD
  5
6419
102
{ACAD_REACTORS
330
6418
102
}
330
6418
100
AcDbXrecord
280
     1
102
SHADEPLOT
 70
     0
102
SHADEPLOTRESLEVEL
 70
     2
102
SHADEPLOTCUSTOMDPI
 70
   300
  0
XRECORD
  5
6320
102
{ACAD_REACTORS
330
3156
102
}
330
3156
100
AcDbXrecord
280
     1
102
MATERIAL
148
0.0
149
0.0
149
0.0
 93
        0
 94
      127
282
     0
 72
     0
 77
     0
171
     0
175
     0
179
     0
273
     0
  0
XRECORD
  5
3158
102
{ACAD_REACTORS
330
3156
102
}
330
3156
100
AcDbXrecord
280
     1
270
     1
271
     1
  0
XRECORD
  5
3157
102
{ACAD_REACTORS
330
3156
102
}
330
3156
100
AcDbXrecord
280
     1
270
     1
271
     1
  0
XRECORD
  5
315B
102
{ACAD_REACTORS
330
3156
102
}
330
3156
100
AcDbXrecord
280
     1
270
     1
271
     1
  0
XRECORD
  5
315A
102
{ACAD_REACTORS
330
3156
102
}
330
3156
100
AcDbXrecord
280
     1
270
     1
271
     1
  0
XRECORD
  5
315C
102
{ACAD_REACTORS
330
3156
102
}
330
3156
100
AcDbXrecord
280
     1
270
     1
271
     1
  0
XRECORD
  5
3159
102
{ACAD_REACTORS
330
3156
102
}
330
3156
100
AcDbXrecord
280
     1
270
     1
271
     1
  0
XRECORD
  5
631F
102
{ACAD_REACTORS
330
314E
102
}
330
314E
100
AcDbXrecord
280
     1
102
MATERIAL
148
0.0
149
0.0
149
0.0
 93
        0
 94
      127
282
     0
 72
     0
 77
     0
171
     0
175
     0
179
     0
273
     0
  0
XRECORD
  5
3150
102
{ACAD_REACTORS
330
314E
102
}
330
314E
100
AcDbXrecord
280
     1
270
     1
271
     1
  0
XRECORD
  5
314F
102
{ACAD_REACTORS
330
314E
102
}
330
314E
100
AcDbXrecord
280
     1
270
     1
271
     1
  0
XRECORD
  5
3153
102
{ACAD_REACTORS
330
314E
102
}
330
314E
100
AcDbXrecord
280
     1
270
     1
271
     1
  0
XRECORD
  5
3152
102
{ACAD_REACTORS
330
314E
102
}
330
314E
100
AcDbXrecord
280
     1
270
     1
271
     1
  0
XRECORD
  5
3154
102
{ACAD_REACTORS
330
314E
102
}
330
314E
100
AcDbXrecord
280
     1
270
     1
271
     1
  0
XRECORD
  5
3151
102
{ACAD_REACTORS
330
314E
102
}
330
314E
100
AcDbXrecord
280
     1
270
     1
271
     1
  0
XRECORD
  5
6321
102
{ACAD_REACTORS
330
315E
102
}
330
315E
100
AcDbXrecord
280
     1
102
MATERIAL
148
0.0
149
0.0
149
0.0
 93
        0
 94
      127
282
     0
 72
     0
 77
     0
171
     0
175
     0
179
     0
273
     0
  0
XRECORD
  5
3160
102
{ACAD_REACTORS
330
315E
102
}
330
315E
100
AcDbXrecord
280
     1
270
     1
271
     1
  0
XRECORD
  5
315F
102
{ACAD_REACTORS
330
315E
102
}
330
315E
100
AcDbXrecord
280
     1
270
     1
271
     1
  0
XRECORD
  5
3163
102
{ACAD_REACTORS
330
315E
102
}
330
315E
100
AcDbXrecord
280
     1
270
     1
271
     1
  0
XRECORD
  5
3162
102
{ACAD_REACTORS
330
315E
102
}
330
315E
100
AcDbXrecord
280
     1
270
     1
271
     1
  0
XRECORD
  5
3164
102
{ACAD_REACTORS
330
315E
102
}
330
315E
100
AcDbXrecord
280
     1
270
     1
271
     1
  0
XRECORD
  5
3161
102
{ACAD_REACTORS
330
315E
102
}
330
315E
100
AcDbXrecord
280
     1
270
     1
271
     1
  0
CELLSTYLEMAP
  5
6416
102
{ACAD_REACTORS
330
6308
102
}
330
6308
100
AcDbCellStyleMap
 90
        3
300
CELLSTYLE
  1
TABLEFORMAT_BEGIN
 90
        5
170
     1
 91
        0
 92
    32768
 62
   257
 93
        1
300
CONTENTFORMAT
  1
CONTENTFORMAT_BEGIN
 90
        0
 91
        0
 92
      512
 93
        0
300

 40
0.0
140
1.0
 94
        5
 62
     0
340
17
144
6.0
309
CONTENTFORMAT_END
171
     1
301
MARGIN
  1
CELLMARGIN_BEGIN
 40
1.5
 40
1.5
 40
1.5
 40
1.5
 40
0.18
 40
0.18
309
CELLMARGIN_END
 94
        6
 95
        1
302
GRIDFORMAT
  1
GRIDFORMAT_BEGIN
 90
        0
 91
        1
 62
     0
 92
       -2
340
0
 93
        0
 40
1.125
309
GRIDFORMAT_END
 95
        2
302
GRIDFORMAT
  1
GRIDFORMAT_BEGIN
 90
        0
 91
        1
 62
     0
 92
       -2
340
0
 93
        0
 40
1.125
309
GRIDFORMAT_END
 95
        4
302
GRIDFORMAT
  1
GRIDFORMAT_BEGIN
 90
        0
 91
        1
 62
     0
 92
       -2
340
0
 93
        0
 40
1.125
309
GRIDFORMAT_END
 95
        8
302
GRIDFORMAT
  1
GRIDFORMAT_BEGIN
 90
        0
 91
        1
 62
     0
 92
       -2
340
0
 93
        0
 40
1.125
309
GRIDFORMAT_END
 95
       16
302
GRIDFORMAT
  1
GRIDFORMAT_BEGIN
 90
        0
 91
        1
 62
     0
 92
       -2
340
0
 93
        0
 40
1.125
309
GRIDFORMAT_END
 95
       32
302
GRIDFORMAT
  1
GRIDFORMAT_BEGIN
 90
        0
 91
        1
 62
     0
 92
       -2
340
0
 93
        0
 40
1.125
309
GRIDFORMAT_END
309
TABLEFORMAT_END
  1
CELLSTYLE_BEGIN
 90
        1
 91
        1
300
_TITLE
309
CELLSTYLE_END
300
CELLSTYLE
  1
TABLEFORMAT_BEGIN
 90
        5
170
     1
 91
        0
 92
        0
 62
   257
 93
        1
300
CONTENTFORMAT
  1
CONTENTFORMAT_BEGIN
 90
        0
 91
        0
 92
      512
 93
        0
300

 40
0.0
140
1.0
 94
        5
 62
     0
340
17
144
4.5
309
CONTENTFORMAT_END
171
     1
301
MARGIN
  1
CELLMARGIN_BEGIN
 40
1.5
 40
1.5
 40
1.5
 40
1.5
 40
0.18
 40
0.18
309
CELLMARGIN_END
 94
        6
 95
        1
302
GRIDFORMAT
  1
GRIDFORMAT_BEGIN
 90
        0
 91
        1
 62
     0
 92
       -2
340
0
 93
        0
 40
1.125
309
GRIDFORMAT_END
 95
        2
302
GRIDFORMAT
  1
GRIDFORMAT_BEGIN
 90
        0
 91
        1
 62
     0
 92
       -2
340
0
 93
        0
 40
1.125
309
GRIDFORMAT_END
 95
        4
302
GRIDFORMAT
  1
GRIDFORMAT_BEGIN
 90
        0
 91
        1
 62
     0
 92
       -2
340
0
 93
        0
 40
1.125
309
GRIDFORMAT_END
 95
        8
302
GRIDFORMAT
  1
GRIDFORMAT_BEGIN
 90
        0
 91
        1
 62
     0
 92
       -2
340
0
 93
        0
 40
1.125
309
GRIDFORMAT_END
 95
       16
302
GRIDFORMAT
  1
GRIDFORMAT_BEGIN
 90
        0
 91
        1
 62
     0
 92
       -2
340
0
 93
        0
 40
1.125
309
GRIDFORMAT_END
 95
       32
302
GRIDFORMAT
  1
GRIDFORMAT_BEGIN
 90
        0
 91
        1
 62
     0
 92
       -2
340
0
 93
        0
 40
1.125
309
GRIDFORMAT_END
309
TABLEFORMAT_END
  1
CELLSTYLE_BEGIN
 90
        2
 91
        1
300
_HEADER
309
CELLSTYLE_END
300
CELLSTYLE
  1
TABLEFORMAT_BEGIN
 90
        5
170
     1
 91
        0
 92
        0
 62
   257
 93
        1
300
CONTENTFORMAT
  1
CONTENTFORMAT_BEGIN
 90
        0
 91
        0
 92
      512
 93
        0
300

 40
0.0
140
1.0
 94
        2
 62
     0
340
17
144
4.5
309
CONTENTFORMAT_END
171
     1
301
MARGIN
  1
CELLMARGIN_BEGIN
 40
1.5
 40
1.5
 40
1.5
 40
1.5
 40
0.18
 40
0.18
309
CELLMARGIN_END
 94
        6
 95
        1
302
GRIDFORMAT
  1
GRIDFORMAT_BEGIN
 90
        0
 91
        1
 62
     0
 92
       -2
340
0
 93
        0
 40
1.125
309
GRIDFORMAT_END
 95
        2
302
GRIDFORMAT
  1
GRIDFORMAT_BEGIN
 90
        0
 91
        1
 62
     0
 92
       -2
340
0
 93
        0
 40
1.125
309
GRIDFORMAT_END
 95
        4
302
GRIDFORMAT
  1
GRIDFORMAT_BEGIN
 90
        0
 91
        1
 62
     0
 92
       -2
340
0
 93
        0
 40
1.125
309
GRIDFORMAT_END
 95
        8
302
GRIDFORMAT
  1
GRIDFORMAT_BEGIN
 90
        0
 91
        1
 62
     0
 92
       -2
340
0
 93
        0
 40
1.125
309
GRIDFORMAT_END
 95
       16
302
GRIDFORMAT
  1
GRIDFORMAT_BEGIN
 90
        0
 91
        1
 62
     0
 92
       -2
340
0
 93
        0
 40
1.125
309
GRIDFORMAT_END
 95
       32
302
GRIDFORMAT
  1
GRIDFORMAT_BEGIN
 90
        0
 91
        1
 62
     0
 92
       -2
340
0
 93
        0
 40
1.125
309
GRIDFORMAT_END
309
TABLEFORMAT_END
  1
CELLSTYLE_BEGIN
 90
        3
 91
        2
300
_DATA
309
CELLSTYLE_END
  0
XRECORD
  5
641C
102
{ACAD_REACTORS
330
6308
102
}
330
6308
100
AcDbXrecord
280
     1
102
ACAD_ROUNDTRIP_PRE2007_TABLESTYLE
 90
      512
 91
        0
  1

 92
      512
 93
        0
  2

 94
      512
 95
        0
  3

  0
ENDSEC
  0
EOF
