  0
SECTION
  2
HEADER
  9
$ACADVER
  1
AC1015
  9
$ACADMAINTVER
 70
     6
  9
$DWGCODEPAGE
  3
ANSI_1252
  9
$INSBASE
 10
0.0
 20
0.0
 30
0.0
  9
$EXTMIN
 10
-190.4141110328031
 20
-131.9123586032479
 30
0.0
  9
$EXTMAX
 10
111.9536388330256
 20
111.5890265950855
 30
0.0
  9
$LIMMIN
 10
-66.34999999999982
 20
-2008.85
  9
$LIMMAX
 10
3734.350000000001
 20
346.85
  9
$ORTHOMODE
 70
     0
  9
$REGENMODE
 70
     1
  9
$FILLMODE
 70
     1
  9
$QTEXTMODE
 70
     0
  9
$MIRRTEXT
 70
     1
  9
$LTSCALE
 40
10.0
  9
$ATTMODE
 70
     1
  9
$TEXTSIZE
 40
0.0
  9
$TRACEWID
 40
0.05
  9
$TEXTSTYLE
  7
Standard
  9
$CLAYER
  8
0
  9
$CELTYPE
  6
Continuous
  9
$CECOLOR
 62
   256
  9
$CELTSCALE
 40
1.0
  9
$DISPSILH
 70
     0
  9
$DIMSCALE
 40
1.0
  9
$DIMASZ
 40
1.25
  9
$DIMEXO
 40
0.0
  9
$DIMDLI
 40
0.38
  9
$DIMRND
 40
0.0
  9
$DIMDLE
 40
0.0
  9
$DIMEXE
 40
0.75
  9
$DIMTP
 40
0.0
  9
$DIMTM
 40
0.0
  9
$DIMTXT
 40
2.5
  9
$DIMCEN
 40
0.09
  9
$DIMTSZ
 40
0.0
  9
$DIMTOL
 70
     0
  9
$DIMLIM
 70
     0
  9
$DIMTIH
 70
     0
  9
$DIMTOH
 70
     0
  9
$DIMSE1
 70
     0
  9
$DIMSE2
 70
     0
  9
$DIMTAD
 70
     1
  9
$DIMZIN
 70
     0
  9
$DIMBLK
  1

  9
$DIMASO
 70
     1
  9
$DIMSHO
 70
     1
  9
$DIMPOST
  1

  9
$DIMAPOST
  1

  9
$DIMALT
 70
     0
  9
$DIMALTD
 70
     2
  9
$DIMALTF
 40
25.4
  9
$DIMLFAC
 40
1.0
  9
$DIMTOFL
 70
     0
  9
$DIMTVP
 40
0.0
  9
$DIMTIX
 70
     0
  9
$DIMSOXD
 70
     0
  9
$DIMSAH
 70
     0
  9
$DIMBLK1
  1

  9
$DIMBLK2
  1

  9
$DIMSTYLE
  2
Standard
  9
$DIMCLRD
 70
     7
  9
$DIMCLRE
 70
     7
  9
$DIMCLRT
 70
     7
  9
$DIMTFAC
 40
0.8
  9
$DIMGAP
 40
1.25
  9
$DIMJUST
 70
     0
  9
$DIMSD1
 70
     0
  9
$DIMSD2
 70
     0
  9
$DIMTOLJ
 70
     1
  9
$DIMTZIN
 70
     0
  9
$DIMALTZ
 70
     0
  9
$DIMALTTZ
 70
     0
  9
$DIMUPT
 70
     0
  9
$DIMDEC
 70
     2
  9
$DIMTDEC
 70
     4
  9
$DIMALTU
 70
     2
  9
$DIMALTTD
 70
     2
  9
$DIMTXSTY
  7
Standard
  9
$DIMAUNIT
 70
     0
  9
$DIMADEC
 70
     0
  9
$DIMALTRND
 40
0.0
  9
$DIMAZIN
 70
     0
  9
$DIMDSEP
 70
     0
  9
$DIMATFIT
 70
     3
  9
$DIMFRAC
 70
     0
  9
$DIMLDRBLK
  1

  9
$DIMLUNIT
 70
     2
  9
$DIMLWD
 70
     0
  9
$DIMLWE
 70
     0
  9
$DIMTMOVE
 70
     0
  9
$LUNITS
 70
     2
  9
$LUPREC
 70
     4
  9
$SKETCHINC
 40
0.1
  9
$FILLETRAD
 40
0.0
  9
$AUNITS
 70
     0
  9
$AUPREC
 70
     0
  9
$MENU
  1
acad
  9
$ELEVATION
 40
0.0
  9
$PELEVATION
 40
0.0
  9
$THICKNESS
 40
0.0
  9
$LIMCHECK
 70
     0
  9
$CHAMFERA
 40
0.0
  9
$CHAMFERB
 40
0.0
  9
$CHAMFERC
 40
0.0
  9
$CHAMFERD
 40
0.0
  9
$SKPOLY
 70
     0
  9
$TDCREATE
 40
2455303.68625
  9
$TDUCREATE
 40
2455303.644583333
  9
$TDUPDATE
 40
2457380.370510972
  9
$TDUUPDATE
 40
2457380.328844306
  9
$TDINDWG
 40
0.0388898727
  9
$TDUSRTIMER
 40
2457380.328343218
  9
$USRTIMER
 70
     1
  9
$ANGBASE
 50
0.0
  9
$ANGDIR
 70
     0
  9
$PDMODE
 70
     0
  9
$PDSIZE
 40
0.0
  9
$PLINEWID
 40
0.0
  9
$SPLFRAME
 70
     0
  9
$SPLINETYPE
 70
     6
  9
$SPLINESEGS
 70
     8
  9
$HANDSEED
  5
6FB5
  9
$SURFTAB1
 70
     6
  9
$SURFTAB2
 70
     6
  9
$SURFTYPE
 70
     6
  9
$SURFU
 70
     6
  9
$SURFV
 70
     6
  9
$UCSBASE
  2

  9
$UCSNAME
  2

  9
$UCSORG
 10
0.0
 20
0.0
 30
0.0
  9
$UCSXDIR
 10
1.0
 20
0.0
 30
0.0
  9
$UCSYDIR
 10
0.0
 20
1.0
 30
0.0
  9
$UCSORTHOREF
  2

  9
$UCSORTHOVIEW
 70
     0
  9
$UCSORGTOP
 10
0.0
 20
0.0
 30
0.0
  9
$UCSORGBOTTOM
 10
0.0
 20
0.0
 30
0.0
  9
$UCSORGLEFT
 10
0.0
 20
0.0
 30
0.0
  9
$UCSORGRIGHT
 10
0.0
 20
0.0
 30
0.0
  9
$UCSORGFRONT
 10
0.0
 20
0.0
 30
0.0
  9
$UCSORGBACK
 10
0.0
 20
0.0
 30
0.0
  9
$PUCSBASE
  2

  9
$PUCSNAME
  2

  9
$PUCSORG
 10
0.0
 20
0.0
 30
0.0
  9
$PUCSXDIR
 10
1.0
 20
0.0
 30
0.0
  9
$PUCSYDIR
 10
0.0
 20
1.0
 30
0.0
  9
$PUCSORTHOREF
  2

  9
$PUCSORTHOVIEW
 70
     0
  9
$PUCSORGTOP
 10
0.0
 20
0.0
 30
0.0
  9
$PUCSORGBOTTOM
 10
0.0
 20
0.0
 30
0.0
  9
$PUCSORGLEFT
 10
0.0
 20
0.0
 30
0.0
  9
$PUCSORGRIGHT
 10
0.0
 20
0.0
 30
0.0
  9
$PUCSORGFRONT
 10
0.0
 20
0.0
 30
0.0
  9
$PUCSORGBACK
 10
0.0
 20
0.0
 30
0.0
  9
$USERI1
 70
     0
  9
$USERI2
 70
     0
  9
$USERI3
 70
     0
  9
$USERI4
 70
     0
  9
$USERI5
 70
     0
  9
$USERR1
 40
0.0
  9
$USERR2
 40
0.0
  9
$USERR3
 40
0.0
  9
$USERR4
 40
0.0
  9
$USERR5
 40
0.0
  9
$WORLDVIEW
 70
     1
  9
$SHADEDGE
 70
     3
  9
$SHADEDIF
 70
    70
  9
$TILEMODE
 70
     1
  9
$MAXACTVP
 70
    16
  9
$PINSBASE
 10
0.0
 20
0.0
 30
0.0
  9
$PLIMCHECK
 70
     0
  9
$PEXTMIN
 10
1.000000000000000E+20
 20
1.000000000000000E+20
 30
1.000000000000000E+20
  9
$PEXTMAX
 10
-1.000000000000000E+20
 20
-1.000000000000000E+20
 30
-1.000000000000000E+20
  9
$PLIMMIN
 10
0.0
 20
0.0
  9
$PLIMMAX
 10
0.0
 20
0.0
  9
$UNITMODE
 70
     0
  9
$VISRETAIN
 70
     0
  9
$PLINEGEN
 70
     1
  9
$PSLTSCALE
 70
     0
  9
$TREEDEPTH
 70
  3020
  9
$CMLSTYLE
  2
Standard
  9
$CMLJUST
 70
     0
  9
$CMLSCALE
 40
1.0
  9
$PROXYGRAPHICS
 70
     0
  9
$MEASUREMENT
 70
     1
  9
$CELWEIGHT
370
     0
  9
$ENDCAPS
280
     0
  9
$JOINSTYLE
280
     0
  9
$LWDISPLAY
290
     0
  9
$INSUNITS
 70
     0
  9
$HYPERLINKBASE
  1

  9
$STYLESHEET
  1

  9
$XEDIT
290
     1
  9
$CEPSNTYPE
380
     0
  9
$PSTYLEMODE
290
     1
  9
$FINGERPRINTGUID
  2

  9
$VERSIONGUID
  2
{34A8456E-A804-449B-A50C-C34874C7868C}
  9
$EXTNAMES
290
     1
  9
$PSVPSCALE
 40
0.0
  9
$OLESTARTUP
290
     0
  0
ENDSEC
  0
SECTION
  2
CLASSES
  0
CLASS
  1
IMAGE
  2
AcDbRasterImage
  3
ISM
 90
      127
280
     0
281
     1
  0
CLASS
  1
DICTIONARYVAR
  2
AcDbDictionaryVar
  3
ObjectDBX Classes
 90
        0
280
     0
281
     0
  0
CLASS
  1
RASTERVARIABLES
  2
AcDbRasterVariables
  3
ISM
 90
        0
280
     0
281
     0
  0
CLASS
  1
IMAGEDEF
  2
AcDbRasterImageDef
  3
ISM
 90
        0
280
     0
281
     0
  0
CLASS
  1
IMAGEDEF_REACTOR
  2
AcDbRasterImageDefReactor
  3
ISM
 90
        1
280
     0
281
     0
  0
CLASS
  1
IDBUFFER
  2
AcDbIdBuffer
  3
ObjectDBX Classes
 90
        0
280
     0
281
     0
  0
CLASS
  1
SPATIAL_FILTER
  2
AcDbSpatialFilter
  3
ObjectDBX Classes
 90
        0
280
     0
281
     0
  0
CLASS
  1
SORTENTSTABLE
  2
AcDbSortentsTable
  3
ObjectDBX Classes
 90
        0
280
     0
281
     0
  0
CLASS
  1
LAYER_INDEX
  2
AcDbLayerIndex
  3
ObjectDBX Classes
 90
        0
280
     0
281
     0
  0
CLASS
  1
SPATIAL_INDEX
  2
AcDbSpatialIndex
  3
AutoCAD 2000
 90
        0
280
     0
281
     0
  0
CLASS
  1
OBJECT_PTR
  2
CAseDLPNTableRecord
  3
ASE-LPNTableRecord
 90
        1
280
     0
281
     0
  0
CLASS
  1
LAYOUT
  2
AcDbLayout
  3
ObjectDBX Classes
 90
        0
280
     0
281
     0
  0
CLASS
  1
PLOTSETTINGS
  2
AcDbPlotSettings
  3
ObjectDBX Classes
 90
        0
280
     0
281
     0
  0
CLASS
  1
ACDBDICTIONARYWDFLT
  2
AcDbDictionaryWithDefault
  3
ObjectDBX Classes
 90
        0
280
     0
281
     0
  0
CLASS
  1
ACDBPLACEHOLDER
  2
AcDbPlaceHolder
  3
ObjectDBX Classes
 90
        0
280
     0
281
     0
  0
CLASS
  1
VBA_PROJECT
  2
AcDbVbaProject
  3
ObjectDBX Classes
 90
        0
280
     0
281
     0
  0
CLASS
  1
WIPEOUT
  2
AcDbWipeout
  3
WipeOut|AutoCAD Express Tool|expresstools@autodesk.com
 90
      127
280
     0
281
     1
  0
CLASS
  1
WIPEOUTVARIABLES
  2
AcDbWipeoutVariables
  3
WipeOut|AutoCAD Express Tool|expresstools@autodesk.com
 90
        0
280
     0
281
     0
  0
CLASS
  1
RTEXT
  2
RText
  3
RText|AutoCAD Express Tool|expresstools@autodesk.com
 90
        0
280
     0
281
     1
  0
CLASS
  1
ARCALIGNEDTEXT
  2
AcDbArcAlignedText
  3
ATEXT|AutoCAD Express Tool|expresstools@autodesk.com
 90
        0
280
     0
281
     1
  0
CLASS
  1
MATERIAL
  2
AcDbMaterial
  3
ObjectDBX Classes
 90
     1153
280
     0
281
     0
  0
CLASS
  1
VISUALSTYLE
  2
AcDbVisualStyle
  3
ObjectDBX Classes
 90
     4095
280
     0
281
     0
  0
CLASS
  1
TABLESTYLE
  2
AcDbTableStyle
  3
ObjectDBX Classes
 90
     4095
280
     0
281
     0
  0
CLASS
  1
SCALE
  2
AcDbScale
  3
ObjectDBX Classes
 90
     1153
280
     0
281
     0
  0
CLASS
  1
MLEADERSTYLE
  2
AcDbMLeaderStyle
  3
ACDB_MLEADERSTYLE_CLASS
 90
     4095
280
     0
281
     0
  0
CLASS
  1
CELLSTYLEMAP
  2
AcDbCellStyleMap
  3
ObjectDBX Classes
 90
     1152
280
     0
281
     0
  0
CLASS
  1
SUN
  2
AcDbSun
  3
SCENEOE
 90
     1153
280
     0
281
     0
  0
ENDSEC
  0
SECTION
  2
TABLES
  0
TABLE
  2
VPORT
  5
7
330
0
100
AcDbSymbolTable
 70
     1
  0
VPORT
  5
15
330
7
100
AcDbSymbolTableRecord
100
AcDbViewportTableRecord
  2
*ACTIVE
 70
     0
 10
0.0
 20
0.0
 11
1.0
 21
1.0
 12
-39.23023609988874
 22
-10.16166600408121
 13
0.0
 23
0.0
 14
1.0
 24
1.0
 15
0.0
 25
0.0
 16
0.0
 26
0.0
 36
1.0
 17
0.0
 27
0.0
 37
0.0
 40
248.3714129023001
 41
2.322535211267605
 42
50.0
 43
0.0
 44
0.0
 50
0.0
 51
0.0
 71
    16
 72
   100
 73
     1
 74
     1
 75
     0
 76
     0
 77
     0
 78
     0
281
     0
 65
     0
110
0.0
120
0.0
130
0.0
111
1.0
121
0.0
131
0.0
112
0.0
122
1.0
132
0.0
 79
     0
146
0.0
  0
ENDTAB
  0
TABLE
  2
LTYPE
  5
4
330
0
100
AcDbSymbolTable
 70
     3
  0
LTYPE
  5
11
330
4
100
AcDbSymbolTableRecord
100
AcDbLinetypeTableRecord
  2
ByBlock
 70
     0
  3

 72
    65
 73
     0
 40
0.0
  0
LTYPE
  5
12
330
4
100
AcDbSymbolTableRecord
100
AcDbLinetypeTableRecord
  2
ByLayer
 70
     0
  3

 72
    65
 73
     0
 40
0.0
  0
LTYPE
  5
13
330
4
100
AcDbSymbolTableRecord
100
AcDbLinetypeTableRecord
  2
Continuous
 70
     0
  3
Solid line
 72
    65
 73
     0
 40
0.0
  0
LTYPE
  5
1E4
330
4
100
AcDbSymbolTableRecord
100
AcDbLinetypeTableRecord
  2
CENTER
 70
     0
  3
____ _ ____ _ ____ _ ____ _ ____ _ ____ _ ____
 72
    65
 73
     4
 40
2.0
 49
1.25
 74
     0
 49
-0.25
 74
     0
 49
0.25
 74
     0
 49
-0.25
 74
     0
  0
LTYPE
  5
63D1
330
4
100
AcDbSymbolTableRecord
100
AcDbLinetypeTableRecord
  2
CENTERX2
 70
     0
  3
Center (2x) ________  __  ________  __  _____
 72
    65
 73
     4
 40
20.32
 49
12.7
 74
     0
 49
-2.54
 74
     0
 49
2.54
 74
     0
 49
-2.54
 74
     0
  0
ENDTAB
  0
TABLE
  2
LAYER
  5
2
330
0
100
AcDbSymbolTable
 70
     4
  0
LAYER
  5
14
102
{ACAD_XDICTIONARY
360
5E41
102
}
330
2
100
AcDbSymbolTableRecord
100
AcDbLayerTableRecord
  2
0
 70
     0
 62
     7
  6
Continuous
370
    -3
390
1D
  0
LAYER
  5
63CE
330
2
100
AcDbSymbolTableRecord
100
AcDbLayerTableRecord
  2
QUOTE
 70
     0
 62
     3
  6
Continuous
370
    -3
390
1D
  0
LAYER
  5
63D0
330
2
100
AcDbSymbolTableRecord
100
AcDbLayerTableRecord
  2
ASSI
 70
     0
 62
     1
  6
CENTERX2
370
    -3
390
1D
  0
LAYER
  5
66C0
330
2
100
AcDbSymbolTableRecord
100
AcDbLayerTableRecord
  2
Defpoints
 70
     0
 62
     7
  6
Continuous
290
     0
370
    -3
390
1D
  0
ENDTAB
  0
TABLE
  2
STYLE
  5
3
330
0
100
AcDbSymbolTable
 70
     2
  0
STYLE
  5
17
330
3
100
AcDbSymbolTableRecord
100
AcDbTextStyleTableRecord
  2
Standard
 70
     0
 40
0.0
 41
1.0
 50
0.0
 71
     0
 42
0.0
  3
I011000D.TTF
  4

1001
ACAD
1000
IsonormD
1071
        0
  0
STYLE
  5
63D5
330
3
100
AcDbSymbolTableRecord
100
AcDbTextStyleTableRecord
  2
SLDTEXTSTYLE0
 70
     0
 40
0.0
 41
0.75
 50
0.0
 71
     0
 42
0.0
  3
TXT
  4

  0
ENDTAB
  0
TABLE
  2
VIEW
  5
5
330
0
100
AcDbSymbolTable
 70
     0
  0
ENDTAB
  0
TABLE
  2
UCS
  5
6
330
0
100
AcDbSymbolTable
 70
     0
  0
ENDTAB
  0
TABLE
  2
APPID
  5
8
330
0
100
AcDbSymbolTable
 70
     6
  0
APPID
  5
16
330
8
100
AcDbSymbolTableRecord
100
AcDbRegAppTableRecord
  2
ACAD
 70
     0
  0
APPID
  5
26
330
8
100
AcDbSymbolTableRecord
100
AcDbRegAppTableRecord
  2
TopSolid'Draft
 70
     0
  0
APPID
  5
319D
330
8
100
AcDbSymbolTableRecord
100
AcDbRegAppTableRecord
  2
ACAD_MLEADERVER
 70
     0
  0
APPID
  5
5E45
330
8
100
AcDbSymbolTableRecord
100
AcDbRegAppTableRecord
  2
DCO15
 70
     0
  0
APPID
  5
638E
330
8
100
AcDbSymbolTableRecord
100
AcDbRegAppTableRecord
  2
ACAD_EXEMPT_FROM_CAD_STANDARDS
 70
     0
  0
APPID
  5
698E
330
8
100
AcDbSymbolTableRecord
100
AcDbRegAppTableRecord
  2
ACAD_DSTYLE_DIMRADIAL_EXTENSION
 70
     0
  0
ENDTAB
  0
TABLE
  2
DIMSTYLE
  5
9
330
0
100
AcDbSymbolTable
 70
     3
100
AcDbDimStyleTable
  0
DIMSTYLE
105
18
330
9
100
AcDbSymbolTableRecord
100
AcDbDimStyleTableRecord
  2
Standard
 70
     0
 41
1.25
 42
0.0
 44
0.75
 73
     0
 74
     0
 77
     1
140
2.5
146
0.8
147
1.25
176
     7
177
     7
271
     2
178
     7
271
     2
340
17
  0
DIMSTYLE
105
63D2
330
9
100
AcDbSymbolTableRecord
100
AcDbDimStyleTableRecord
  2
ISO-25
 70
     0
 41
2.5
 42
0.625
 43
3.75
 44
1.25
 73
     0
 74
     0
 77
     1
 78
     8
140
2.5
141
2.5
143
0.0393700787
147
0.625
171
     3
172
     1
178
     0
271
     2
272
     2
274
     3
278
    44
283
     0
284
     8
340
17
  0
DIMSTYLE
105
63D4
330
9
100
AcDbSymbolTableRecord
100
AcDbDimStyleTableRecord
  2
SLDDIMSTYLE0
 70
     0
 41
1.6
 44
0.0
 45
0.000000001
 78
    12
 79
     3
140
1.6
141
0.0
147
0.4
172
     1
173
     1
178
     0
271
     2
272
     2
276
     2
284
    12
340
63D5
  0
ENDTAB
  0
TABLE
  2
BLOCK_RECORD
  5
1
330
0
100
AcDbSymbolTable
 70
    34
  0
BLOCK_RECORD
  5
A
102
{ACAD_XDICTIONARY
360
31A7
102
}
330
1
100
AcDbSymbolTableRecord
100
AcDbBlockTableRecord
  2
*MODEL_SPACE
340
20
  0
BLOCK_RECORD
  5
B
330
1
100
AcDbSymbolTableRecord
100
AcDbBlockTableRecord
  2
*PAPER_SPACE
340
21
  0
BLOCK_RECORD
  5
6452
330
1
100
AcDbSymbolTableRecord
100
AcDbBlockTableRecord
  2
_D
340
0
  0
BLOCK_RECORD
  5
645D
330
1
100
AcDbSymbolTableRecord
100
AcDbBlockTableRecord
  2
SW_CENTERMARKSYMBOL_0
340
0
102
{BLKREFS
331
6DF0
102
}
  0
BLOCK_RECORD
  5
6C5F
330
1
100
AcDbSymbolTableRecord
100
AcDbBlockTableRecord
  2
SW_CENTERMARKSYMBOL_1
340
0
102
{BLKREFS
331
6EA3
102
}
  0
BLOCK_RECORD
  5
6CAF
330
1
100
AcDbSymbolTableRecord
100
AcDbBlockTableRecord
  2
SW_CENTERMARKSYMBOL_2
340
0
102
{BLKREFS
331
6EE8
102
}
  0
ENDTAB
  0
ENDSEC
  0
SECTION
  2
BLOCKS
  0
BLOCK
  5
D
330
A
100
AcDbEntity
  8
0
100
AcDbBlockBegin
  2
*MODEL_SPACE
 70
     0
 10
0.0
 20
0.0
 30
0.0
  3
*MODEL_SPACE
  1
*MODEL_SPACE
  0
ENDBLK
  5
E
330
A
100
AcDbEntity
  8
0
100
AcDbBlockEnd
  0
BLOCK
  5
F
330
B
100
AcDbEntity
 67
     1
  8
0
100
AcDbBlockBegin
  2
*PAPER_SPACE
 70
     0
 10
0.0
 20
0.0
 30
0.0
  3
*PAPER_SPACE
  1
*PAPER_SPACE
  0
ENDBLK
  5
10
330
B
100
AcDbEntity
 67
     1
  8
0
100
AcDbBlockEnd
  0
BLOCK
  5
6453
330
6452
100
AcDbEntity
  8
0
100
AcDbBlockBegin
  2
_D
 70
     0
 10
0.0
 20
0.0
 30
0.0
  3
_D
  1
_D
  0
LINE
  5
6454
330
6452
100
AcDbEntity
  8
QUOTE
 62
     0
370
    -2
100
AcDbLine
 10
241.0967243453348
 20
146.8114248568
 30
0.0
 11
239.4967243453348
 21
146.8114248568
 31
0.0
  0
LINE
  5
6455
330
6452
100
AcDbEntity
  8
QUOTE
 62
     0
370
    -2
100
AcDbLine
 10
239.4967243453348
 20
146.8114248568
 30
0.0
 11
232.7332561323756
 21
126.4755511070098
 31
0.0
  0
MTEXT
  5
6456
330
6452
100
AcDbEntity
  8
QUOTE
  6
Continuous
 62
     0
100
AcDbMText
 10
241.4967243453348
 20
147.6114248568
 30
0.0
 40
1.6
 41
0.0
 71
     1
 72
     1
  1
\A1;%%c19
  7
SLDTEXTSTYLE0
 73
     1
 44
1.0
  0
LINE
  5
6457
330
6452
100
AcDbEntity
  8
QUOTE
 62
     0
370
    -2
100
AcDbLine
 10
238.2245430567
 20
142.9863284332
 30
0.0
 11
232.2283102083
 21
124.9573187092
 31
0.0
  0
SOLID
  5
6458
330
6452
100
AcDbEntity
  8
QUOTE
 62
     0
100
AcDbTrace
 10
232.4802173994073
 20
126.5597087610224
 30
0.0
 11
232.9862948653439
 21
126.3913934529972
 31
0.0
 12
232.2283102083
 22
124.9573187092
 32
0.0
 13
232.2283102083
 23
124.9573187092
 33
0.0
  0
POINT
  5
6459
330
6452
100
AcDbEntity
  8
Defpoints
 62
     0
100
AcDbPoint
 10
232.2283102083
 20
124.9573187092
 30
0.0
  0
POINT
  5
645A
330
6452
100
AcDbEntity
  8
Defpoints
 62
     0
100
AcDbPoint
 10
238.2245430567
 20
142.9863284332
 30
0.0
  0
ENDBLK
  5
645B
330
6452
100
AcDbEntity
  8
0
100
AcDbBlockEnd
  0
BLOCK
  5
645E
330
645D
100
AcDbEntity
  8
0
100
AcDbBlockBegin
  2
SW_CENTERMARKSYMBOL_0
 70
     0
 10
0.0
 20
0.0
 30
0.0
  3
SW_CENTERMARKSYMBOL_0
  1
SW_CENTERMARKSYMBOL_0
  0
LINE
  5
645F
330
645D
100
AcDbEntity
  8
ASSI
 62
     0
100
AcDbLine
 10
0.0
 20
0.0
 30
0.0
 11
0.0
 21
2.5
 31
0.0
  0
LINE
  5
6460
330
645D
100
AcDbEntity
  8
ASSI
 62
     0
100
AcDbLine
 10
0.0
 20
0.0
 30
0.0
 11
-2.5
 21
0.0
 31
0.0
  0
LINE
  5
6461
330
645D
100
AcDbEntity
  8
ASSI
 62
     0
100
AcDbLine
 10
0.0
 20
0.0
 30
0.0
 11
0.0
 21
-2.5
 31
0.0
  0
LINE
  5
6462
330
645D
100
AcDbEntity
  8
ASSI
 62
     0
100
AcDbLine
 10
0.0
 20
0.0
 30
0.0
 11
2.5
 21
0.0
 31
0.0
  0
LINE
  5
6463
330
645D
100
AcDbEntity
  8
ASSI
 62
     0
100
AcDbLine
 10
0.0
 20
5.0
 30
0.0
 11
0.0
 21
12.0
 31
0.0
  0
LINE
  5
6464
330
645D
100
AcDbEntity
  8
ASSI
 62
     0
100
AcDbLine
 10
-5.0
 20
0.0
 30
0.0
 11
-12.0
 21
0.0
 31
0.0
  0
LINE
  5
6465
330
645D
100
AcDbEntity
  8
ASSI
 62
     0
100
AcDbLine
 10
0.0
 20
-5.0
 30
0.0
 11
0.0
 21
-12.0
 31
0.0
  0
LINE
  5
6466
330
645D
100
AcDbEntity
  8
ASSI
 62
     0
100
AcDbLine
 10
5.0
 20
0.0
 30
0.0
 11
12.0
 21
0.0
 31
0.0
  0
ENDBLK
  5
6467
330
645D
100
AcDbEntity
  8
0
100
AcDbBlockEnd
  0
BLOCK
  5
6C60
330
6C5F
100
AcDbEntity
  8
0
100
AcDbBlockBegin
  2
SW_CENTERMARKSYMBOL_1
 70
     0
 10
0.0
 20
0.0
 30
0.0
  3
SW_CENTERMARKSYMBOL_1
  1
SW_CENTERMARKSYMBOL_1
  0
LINE
  5
6C61
330
6C5F
100
AcDbEntity
  8
ASSI
 62
     0
100
AcDbLine
 10
0.0
 20
0.0
 30
0.0
 11
0.0
 21
2.5
 31
0.0
  0
LINE
  5
6C62
330
6C5F
100
AcDbEntity
  8
ASSI
 62
     0
100
AcDbLine
 10
0.0
 20
0.0
 30
0.0
 11
-2.5
 21
0.0
 31
0.0
  0
LINE
  5
6C63
330
6C5F
100
AcDbEntity
  8
ASSI
 62
     0
100
AcDbLine
 10
0.0
 20
0.0
 30
0.0
 11
0.0
 21
-2.5
 31
0.0
  0
LINE
  5
6C64
330
6C5F
100
AcDbEntity
  8
ASSI
 62
     0
100
AcDbLine
 10
0.0
 20
0.0
 30
0.0
 11
2.5
 21
0.0
 31
0.0
  0
LINE
  5
6C65
330
6C5F
100
AcDbEntity
  8
ASSI
 62
     0
100
AcDbLine
 10
0.0
 20
5.0
 30
0.0
 11
0.0
 21
11.1177890594
 31
0.0
  0
LINE
  5
6C66
330
6C5F
100
AcDbEntity
  8
ASSI
 62
     0
100
AcDbLine
 10
-5.0
 20
0.0
 30
0.0
 11
-11.1177890594
 21
0.0
 31
0.0
  0
LINE
  5
6C67
330
6C5F
100
AcDbEntity
  8
ASSI
 62
     0
100
AcDbLine
 10
0.0
 20
-5.0
 30
0.0
 11
0.0
 21
-11.1177890594
 31
0.0
  0
LINE
  5
6C68
330
6C5F
100
AcDbEntity
  8
ASSI
 62
     0
100
AcDbLine
 10
5.0
 20
0.0
 30
0.0
 11
11.1177890594
 21
0.0
 31
0.0
  0
ENDBLK
  5
6C69
330
6C5F
100
AcDbEntity
  8
0
100
AcDbBlockEnd
  0
BLOCK
  5
6CB0
330
6CAF
100
AcDbEntity
  8
0
100
AcDbBlockBegin
  2
SW_CENTERMARKSYMBOL_2
 70
     0
 10
0.0
 20
0.0
 30
0.0
  3
SW_CENTERMARKSYMBOL_2
  1
SW_CENTERMARKSYMBOL_2
  0
LINE
  5
6CB1
330
6CAF
100
AcDbEntity
  8
ASSI
 62
     0
100
AcDbLine
 10
0.0
 20
0.0
 30
0.0
 11
0.0
 21
2.5
 31
0.0
  0
LINE
  5
6CB2
330
6CAF
100
AcDbEntity
  8
ASSI
 62
     0
100
AcDbLine
 10
0.0
 20
0.0
 30
0.0
 11
-2.5
 21
0.0
 31
0.0
  0
LINE
  5
6CB3
330
6CAF
100
AcDbEntity
  8
ASSI
 62
     0
100
AcDbLine
 10
0.0
 20
0.0
 30
0.0
 11
0.0
 21
-2.5
 31
0.0
  0
LINE
  5
6CB4
330
6CAF
100
AcDbEntity
  8
ASSI
 62
     0
100
AcDbLine
 10
0.0
 20
0.0
 30
0.0
 11
2.5
 21
0.0
 31
0.0
  0
LINE
  5
6CB5
330
6CAF
100
AcDbEntity
  8
ASSI
 62
     0
100
AcDbLine
 10
0.0
 20
5.0
 30
0.0
 11
0.0
 21
11.1177890594
 31
0.0
  0
LINE
  5
6CB6
330
6CAF
100
AcDbEntity
  8
ASSI
 62
     0
100
AcDbLine
 10
-5.0
 20
0.0
 30
0.0
 11
-11.1177890594
 21
0.0
 31
0.0
  0
LINE
  5
6CB7
330
6CAF
100
AcDbEntity
  8
ASSI
 62
     0
100
AcDbLine
 10
0.0
 20
-5.0
 30
0.0
 11
0.0
 21
-11.1177890594
 31
0.0
  0
LINE
  5
6CB8
330
6CAF
100
AcDbEntity
  8
ASSI
 62
     0
100
AcDbLine
 10
5.0
 20
0.0
 30
0.0
 11
11.1177890594
 21
0.0
 31
0.0
  0
ENDBLK
  5
6CB9
330
6CAF
100
AcDbEntity
  8
0
100
AcDbBlockEnd
  0
ENDSEC
  0
SECTION
  2
ENTITIES
  0
TEXT
  5
61A2
330
A
100
AcDbEntity
  8
0
  6
Continuous
 62
     7
370
     0
100
AcDbText
 10
9.760742970043168
 20
67.66860679214955
 30
0.0
 40
10.0
  1
446W50
100
AcDbText
  0
LINE
  5
6D44
330
A
100
AcDbEntity
  8
0
100
AcDbLine
 10
-40.06624350994286
 20
93.25589168552517
 30
0.0
 11
-40.06624350994286
 21
99.2558916855252
 31
0.0
  0
LINE
  5
6D45
330
A
100
AcDbEntity
  8
0
100
AcDbLine
 10
-52.06624350994286
 20
99.2558916855252
 30
0.0
 11
-52.06624350994286
 21
93.25589168552517
 31
0.0
  0
LINE
  5
6D46
330
A
100
AcDbEntity
  8
0
100
AcDbLine
 10
-75.56624350994286
 20
69.75589168552517
 30
0.0
 11
-81.56624350994286
 21
69.75589168552517
 31
0.0
  0
LINE
  5
6D47
330
A
100
AcDbEntity
  8
0
100
AcDbLine
 10
-81.56624350994286
 20
57.75589168552517
 30
0.0
 11
-75.56624350994286
 21
57.75589168552517
 31
0.0
  0
SPLINE
  5
6D48
330
A
100
AcDbEntity
  8
0
100
AcDbSpline
210
0.0
220
0.0
230
1.0
 70
     8
 71
     3
 72
    11
 73
     7
 74
     0
 42
0.000000001
 43
0.00000001
 40
0.0
 40
0.0
 40
0.0
 40
0.0
 40
0.1724297911348343
 40
0.4624090432126398
 40
0.7926223347067253
 40
1.0
 40
1.0
 40
1.0
 40
1.0
 10
-41.75950209598207
 20
92.25589168557016
 30
0.0
 10
-41.69900805091507
 20
92.28203601230598
 30
0.0
 10
-41.53677974155278
 20
92.35214787077189
 30
0.0
 10
-41.32906762711917
 20
92.58015907831378
 30
0.0
 10
-41.18117886864377
 20
92.86895295798038
 30
0.0
 10
-41.17935820928457
 20
93.07471820657847
 30
0.0
 10
-41.17865588332006
 20
93.15409289901709
 30
0.0
  0
SPLINE
  5
6D49
330
A
100
AcDbEntity
  8
0
100
AcDbSpline
210
0.0
220
0.0
230
1.0
 70
     8
 71
     3
 72
    11
 73
     7
 74
     0
 42
0.000000001
 43
0.00000001
 40
0.0
 40
0.0
 40
0.0
 40
0.0
 40
0.1613576539910309
 40
0.437731818967066
 40
0.7269742048590988
 40
1.0
 40
1.0
 40
1.0
 40
1.0
 10
-50.95673534213478
 20
93.15528867998557
 30
0.0
 10
-50.95713464470487
 20
93.09377599373516
 30
0.0
 10
-50.95821787463527
 20
92.92690408294598
 30
0.0
 10
-50.85321116285746
 20
92.66533360883429
 30
0.0
 10
-50.66109325023996
 20
92.40185173788777
 30
0.0
 10
-50.46895921508028
 20
92.30360046892017
 30
0.0
 10
-50.37566290294185
 20
92.25589168557016
 30
0.0
  0
LINE
  5
6D4A
330
A
100
AcDbEntity
  8
0
100
AcDbLine
 10
-41.16624350994286
 20
93.15589168552518
 30
0.0
 11
-41.16624350994286
 21
93.25589168552517
 31
0.0
  0
LINE
  5
6D4B
330
A
100
AcDbEntity
  8
0
100
AcDbLine
 10
-41.16624350994286
 20
99.2558916855252
 30
0.0
 11
-41.16624350994286
 21
100.2558916855252
 31
0.0
  0
LINE
  5
6D4C
330
A
100
AcDbEntity
  8
0
100
AcDbLine
 10
-50.96624350994287
 20
100.2558916855252
 30
0.0
 11
-50.96624350994287
 21
99.2558916855252
 31
0.0
  0
LINE
  5
6D4D
330
A
100
AcDbEntity
  8
0
100
AcDbLine
 10
-50.96624350994287
 20
93.25589168552517
 30
0.0
 11
-50.96624350994287
 21
93.15589168552518
 31
0.0
  0
SPLINE
  5
6D4E
330
A
100
AcDbEntity
  8
0
100
AcDbSpline
210
0.0
220
0.0
230
1.0
 70
     8
 71
     3
 72
    11
 73
     7
 74
     0
 42
0.000000001
 43
0.00000001
 40
0.0
 40
0.0
 40
0.0
 40
0.0
 40
0.1724297911347039
 40
0.4624090432125517
 40
0.7926223347066916
 40
1.0
 40
1.0
 40
1.0
 40
1.0
 10
-74.56624350992115
 20
68.06263309950609
 30
0.0
 10
-74.59238783665697
 20
68.12312714457306
 30
0.0
 10
-74.66249969512288
 20
68.28535545393527
 30
0.0
 10
-74.89051090266477
 20
68.49306756836887
 30
0.0
 10
-75.17930478233126
 20
68.64095632684428
 30
0.0
 10
-75.38507003092937
 20
68.64277698620359
 30
0.0
 10
-75.46444472336796
 20
68.64347931216798
 30
0.0
  0
SPLINE
  5
6D4F
330
A
100
AcDbEntity
  8
0
100
AcDbSpline
210
0.0
220
0.0
230
1.0
 70
     8
 71
     3
 72
    11
 73
     7
 74
     0
 42
0.000000001
 43
0.00000001
 40
0.0
 40
0.0
 40
0.0
 40
0.0
 40
0.1613576539910524
 40
0.4377318189671253
 40
0.7269742048591974
 40
1.0
 40
1.0
 40
1.0
 40
1.0
 10
-75.46564050433656
 20
58.86539985335327
 30
0.0
 10
-75.40412781808615
 20
58.86500055078318
 30
0.0
 10
-75.23725590729697
 20
58.86391732085278
 30
0.0
 10
-74.97568543318516
 20
58.96892403263058
 30
0.0
 10
-74.71220356223867
 20
59.16104194524797
 30
0.0
 10
-74.61395229327115
 20
59.35317598040777
 30
0.0
 10
-74.56624350992115
 20
59.44647229254608
 30
0.0
  0
LINE
  5
6D50
330
A
100
AcDbEntity
  8
0
100
AcDbLine
 10
-75.46624350994287
 20
68.65589168552518
 30
0.0
 11
-75.56624350994286
 21
68.65589168552518
 31
0.0
  0
LINE
  5
6D51
330
A
100
AcDbEntity
  8
0
100
AcDbLine
 10
-81.56624350994286
 20
68.65589168552518
 30
0.0
 11
-82.56624350994286
 21
68.65589168552518
 31
0.0
  0
LINE
  5
6D52
330
A
100
AcDbEntity
  8
0
100
AcDbLine
 10
-82.56624350994286
 20
58.85589168552517
 30
0.0
 11
-81.56624350994286
 21
58.85589168552517
 31
0.0
  0
LINE
  5
6D53
330
A
100
AcDbEntity
  8
0
100
AcDbLine
 10
-75.56624350994286
 20
58.85589168552517
 30
0.0
 11
-75.46624350994287
 21
58.85589168552517
 31
0.0
  0
LINE
  5
6D54
330
A
100
AcDbEntity
  8
0
100
AcDbLine
 10
-40.06624350994286
 20
99.2558916855252
 30
0.0
 11
-52.06624350994286
 21
99.2558916855252
 31
0.0
  0
LINE
  5
6D55
330
A
100
AcDbEntity
  8
0
100
AcDbLine
 10
-40.06624350994286
 20
93.25589168552517
 30
0.0
 11
-52.06624350994286
 21
93.25589168552517
 31
0.0
  0
LINE
  5
6D56
330
A
100
AcDbEntity
  8
0
100
AcDbLine
 10
-81.56624350994286
 20
69.75589168552517
 30
0.0
 11
-81.56624350994286
 21
57.75589168552517
 31
0.0
  0
LINE
  5
6D57
330
A
100
AcDbEntity
  8
0
100
AcDbLine
 10
-75.56624350994286
 20
69.75589168552517
 30
0.0
 11
-75.56624350994286
 21
57.75589168552517
 31
0.0
  0
LINE
  5
6D58
330
A
100
AcDbEntity
  8
0
100
AcDbLine
 10
-74.56624350994286
 20
39.75589168552517
 30
0.0
 11
-73.56624350994286
 21
39.75589168552517
 31
0.0
  0
LINE
  5
6D59
330
A
100
AcDbEntity
  8
0
100
AcDbLine
 10
-74.56624350994286
 20
45.75589168552517
 30
0.0
 11
-74.56624350994286
 21
39.75589168552517
 31
0.0
  0
LINE
  5
6D5A
330
A
100
AcDbEntity
  8
0
100
AcDbLine
 10
-74.56624350994286
 20
87.75589168552517
 30
0.0
 11
-74.56624350994286
 21
81.75589168552517
 31
0.0
  0
LINE
  5
6D5B
330
A
100
AcDbEntity
  8
0
100
AcDbLine
 10
-73.56624350994286
 20
87.75589168552517
 30
0.0
 11
-74.56624350994286
 21
87.75589168552517
 31
0.0
  0
LINE
  5
6D5C
330
A
100
AcDbEntity
  8
0
100
AcDbLine
 10
-74.56624350994286
 20
81.75589168552517
 30
0.0
 11
-74.56624350994286
 21
45.75589168552517
 31
0.0
  0
LINE
  5
6D5D
330
A
100
AcDbEntity
  8
0
100
AcDbLine
 10
-83.56624350994286
 20
39.75589168552517
 30
0.0
 11
-82.56624350994286
 21
39.75589168552517
 31
0.0
  0
LINE
  5
6D5E
330
A
100
AcDbEntity
  8
0
100
AcDbLine
 10
-82.56624350994286
 20
45.75589168552517
 30
0.0
 11
-82.56624350994286
 21
39.75589168552517
 31
0.0
  0
LINE
  5
6D5F
330
A
100
AcDbEntity
  8
0
100
AcDbLine
 10
-82.56624350994286
 20
87.75589168552517
 30
0.0
 11
-83.56624350994286
 21
87.75589168552517
 31
0.0
  0
LINE
  5
6D60
330
A
100
AcDbEntity
  8
0
100
AcDbLine
 10
-82.56624350994286
 20
87.75589168552517
 30
0.0
 11
-82.56624350994286
 21
81.75589168552517
 31
0.0
  0
LINE
  5
6D61
330
A
100
AcDbEntity
  8
0
100
AcDbLine
 10
-82.56624350994286
 20
81.75589168552517
 30
0.0
 11
-82.56624350994286
 21
45.75589168552517
 31
0.0
  0
LINE
  5
6D62
330
A
100
AcDbEntity
  8
0
100
AcDbLine
 10
-22.06624350994286
 20
100.2558916855252
 30
0.0
 11
-22.06624350994286
 21
101.2558916855252
 31
0.0
  0
LINE
  5
6D63
330
A
100
AcDbEntity
  8
0
100
AcDbLine
 10
-22.06624350994286
 20
100.2558916855252
 30
0.0
 11
-28.06624350994286
 21
100.2558916855252
 31
0.0
  0
LINE
  5
6D64
330
A
100
AcDbEntity
  8
0
100
AcDbLine
 10
-70.06624350994286
 20
101.2558916855252
 30
0.0
 11
-70.06624350994286
 21
100.2558916855252
 31
0.0
  0
LINE
  5
6D65
330
A
100
AcDbEntity
  8
0
100
AcDbLine
 10
-64.06624350994286
 20
100.2558916855252
 30
0.0
 11
-70.06624350994286
 21
100.2558916855252
 31
0.0
  0
LINE
  5
6D66
330
A
100
AcDbEntity
  8
0
100
AcDbLine
 10
-28.06624350994286
 20
100.2558916855252
 30
0.0
 11
-64.06624350994286
 21
100.2558916855252
 31
0.0
  0
LINE
  5
6D67
330
A
100
AcDbEntity
  8
0
100
AcDbLine
 10
-22.06624350994286
 20
91.25589168552517
 30
0.0
 11
-22.06624350994286
 21
92.25589168552517
 31
0.0
  0
LINE
  5
6D68
330
A
100
AcDbEntity
  8
0
100
AcDbLine
 10
-22.06624350994286
 20
92.25589168552517
 30
0.0
 11
-28.06624350994286
 21
92.25589168552517
 31
0.0
  0
LINE
  5
6D69
330
A
100
AcDbEntity
  8
0
100
AcDbLine
 10
-70.06624350994286
 20
92.25589168552517
 30
0.0
 11
-70.06624350994286
 21
91.25589168552517
 31
0.0
  0
LINE
  5
6D6A
330
A
100
AcDbEntity
  8
0
100
AcDbLine
 10
-64.06624350994286
 20
92.25589168552517
 30
0.0
 11
-70.06624350994286
 21
92.25589168552517
 31
0.0
  0
LINE
  5
6D6B
330
A
100
AcDbEntity
  8
0
100
AcDbLine
 10
-28.06624350994286
 20
92.25589168552517
 30
0.0
 11
-64.06624350994286
 21
92.25589168552517
 31
0.0
  0
ARC
  5
6D6C
330
A
100
AcDbEntity
  8
0
100
AcDbCircle
 10
-19.16624350994286
 20
106.8558916855252
 30
0.0
 40
0.6000000000000796
100
AcDbArc
 50
0.0
 51
90.0
  0
ARC
  5
6D6D
330
A
100
AcDbEntity
  8
0
100
AcDbCircle
 10
-72.96624350994287
 20
106.8558916855252
 30
0.0
 40
0.6000000000000796
100
AcDbArc
 50
90.0
 51
180.0
  0
LINE
  5
6D6E
330
A
100
AcDbEntity
  8
0
100
AcDbLine
 10
-18.56624350994286
 20
101.2558916855252
 30
0.0
 11
-18.56624350994286
 21
106.8558916855252
 31
0.0
  0
LINE
  5
6D6F
330
A
100
AcDbEntity
  8
0
100
AcDbLine
 10
-18.56624350994286
 20
101.2558916855252
 30
0.0
 11
-19.16624350994286
 21
101.2558916855252
 31
0.0
  0
LINE
  5
6D70
330
A
100
AcDbEntity
  8
0
100
AcDbLine
 10
-72.96624350994287
 20
101.2558916855252
 30
0.0
 11
-19.16624350994286
 21
101.2558916855252
 31
0.0
  0
LINE
  5
6D71
330
A
100
AcDbEntity
  8
0
100
AcDbLine
 10
-72.96624350994287
 20
107.4558916855252
 30
0.0
 11
-19.16624350994286
 21
107.4558916855252
 31
0.0
  0
LINE
  5
6D72
330
A
100
AcDbEntity
  8
0
100
AcDbLine
 10
-73.56624350994286
 20
106.8558916855252
 30
0.0
 11
-73.56624350994286
 21
101.2558916855252
 31
0.0
  0
LINE
  5
6D73
330
A
100
AcDbEntity
  8
0
100
AcDbLine
 10
-72.96624350994287
 20
101.2558916855252
 30
0.0
 11
-73.56624350994286
 21
101.2558916855252
 31
0.0
  0
ARC
  5
6D74
330
A
100
AcDbEntity
  8
0
100
AcDbCircle
 10
-89.16624350994286
 20
90.65589168552518
 30
0.0
 40
0.5999999999999943
100
AcDbArc
 50
90.0
 51
180.0
  0
ARC
  5
6D75
330
A
100
AcDbEntity
  8
0
100
AcDbCircle
 10
-89.16624350994286
 20
36.85589168552517
 30
0.0
 40
0.5999999999999943
100
AcDbArc
 50
180.0
 51
270.0
  0
LINE
  5
6D76
330
A
100
AcDbEntity
  8
0
100
AcDbLine
 10
-83.56624350994286
 20
36.85589168552517
 30
0.0
 11
-83.56624350994286
 21
36.25589168552517
 31
0.0
  0
LINE
  5
6D77
330
A
100
AcDbEntity
  8
0
100
AcDbLine
 10
-89.16624350994286
 20
36.25589168552517
 30
0.0
 11
-83.56624350994286
 21
36.25589168552517
 31
0.0
  0
LINE
  5
6D78
330
A
100
AcDbEntity
  8
0
100
AcDbLine
 10
-83.56624350994286
 20
36.85589168552517
 30
0.0
 11
-83.56624350994286
 21
90.65589168552518
 31
0.0
  0
LINE
  5
6D79
330
A
100
AcDbEntity
  8
0
100
AcDbLine
 10
-83.56624350994286
 20
91.25589168552517
 30
0.0
 11
-89.16624350994286
 21
91.25589168552517
 31
0.0
  0
LINE
  5
6D7A
330
A
100
AcDbEntity
  8
0
100
AcDbLine
 10
-83.56624350994286
 20
91.25589168552517
 30
0.0
 11
-83.56624350994286
 21
90.65589168552518
 31
0.0
  0
LINE
  5
6D7B
330
A
100
AcDbEntity
  8
0
100
AcDbLine
 10
-89.76624350994285
 20
36.85589168552517
 30
0.0
 11
-89.76624350994285
 21
90.65589168552518
 31
0.0
  0
ARC
  5
6D7C
330
A
100
AcDbEntity
  8
0
100
AcDbCircle
 10
-19.16624350994286
 20
85.55589168552518
 30
0.0
 40
0.6000000000000227
100
AcDbArc
 50
270.0
 51
0.0
  0
ARC
  5
6D7D
330
A
100
AcDbEntity
  8
0
100
AcDbCircle
 10
-67.86624350994288
 20
36.85589168552517
 30
0.0
 40
0.5999999999999943
100
AcDbArc
 50
270.0
 51
0.0
  0
LINE
  5
6D7E
330
A
100
AcDbEntity
  8
0
100
AcDbLine
 10
-19.16624350994286
 20
84.95589168552519
 30
0.0
 11
-62.26624350994285
 21
84.95589168552519
 31
0.0
  0
LINE
  5
6D7F
330
A
100
AcDbEntity
  8
0
100
AcDbLine
 10
-73.56624350994286
 20
36.85589168552517
 30
0.0
 11
-73.56624350994286
 21
90.65589168552518
 31
0.0
  0
ARC
  5
6D80
330
A
100
AcDbEntity
  8
0
100
AcDbCircle
 10
-72.96624350994287
 20
90.65589168552518
 30
0.0
 40
0.5999999999999943
100
AcDbArc
 50
90.0
 51
180.0
  0
LINE
  5
6D81
330
A
100
AcDbEntity
  8
0
100
AcDbLine
 10
-72.96624350994287
 20
91.25589168552517
 30
0.0
 11
-19.16624350994286
 21
91.25589168552517
 31
0.0
  0
CIRCLE
  5
6D82
330
A
100
AcDbEntity
  8
0
100
AcDbCircle
 10
-46.56624350994286
 20
88.95589168552519
 30
0.0
 40
1.25
  0
CIRCLE
  5
6D83
330
A
100
AcDbEntity
  8
0
100
AcDbCircle
 10
-71.26624350994285
 20
64.25589168552517
 30
0.0
 40
1.25
  0
LINE
  5
6D84
330
A
100
AcDbEntity
  8
0
100
AcDbLine
 10
-67.26624350994285
 20
79.95589168552519
 30
0.0
 11
-67.26624350994285
 21
36.85589168552517
 31
0.0
  0
ARC
  5
6D85
330
A
100
AcDbEntity
  8
0
100
AcDbCircle
 10
-62.26624350994285
 20
79.95589168552519
 30
0.0
 40
5.000000000001677
100
AcDbArc
 50
90.0
 51
180.0
  0
LINE
  5
6D86
330
A
100
AcDbEntity
  8
0
100
AcDbLine
 10
-19.16624350994286
 20
91.25589168552517
 30
0.0
 11
-18.56624350994286
 21
91.25589168552517
 31
0.0
  0
LINE
  5
6D87
330
A
100
AcDbEntity
  8
0
100
AcDbLine
 10
-18.56624350994286
 20
91.25589168552517
 30
0.0
 11
-18.56624350994286
 21
85.55589168552518
 31
0.0
  0
LINE
  5
6D88
330
A
100
AcDbEntity
  8
0
100
AcDbLine
 10
-67.86624350994288
 20
36.25589168552517
 30
0.0
 11
-73.56624350994286
 21
36.25589168552517
 31
0.0
  0
LINE
  5
6D89
330
A
100
AcDbEntity
  8
0
100
AcDbLine
 10
-73.56624350994286
 20
36.85589168552517
 30
0.0
 11
-73.56624350994286
 21
36.25589168552517
 31
0.0
  0
LINE
  5
6D8A
330
A
100
AcDbEntity
  8
0
  6
Continuous
 62
     8
370
     0
100
AcDbLine
 10
-74.56624350994286
 20
45.75589168552517
 30
0.0
 11
-73.56624350994286
 21
45.75589168552517
 31
0.0
  0
LINE
  5
6D8B
330
A
100
AcDbEntity
  8
0
  6
Continuous
 62
     8
370
     0
100
AcDbLine
 10
-74.56624350994286
 20
81.75589168552517
 30
0.0
 11
-73.56624350994286
 21
81.75589168552517
 31
0.0
  0
LINE
  5
6D8C
330
A
100
AcDbEntity
  8
0
  6
Continuous
 62
     8
370
     0
100
AcDbLine
 10
-83.56624350994286
 20
45.75589168552517
 30
0.0
 11
-82.56624350994286
 21
45.75589168552517
 31
0.0
  0
LINE
  5
6D8D
330
A
100
AcDbEntity
  8
0
  6
Continuous
 62
     8
370
     0
100
AcDbLine
 10
-83.56624350994286
 20
81.75589168552517
 30
0.0
 11
-82.56624350994286
 21
81.75589168552517
 31
0.0
  0
LINE
  5
6D8E
330
A
100
AcDbEntity
  8
0
  6
Continuous
 62
     8
370
     0
100
AcDbLine
 10
-28.06624350994286
 20
101.2558916855252
 30
0.0
 11
-28.06624350994286
 21
100.2558916855252
 31
0.0
  0
LINE
  5
6D8F
330
A
100
AcDbEntity
  8
0
  6
Continuous
 62
     8
370
     0
100
AcDbLine
 10
-64.06624350994286
 20
101.2558916855252
 30
0.0
 11
-64.06624350994286
 21
100.2558916855252
 31
0.0
  0
LINE
  5
6D90
330
A
100
AcDbEntity
  8
0
  6
Continuous
 62
     8
370
     0
100
AcDbLine
 10
-28.06624350994286
 20
92.25589168552517
 30
0.0
 11
-28.06624350994286
 21
91.25589168552517
 31
0.0
  0
LINE
  5
6D91
330
A
100
AcDbEntity
  8
0
  6
Continuous
 62
     8
370
     0
100
AcDbLine
 10
-64.06624350994286
 20
92.25589168552517
 30
0.0
 11
-64.06624350994286
 21
91.25589168552517
 31
0.0
  0
LINE
  5
6D92
330
A
100
AcDbEntity
  8
0
  6
Continuous
 62
     8
370
     0
100
AcDbLine
 10
-19.16624350994286
 20
107.4558916855252
 30
0.0
 11
-19.16624350994286
 21
106.8558916855252
 31
0.0
  0
LINE
  5
6D93
330
A
100
AcDbEntity
  8
0
  6
Continuous
 62
     8
370
     0
100
AcDbLine
 10
-19.16624350994286
 20
106.8558916855252
 30
0.0
 11
-18.56624350994286
 21
106.8558916855252
 31
0.0
  0
LINE
  5
6D94
330
A
100
AcDbEntity
  8
0
  6
Continuous
 62
     8
370
     0
100
AcDbLine
 10
-72.96624350994287
 20
106.8558916855252
 30
0.0
 11
-72.96624350994287
 21
107.4558916855252
 31
0.0
  0
LINE
  5
6D95
330
A
100
AcDbEntity
  8
0
  6
Continuous
 62
     8
370
     0
100
AcDbLine
 10
-73.56624350994286
 20
106.8558916855252
 30
0.0
 11
-72.96624350994287
 21
106.8558916855252
 31
0.0
  0
LINE
  5
6D96
330
A
100
AcDbEntity
  8
0
  6
Continuous
 62
     8
370
     0
100
AcDbLine
 10
-19.16624350994286
 20
106.8558916855252
 30
0.0
 11
-19.16624350994286
 21
101.2558916855252
 31
0.0
  0
LINE
  5
6D97
330
A
100
AcDbEntity
  8
0
  6
Continuous
 62
     8
370
     0
100
AcDbLine
 10
-72.96624350994287
 20
101.2558916855252
 30
0.0
 11
-72.96624350994287
 21
106.8558916855252
 31
0.0
  0
LINE
  5
6D98
330
A
100
AcDbEntity
  8
0
  6
Continuous
 62
     8
370
     0
100
AcDbLine
 10
-72.96624350994287
 20
106.8558916855252
 30
0.0
 11
-19.16624350994286
 21
106.8558916855252
 31
0.0
  0
LINE
  5
6D99
330
A
100
AcDbEntity
  8
0
  6
Continuous
 62
     8
370
     0
100
AcDbLine
 10
-46.06624350994286
 20
93.15589168552518
 30
0.0
 11
-50.96624350864286
 21
93.15589168552518
 31
0.0
  0
LINE
  5
6D9A
330
A
100
AcDbEntity
  8
0
  6
Continuous
 62
     8
370
     0
100
AcDbLine
 10
-41.16624350994286
 20
93.15589168552518
 30
0.0
 11
-46.06624350994286
 21
93.15589168552518
 31
0.0
  0
LINE
  5
6D9B
330
A
100
AcDbEntity
  8
0
  6
Continuous
 62
     8
370
     0
100
AcDbLine
 10
-89.76624350994285
 20
90.65589168552518
 30
0.0
 11
-89.16624350994286
 21
90.65589168552518
 31
0.0
  0
LINE
  5
6D9C
330
A
100
AcDbEntity
  8
0
  6
Continuous
 62
     8
370
     0
100
AcDbLine
 10
-89.16624350994286
 20
90.65589168552518
 30
0.0
 11
-89.16624350994286
 21
91.25589168552517
 31
0.0
  0
LINE
  5
6D9D
330
A
100
AcDbEntity
  8
0
  6
Continuous
 62
     8
370
     0
100
AcDbLine
 10
-89.16624350994286
 20
36.85589168552517
 30
0.0
 11
-89.76624350994285
 21
36.85589168552517
 31
0.0
  0
LINE
  5
6D9E
330
A
100
AcDbEntity
  8
0
  6
Continuous
 62
     8
370
     0
100
AcDbLine
 10
-89.16624350994286
 20
36.25589168552517
 30
0.0
 11
-89.16624350994286
 21
36.85589168552517
 31
0.0
  0
LINE
  5
6D9F
330
A
100
AcDbEntity
  8
0
  6
Continuous
 62
     8
370
     0
100
AcDbLine
 10
-83.56624350994286
 20
36.85589168552517
 30
0.0
 11
-89.16624350994286
 21
36.85589168552517
 31
0.0
  0
LINE
  5
6DA0
330
A
100
AcDbEntity
  8
0
  6
Continuous
 62
     8
370
     0
100
AcDbLine
 10
-89.16624350994286
 20
36.85589168552517
 30
0.0
 11
-89.16624350994286
 21
90.65589168552518
 31
0.0
  0
LINE
  5
6DA1
330
A
100
AcDbEntity
  8
0
  6
Continuous
 62
     8
370
     0
100
AcDbLine
 10
-89.16624350994286
 20
90.65589168552518
 30
0.0
 11
-83.56624350994286
 21
90.65589168552518
 31
0.0
  0
LINE
  5
6DA2
330
A
100
AcDbEntity
  8
0
  6
Continuous
 62
     8
370
     0
100
AcDbLine
 10
-75.46624350994287
 20
63.75589168552517
 30
0.0
 11
-75.46624350994287
 21
58.85589168692516
 31
0.0
  0
LINE
  5
6DA3
330
A
100
AcDbEntity
  8
0
  6
Continuous
 62
     8
370
     0
100
AcDbLine
 10
-75.46624350994287
 20
68.65589168552518
 30
0.0
 11
-75.46624350994287
 21
63.75589168552517
 31
0.0
  0
LINE
  5
6DA4
330
A
100
AcDbEntity
  8
0
  6
Continuous
 62
     8
370
     0
100
AcDbLine
 10
-19.16624350994286
 20
85.55589168552518
 30
0.0
 11
-19.16624350994286
 21
84.95589168552519
 31
0.0
  0
LINE
  5
6DA5
330
A
100
AcDbEntity
  8
0
  6
Continuous
 62
     8
370
     0
100
AcDbLine
 10
-18.56624350994286
 20
85.55589168552518
 30
0.0
 11
-19.16624350994286
 21
85.55589168552518
 31
0.0
  0
LINE
  5
6DA6
330
A
100
AcDbEntity
  8
0
  6
Continuous
 62
     8
370
     0
100
AcDbLine
 10
-67.86624350994288
 20
36.85589168552517
 30
0.0
 11
-67.86624350994288
 21
36.25589168552517
 31
0.0
  0
LINE
  5
6DA7
330
A
100
AcDbEntity
  8
0
  6
Continuous
 62
     8
370
     0
100
AcDbLine
 10
-67.26624350994285
 20
36.85589168552517
 30
0.0
 11
-67.86624350994288
 21
36.85589168552517
 31
0.0
  0
LINE
  5
6DA8
330
A
100
AcDbEntity
  8
0
  6
Continuous
 62
     8
370
     0
100
AcDbLine
 10
-62.26624350994285
 20
85.55589168552518
 30
0.0
 11
-62.26624350994285
 21
84.95589168552519
 31
0.0
  0
LINE
  5
6DA9
330
A
100
AcDbEntity
  8
0
  6
Continuous
 62
     8
370
     0
100
AcDbLine
 10
-19.16624350994286
 20
85.55589168552518
 30
0.0
 11
-62.26624350984287
 21
85.55589168552518
 31
0.0
  0
LINE
  5
6DAA
330
A
100
AcDbEntity
  8
0
  6
Continuous
 62
     8
370
     0
100
AcDbLine
 10
-67.86624350984286
 20
79.95589168552519
 30
0.0
 11
-67.86624350994288
 21
36.85589168552517
 31
0.0
  0
LINE
  5
6DAB
330
A
100
AcDbEntity
  8
0
  6
Continuous
 62
     8
370
     0
100
AcDbLine
 10
-67.86624350994288
 20
36.85589168552517
 30
0.0
 11
-73.56624350994286
 21
36.85589168552517
 31
0.0
  0
LINE
  5
6DAC
330
A
100
AcDbEntity
  8
0
  6
Continuous
 62
     8
370
     0
100
AcDbLine
 10
-19.16624350994286
 20
91.25589168552517
 30
0.0
 11
-19.16624350994286
 21
85.55589168552518
 31
0.0
  0
SPLINE
  5
6DAD
330
A
100
AcDbEntity
  8
0
  6
Continuous
 62
     8
370
     0
100
AcDbSpline
210
0.0
220
0.0
230
1.0
 70
     8
 71
     3
 72
    10
 73
     6
 74
     0
 42
0.000000001
 43
0.00000001
 40
0.0
 40
0.0
 40
0.0
 40
0.0
 40
0.4999999999999997
 40
0.4999999999999997
 40
1.0
 40
1.0
 40
1.0
 40
1.0
 10
-67.86624350992025
 20
79.95589168556776
 30
0.0
 10
-67.86624350992045
 20
81.44106199596797
 30
0.0
 10
-67.27621548226585
 20
82.86551566251256
 30
0.0
 10
-65.17586748686418
 20
84.96586365791458
 30
0.0
 10
-63.75141382031967
 20
85.55589168556938
 30
0.0
 10
-62.26624350991946
 20
85.55589168556938
 30
0.0
  0
LINE
  5
6DAE
330
A
100
AcDbEntity
  8
0
  6
Continuous
 62
     8
370
     0
100
AcDbLine
 10
-67.86624350994288
 20
79.95589168552519
 30
0.0
 11
-67.26624350994285
 21
79.95589168552519
 31
0.0
  0
LINE
  5
6DAF
330
A
100
AcDbEntity
  8
0
100
AcDbLine
 10
-75.56624360604286
 20
2.601264634925172
 30
0.0
 11
-81.56624389104286
 21
2.601264634925172
 31
0.0
  0
LINE
  5
6DB0
330
A
100
AcDbEntity
  8
0
100
AcDbLine
 10
-81.56624389104286
 20
-9.398735469374842
 30
0.0
 11
-75.56624360604286
 21
-9.398735469374842
 31
0.0
  0
SPLINE
  5
6DB1
330
A
100
AcDbEntity
  8
0
100
AcDbSpline
210
0.0
220
0.0
230
1.0
 70
     8
 71
     3
 72
    11
 73
     7
 74
     0
 42
0.000000001
 43
0.00000001
 40
0.0
 40
0.0
 40
0.0
 40
0.0
 40
0.1724135046186194
 40
0.4623643877763648
 40
0.7925462839509708
 40
1.0
 40
1.0
 40
1.0
 40
1.0
 10
-74.56624355858688
 20
0.9080065728786622
 30
0.0
 10
-74.59238782789387
 20
0.9685006349131697
 30
0.0
 10
-74.66249938382288
 20
1.130728646103563
 30
0.0
 10
-74.89051121303737
 20
1.338441230966566
 30
0.0
 10
-75.17933930657696
 20
1.486339244508684
 30
0.0
 10
-75.38514175069486
 20
1.488157735625265
 30
0.0
 10
-75.46455330906926
 20
1.488859424150263
 30
0.0
  0
SPLINE
  5
6DB2
330
A
100
AcDbEntity
  8
0
100
AcDbSpline
210
0.0
220
0.0
230
1.0
 70
     8
 71
     3
 72
    11
 73
     7
 74
     0
 42
0.000000001
 43
0.00000001
 40
0.0
 40
0.0
 40
0.0
 40
0.0
 40
0.1620851847933113
 40
0.4382192284922978
 40
0.7272108279168997
 40
1.0
 40
1.0
 40
1.0
 40
1.0
 10
-75.46662678236638
 20
-8.289267650091332
 30
0.0
 10
-75.40478167383006
 20
-8.289678656859437
 30
0.0
 10
-75.23757505477136
 20
-8.290789869269346
 30
0.0
 10
-74.97568290873735
 20
-8.185719175195928
 30
0.0
 10
-74.71220401926527
 20
-7.993581269566235
 30
0.0
 10
-74.61395248164487
 20
-7.801449337512352
 30
0.0
 10
-74.56624355858688
 20
-7.708154028498839
 30
0.0
  0
LINE
  5
6DB3
330
A
100
AcDbEntity
  8
0
100
AcDbLine
 10
-75.46624354314287
 20
1.501264640825184
 30
0.0
 11
-75.56624360604286
 21
1.501264640825184
 31
0.0
  0
LINE
  5
6DB4
330
A
100
AcDbEntity
  8
0
100
AcDbLine
 10
-81.56624389104286
 20
1.501264640825184
 30
0.0
 11
-82.56624312364286
 21
1.501264640825184
 31
0.0
  0
LINE
  5
6DB5
330
A
100
AcDbEntity
  8
0
100
AcDbLine
 10
-82.56624312364286
 20
-8.29873547537484
 30
0.0
 11
-81.56624389104286
 21
-8.29873547537484
 31
0.0
  0
LINE
  5
6DB6
330
A
100
AcDbEntity
  8
0
100
AcDbLine
 10
-75.56624360604286
 20
-8.29873547537484
 30
0.0
 11
-75.46624354314287
 21
-8.29873547537484
 31
0.0
  0
LINE
  5
6DB7
330
A
100
AcDbEntity
  8
0
100
AcDbLine
 10
-75.56624360604286
 20
2.601264634925172
 30
0.0
 11
-75.56624360604286
 21
-9.398735469374842
 31
0.0
  0
LINE
  5
6DB8
330
A
100
AcDbEntity
  8
0
100
AcDbLine
 10
-81.56624389104286
 20
2.601264634925172
 30
0.0
 11
-81.56624389104286
 21
-9.398735469374842
 31
0.0
  0
LINE
  5
6DB9
330
A
100
AcDbEntity
  8
0
100
AcDbLine
 10
-74.56624355854285
 20
-27.39873550947483
 30
0.0
 11
-73.56624350994286
 21
-27.39873550947483
 31
0.0
  0
LINE
  5
6DBA
330
A
100
AcDbEntity
  8
0
100
AcDbLine
 10
-74.56624355854285
 20
-21.39873557377483
 30
0.0
 11
-74.56624355854285
 21
-27.39873550947483
 31
0.0
  0
LINE
  5
6DBB
330
A
100
AcDbEntity
  8
0
100
AcDbLine
 10
-74.56624355854285
 20
20.60126386002517
 30
0.0
 11
-73.56624350994286
 21
20.60126386002517
 31
0.0
  0
LINE
  5
6DBC
330
A
100
AcDbEntity
  8
0
100
AcDbLine
 10
-74.56624355854285
 20
20.60126386002517
 30
0.0
 11
-74.56624355854285
 21
14.60126287652517
 31
0.0
  0
LINE
  5
6DBD
330
A
100
AcDbEntity
  8
0
100
AcDbLine
 10
-74.56624355854285
 20
14.60126287652517
 30
0.0
 11
-74.56624355854285
 21
-21.39873557377483
 31
0.0
  0
LINE
  5
6DBE
330
A
100
AcDbEntity
  8
0
100
AcDbLine
 10
-83.56624328754287
 20
-27.39873550947483
 30
0.0
 11
-82.56624312364286
 21
-27.39873550947483
 31
0.0
  0
LINE
  5
6DBF
330
A
100
AcDbEntity
  8
0
100
AcDbLine
 10
-82.56624312364286
 20
-21.39873557377483
 30
0.0
 11
-82.56624312364286
 21
-27.39873550947483
 31
0.0
  0
LINE
  5
6DC0
330
A
100
AcDbEntity
  8
0
100
AcDbLine
 10
-83.56624328754287
 20
20.60126386002517
 30
0.0
 11
-82.56624312364286
 21
20.60126386002517
 31
0.0
  0
LINE
  5
6DC1
330
A
100
AcDbEntity
  8
0
100
AcDbLine
 10
-82.56624312364286
 20
20.60126386002517
 30
0.0
 11
-82.56624312364286
 21
14.60126287652517
 31
0.0
  0
LINE
  5
6DC2
330
A
100
AcDbEntity
  8
0
100
AcDbLine
 10
-82.56624312364286
 20
14.60126287652517
 30
0.0
 11
-82.56624312364286
 21
-21.39873557377483
 31
0.0
  0
ARC
  5
6DC3
330
A
100
AcDbEntity
  8
0
100
AcDbCircle
 10
-72.96624350994287
 20
-30.29873553117484
 30
0.0
 40
0.6000000000000227
100
AcDbArc
 50
180.0
 51
270.0
  0
ARC
  5
6DC4
330
A
100
AcDbEntity
  8
0
100
AcDbCircle
 10
-72.96624350994287
 20
23.50126446882518
 30
0.0
 40
0.6000000000000227
100
AcDbArc
 50
90.0
 51
180.0
  0
ARC
  5
6DC5
330
A
100
AcDbEntity
  8
0
100
AcDbCircle
 10
-19.16624350994286
 20
23.50126446882518
 30
0.0
 40
0.5999999999999943
100
AcDbArc
 50
0.0
 51
90.0
  0
ARC
  5
6DC6
330
A
100
AcDbEntity
  8
0
100
AcDbCircle
 10
-19.16624350994286
 20
-30.29873553117484
 30
0.0
 40
0.5999999999999943
100
AcDbArc
 50
270.0
 51
0.0
  0
LINE
  5
6DC7
330
A
100
AcDbEntity
  8
0
100
AcDbLine
 10
-72.96624348254286
 20
-30.89873550107484
 30
0.0
 11
-19.16624278984287
 21
-30.89873550107484
 31
0.0
  0
LINE
  5
6DC8
330
A
100
AcDbEntity
  8
0
100
AcDbLine
 10
-18.56624380914286
 20
-30.29873558897484
 30
0.0
 11
-18.56624380914286
 21
23.50126452162519
 31
0.0
  0
LINE
  5
6DC9
330
A
100
AcDbEntity
  8
0
100
AcDbLine
 10
-73.56624350994286
 20
23.50126452162519
 30
0.0
 11
-73.56624350994286
 21
-30.29873558897484
 31
0.0
  0
LINE
  5
6DCA
330
A
100
AcDbEntity
  8
0
100
AcDbLine
 10
-19.16624278984287
 20
24.10126350242518
 30
0.0
 11
-72.96624348254286
 21
24.10126350242518
 31
0.0
  0
ARC
  5
6DCB
330
A
100
AcDbEntity
  8
0
100
AcDbCircle
 10
-89.16624350994286
 20
23.50126446882518
 30
0.0
 40
0.5999999999999943
100
AcDbArc
 50
90.0
 51
180.0
  0
ARC
  5
6DCC
330
A
100
AcDbEntity
  8
0
100
AcDbCircle
 10
-89.16624350994286
 20
-30.29873553117484
 30
0.0
 40
0.5999999999999943
100
AcDbArc
 50
180.0
 51
270.0
  0
LINE
  5
6DCD
330
A
100
AcDbEntity
  8
0
100
AcDbLine
 10
-89.76624393134287
 20
-30.29873558897484
 30
0.0
 11
-89.76624393134287
 21
23.50126452162519
 31
0.0
  0
LINE
  5
6DCE
330
A
100
AcDbEntity
  8
0
100
AcDbLine
 10
-83.56624328754287
 20
24.10126350242518
 30
0.0
 11
-89.16624308794286
 21
24.10126350242518
 31
0.0
  0
LINE
  5
6DCF
330
A
100
AcDbEntity
  8
0
100
AcDbLine
 10
-83.56624328754287
 20
24.10126350242518
 30
0.0
 11
-83.56624328754287
 21
23.50126452162519
 31
0.0
  0
LINE
  5
6DD0
330
A
100
AcDbEntity
  8
0
100
AcDbLine
 10
-83.56624328754287
 20
-30.29873558897484
 30
0.0
 11
-83.56624328754287
 21
-30.89873550107484
 31
0.0
  0
LINE
  5
6DD1
330
A
100
AcDbEntity
  8
0
100
AcDbLine
 10
-89.16624308794286
 20
-30.89873550107484
 30
0.0
 11
-83.56624328754287
 21
-30.89873550107484
 31
0.0
  0
LINE
  5
6DD2
330
A
100
AcDbEntity
  8
0
100
AcDbLine
 10
-83.56624328754287
 20
-30.29873558897484
 30
0.0
 11
-83.56624328754287
 21
23.50126452162519
 31
0.0
  0
LINE
  5
6DD3
330
A
100
AcDbEntity
  8
0
100
AcDbLine
 10
-73.56624350994286
 20
-30.89873550107484
 30
0.0
 11
-72.96624348254286
 21
-30.89873550107484
 31
0.0
  0
LINE
  5
6DD4
330
A
100
AcDbEntity
  8
0
100
AcDbLine
 10
-73.56624350994286
 20
-30.89873550107484
 30
0.0
 11
-73.56624350994286
 21
-30.29873558897484
 31
0.0
  0
LINE
  5
6DD5
330
A
100
AcDbEntity
  8
0
100
AcDbLine
 10
-73.56624350994286
 20
24.10126350242518
 30
0.0
 11
-73.56624350994286
 21
23.50126452162519
 31
0.0
  0
LINE
  5
6DD6
330
A
100
AcDbEntity
  8
0
100
AcDbLine
 10
-72.96624348254286
 20
24.10126350242518
 30
0.0
 11
-73.56624350994286
 21
24.10126350242518
 31
0.0
  0
LINE
  5
6DD7
330
A
100
AcDbEntity
  8
0
  6
Continuous
 62
     8
370
     0
100
AcDbLine
 10
-73.56624350994286
 20
-21.39873557377483
 30
0.0
 11
-74.56624355854285
 21
-21.39873557377483
 31
0.0
  0
LINE
  5
6DD8
330
A
100
AcDbEntity
  8
0
  6
Continuous
 62
     8
370
     0
100
AcDbLine
 10
-74.56624355854285
 20
14.60126287652517
 30
0.0
 11
-73.56624350994286
 21
14.60126287652517
 31
0.0
  0
LINE
  5
6DD9
330
A
100
AcDbEntity
  8
0
  6
Continuous
 62
     8
370
     0
100
AcDbLine
 10
-82.56624312364286
 20
-21.39873557377483
 30
0.0
 11
-83.56624328754287
 21
-21.39873557377483
 31
0.0
  0
LINE
  5
6DDA
330
A
100
AcDbEntity
  8
0
  6
Continuous
 62
     8
370
     0
100
AcDbLine
 10
-83.56624328754287
 20
14.60126287652517
 30
0.0
 11
-82.56624312364286
 21
14.60126287652517
 31
0.0
  0
LINE
  5
6DDB
330
A
100
AcDbEntity
  8
0
  6
Continuous
 62
     8
370
     0
100
AcDbLine
 10
-72.96624348254286
 20
-30.89873550107484
 30
0.0
 11
-72.96624348254286
 21
-30.29873558897484
 31
0.0
  0
LINE
  5
6DDC
330
A
100
AcDbEntity
  8
0
  6
Continuous
 62
     8
370
     0
100
AcDbLine
 10
-72.96624348254286
 20
-30.29873558897484
 30
0.0
 11
-73.56624350994286
 21
-30.29873558897484
 31
0.0
  0
LINE
  5
6DDD
330
A
100
AcDbEntity
  8
0
  6
Continuous
 62
     8
370
     0
100
AcDbLine
 10
-72.96624348254286
 20
23.50126452162519
 30
0.0
 11
-72.96624348254286
 21
24.10126350242518
 31
0.0
  0
LINE
  5
6DDE
330
A
100
AcDbEntity
  8
0
  6
Continuous
 62
     8
370
     0
100
AcDbLine
 10
-73.56624350994286
 20
23.50126452162519
 30
0.0
 11
-72.96624348254286
 21
23.50126452162519
 31
0.0
  0
LINE
  5
6DDF
330
A
100
AcDbEntity
  8
0
  6
Continuous
 62
     8
370
     0
100
AcDbLine
 10
-19.16624278984287
 20
23.50126452162519
 30
0.0
 11
-18.56624380914286
 21
23.50126452162519
 31
0.0
  0
LINE
  5
6DE0
330
A
100
AcDbEntity
  8
0
  6
Continuous
 62
     8
370
     0
100
AcDbLine
 10
-19.16624278984287
 20
24.10126350242518
 30
0.0
 11
-19.16624278984287
 21
23.50126452162519
 31
0.0
  0
LINE
  5
6DE1
330
A
100
AcDbEntity
  8
0
  6
Continuous
 62
     8
370
     0
100
AcDbLine
 10
-19.16624278984287
 20
-30.29873558897484
 30
0.0
 11
-19.16624278984287
 21
-30.89873550107484
 31
0.0
  0
LINE
  5
6DE2
330
A
100
AcDbEntity
  8
0
  6
Continuous
 62
     8
370
     0
100
AcDbLine
 10
-18.56624380914286
 20
-30.29873558897484
 30
0.0
 11
-19.16624278984287
 21
-30.29873558897484
 31
0.0
  0
LINE
  5
6DE3
330
A
100
AcDbEntity
  8
0
  6
Continuous
 62
     8
370
     0
100
AcDbLine
 10
-19.16624278984287
 20
-30.29873558897484
 30
0.0
 11
-19.16624278984287
 21
23.50126452162519
 31
0.0
  0
LINE
  5
6DE4
330
A
100
AcDbEntity
  8
0
  6
Continuous
 62
     8
370
     0
100
AcDbLine
 10
-72.96624348254286
 20
-30.29873558897484
 30
0.0
 11
-19.16624278984287
 21
-30.29873558897484
 31
0.0
  0
LINE
  5
6DE5
330
A
100
AcDbEntity
  8
0
  6
Continuous
 62
     8
370
     0
100
AcDbLine
 10
-72.96624348254286
 20
23.50126452162519
 30
0.0
 11
-72.96624348254286
 21
-30.29873558897484
 31
0.0
  0
LINE
  5
6DE6
330
A
100
AcDbEntity
  8
0
  6
Continuous
 62
     8
370
     0
100
AcDbLine
 10
-19.16624278984287
 20
23.50126452162519
 30
0.0
 11
-72.96624348254286
 21
23.50126452162519
 31
0.0
  0
LINE
  5
6DE7
330
A
100
AcDbEntity
  8
0
  6
Continuous
 62
     8
370
     0
100
AcDbLine
 10
-89.76624393134287
 20
23.50126452162519
 30
0.0
 11
-89.16624308794286
 21
23.50126452162519
 31
0.0
  0
LINE
  5
6DE8
330
A
100
AcDbEntity
  8
0
  6
Continuous
 62
     8
370
     0
100
AcDbLine
 10
-89.16624308794286
 20
23.50126452162519
 30
0.0
 11
-89.16624308794286
 21
24.10126350242518
 31
0.0
  0
LINE
  5
6DE9
330
A
100
AcDbEntity
  8
0
  6
Continuous
 62
     8
370
     0
100
AcDbLine
 10
-89.16624308794286
 20
-30.29873558897484
 30
0.0
 11
-89.76624393134287
 21
-30.29873558897484
 31
0.0
  0
LINE
  5
6DEA
330
A
100
AcDbEntity
  8
0
  6
Continuous
 62
     8
370
     0
100
AcDbLine
 10
-89.16624308794286
 20
-30.89873550107484
 30
0.0
 11
-89.16624308794286
 21
-30.29873558897484
 31
0.0
  0
LINE
  5
6DEB
330
A
100
AcDbEntity
  8
0
  6
Continuous
 62
     8
370
     0
100
AcDbLine
 10
-89.16624308794286
 20
-30.29873558897484
 30
0.0
 11
-89.16624308794286
 21
23.50126452162519
 31
0.0
  0
LINE
  5
6DEC
330
A
100
AcDbEntity
  8
0
  6
Continuous
 62
     8
370
     0
100
AcDbLine
 10
-89.16624308794286
 20
23.50126452162519
 30
0.0
 11
-83.56624328754287
 21
23.50126452162519
 31
0.0
  0
LINE
  5
6DED
330
A
100
AcDbEntity
  8
0
  6
Continuous
 62
     8
370
     0
100
AcDbLine
 10
-83.56624328754287
 20
-30.29873558897484
 30
0.0
 11
-89.16624308794286
 21
-30.29873558897484
 31
0.0
  0
LINE
  5
6DEE
330
A
100
AcDbEntity
  8
0
  6
Continuous
 62
     8
370
     0
100
AcDbLine
 10
-75.46624354314287
 20
1.501264640825184
 30
0.0
 11
-75.46624354314287
 21
-8.29873547537484
 31
0.0
  0
INSERT
  5
6DF0
330
A
100
AcDbEntity
  8
ASSI
100
AcDbBlockReference
  2
SW_CENTERMARKSYMBOL_0
 10
-46.06624350994286
 20
-3.398735531174836
 30
0.0
  0
LINE
  5
6DF1
330
A
100
AcDbEntity
  8
0
100
AcDbLine
 10
-52.06624278094287
 20
-114.2270995876748
 30
0.0
 11
-52.06624278094287
 21
-120.2270998726748
 31
0.0
  0
LINE
  5
6DF2
330
A
100
AcDbEntity
  8
0
100
AcDbLine
 10
-40.06624267664287
 20
-120.2270998726748
 30
0.0
 11
-40.06624267664287
 21
-114.2270995876748
 31
0.0
  0
LINE
  5
6DF3
330
A
100
AcDbEntity
  8
0
100
AcDbLine
 10
-75.56624360604286
 20
-78.72709865827484
 30
0.0
 11
-81.56624389104286
 21
-78.72709865827484
 31
0.0
  0
LINE
  5
6DF4
330
A
100
AcDbEntity
  8
0
100
AcDbLine
 10
-81.56624389104286
 20
-90.72709876257484
 30
0.0
 11
-75.56624360604286
 21
-90.72709876257484
 31
0.0
  0
SPLINE
  5
6DF5
330
A
100
AcDbEntity
  8
0
100
AcDbSpline
210
0.0
220
0.0
230
1.0
 70
     8
 71
     3
 72
    11
 73
     7
 74
     0
 42
0.000000001
 43
0.00000001
 40
0.0
 40
0.0
 40
0.0
 40
0.0
 40
0.1722799041835344
 40
0.4620072630650223
 40
0.7919333066306129
 40
1.0
 40
1.0
 40
1.0
 40
1.0
 10
-50.37298471892746
 20
-113.2270995402032
 30
0.0
 10
-50.43347827218088
 20
-113.2532439522755
 30
0.0
 10
-50.59570532416416
 20
-113.3233560661824
 30
0.0
 10
-50.80343451288687
 20
-113.5513638735101
 30
0.0
 10
-50.95141067751928
 20
-113.8404746629469
 30
0.0
 10
-50.95320506485118
 20
-114.0465785472382
 30
0.0
 10
-50.95389903748895
 20
-114.1262884591961
 30
0.0
  0
SPLINE
  5
6DF6
330
A
100
AcDbEntity
  8
0
100
AcDbSpline
210
0.0
220
0.0
230
1.0
 70
     8
 71
     3
 72
    11
 73
     7
 74
     0
 42
0.000000001
 43
0.00000001
 40
0.0
 40
0.0
 40
0.0
 40
0.0
 40
0.1609176991539207
 40
0.4374361173461949
 40
0.7268305652734826
 40
1.0
 40
1.0
 40
1.0
 40
1.0
 10
-41.17577568853767
 20
-114.1259009125897
 30
0.0
 10
-41.17538396685578
 20
-114.0645889797766
 30
0.0
 10
-41.17431911685767
 20
-113.8979195955026
 30
0.0
 10
-41.27928309094005
 20
-113.6365420995905
 30
0.0
 10
-41.47139116218938
 20
-113.3730591953911
 30
0.0
 10
-41.66352694075127
 20
-113.274808199977
 30
0.0
 10
-41.75682411754997
 20
-113.2270995402032
 30
0.0
  0
LINE
  5
6DF7
330
A
100
AcDbEntity
  8
0
100
AcDbLine
 10
-50.96624278694287
 20
-114.1270995247748
 30
0.0
 11
-50.96624278694287
 21
-114.2270995876748
 31
0.0
  0
LINE
  5
6DF8
330
A
100
AcDbEntity
  8
0
100
AcDbLine
 10
-50.96624278694287
 20
-120.2270998726748
 30
0.0
 11
-50.96624278694287
 21
-121.2270991052748
 31
0.0
  0
LINE
  5
6DF9
330
A
100
AcDbEntity
  8
0
100
AcDbLine
 10
-41.16624267064287
 20
-121.2270991052748
 30
0.0
 11
-41.16624267064287
 21
-120.2270998726748
 31
0.0
  0
LINE
  5
6DFA
330
A
100
AcDbEntity
  8
0
100
AcDbLine
 10
-41.16624267064287
 20
-114.2270995876748
 30
0.0
 11
-41.16624267064287
 21
-114.1270995247748
 31
0.0
  0
SPLINE
  5
6DFB
330
A
100
AcDbEntity
  8
0
100
AcDbSpline
210
0.0
220
0.0
230
1.0
 70
     8
 71
     3
 72
    11
 73
     7
 74
     0
 42
0.000000001
 43
0.00000001
 40
0.0
 40
0.0
 40
0.0
 40
0.0
 40
0.1722798063691568
 40
0.4620070007537964
 40
0.7919335365643074
 40
1.0
 40
1.0
 40
1.0
 40
1.0
 10
-74.56624355858688
 20
-80.42035858289088
 30
0.0
 10
-74.59238796144737
 20
-80.35986500268757
 30
0.0
 10
-74.66250005065055
 20
-80.19763787843186
 30
0.0
 10
-74.89050835196116
 20
-79.9899093842338
 30
0.0
 10
-75.17961818415498
 20
-79.84192965027164
 30
0.0
 10
-75.38572251851227
 20
-79.84013740675184
 30
0.0
 10
-75.46543247757975
 20
-79.83944426432934
 30
0.0
  0
SPLINE
  5
6DFC
330
A
100
AcDbEntity
  8
0
100
AcDbSpline
210
0.0
220
0.0
230
1.0
 70
     8
 71
     3
 72
    11
 73
     7
 74
     0
 42
0.000000001
 43
0.00000001
 40
0.0
 40
0.0
 40
0.0
 40
0.0
 40
0.1609178357424177
 40
0.4374370394808457
 40
0.7268317330489353
 40
1.0
 40
1.0
 40
1.0
 40
1.0
 10
-75.46504493097336
 20
-89.61756761328068
 30
0.0
 10
-75.40373297166195
 20
-89.61795941122537
 30
0.0
 10
-75.23706330547986
 20
-89.61902446987602
 30
0.0
 10
-74.97568648744817
 20
-89.5140578171576
 30
0.0
 10
-74.71220377786236
 20
-89.32195065947067
 30
0.0
 10
-74.61395231809317
 20
-89.1298157117301
 30
0.0
 10
-74.56624355858688
 20
-89.03651918426839
 30
0.0
  0
LINE
  5
6DFD
330
A
100
AcDbEntity
  8
0
100
AcDbLine
 10
-75.46624354314287
 20
-79.82709865227484
 30
0.0
 11
-75.56624360604286
 21
-79.82709865227484
 31
0.0
  0
LINE
  5
6DFE
330
A
100
AcDbEntity
  8
0
100
AcDbLine
 10
-81.56624389104286
 20
-79.82709865227484
 30
0.0
 11
-82.56624312364286
 21
-79.82709865227484
 31
0.0
  0
LINE
  5
6DFF
330
A
100
AcDbEntity
  8
0
100
AcDbLine
 10
-82.56624312364286
 20
-89.62709876847484
 30
0.0
 11
-81.56624389104286
 21
-89.62709876847484
 31
0.0
  0
LINE
  5
6E00
330
A
100
AcDbEntity
  8
0
100
AcDbLine
 10
-75.56624360604286
 20
-89.62709876847484
 30
0.0
 11
-75.46624354314287
 21
-89.62709876847484
 31
0.0
  0
LINE
  5
6E01
330
A
100
AcDbEntity
  8
0
100
AcDbLine
 10
-52.06624278094287
 20
-120.2270998726748
 30
0.0
 11
-40.06624267664287
 21
-120.2270998726748
 31
0.0
  0
LINE
  5
6E02
330
A
100
AcDbEntity
  8
0
100
AcDbLine
 10
-52.06624278094287
 20
-114.2270995876748
 30
0.0
 11
-40.06624267664287
 21
-114.2270995876748
 31
0.0
  0
LINE
  5
6E03
330
A
100
AcDbEntity
  8
0
100
AcDbLine
 10
-81.56624389104286
 20
-78.72709865827484
 30
0.0
 11
-81.56624389104286
 21
-90.72709876257484
 31
0.0
  0
LINE
  5
6E04
330
A
100
AcDbEntity
  8
0
100
AcDbLine
 10
-75.56624360604286
 20
-78.72709865827484
 30
0.0
 11
-75.56624360604286
 21
-90.72709876257484
 31
0.0
  0
LINE
  5
6E05
330
A
100
AcDbEntity
  8
0
100
AcDbLine
 10
-74.56624355854285
 20
-60.72709943307484
 30
0.0
 11
-73.56624350994286
 21
-60.72709943307484
 31
0.0
  0
LINE
  5
6E06
330
A
100
AcDbEntity
  8
0
100
AcDbLine
 10
-74.56624355854285
 20
-60.72709943307484
 30
0.0
 11
-74.56624355854285
 21
-66.72710041657484
 31
0.0
  0
LINE
  5
6E07
330
A
100
AcDbEntity
  8
0
100
AcDbLine
 10
-74.56624355854285
 20
-66.72710041657484
 30
0.0
 11
-74.56624355854285
 21
-102.7270997981748
 31
0.0
  0
LINE
  5
6E08
330
A
100
AcDbEntity
  8
0
100
AcDbLine
 10
-74.56624355854285
 20
-108.7270993846748
 30
0.0
 11
-73.56624350994286
 21
-108.7270993846748
 31
0.0
  0
LINE
  5
6E09
330
A
100
AcDbEntity
  8
0
100
AcDbLine
 10
-74.56624355854285
 20
-102.7270997981748
 30
0.0
 11
-74.56624355854285
 21
-108.7270993846748
 31
0.0
  0
LINE
  5
6E0A
330
A
100
AcDbEntity
  8
0
100
AcDbLine
 10
-83.56624328754287
 20
-60.72709943307484
 30
0.0
 11
-82.56624312364286
 21
-60.72709943307484
 31
0.0
  0
LINE
  5
6E0B
330
A
100
AcDbEntity
  8
0
100
AcDbLine
 10
-82.56624312364286
 20
-60.72709943307484
 30
0.0
 11
-82.56624312364286
 21
-66.72710041657484
 31
0.0
  0
LINE
  5
6E0C
330
A
100
AcDbEntity
  8
0
100
AcDbLine
 10
-82.56624312364286
 20
-66.72710041657484
 30
0.0
 11
-82.56624312364286
 21
-102.7270997981748
 31
0.0
  0
LINE
  5
6E0D
330
A
100
AcDbEntity
  8
0
100
AcDbLine
 10
-83.56624328754287
 20
-108.7270993846748
 30
0.0
 11
-82.56624312364286
 21
-108.7270993846748
 31
0.0
  0
LINE
  5
6E0E
330
A
100
AcDbEntity
  8
0
100
AcDbLine
 10
-82.56624312364286
 20
-102.7270997981748
 30
0.0
 11
-82.56624312364286
 21
-108.7270993846748
 31
0.0
  0
LINE
  5
6E0F
330
A
100
AcDbEntity
  8
0
100
AcDbLine
 10
-22.06624345144286
 20
-122.2270992691748
 30
0.0
 11
-22.06624345144286
 21
-121.2270991052748
 31
0.0
  0
LINE
  5
6E10
330
A
100
AcDbEntity
  8
0
100
AcDbLine
 10
-28.06624443494286
 20
-121.2270991052748
 30
0.0
 11
-22.06624345144286
 21
-121.2270991052748
 31
0.0
  0
LINE
  5
6E11
330
A
100
AcDbEntity
  8
0
100
AcDbLine
 10
-64.06624381654285
 20
-121.2270991052748
 30
0.0
 11
-28.06624443494286
 21
-121.2270991052748
 31
0.0
  0
LINE
  5
6E12
330
A
100
AcDbEntity
  8
0
100
AcDbLine
 10
-70.06624340304288
 20
-122.2270992691748
 30
0.0
 11
-70.06624340304288
 21
-121.2270991052748
 31
0.0
  0
LINE
  5
6E13
330
A
100
AcDbEntity
  8
0
100
AcDbLine
 10
-70.06624340304288
 20
-121.2270991052748
 30
0.0
 11
-64.06624381654285
 21
-121.2270991052748
 31
0.0
  0
LINE
  5
6E14
330
A
100
AcDbEntity
  8
0
100
AcDbLine
 10
-64.06624381654285
 20
-113.2270995401748
 30
0.0
 11
-28.06624443494286
 21
-113.2270995401748
 31
0.0
  0
LINE
  5
6E15
330
A
100
AcDbEntity
  8
0
100
AcDbLine
 10
-22.06624345144286
 20
-113.2270995401748
 30
0.0
 11
-22.06624345144286
 21
-112.2270994915748
 31
0.0
  0
LINE
  5
6E16
330
A
100
AcDbEntity
  8
0
100
AcDbLine
 10
-28.06624443494286
 20
-113.2270995401748
 30
0.0
 11
-22.06624345144286
 21
-113.2270995401748
 31
0.0
  0
LINE
  5
6E17
330
A
100
AcDbEntity
  8
0
100
AcDbLine
 10
-70.06624340304288
 20
-113.2270995401748
 30
0.0
 11
-64.06624381654285
 21
-113.2270995401748
 31
0.0
  0
LINE
  5
6E18
330
A
100
AcDbEntity
  8
0
100
AcDbLine
 10
-70.06624340304288
 20
-113.2270995401748
 30
0.0
 11
-70.06624340304288
 21
-112.2270994915748
 31
0.0
  0
ARC
  5
6E19
330
A
100
AcDbEntity
  8
0
100
AcDbCircle
 10
-72.96624350994287
 20
-127.8270994915748
 30
0.0
 40
0.6000000000000227
100
AcDbArc
 50
179.9999999999987
 51
270.0
  0
ARC
  5
6E1A
330
A
100
AcDbEntity
  8
0
100
AcDbCircle
 10
-19.16624350994286
 20
-127.8270994915748
 30
0.0
 40
0.5999999999999979
100
AcDbArc
 50
270.0
 51
0.0
  0
LINE
  5
6E1B
330
A
100
AcDbEntity
  8
0
100
AcDbLine
 10
-73.56624350994286
 20
-122.2270992691748
 30
0.0
 11
-73.56624350994286
 21
-127.8270990694748
 31
0.0
  0
LINE
  5
6E1C
330
A
100
AcDbEntity
  8
0
100
AcDbLine
 10
-73.56624350994286
 20
-122.2270992691748
 30
0.0
 11
-72.96624348254286
 21
-122.2270992691748
 31
0.0
  0
LINE
  5
6E1D
330
A
100
AcDbEntity
  8
0
100
AcDbLine
 10
-19.16624278984287
 20
-122.2270992691748
 30
0.0
 11
-72.96624348254286
 21
-122.2270992691748
 31
0.0
  0
LINE
  5
6E1E
330
A
100
AcDbEntity
  8
0
100
AcDbLine
 10
-19.16624278984287
 20
-122.2270992691748
 30
0.0
 11
-18.56624380914286
 21
-122.2270992691748
 31
0.0
  0
LINE
  5
6E1F
330
A
100
AcDbEntity
  8
0
100
AcDbLine
 10
-18.56624380914286
 20
-127.8270990694748
 30
0.0
 11
-18.56624380914286
 21
-122.2270992691748
 31
0.0
  0
LINE
  5
6E20
330
A
100
AcDbEntity
  8
0
100
AcDbLine
 10
-19.16624278984287
 20
-128.4270999128748
 30
0.0
 11
-72.96624348254286
 21
-128.4270999128748
 31
0.0
  0
ARC
  5
6E21
330
A
100
AcDbEntity
  8
0
100
AcDbCircle
 10
-89.16624350994286
 20
-57.82709949157484
 30
0.0
 40
0.5999999999999801
100
AcDbArc
 50
90.0
 51
180.0
  0
ARC
  5
6E22
330
A
100
AcDbEntity
  8
0
100
AcDbCircle
 10
-89.16624350994286
 20
-111.6270994915748
 30
0.0
 40
0.5999999999999872
100
AcDbArc
 50
180.0
 51
270.0
  0
LINE
  5
6E23
330
A
100
AcDbEntity
  8
0
100
AcDbLine
 10
-83.56624328754287
 20
-57.22709979077484
 30
0.0
 11
-89.16624308794286
 21
-57.22709979077484
 31
0.0
  0
LINE
  5
6E24
330
A
100
AcDbEntity
  8
0
100
AcDbLine
 10
-83.56624328754287
 20
-57.22709979077484
 30
0.0
 11
-83.56624328754287
 21
-57.82709877147484
 31
0.0
  0
LINE
  5
6E25
330
A
100
AcDbEntity
  8
0
100
AcDbLine
 10
-89.76624393134287
 20
-111.6270994641748
 30
0.0
 11
-89.76624393134287
 21
-57.82709877147484
 31
0.0
  0
LINE
  5
6E26
330
A
100
AcDbEntity
  8
0
100
AcDbLine
 10
-83.56624328754287
 20
-111.6270994641748
 30
0.0
 11
-83.56624328754287
 21
-57.82709877147484
 31
0.0
  0
LINE
  5
6E27
330
A
100
AcDbEntity
  8
0
100
AcDbLine
 10
-89.16624308794286
 20
-112.2270994915748
 30
0.0
 11
-83.56624328754287
 21
-112.2270994915748
 31
0.0
  0
LINE
  5
6E28
330
A
100
AcDbEntity
  8
0
100
AcDbLine
 10
-83.56624328754287
 20
-111.6270994641748
 30
0.0
 11
-83.56624328754287
 21
-112.2270994915748
 31
0.0
  0
LINE
  5
6E29
330
A
100
AcDbEntity
  8
0
100
AcDbLine
 10
-72.96624348254286
 20
-112.2270994915748
 30
0.0
 11
-19.16624278984287
 21
-112.2270994915748
 31
0.0
  0
ARC
  5
6E2A
330
A
100
AcDbEntity
  8
0
100
AcDbCircle
 10
-72.96624350994287
 20
-111.6270994915748
 30
0.0
 40
0.5999999999999943
100
AcDbArc
 50
180.0
 51
270.0
  0
LINE
  5
6E2B
330
A
100
AcDbEntity
  8
0
100
AcDbLine
 10
-73.56624350994286
 20
-57.82709877147484
 30
0.0
 11
-73.56624350994286
 21
-111.6270994641748
 31
0.0
  0
LINE
  5
6E2C
330
A
100
AcDbEntity
  8
0
100
AcDbLine
 10
-19.16624278984287
 20
-105.9270994844748
 30
0.0
 11
-62.26624314894286
 21
-105.9270994844748
 31
0.0
  0
LINE
  5
6E2D
330
A
100
AcDbEntity
  8
0
100
AcDbLine
 10
-18.56624380914286
 20
-112.2270994915748
 30
0.0
 11
-18.56624380914286
 21
-106.5270993965748
 31
0.0
  0
SPLINE
  5
6E2E
330
A
100
AcDbEntity
  8
0
100
AcDbSpline
210
0.0
220
0.0
230
1.0
 70
    24
 71
     3
 72
    16
 73
    12
 74
     0
 42
0.000000001
 43
0.00000001
 40
0.0
 40
0.0
 40
0.0
 40
0.0
 40
0.0829669543308045
 40
0.1658731899086378
 40
0.2501363560737271
 40
0.3736610409277172
 40
0.500081017383843
 40
0.6236057022378675
 40
0.7500256786939672
 40
0.8742968264562075
 40
1.0
 40
1.0
 40
1.0
 40
1.0
 10
-18.56624350991947
 20
-112.2270994915373
 30
0.0
 10
-18.56721096594967
 20
-112.2270994915373
 30
0.0
 10
-18.56914516998467
 20
-112.2270994915373
 30
0.0
 10
-18.58515582821278
 20
-112.2270994915373
 30
0.0
 10
-18.61417889708346
 20
-112.2270994915373
 30
0.0
 10
-18.66375060983677
 20
-112.2270994915373
 30
0.0
 10
-18.73866768292746
 20
-112.2270994915373
 30
0.0
 10
-18.83024006903537
 20
-112.2270994915373
 30
0.0
 10
-18.93457855305516
 20
-112.2270994915373
 30
0.0
 10
-19.04811935053337
 20
-112.2270994915373
 30
0.0
 10
-19.12671869964848
 20
-112.2270994915373
 30
0.0
 10
-19.16624350991935
 20
-112.2270994915373
 30
0.0
  0
LINE
  5
6E2F
330
A
100
AcDbEntity
  8
0
100
AcDbLine
 10
-67.26624350294287
 20
-100.9270991305748
 30
0.0
 11
-67.26624350294287
 21
-57.82709877147484
 31
0.0
  0
LINE
  5
6E30
330
A
100
AcDbEntity
  8
0
100
AcDbLine
 10
-67.86624341494286
 20
-57.22709979077484
 30
0.0
 11
-73.56624350994286
 21
-57.22709979077484
 31
0.0
  0
SPLINE
  5
6E31
330
A
100
AcDbEntity
  8
0
100
AcDbSpline
210
0.0
220
0.0
230
1.0
 70
    24
 71
     3
 72
    16
 73
    12
 74
     0
 42
0.000000001
 43
0.00000001
 40
0.0
 40
0.0
 40
0.0
 40
0.0
 40
0.0829669543307896
 40
0.1658731899086285
 40
0.2501363560737293
 40
0.3736610409278769
 40
0.500081017383851
 40
0.623605702238015
 40
0.7500256786939696
 40
0.8742968264562005
 40
1.0
 40
1.0
 40
1.0
 40
1.0
 10
-73.56624350992095
 20
-57.82709949153573
 30
0.0
 10
-73.56624350992095
 20
-57.80104800767064
 30
0.0
 10
-73.56624350992095
 20
-57.74896410552654
 30
0.0
 10
-73.56624350992095
 20
-57.67178532101934
 30
0.0
 10
-73.56624350992095
 20
-57.58513680206464
 30
0.0
 10
-73.56624350992095
 20
-57.49187301294764
 30
0.0
 10
-73.56624350992095
 20
-57.40084032180224
 30
0.0
 10
-73.56624350992095
 20
-57.32499899840684
 30
0.0
 10
-73.56624350992095
 20
-57.26986402630334
 30
0.0
 10
-73.56624350992095
 20
-57.23344479240833
 30
0.0
 10
-73.56624350992095
 20
-57.22922265426894
 30
0.0
 10
-73.56624350992095
 20
-57.22709949153574
 30
0.0
  0
SPLINE
  5
6E32
330
A
100
AcDbEntity
  8
0
100
AcDbSpline
210
0.0
220
0.0
230
1.0
 70
     8
 71
     3
 72
    17
 73
    13
 74
     0
 42
0.000000001
 43
0.00000001
 40
0.0
 40
0.0
 40
0.0
 40
0.0
 40
0.0760582855772911
 40
0.1525793772443827
 40
0.2315418221733262
 40
0.3147728423779774
 40
0.4038889809890939
 40
0.5002412003112067
 40
0.6198711843306548
 40
0.760116502898076
 40
0.8592988845186262
 40
1.0
 40
1.0
 40
1.0
 40
1.0
 10
-19.16624350991935
 20
-105.9270994915377
 30
0.0
 10
-19.14236392067016
 20
-105.9279240488286
 30
0.0
 10
-19.09445943756435
 20
-105.9295781807485
 30
0.0
 10
-19.02280182232366
 20
-105.9430690149997
 30
0.0
 10
-18.95109365119956
 20
-105.9652312794795
 30
0.0
 10
-18.87917501795116
 20
-105.998151553804
 30
0.0
 10
-18.80768804680687
 20
-106.0433663245308
 30
0.0
 10
-18.73481578336637
 20
-106.1059870930878
 30
0.0
 10
-18.66302284027657
 20
-106.1925777736185
 30
0.0
 10
-18.61020150827358
 20
-106.2930178419166
 30
0.0
 10
-18.57376056448956
 20
-106.4073953291281
 30
0.0
 10
-18.56902254493076
 20
-106.4828451821886
 30
0.0
 10
-18.56624350991936
 20
-106.5270994915377
 30
0.0
  0
SPLINE
  5
6E33
330
A
100
AcDbEntity
  8
0
100
AcDbSpline
210
0.0
220
0.0
230
1.0
 70
     8
 71
     3
 72
    17
 73
    13
 74
     0
 42
0.000000001
 43
0.00000001
 40
0.0
 40
0.0
 40
0.0
 40
0.0
 40
0.0760582856040434
 40
0.1525793772872286
 40
0.2315418222215372
 40
0.3147728424208506
 40
0.4038889810158625
 40
0.500241200311116
 40
0.6198711844247732
 40
0.7601165028980599
 40
0.8592988845463031
 40
1.0
 40
1.0
 40
1.0
 40
1.0
 10
-67.86624350992136
 20
-57.22709949153574
 30
0.0
 10
-67.84236392066376
 20
-57.22792404882723
 30
0.0
 10
-67.79445943754448
 20
-57.22957818074813
 30
0.0
 10
-67.72280182228945
 20
-57.24306901500624
 30
0.0
 10
-67.65109365116206
 20
-57.26523127949264
 30
0.0
 10
-67.57917501792068
 20
-57.29815155382013
 30
0.0
 10
-67.50768804679166
 20
-57.34336632454274
 30
0.0
 10
-67.43481578334035
 20
-57.40598709311153
 30
0.0
 10
-67.36302284026166
 20
-57.49257777364224
 30
0.0
 10
-67.31020150826257
 20
-57.59301784195064
 30
0.0
 10
-67.27376056448966
 20
-57.70739532913494
 30
0.0
 10
-67.26902254493177
 20
-57.78284518219535
 30
0.0
 10
-67.26624350992137
 20
-57.82709949153573
 30
0.0
  0
ARC
  5
6E34
330
A
100
AcDbEntity
  8
0
100
AcDbCircle
 10
-62.26624350994285
 20
-100.9270994915748
 30
0.0
 40
5.0
100
AcDbArc
 50
179.9999999869
 51
270.0000000104999
  0
LINE
  5
6E35
330
A
100
AcDbEntity
  8
0
  6
Continuous
 62
     8
370
     0
100
AcDbLine
 10
-74.56624355854285
 20
-66.72710041657484
 30
0.0
 11
-73.56624350994286
 21
-66.72710041657484
 31
0.0
  0
LINE
  5
6E36
330
A
100
AcDbEntity
  8
0
  6
Continuous
 62
     8
370
     0
100
AcDbLine
 10
-74.56624355854285
 20
-102.7270997981748
 30
0.0
 11
-73.56624350994286
 21
-102.7270997981748
 31
0.0
  0
LINE
  5
6E37
330
A
100
AcDbEntity
  8
0
  6
Continuous
 62
     8
370
     0
100
AcDbLine
 10
-83.56624328754287
 20
-66.72710041657484
 30
0.0
 11
-82.56624312364286
 21
-66.72710041657484
 31
0.0
  0
LINE
  5
6E38
330
A
100
AcDbEntity
  8
0
  6
Continuous
 62
     8
370
     0
100
AcDbLine
 10
-83.56624328754287
 20
-102.7270997981748
 30
0.0
 11
-82.56624312364286
 21
-102.7270997981748
 31
0.0
  0
LINE
  5
6E39
330
A
100
AcDbEntity
  8
0
  6
Continuous
 62
     8
370
     0
100
AcDbLine
 10
-28.06624443494286
 20
-122.2270992691748
 30
0.0
 11
-28.06624443494286
 21
-121.2270991052748
 31
0.0
  0
LINE
  5
6E3A
330
A
100
AcDbEntity
  8
0
  6
Continuous
 62
     8
370
     0
100
AcDbLine
 10
-64.06624381654285
 20
-122.2270992691748
 30
0.0
 11
-64.06624381654285
 21
-121.2270991052748
 31
0.0
  0
LINE
  5
6E3B
330
A
100
AcDbEntity
  8
0
  6
Continuous
 62
     8
370
     0
100
AcDbLine
 10
-28.06624443494286
 20
-113.2270995401748
 30
0.0
 11
-28.06624443494286
 21
-112.2270994915748
 31
0.0
  0
LINE
  5
6E3C
330
A
100
AcDbEntity
  8
0
  6
Continuous
 62
     8
370
     0
100
AcDbLine
 10
-64.06624381654285
 20
-113.2270995401748
 30
0.0
 11
-64.06624381654285
 21
-112.2270994915748
 31
0.0
  0
LINE
  5
6E3D
330
A
100
AcDbEntity
  8
0
  6
Continuous
 62
     8
370
     0
100
AcDbLine
 10
-72.96624348254286
 20
-128.4270999128748
 30
0.0
 11
-72.96624348254286
 21
-127.8270990694748
 31
0.0
  0
LINE
  5
6E3E
330
A
100
AcDbEntity
  8
0
  6
Continuous
 62
     8
370
     0
100
AcDbLine
 10
-72.96624348254286
 20
-127.8270990694748
 30
0.0
 11
-73.56624350994286
 21
-127.8270990694748
 31
0.0
  0
LINE
  5
6E3F
330
A
100
AcDbEntity
  8
0
  6
Continuous
 62
     8
370
     0
100
AcDbLine
 10
-19.16624278984287
 20
-127.8270990694748
 30
0.0
 11
-19.16624278984287
 21
-128.4270999128748
 31
0.0
  0
LINE
  5
6E40
330
A
100
AcDbEntity
  8
0
  6
Continuous
 62
     8
370
     0
100
AcDbLine
 10
-18.56624380914286
 20
-127.8270990694748
 30
0.0
 11
-19.16624278984287
 21
-127.8270990694748
 31
0.0
  0
LINE
  5
6E41
330
A
100
AcDbEntity
  8
0
  6
Continuous
 62
     8
370
     0
100
AcDbLine
 10
-72.96624348254286
 20
-127.8270990694748
 30
0.0
 11
-72.96624348254286
 21
-122.2270992691748
 31
0.0
  0
LINE
  5
6E42
330
A
100
AcDbEntity
  8
0
  6
Continuous
 62
     8
370
     0
100
AcDbLine
 10
-19.16624278984287
 20
-122.2270992691748
 30
0.0
 11
-19.16624278984287
 21
-127.8270990694748
 31
0.0
  0
LINE
  5
6E43
330
A
100
AcDbEntity
  8
0
  6
Continuous
 62
     8
370
     0
100
AcDbLine
 10
-19.16624278984287
 20
-127.8270990694748
 30
0.0
 11
-72.96624348254286
 21
-127.8270990694748
 31
0.0
  0
LINE
  5
6E44
330
A
100
AcDbEntity
  8
0
  6
Continuous
 62
     8
370
     0
100
AcDbLine
 10
-50.96624278694287
 20
-114.1270995247748
 30
0.0
 11
-41.16624267064287
 21
-114.1270995247748
 31
0.0
  0
LINE
  5
6E45
330
A
100
AcDbEntity
  8
0
  6
Continuous
 62
     8
370
     0
100
AcDbLine
 10
-89.76624393134287
 20
-57.82709877147484
 30
0.0
 11
-89.16624308794286
 21
-57.82709877147484
 31
0.0
  0
LINE
  5
6E46
330
A
100
AcDbEntity
  8
0
  6
Continuous
 62
     8
370
     0
100
AcDbLine
 10
-89.16624308794286
 20
-57.82709877147484
 30
0.0
 11
-89.16624308794286
 21
-57.22709979077484
 31
0.0
  0
LINE
  5
6E47
330
A
100
AcDbEntity
  8
0
  6
Continuous
 62
     8
370
     0
100
AcDbLine
 10
-89.16624308794286
 20
-111.6270994641748
 30
0.0
 11
-89.76624393134287
 21
-111.6270994641748
 31
0.0
  0
LINE
  5
6E48
330
A
100
AcDbEntity
  8
0
  6
Continuous
 62
     8
370
     0
100
AcDbLine
 10
-89.16624308794286
 20
-112.2270994915748
 30
0.0
 11
-89.16624308794286
 21
-111.6270994641748
 31
0.0
  0
LINE
  5
6E49
330
A
100
AcDbEntity
  8
0
  6
Continuous
 62
     8
370
     0
100
AcDbLine
 10
-89.16624308794286
 20
-57.82709877147484
 30
0.0
 11
-83.56624328754287
 21
-57.82709877147484
 31
0.0
  0
LINE
  5
6E4A
330
A
100
AcDbEntity
  8
0
  6
Continuous
 62
     8
370
     0
100
AcDbLine
 10
-89.16624308794286
 20
-111.6270994641748
 30
0.0
 11
-89.16624308794286
 21
-57.82709877147484
 31
0.0
  0
LINE
  5
6E4B
330
A
100
AcDbEntity
  8
0
  6
Continuous
 62
     8
370
     0
100
AcDbLine
 10
-83.56624328754287
 20
-111.6270994641748
 30
0.0
 11
-89.16624308794286
 21
-111.6270994641748
 31
0.0
  0
LINE
  5
6E4C
330
A
100
AcDbEntity
  8
0
  6
Continuous
 62
     8
370
     0
100
AcDbLine
 10
-75.46624354314287
 20
-79.82709865227484
 30
0.0
 11
-75.46624354314287
 21
-89.62709876847484
 31
0.0
  0
LINE
  5
6E4D
330
A
100
AcDbEntity
  8
0
  6
Continuous
 62
     8
370
     0
100
AcDbLine
 10
-62.26624314894286
 20
-106.5270993965748
 30
0.0
 11
-19.16624278984287
 21
-106.5270993965748
 31
0.0
  0
LINE
  5
6E4E
330
A
100
AcDbEntity
  8
0
  6
Continuous
 62
     8
370
     0
100
AcDbLine
 10
-19.16624278984287
 20
-106.5270993965748
 30
0.0
 11
-19.16624278984287
 21
-112.2270994915748
 31
0.0
  0
LINE
  5
6E4F
330
A
100
AcDbEntity
  8
0
  6
Continuous
 62
     8
370
     0
100
AcDbLine
 10
-73.56624350994286
 20
-57.82709877147484
 30
0.0
 11
-67.86624341494286
 21
-57.82709877147484
 31
0.0
  0
LINE
  5
6E50
330
A
100
AcDbEntity
  8
0
  6
Continuous
 62
     8
370
     0
100
AcDbLine
 10
-67.86624341494286
 20
-57.82709877147484
 30
0.0
 11
-67.86624341494286
 21
-100.9270991305748
 31
0.0
  0
SPLINE
  5
6E51
330
A
100
AcDbEntity
  8
0
  6
Continuous
 62
     8
370
     0
100
AcDbSpline
210
0.0
220
0.0
230
1.0
 70
     8
 71
     3
 72
    10
 73
     6
 74
     0
 42
0.000000001
 43
0.00000001
 40
0.0
 40
0.0
 40
0.0
 40
0.0
 40
0.5
 40
0.5
 40
1.0
 40
1.0
 40
1.0
 40
1.0
 10
-62.26624350991887
 20
-106.5270994915364
 30
0.0
 10
-63.75141382031907
 20
-106.5270994915365
 30
0.0
 10
-65.17586748686335
 20
-105.9370714638819
 30
0.0
 10
-67.27621548226526
 20
-103.8367234684802
 30
0.0
 10
-67.86624350992005
 20
-102.4122698019359
 30
0.0
 10
-67.86624350992005
 20
-100.9270994915357
 30
0.0
  0
LINE
  5
6E52
330
A
100
AcDbEntity
  8
0
  6
Continuous
 62
     8
370
     0
100
AcDbLine
 10
-19.16624278984287
 20
-105.9270994844748
 30
0.0
 11
-19.16624278984287
 21
-106.5270993965748
 31
0.0
  0
LINE
  5
6E53
330
A
100
AcDbEntity
  8
0
  6
Continuous
 62
     8
370
     0
100
AcDbLine
 10
-62.26624314894286
 20
-105.9270994844748
 30
0.0
 11
-62.26624314894286
 21
-106.5270993965748
 31
0.0
  0
SPLINE
  5
6E54
330
A
100
AcDbEntity
  8
0
  6
Continuous
 62
     8
370
     0
100
AcDbSpline
210
0.0
220
0.0
230
1.0
 70
     8
 71
     3
 72
    16
 73
    12
 74
     0
 42
0.000000001
 43
0.00000001
 40
0.0
 40
0.0
 40
0.0
 40
0.0
 40
0.0756894924019937
 40
0.1409961495987495
 40
0.1958538876616739
 40
0.2403653523228511
 40
0.3806760687247145
 40
0.5004497395812418
 40
0.6855598376282772
 40
0.8475551725321302
 40
1.0
 40
1.0
 40
1.0
 40
1.0
 10
-18.56624350991947
 20
-106.5270994915377
 30
0.0
 10
-18.56704920527167
 20
-106.5270647178874
 30
0.0
 10
-18.56855007334215
 20
-106.5269999407217
 30
0.0
 10
-18.57934260330137
 20
-106.5268838933299
 30
0.0
 10
-18.59276396808337
 20
-106.527000004746
 30
0.0
 10
-18.61799653026037
 20
-106.5271973478244
 30
0.0
 10
-18.66311574602196
 20
-106.5269088704871
 30
0.0
 10
-18.75253860870225
 20
-106.5271905577891
 30
0.0
 10
-18.87176273765985
 20
-106.526992564891
 30
0.0
 10
-19.01951603804986
 20
-106.5273615861351
 30
0.0
 10
-19.11833482872225
 20
-106.527185069285
 30
0.0
 10
-19.16624350991935
 20
-106.5270994915377
 30
0.0
  0
SPLINE
  5
6E55
330
A
100
AcDbEntity
  8
0
  6
Continuous
 62
     8
370
     0
100
AcDbSpline
210
0.0
220
0.0
230
1.0
 70
     8
 71
     3
 72
    16
 73
    12
 74
     0
 42
0.000000001
 43
0.00000001
 40
0.0
 40
0.0
 40
0.0
 40
0.0
 40
0.0756894923135647
 40
0.1409961494815888
 40
0.1958538875745546
 40
0.2403653523229035
 40
0.3806760686604474
 40
0.5004497395813475
 40
0.6855598376259611
 40
0.8475551725297116
 40
1.0
 40
1.0
 40
1.0
 40
1.0
 10
-67.26624350992145
 20
-57.82709949153573
 30
0.0
 10
-67.26704920527186
 20
-57.82706471788543
 30
0.0
 10
-67.26855007333947
 20
-57.82699994071955
 30
0.0
 10
-67.27934260328357
 20
-57.82688389332644
 30
0.0
 10
-67.29276396806486
 20
-57.82700000474074
 30
0.0
 10
-67.31799653024285
 20
-57.82719734782454
 30
0.0
 10
-67.36311574601237
 20
-57.82690887049274
 30
0.0
 10
-67.45253860868738
 20
-57.82719055778374
 30
0.0
 10
-67.57176273766058
 20
-57.82699256489154
 30
0.0
 10
-67.71951603805027
 20
-57.82736158613334
 30
0.0
 10
-67.81833482872347
 20
-57.82718506928315
 30
0.0
 10
-67.86624350992136
 20
-57.82709949153573
 30
0.0
  0
LINE
  5
6E56
330
A
100
AcDbEntity
  8
0
  6
Continuous
 62
     8
370
     0
100
AcDbLine
 10
-67.26624350294287
 20
-100.9270991305748
 30
0.0
 11
-67.86624341494286
 21
-100.9270991305748
 31
0.0
  0
LINE
  5
6E57
330
A
100
AcDbEntity
  8
0
  6
Continuous
 62
     8
370
     0
100
AcDbLine
 10
-67.86624341494286
 20
-57.22709979077484
 30
0.0
 11
-67.86624341494286
 21
-57.82709877147484
 31
0.0
  0
LINE
  5
6E58
330
A
100
AcDbEntity
  8
0
100
AcDbLine
 10
-172.0809758382429
 20
2.601264634925172
 30
0.0
 11
-178.0809761232429
 21
2.601264634925172
 31
0.0
  0
LINE
  5
6E59
330
A
100
AcDbEntity
  8
0
100
AcDbLine
 10
-178.0809761232429
 20
-9.398735469374842
 30
0.0
 11
-172.0809758382429
 21
-9.398735469374842
 31
0.0
  0
SPLINE
  5
6E5A
330
A
100
AcDbEntity
  8
0
100
AcDbSpline
210
0.0
220
0.0
230
1.0
 70
     8
 71
     3
 72
    11
 73
     7
 74
     0
 42
0.000000001
 43
0.00000001
 40
0.0
 40
0.0
 40
0.0
 40
0.0
 40
0.1724135046186194
 40
0.4623643877763648
 40
0.7925462839509708
 40
1.0
 40
1.0
 40
1.0
 40
1.0
 10
-171.080975790754
 20
0.9080065728786622
 30
0.0
 10
-171.107120060061
 20
0.9685006349131697
 30
0.0
 10
-171.17723161599
 20
1.130728646103563
 30
0.0
 10
-171.4052434452046
 20
1.338441230966566
 30
0.0
 10
-171.6940715387442
 20
1.486339244508684
 30
0.0
 10
-171.8998739828621
 20
1.488157735625265
 30
0.0
 10
-171.9792855412365
 20
1.488859424150263
 30
0.0
  0
SPLINE
  5
6E5B
330
A
100
AcDbEntity
  8
0
100
AcDbSpline
210
0.0
220
0.0
230
1.0
 70
     8
 71
     3
 72
    11
 73
     7
 74
     0
 42
0.000000001
 43
0.00000001
 40
0.0
 40
0.0
 40
0.0
 40
0.0
 40
0.1620851847933113
 40
0.4382192284922978
 40
0.7272108279168997
 40
1.0
 40
1.0
 40
1.0
 40
1.0
 10
-171.9813590145335
 20
-8.289267650091332
 30
0.0
 10
-171.9195139059973
 20
-8.289678656859437
 30
0.0
 10
-171.7523072869386
 20
-8.290789869269346
 30
0.0
 10
-171.4904151409045
 20
-8.185719175195928
 30
0.0
 10
-171.2269362514324
 20
-7.993581269566235
 30
0.0
 10
-171.128684713812
 20
-7.801449337512352
 30
0.0
 10
-171.080975790754
 20
-7.708154028498839
 30
0.0
  0
LINE
  5
6E5C
330
A
100
AcDbEntity
  8
0
100
AcDbLine
 10
-171.9809757753429
 20
1.501264640825184
 30
0.0
 11
-172.0809758382429
 21
1.501264640825184
 31
0.0
  0
LINE
  5
6E5D
330
A
100
AcDbEntity
  8
0
100
AcDbLine
 10
-178.0809761232429
 20
1.501264640825184
 30
0.0
 11
-179.0809753558429
 21
1.501264640825184
 31
0.0
  0
LINE
  5
6E5E
330
A
100
AcDbEntity
  8
0
100
AcDbLine
 10
-179.0809753558429
 20
-8.29873547537484
 30
0.0
 11
-178.0809761232429
 21
-8.29873547537484
 31
0.0
  0
LINE
  5
6E5F
330
A
100
AcDbEntity
  8
0
100
AcDbLine
 10
-172.0809758382429
 20
-8.29873547537484
 30
0.0
 11
-171.9809757753429
 21
-8.29873547537484
 31
0.0
  0
LINE
  5
6E60
330
A
100
AcDbEntity
  8
0
100
AcDbLine
 10
-178.0809761232429
 20
2.601264634925172
 30
0.0
 11
-178.0809761232429
 21
-9.398735469374842
 31
0.0
  0
LINE
  5
6E61
330
A
100
AcDbEntity
  8
0
100
AcDbLine
 10
-172.0809758382429
 20
2.601264634925172
 30
0.0
 11
-172.0809758382429
 21
-9.398735469374842
 31
0.0
  0
LINE
  5
6E62
330
A
100
AcDbEntity
  8
0
100
AcDbLine
 10
-180.0809755197429
 20
-27.39873550947483
 30
0.0
 11
-179.0809753558429
 21
-27.39873550947483
 31
0.0
  0
LINE
  5
6E63
330
A
100
AcDbEntity
  8
0
100
AcDbLine
 10
-179.0809753558429
 20
-21.39873557377483
 30
0.0
 11
-179.0809753558429
 21
-27.39873550947483
 31
0.0
  0
LINE
  5
6E64
330
A
100
AcDbEntity
  8
0
100
AcDbLine
 10
-179.0809753558429
 20
14.60126287652517
 30
0.0
 11
-179.0809753558429
 21
-21.39873557377483
 31
0.0
  0
LINE
  5
6E65
330
A
100
AcDbEntity
  8
0
100
AcDbLine
 10
-180.0809755197429
 20
20.60126386002517
 30
0.0
 11
-179.0809753558429
 21
20.60126386002517
 31
0.0
  0
LINE
  5
6E66
330
A
100
AcDbEntity
  8
0
100
AcDbLine
 10
-179.0809753558429
 20
20.60126386002517
 30
0.0
 11
-179.0809753558429
 21
14.60126287652517
 31
0.0
  0
LINE
  5
6E67
330
A
100
AcDbEntity
  8
0
100
AcDbLine
 10
-171.0809757907429
 20
-27.39873550947483
 30
0.0
 11
-170.0809757420429
 21
-27.39873550947483
 31
0.0
  0
LINE
  5
6E68
330
A
100
AcDbEntity
  8
0
100
AcDbLine
 10
-171.0809757907429
 20
-21.39873557377483
 30
0.0
 11
-171.0809757907429
 21
-27.39873550947483
 31
0.0
  0
LINE
  5
6E69
330
A
100
AcDbEntity
  8
0
100
AcDbLine
 10
-171.0809757907429
 20
14.60126287652517
 30
0.0
 11
-171.0809757907429
 21
-21.39873557377483
 31
0.0
  0
LINE
  5
6E6A
330
A
100
AcDbEntity
  8
0
100
AcDbLine
 10
-171.0809757907429
 20
20.60126386002517
 30
0.0
 11
-170.0809757420429
 21
20.60126386002517
 31
0.0
  0
LINE
  5
6E6B
330
A
100
AcDbEntity
  8
0
100
AcDbLine
 10
-171.0809757907429
 20
20.60126386002517
 30
0.0
 11
-171.0809757907429
 21
14.60126287652517
 31
0.0
  0
ARC
  5
6E6C
330
A
100
AcDbEntity
  8
0
100
AcDbCircle
 10
-185.6809757420428
 20
23.50126446882518
 30
0.0
 40
0.5999999999999943
100
AcDbArc
 50
90.0
 51
180.0
  0
ARC
  5
6E6D
330
A
100
AcDbEntity
  8
0
100
AcDbCircle
 10
-185.6809757420428
 20
-30.29873553117484
 30
0.0
 40
0.5999999999999943
100
AcDbArc
 50
180.0
 51
269.9999999999972
  0
LINE
  5
6E6E
330
A
100
AcDbEntity
  8
0
100
AcDbLine
 10
-180.0809755197429
 20
24.10126350242518
 30
0.0
 11
-185.6809753200429
 21
24.10126350242518
 31
0.0
  0
LINE
  5
6E6F
330
A
100
AcDbEntity
  8
0
100
AcDbLine
 10
-180.0809755197429
 20
24.10126350242518
 30
0.0
 11
-180.0809755197429
 21
23.50126452162519
 31
0.0
  0
LINE
  5
6E70
330
A
100
AcDbEntity
  8
0
100
AcDbLine
 10
-180.0809755197429
 20
-30.29873558897484
 30
0.0
 11
-180.0809755197429
 21
-30.89873550107484
 31
0.0
  0
LINE
  5
6E71
330
A
100
AcDbEntity
  8
0
100
AcDbLine
 10
-185.6809753200429
 20
-30.89873550107484
 30
0.0
 11
-180.0809755197429
 21
-30.89873550107484
 31
0.0
  0
LINE
  5
6E72
330
A
100
AcDbEntity
  8
0
100
AcDbLine
 10
-180.0809755197429
 20
-30.29873558897484
 30
0.0
 11
-180.0809755197429
 21
23.50126452162519
 31
0.0
  0
LINE
  5
6E73
330
A
100
AcDbEntity
  8
0
100
AcDbLine
 10
-186.2809761634429
 20
-30.29873558897484
 30
0.0
 11
-186.2809761634429
 21
23.50126452162519
 31
0.0
  0
ARC
  5
6E74
330
A
100
AcDbEntity
  8
0
100
AcDbCircle
 10
-164.3809757420429
 20
23.50126446882518
 30
0.0
 40
0.5999999999999943
100
AcDbArc
 50
0.0
 51
90.0
  0
SPLINE
  5
6E75
330
A
100
AcDbEntity
  8
0
100
AcDbSpline
210
0.0
220
0.0
230
1.0
 70
    24
 71
     3
 72
    16
 73
    12
 74
     0
 42
0.000000001
 43
0.00000001
 40
0.0
 40
0.0
 40
0.0
 40
0.0
 40
0.0829669543308045
 40
0.1658731899086378
 40
0.2501363560737271
 40
0.3736610409277172
 40
0.500081017383843
 40
0.6236057022378675
 40
0.7500256786939672
 40
0.8742968264562075
 40
1.0
 40
1.0
 40
1.0
 40
1.0
 10
-170.0809757420882
 20
23.50126446882078
 30
0.0
 10
-170.0809757420882
 20
23.52731595268588
 30
0.0
 10
-170.0809757420882
 20
23.57939985482997
 30
0.0
 10
-170.0809757420882
 20
23.65657863933717
 30
0.0
 10
-170.0809757420882
 20
23.74322715829177
 30
0.0
 10
-170.0809757420882
 20
23.83649094740866
 30
0.0
 10
-170.0809757420882
 20
23.92752363855416
 30
0.0
 10
-170.0809757420882
 20
24.00336496194967
 30
0.0
 10
-170.0809757420882
 20
24.05849993405309
 30
0.0
 10
-170.0809757420882
 20
24.09491916794818
 30
0.0
 10
-170.0809757420882
 20
24.09914130608746
 30
0.0
 10
-170.0809757420882
 20
24.10126446882077
 30
0.0
  0
LINE
  5
6E76
330
A
100
AcDbEntity
  8
0
100
AcDbLine
 10
-164.3809756471429
 20
24.10126350242518
 30
0.0
 11
-170.0809757420429
 21
24.10126350242518
 31
0.0
  0
LINE
  5
6E77
330
A
100
AcDbEntity
  8
0
100
AcDbLine
 10
-163.7809757350429
 20
-30.29873558897484
 30
0.0
 11
-163.7809757350429
 21
23.50126452162519
 31
0.0
  0
LINE
  5
6E78
330
A
100
AcDbEntity
  8
0
100
AcDbLine
 10
-170.0809757420429
 20
23.50126452162519
 30
0.0
 11
-170.0809757420429
 21
-30.29873558897484
 31
0.0
  0
ARC
  5
6E79
330
A
100
AcDbEntity
  8
0
100
AcDbCircle
 10
-164.3809757420429
 20
-30.29873553117484
 30
0.0
 40
0.5999999999999943
100
AcDbArc
 50
270.0
 51
0.0
  0
LINE
  5
6E7A
330
A
100
AcDbEntity
  8
0
100
AcDbLine
 10
-170.0809757420429
 20
-30.89873550107484
 30
0.0
 11
-164.3809756471429
 21
-30.89873550107484
 31
0.0
  0
LINE
  5
6E7B
330
A
100
AcDbEntity
  8
0
100
AcDbLine
 10
-170.0809757420429
 20
-30.89873550107484
 30
0.0
 11
-170.0809757420429
 21
-30.29873558897484
 31
0.0
  0
SPLINE
  5
6E7C
330
A
100
AcDbEntity
  8
0
100
AcDbSpline
210
0.0
220
0.0
230
1.0
 70
    24
 71
     3
 72
    10
 73
     6
 74
     0
 42
0.000000001
 43
0.00000001
 40
0.0
 40
0.0
 40
0.0
 40
0.0
 40
0.5
 40
0.5
 40
1.0
 40
1.0
 40
1.0
 40
1.0
 10
-164.3809757420872
 20
24.10126446882077
 30
0.0
 10
-164.3809757420873
 20
24.10126446882077
 30
0.0
 10
-163.7909477144327
 20
24.10126446882077
 30
0.0
 10
-161.690599719031
 20
24.10126446882077
 30
0.0
 10
-160.2661460524866
 20
24.10126446882077
 30
0.0
 10
-158.7809757420866
 20
24.10126446882077
 30
0.0
  0
SPLINE
  5
6E7D
330
A
100
AcDbEntity
  8
0
100
AcDbSpline
210
0.0
220
0.0
230
1.0
 70
    24
 71
     3
 72
    10
 73
     6
 74
     0
 42
0.000000001
 43
0.00000001
 40
0.0
 40
0.0
 40
0.0
 40
0.0
 40
0.4999999999999997
 40
0.4999999999999997
 40
1.0
 40
1.0
 40
1.0
 40
1.0
 10
-158.7809757420858
 20
-30.89873553118224
 30
0.0
 10
-160.266146052486
 20
-30.89873553118224
 30
0.0
 10
-161.6905997190306
 20
-30.89873553118224
 30
0.0
 10
-163.7909477144325
 20
-30.89873553118224
 30
0.0
 10
-164.3809757420873
 20
-30.89873553118224
 30
0.0
 10
-164.3809757420873
 20
-30.89873553118224
 30
0.0
  0
ARC
  5
6E7E
330
A
100
AcDbEntity
  8
0
100
AcDbCircle
 10
-115.6809757420429
 20
23.50126446882518
 30
0.0
 40
0.5999999999999943
100
AcDbArc
 50
0.0
 51
90.0
  0
LINE
  5
6E7F
330
A
100
AcDbEntity
  8
0
100
AcDbLine
 10
-115.0809760412429
 20
-30.29873558897484
 30
0.0
 11
-115.0809760412429
 21
23.50126452162519
 31
0.0
  0
LINE
  5
6E80
330
A
100
AcDbEntity
  8
0
100
AcDbLine
 10
-115.6809750220429
 20
24.10126350242518
 30
0.0
 11
-158.7809753811429
 21
24.10126350242518
 31
0.0
  0
ARC
  5
6E81
330
A
100
AcDbEntity
  8
0
100
AcDbCircle
 10
-115.6809757420429
 20
-30.29873553117484
 30
0.0
 40
0.6000000000000227
100
AcDbArc
 50
270.0
 51
0.0
  0
LINE
  5
6E82
330
A
100
AcDbEntity
  8
0
100
AcDbLine
 10
-158.7809753811429
 20
-30.89873550107484
 30
0.0
 11
-115.6809750220429
 21
-30.89873550107484
 31
0.0
  0
LINE
  5
6E83
330
A
100
AcDbEntity
  8
0
  6
Continuous
 62
     8
370
     0
100
AcDbLine
 10
-179.0809753558429
 20
-21.39873557377483
 30
0.0
 11
-180.0809755197429
 21
-21.39873557377483
 31
0.0
  0
LINE
  5
6E84
330
A
100
AcDbEntity
  8
0
  6
Continuous
 62
     8
370
     0
100
AcDbLine
 10
-180.0809755197429
 20
14.60126287652517
 30
0.0
 11
-179.0809753558429
 21
14.60126287652517
 31
0.0
  0
LINE
  5
6E85
330
A
100
AcDbEntity
  8
0
  6
Continuous
 62
     8
370
     0
100
AcDbLine
 10
-170.0809757420429
 20
-21.39873557377483
 30
0.0
 11
-171.0809757907429
 21
-21.39873557377483
 31
0.0
  0
LINE
  5
6E86
330
A
100
AcDbEntity
  8
0
  6
Continuous
 62
     8
370
     0
100
AcDbLine
 10
-171.0809757907429
 20
14.60126287652517
 30
0.0
 11
-170.0809757420429
 21
14.60126287652517
 31
0.0
  0
LINE
  5
6E87
330
A
100
AcDbEntity
  8
0
  6
Continuous
 62
     8
370
     0
100
AcDbLine
 10
-186.2809761634429
 20
23.50126452162519
 30
0.0
 11
-185.6809753200429
 21
23.50126452162519
 31
0.0
  0
LINE
  5
6E88
330
A
100
AcDbEntity
  8
0
  6
Continuous
 62
     8
370
     0
100
AcDbLine
 10
-185.6809753200429
 20
23.50126452162519
 30
0.0
 11
-185.6809753200429
 21
24.10126350242518
 31
0.0
  0
LINE
  5
6E89
330
A
100
AcDbEntity
  8
0
  6
Continuous
 62
     8
370
     0
100
AcDbLine
 10
-185.6809753200429
 20
-30.29873558897484
 30
0.0
 11
-186.2809761634429
 21
-30.29873558897484
 31
0.0
  0
LINE
  5
6E8A
330
A
100
AcDbEntity
  8
0
  6
Continuous
 62
     8
370
     0
100
AcDbLine
 10
-185.6809753200429
 20
-30.89873550107484
 30
0.0
 11
-185.6809753200429
 21
-30.29873558897484
 31
0.0
  0
LINE
  5
6E8B
330
A
100
AcDbEntity
  8
0
  6
Continuous
 62
     8
370
     0
100
AcDbLine
 10
-185.6809753200429
 20
23.50126452162519
 30
0.0
 11
-180.0809755197429
 21
23.50126452162519
 31
0.0
  0
LINE
  5
6E8C
330
A
100
AcDbEntity
  8
0
  6
Continuous
 62
     8
370
     0
100
AcDbLine
 10
-180.0809755197429
 20
-30.29873558897484
 30
0.0
 11
-185.6809753200429
 21
-30.29873558897484
 31
0.0
  0
LINE
  5
6E8D
330
A
100
AcDbEntity
  8
0
  6
Continuous
 62
     8
370
     0
100
AcDbLine
 10
-185.6809753200429
 20
-30.29873558897484
 30
0.0
 11
-185.6809753200429
 21
23.50126452162519
 31
0.0
  0
LINE
  5
6E8E
330
A
100
AcDbEntity
  8
0
  6
Continuous
 62
     8
370
     0
100
AcDbLine
 10
-171.9809757753429
 20
1.501264640825184
 30
0.0
 11
-171.9809757753429
 21
-8.29873547537484
 31
0.0
  0
SPLINE
  5
6E8F
330
A
100
AcDbEntity
  8
0
  6
Continuous
 62
     8
370
     0
100
AcDbSpline
210
0.0
220
0.0
230
1.0
 70
     8
 71
     3
 72
    16
 73
    12
 74
     0
 42
0.000000001
 43
0.00000001
 40
0.0
 40
0.0
 40
0.0
 40
0.0
 40
0.0756894924019937
 40
0.1409961495987495
 40
0.1958538876616739
 40
0.2403653523228511
 40
0.3806760687247145
 40
0.5004497395812418
 40
0.6855598376282772
 40
0.8475551725321302
 40
1.0
 40
1.0
 40
1.0
 40
1.0
 10
-164.3809757420886
 20
23.50126446882078
 30
0.0
 10
-164.3809409684383
 20
23.52500992917237
 30
0.0
 10
-164.3808761912725
 20
23.56924352585509
 30
0.0
 10
-164.3807601438807
 20
23.62986817196739
 30
0.0
 10
-164.3808762552969
 20
23.67977322680147
 30
0.0
 10
-164.3810735983752
 20
23.75060162367177
 30
0.0
 10
-164.3807851210379
 20
23.83577004750518
 30
0.0
 10
-164.3810668083399
 20
23.94395495168098
 30
0.0
 10
-164.3808688154418
 20
24.03211446925027
 30
0.0
 10
-164.3812378366859
 20
24.09101273776758
 30
0.0
 10
-164.3810613198359
 20
24.09791712760048
 30
0.0
 10
-164.3809757420886
 20
24.10126446882077
 30
0.0
  0
SPLINE
  5
6E90
330
A
100
AcDbEntity
  8
0
  6
Continuous
 62
     8
370
     0
100
AcDbSpline
210
0.0
220
0.0
230
1.0
 70
     8
 71
     3
 72
    17
 73
    13
 74
     0
 42
0.000000001
 43
0.00000001
 40
0.0
 40
0.0
 40
0.0
 40
0.0
 40
0.0760582855772911
 40
0.1525793772443827
 40
0.2315418221733262
 40
0.3147728423779774
 40
0.4038889809890939
 40
0.5002412003112067
 40
0.6198711843306548
 40
0.760116502898076
 40
0.8592988845186262
 40
1.0
 40
1.0
 40
1.0
 40
1.0
 10
-163.7809757420886
 20
23.50126446882078
 30
0.0
 10
-163.7818002993795
 20
23.50123505896866
 30
0.0
 10
-163.7834544312994
 20
23.50117606030906
 30
0.0
 10
-163.7969452655506
 20
23.50107688717458
 30
0.0
 10
-163.8191075300304
 20
23.50116214490237
 30
0.0
 10
-163.8520278043547
 20
23.50129216399577
 30
0.0
 10
-163.8972425750816
 20
23.50132871766158
 30
0.0
 10
-163.9598633436386
 20
23.50120843390266
 30
0.0
 10
-164.0464540241693
 20
23.50145632494127
 30
0.0
 10
-164.1468940924674
 20
23.50113437417687
 30
0.0
 10
-164.2612715796789
 20
23.50156589205676
 30
0.0
 10
-164.3367214327394
 20
23.50137590418669
 30
0.0
 10
-164.3809757420886
 20
23.50126446882078
 30
0.0
  0
LINE
  5
6E91
330
A
100
AcDbEntity
  8
0
  6
Continuous
 62
     8
370
     0
100
AcDbLine
 10
-170.0809757420429
 20
23.50126452162519
 30
0.0
 11
-164.3809756471429
 21
23.50126452162519
 31
0.0
  0
LINE
  5
6E92
330
A
100
AcDbEntity
  8
0
  6
Continuous
 62
     8
370
     0
100
AcDbLine
 10
-163.7809757350429
 20
-30.29873558897484
 30
0.0
 11
-164.3809756471429
 21
-30.29873558897484
 31
0.0
  0
LINE
  5
6E93
330
A
100
AcDbEntity
  8
0
  6
Continuous
 62
     8
370
     0
100
AcDbLine
 10
-164.3809756471429
 20
23.50126452162519
 30
0.0
 11
-164.3809756471429
 21
-30.29873558897484
 31
0.0
  0
LINE
  5
6E94
330
A
100
AcDbEntity
  8
0
  6
Continuous
 62
     8
370
     0
100
AcDbLine
 10
-170.0809757420429
 20
-30.29873558897484
 30
0.0
 11
-164.3809756471429
 21
-30.29873558897484
 31
0.0
  0
LINE
  5
6E95
330
A
100
AcDbEntity
  8
0
  6
Continuous
 62
     8
370
     0
100
AcDbLine
 10
-164.3809756471429
 20
-30.29873558897484
 30
0.0
 11
-164.3809756471429
 21
-30.89873550107484
 31
0.0
  0
LINE
  5
6E96
330
A
100
AcDbEntity
  8
0
  6
Continuous
 62
     8
370
     0
100
AcDbLine
 10
-158.7809753811429
 20
23.50126452162519
 30
0.0
 11
-158.7809753811429
 21
24.10126350242518
 31
0.0
  0
LINE
  5
6E97
330
A
100
AcDbEntity
  8
0
  6
Continuous
 62
     8
370
     0
100
AcDbLine
 10
-163.7809757350429
 20
23.50126452162519
 30
0.0
 11
-158.7809753811429
 21
23.50126452162519
 31
0.0
  0
LINE
  5
6E98
330
A
100
AcDbEntity
  8
0
  6
Continuous
 62
     8
370
     0
100
AcDbLine
 10
-158.7809753811429
 20
-30.89873550107484
 30
0.0
 11
-158.7809753811429
 21
-30.29873558897484
 31
0.0
  0
LINE
  5
6E99
330
A
100
AcDbEntity
  8
0
  6
Continuous
 62
     8
370
     0
100
AcDbLine
 10
-163.7809757350429
 20
-30.29873558897484
 30
0.0
 11
-158.7809753811429
 21
-30.29873558897484
 31
0.0
  0
LINE
  5
6E9A
330
A
100
AcDbEntity
  8
0
  6
Continuous
 62
     8
370
     0
100
AcDbLine
 10
-158.7809753811429
 20
-30.29873558897484
 30
0.0
 11
-158.7809753811429
 21
23.50126452162519
 31
0.0
  0
SPLINE
  5
6E9B
330
A
100
AcDbEntity
  8
0
  6
Continuous
 62
     8
370
     0
100
AcDbSpline
210
0.0
220
0.0
230
1.0
 70
     8
 71
     3
 72
    17
 73
    13
 74
     0
 42
0.000000001
 43
0.00000001
 40
0.0
 40
0.0
 40
0.0
 40
0.0
 40
0.0760582856040434
 40
0.1525793772872286
 40
0.2315418222215372
 40
0.3147728424208506
 40
0.4038889810158625
 40
0.500241200311116
 40
0.6198711844247732
 40
0.7601165028980599
 40
0.8592988845463031
 40
1.0
 40
1.0
 40
1.0
 40
1.0
 10
-115.0809757420866
 20
23.50126446882078
 30
0.0
 10
-115.0818002993781
 20
23.50123505896806
 30
0.0
 10
-115.083454431299
 20
23.50117606030696
 30
0.0
 10
-115.0969452655571
 20
23.50107688716488
 30
0.0
 10
-115.1191075300435
 20
23.50116214488548
 30
0.0
 10
-115.152027804371
 20
23.50129216397576
 30
0.0
 10
-115.1972425750936
 20
23.50132871764399
 30
0.0
 10
-115.2598633436624
 20
23.50120843390746
 30
0.0
 10
-115.3464540241931
 20
23.50145632494647
 30
0.0
 10
-115.4468940925014
 20
23.50113437417576
 30
0.0
 10
-115.5612715796858
 20
23.50156589205778
 30
0.0
 10
-115.6367214327461
 20
23.50137590418697
 30
0.0
 10
-115.6809757420866
 20
23.50126446882078
 30
0.0
  0
SPLINE
  5
6E9C
330
A
100
AcDbEntity
  8
0
  6
Continuous
 62
     8
370
     0
100
AcDbSpline
210
0.0
220
0.0
230
1.0
 70
     8
 71
     3
 72
    16
 73
    12
 74
     0
 42
0.000000001
 43
0.00000001
 40
0.0
 40
0.0
 40
0.0
 40
0.0
 40
0.0756894923135647
 40
0.1409961494815888
 40
0.1958538875745546
 40
0.2403653523229035
 40
0.3806760686604474
 40
0.5004497395813475
 40
0.6855598376259611
 40
0.8475551725297116
 40
1.0
 40
1.0
 40
1.0
 40
1.0
 10
-115.6809757420866
 20
23.50126446882078
 30
0.0
 10
-115.6809409684362
 20
23.52500992914457
 30
0.0
 10
-115.6808761912704
 20
23.56924352579048
 30
0.0
 10
-115.6807601438773
 20
23.62986817187738
 30
0.0
 10
-115.6808762552916
 20
23.67977322674056
 30
0.0
 10
-115.6810735983754
 20
23.75060162362848
 30
0.0
 10
-115.6807851210436
 20
23.83577004748759
 30
0.0
 10
-115.6810668083346
 20
23.94395495166839
 30
0.0
 10
-115.6808688154424
 20
24.03211446924936
 30
0.0
 10
-115.6812378366842
 20
24.09101273776739
 30
0.0
 10
-115.681061319834
 20
24.09791712760028
 30
0.0
 10
-115.6809757420866
 20
24.10126446882069
 30
0.0
  0
LINE
  5
6E9D
330
A
100
AcDbEntity
  8
0
  6
Continuous
 62
     8
370
     0
100
AcDbLine
 10
-115.0809760412429
 20
-30.29873558897484
 30
0.0
 11
-115.6809750220429
 21
-30.29873558897484
 31
0.0
  0
LINE
  5
6E9E
330
A
100
AcDbEntity
  8
0
  6
Continuous
 62
     8
370
     0
100
AcDbLine
 10
-115.6809750220429
 20
23.50126452162519
 30
0.0
 11
-115.6809750220429
 21
-30.29873558897484
 31
0.0
  0
LINE
  5
6E9F
330
A
100
AcDbEntity
  8
0
  6
Continuous
 62
     8
370
     0
100
AcDbLine
 10
-158.7809753811429
 20
23.50126452162519
 30
0.0
 11
-115.6809750220429
 21
23.50126452162519
 31
0.0
  0
LINE
  5
6EA0
330
A
100
AcDbEntity
  8
0
  6
Continuous
 62
     8
370
     0
100
AcDbLine
 10
-158.7809753811429
 20
-30.29873558897484
 30
0.0
 11
-115.6809750220429
 21
-30.29873558897484
 31
0.0
  0
LINE
  5
6EA1
330
A
100
AcDbEntity
  8
0
  6
Continuous
 62
     8
370
     0
100
AcDbLine
 10
-115.6809750220429
 20
-30.29873558897484
 30
0.0
 11
-115.6809750220429
 21
-30.89873550107484
 31
0.0
  0
INSERT
  5
6EA3
330
A
100
AcDbEntity
  8
ASSI
100
AcDbBlockReference
  2
SW_CENTERMARKSYMBOL_1
 10
-142.5809757420429
 20
-3.398735531174836
 30
0.0
  0
LINE
  5
6EA4
330
A
100
AcDbEntity
  8
0
100
AcDbLine
 10
77.27896500095716
 20
-9.398735469374842
 30
0.0
 11
83.27896528595716
 21
-9.398735469374842
 31
0.0
  0
LINE
  5
6EA5
330
A
100
AcDbEntity
  8
0
100
AcDbLine
 10
83.27896528595716
 20
2.601264634925172
 30
0.0
 11
77.27896500095716
 21
2.601264634925172
 31
0.0
  0
SPLINE
  5
6EA6
330
A
100
AcDbEntity
  8
0
100
AcDbSpline
210
0.0
220
0.0
230
1.0
 70
     8
 71
     3
 72
    14
 73
    10
 74
     0
 42
0.000000001
 43
0.00000001
 40
0.0
 40
0.0
 40
0.0
 40
0.0
 40
0.1288378043343729
 40
0.2561018949047035
 40
0.3823011624422235
 40
0.5077499799141671
 40
0.7553963554814148
 40
0.8784302712631502
 40
1.0
 40
1.0
 40
1.0
 40
1.0
 10
91.46930751104611
 20
23.50126452163488
 30
0.0
 10
91.46589651193523
 20
23.54171567247997
 30
0.0
 10
91.45911617800823
 20
23.62212387592626
 30
0.0
 10
91.42092181595024
 20
23.73836292097266
 30
0.0
 10
91.36417865337353
 20
23.84406108764577
 30
0.0
 10
91.26495499762831
 20
23.96535509193797
 30
0.0
 10
91.13364065585125
 20
24.05202242545806
 30
0.0
 10
90.98616746812274
 20
24.09622356566447
 30
0.0
 10
90.90915651735492
 20
24.09955540218638
 30
0.0
 10
90.87088153411406
 20
24.10121134833128
 30
0.0
  0
SPLINE
  5
6EA7
330
A
100
AcDbEntity
  8
0
100
AcDbSpline
210
0.0
220
0.0
230
1.0
 70
     8
 71
     3
 72
    11
 73
     7
 74
     0
 42
0.000000001
 43
0.00000001
 40
0.0
 40
0.0
 40
0.0
 40
0.0
 40
0.1720314648971723
 40
0.4613398650030249
 40
0.7907908114610939
 40
0.9999999999999999
 40
0.9999999999999999
 40
0.9999999999999999
 40
0.9999999999999999
 10
76.27896495342952
 20
-7.705477407419338
 30
0.0
 10
76.30510946661025
 20
-7.765970181842349
 30
0.0
 10
76.37522167653952
 20
-7.928194740021937
 30
0.0
 10
76.60322580355933
 20
-8.135949202452437
 30
0.0
 10
76.89286112034011
 20
-8.284074407897933
 30
0.0
 10
77.09952826714925
 20
-8.28582397402063
 30
0.0
 10
77.17979532846022
 20
-8.286503484689845
 30
0.0
  0
SPLINE
  5
6EA8
330
A
100
AcDbEntity
  8
0
100
AcDbSpline
210
0.0
220
0.0
230
1.0
 70
     8
 71
     3
 72
    11
 73
     7
 74
     0
 42
0.000000001
 43
0.00000001
 40
0.0
 40
0.0
 40
0.0
 40
0.0
 40
0.1609659429420927
 40
0.4374688317463873
 40
0.7268464507124229
 40
1.0
 40
1.0
 40
1.0
 40
1.0
 10
77.17783175122696
 20
1.491735348260761
 30
0.0
 10
77.11649773771643
 20
1.49212824040967
 30
0.0
 10
76.94980583540274
 20
1.493196031932968
 30
0.0
 10
76.68840778539106
 20
1.388224560655772
 30
0.0
 10
76.42492458489596
 20
1.196116098359681
 30
0.0
 10
76.32667360544974
 20
1.003980354100264
 30
0.0
 10
76.27896495342952
 20
0.9106831939581639
 30
0.0
  0
LINE
  5
6EA9
330
A
100
AcDbEntity
  8
0
100
AcDbLine
 10
77.17896493795712
 20
-8.29873547537484
 30
0.0
 11
77.27896500095716
 21
-8.29873547537484
 31
0.0
  0
LINE
  5
6EAA
330
A
100
AcDbEntity
  8
0
100
AcDbLine
 10
83.27896528595716
 20
-8.29873547537484
 30
0.0
 11
84.27896451845714
 21
-8.29873547537484
 31
0.0
  0
LINE
  5
6EAB
330
A
100
AcDbEntity
  8
0
100
AcDbLine
 10
84.27896451845714
 20
1.501264640825184
 30
0.0
 11
83.27896528595716
 21
1.501264640825184
 31
0.0
  0
LINE
  5
6EAC
330
A
100
AcDbEntity
  8
0
100
AcDbLine
 10
77.27896500095716
 20
1.501264640825184
 30
0.0
 11
77.17896493795712
 21
1.501264640825184
 31
0.0
  0
LINE
  5
6EAD
330
A
100
AcDbEntity
  8
0
100
AcDbLine
 10
83.27896528595716
 20
-3.398736348574843
 30
0.0
 11
83.27896528595716
 21
2.601264634925172
 31
0.0
  0
LINE
  5
6EAE
330
A
100
AcDbEntity
  8
0
100
AcDbLine
 10
83.27896528595716
 20
-9.398735469374842
 30
0.0
 11
83.27896528595716
 21
-3.398736348574843
 31
0.0
  0
LINE
  5
6EAF
330
A
100
AcDbEntity
  8
0
100
AcDbLine
 10
77.27896500095716
 20
-3.398736348574843
 30
0.0
 11
77.27896500095716
 21
2.601264634925172
 31
0.0
  0
LINE
  5
6EB0
330
A
100
AcDbEntity
  8
0
100
AcDbLine
 10
77.27896500095716
 20
-9.398735469374842
 30
0.0
 11
77.27896500095716
 21
-3.398736348574843
 31
0.0
  0
LINE
  5
6EB1
330
A
100
AcDbEntity
  8
0
100
AcDbLine
 10
85.27896468245712
 20
-27.39873550947483
 30
0.0
 11
84.27896451845714
 21
-27.39873550947483
 31
0.0
  0
LINE
  5
6EB2
330
A
100
AcDbEntity
  8
0
100
AcDbLine
 10
84.27896451845714
 20
-27.39873550947483
 30
0.0
 11
84.27896451845714
 21
-21.39873557377483
 31
0.0
  0
LINE
  5
6EB3
330
A
100
AcDbEntity
  8
0
100
AcDbLine
 10
84.27896451845714
 20
-21.39873557377483
 30
0.0
 11
84.27896451845714
 21
14.60126287652517
 31
0.0
  0
LINE
  5
6EB4
330
A
100
AcDbEntity
  8
0
100
AcDbLine
 10
85.27896468245712
 20
20.60126386002517
 30
0.0
 11
84.27896451845714
 21
20.60126386002517
 31
0.0
  0
LINE
  5
6EB5
330
A
100
AcDbEntity
  8
0
100
AcDbLine
 10
84.27896451845714
 20
14.60126287652517
 30
0.0
 11
84.27896451845714
 21
20.60126386002517
 31
0.0
  0
LINE
  5
6EB6
330
A
100
AcDbEntity
  8
0
100
AcDbLine
 10
76.27896495345715
 20
-27.39873550947483
 30
0.0
 11
76.27896495345715
 21
-21.39873557377483
 31
0.0
  0
LINE
  5
6EB7
330
A
100
AcDbEntity
  8
0
100
AcDbLine
 10
76.27896495345715
 20
-27.39873550947483
 30
0.0
 11
75.27896490475712
 21
-27.39873550947483
 31
0.0
  0
LINE
  5
6EB8
330
A
100
AcDbEntity
  8
0
100
AcDbLine
 10
76.27896495345715
 20
20.60126386002517
 30
0.0
 11
75.27896490475712
 21
20.60126386002517
 31
0.0
  0
LINE
  5
6EB9
330
A
100
AcDbEntity
  8
0
100
AcDbLine
 10
76.27896495345715
 20
14.60126287652517
 30
0.0
 11
76.27896495345715
 21
20.60126386002517
 31
0.0
  0
LINE
  5
6EBA
330
A
100
AcDbEntity
  8
0
100
AcDbLine
 10
76.27896495345715
 20
-21.39873557377483
 30
0.0
 11
76.27896495345715
 21
14.60126287652517
 31
0.0
  0
LINE
  5
6EBB
330
A
100
AcDbEntity
  8
0
100
AcDbLine
 10
91.46928515925714
 20
23.50126452162519
 30
0.0
 11
91.47896532615715
 21
23.50126452162519
 31
0.0
  0
ARC
  5
6EBC
330
A
100
AcDbEntity
  8
0
100
AcDbCircle
 10
90.87896490475714
 20
-30.29873553117484
 30
0.0
 40
0.5999999999999943
100
AcDbArc
 50
270.0
 51
0.0
  0
LINE
  5
6EBD
330
A
100
AcDbEntity
  8
0
100
AcDbLine
 10
85.27896468245712
 20
23.50126452162519
 30
0.0
 11
85.27896468245712
 21
-30.29873558897484
 31
0.0
  0
LINE
  5
6EBE
330
A
100
AcDbEntity
  8
0
100
AcDbLine
 10
85.27896468245712
 20
-30.89873550107484
 30
0.0
 11
90.87896448275711
 21
-30.89873550107484
 31
0.0
  0
LINE
  5
6EBF
330
A
100
AcDbEntity
  8
0
100
AcDbLine
 10
85.27896468245712
 20
-30.89873550107484
 30
0.0
 11
85.27896468245712
 21
-30.29873558897484
 31
0.0
  0
LINE
  5
6EC0
330
A
100
AcDbEntity
  8
0
100
AcDbLine
 10
90.87896448275711
 20
24.10126350242518
 30
0.0
 11
85.27896468245712
 21
24.10126350242518
 31
0.0
  0
LINE
  5
6EC1
330
A
100
AcDbEntity
  8
0
100
AcDbLine
 10
85.27896468245712
 20
23.50126452162519
 30
0.0
 11
85.27896468245712
 21
24.10126350242518
 31
0.0
  0
LINE
  5
6EC2
330
A
100
AcDbEntity
  8
0
100
AcDbLine
 10
91.47896532615715
 20
23.50126452162519
 30
0.0
 11
91.47896532615715
 21
-30.29873558897484
 31
0.0
  0
ARC
  5
6EC3
330
A
100
AcDbEntity
  8
0
100
AcDbCircle
 10
20.87896490475714
 20
-30.29873553117484
 30
0.0
 40
0.5999999999999943
100
AcDbArc
 50
180.0
 51
270.0
  0
ARC
  5
6EC4
330
A
100
AcDbEntity
  8
0
100
AcDbCircle
 10
20.87896490475714
 20
23.50126446882518
 30
0.0
 40
0.5999999999999943
100
AcDbArc
 50
90.0
 51
180.0
  0
ARC
  5
6EC5
330
A
100
AcDbEntity
  8
0
100
AcDbCircle
 10
74.67896490475715
 20
23.50126446882518
 30
0.0
 40
0.5999999999999943
100
AcDbArc
 50
0.0
 51
90.0
  0
ARC
  5
6EC6
330
A
100
AcDbEntity
  8
0
100
AcDbCircle
 10
74.67896490475715
 20
-30.29873553117484
 30
0.0
 40
0.5999999999999943
100
AcDbArc
 50
270.0
 51
0.0
  0
LINE
  5
6EC7
330
A
100
AcDbEntity
  8
0
100
AcDbLine
 10
20.87896418475714
 20
-30.89873550107484
 30
0.0
 11
74.67896487745713
 21
-30.89873550107484
 31
0.0
  0
LINE
  5
6EC8
330
A
100
AcDbEntity
  8
0
100
AcDbLine
 10
74.67896487745713
 20
24.10126350242518
 30
0.0
 11
20.87896418475714
 21
24.10126350242518
 31
0.0
  0
LINE
  5
6EC9
330
A
100
AcDbEntity
  8
0
100
AcDbLine
 10
20.27896520395711
 20
23.50126452162519
 30
0.0
 11
20.27896520395711
 21
-30.29873558897484
 31
0.0
  0
LINE
  5
6ECA
330
A
100
AcDbEntity
  8
0
100
AcDbLine
 10
75.27896490475712
 20
-30.29873558897484
 30
0.0
 11
75.27896490475712
 21
23.50126452162519
 31
0.0
  0
LINE
  5
6ECB
330
A
100
AcDbEntity
  8
0
100
AcDbLine
 10
75.27896490475712
 20
23.50126452162519
 30
0.0
 11
75.27896490475712
 21
24.10126350242518
 31
0.0
  0
LINE
  5
6ECC
330
A
100
AcDbEntity
  8
0
100
AcDbLine
 10
75.27896490475712
 20
24.10126350242518
 30
0.0
 11
74.67896487745713
 21
24.10126350242518
 31
0.0
  0
LINE
  5
6ECD
330
A
100
AcDbEntity
  8
0
100
AcDbLine
 10
75.27896490475712
 20
-30.89873550107484
 30
0.0
 11
75.27896490475712
 21
-30.29873558897484
 31
0.0
  0
LINE
  5
6ECE
330
A
100
AcDbEntity
  8
0
100
AcDbLine
 10
74.67896487745713
 20
-30.89873550107484
 30
0.0
 11
75.27896490475712
 21
-30.89873550107484
 31
0.0
  0
LINE
  5
6ECF
330
A
100
AcDbEntity
  8
0
  6
Continuous
 62
     8
370
     0
100
AcDbLine
 10
85.27896468245712
 20
-21.39873557377483
 30
0.0
 11
84.27896451845714
 21
-21.39873557377483
 31
0.0
  0
LINE
  5
6ED0
330
A
100
AcDbEntity
  8
0
  6
Continuous
 62
     8
370
     0
100
AcDbLine
 10
85.27896468245712
 20
14.60126287652517
 30
0.0
 11
84.27896451845714
 21
14.60126287652517
 31
0.0
  0
LINE
  5
6ED1
330
A
100
AcDbEntity
  8
0
  6
Continuous
 62
     8
370
     0
100
AcDbLine
 10
76.27896495345715
 20
-21.39873557377483
 30
0.0
 11
75.27896490475712
 21
-21.39873557377483
 31
0.0
  0
LINE
  5
6ED2
330
A
100
AcDbEntity
  8
0
  6
Continuous
 62
     8
370
     0
100
AcDbLine
 10
76.27896495345715
 20
14.60126287652517
 30
0.0
 11
75.27896490475712
 21
14.60126287652517
 31
0.0
  0
LINE
  5
6ED3
330
A
100
AcDbEntity
  8
0
  6
Continuous
 62
     8
370
     0
100
AcDbLine
 10
90.87896448275711
 20
23.50126452162519
 30
0.0
 11
91.46928515925714
 21
23.50126452162519
 31
0.0
  0
LINE
  5
6ED4
330
A
100
AcDbEntity
  8
0
  6
Continuous
 62
     8
370
     0
100
AcDbLine
 10
90.87896448275711
 20
24.10126350242518
 30
0.0
 11
90.87896448275711
 21
23.50126452162519
 31
0.0
  0
LINE
  5
6ED5
330
A
100
AcDbEntity
  8
0
  6
Continuous
 62
     8
370
     0
100
AcDbLine
 10
90.87896448275711
 20
-30.29873558897484
 30
0.0
 11
90.87896448275711
 21
-30.89873550107484
 31
0.0
  0
LINE
  5
6ED6
330
A
100
AcDbEntity
  8
0
  6
Continuous
 62
     8
370
     0
100
AcDbLine
 10
91.47896532615715
 20
-30.29873558897484
 30
0.0
 11
90.87896448275711
 21
-30.29873558897484
 31
0.0
  0
LINE
  5
6ED7
330
A
100
AcDbEntity
  8
0
  6
Continuous
 62
     8
370
     0
100
AcDbLine
 10
85.27896468245712
 20
23.50126452162519
 30
0.0
 11
90.87896448275711
 21
23.50126452162519
 31
0.0
  0
LINE
  5
6ED8
330
A
100
AcDbEntity
  8
0
  6
Continuous
 62
     8
370
     0
100
AcDbLine
 10
90.87896448275711
 20
23.50126452162519
 30
0.0
 11
90.87896448275711
 21
-30.29873558897484
 31
0.0
  0
LINE
  5
6ED9
330
A
100
AcDbEntity
  8
0
  6
Continuous
 62
     8
370
     0
100
AcDbLine
 10
90.87896448275711
 20
-30.29873558897484
 30
0.0
 11
85.27896468245712
 21
-30.29873558897484
 31
0.0
  0
LINE
  5
6EDA
330
A
100
AcDbEntity
  8
0
  6
Continuous
 62
     8
370
     0
100
AcDbLine
 10
77.17896493795712
 20
-8.29873547537484
 30
0.0
 11
77.17896493795712
 21
1.501264640825184
 31
0.0
  0
LINE
  5
6EDB
330
A
100
AcDbEntity
  8
0
  6
Continuous
 62
     8
370
     0
100
AcDbLine
 10
20.87896418475714
 20
-30.89873550107484
 30
0.0
 11
20.87896418475714
 21
-30.29873558897484
 31
0.0
  0
LINE
  5
6EDC
330
A
100
AcDbEntity
  8
0
  6
Continuous
 62
     8
370
     0
100
AcDbLine
 10
20.87896418475714
 20
-30.29873558897484
 30
0.0
 11
20.27896520395711
 21
-30.29873558897484
 31
0.0
  0
LINE
  5
6EDD
330
A
100
AcDbEntity
  8
0
  6
Continuous
 62
     8
370
     0
100
AcDbLine
 10
20.87896418475714
 20
23.50126452162519
 30
0.0
 11
20.87896418475714
 21
24.10126350242518
 31
0.0
  0
LINE
  5
6EDE
330
A
100
AcDbEntity
  8
0
  6
Continuous
 62
     8
370
     0
100
AcDbLine
 10
20.27896520395711
 20
23.50126452162519
 30
0.0
 11
20.87896418475714
 21
23.50126452162519
 31
0.0
  0
LINE
  5
6EDF
330
A
100
AcDbEntity
  8
0
  6
Continuous
 62
     8
370
     0
100
AcDbLine
 10
74.67896487745713
 20
23.50126452162519
 30
0.0
 11
75.27896490475712
 21
23.50126452162519
 31
0.0
  0
LINE
  5
6EE0
330
A
100
AcDbEntity
  8
0
  6
Continuous
 62
     8
370
     0
100
AcDbLine
 10
74.67896487745713
 20
24.10126350242518
 30
0.0
 11
74.67896487745713
 21
23.50126452162519
 31
0.0
  0
LINE
  5
6EE1
330
A
100
AcDbEntity
  8
0
  6
Continuous
 62
     8
370
     0
100
AcDbLine
 10
74.67896487745713
 20
-30.29873558897484
 30
0.0
 11
74.67896487745713
 21
-30.89873550107484
 31
0.0
  0
LINE
  5
6EE2
330
A
100
AcDbEntity
  8
0
  6
Continuous
 62
     8
370
     0
100
AcDbLine
 10
75.27896490475712
 20
-30.29873558897484
 30
0.0
 11
74.67896487745713
 21
-30.29873558897484
 31
0.0
  0
LINE
  5
6EE3
330
A
100
AcDbEntity
  8
0
  6
Continuous
 62
     8
370
     0
100
AcDbLine
 10
20.87896418475714
 20
-30.29873558897484
 30
0.0
 11
74.67896487745713
 21
-30.29873558897484
 31
0.0
  0
LINE
  5
6EE4
330
A
100
AcDbEntity
  8
0
  6
Continuous
 62
     8
370
     0
100
AcDbLine
 10
74.67896487745713
 20
-30.29873558897484
 30
0.0
 11
74.67896487745713
 21
23.50126452162519
 31
0.0
  0
LINE
  5
6EE5
330
A
100
AcDbEntity
  8
0
  6
Continuous
 62
     8
370
     0
100
AcDbLine
 10
20.87896418475714
 20
23.50126452162519
 30
0.0
 11
20.87896418475714
 21
-30.29873558897484
 31
0.0
  0
LINE
  5
6EE6
330
A
100
AcDbEntity
  8
0
  6
Continuous
 62
     8
370
     0
100
AcDbLine
 10
74.67896487745713
 20
23.50126452162519
 30
0.0
 11
20.87896418475714
 21
23.50126452162519
 31
0.0
  0
INSERT
  5
6EE8
330
A
100
AcDbEntity
  8
ASSI
100
AcDbBlockReference
  2
SW_CENTERMARKSYMBOL_2
 10
47.77896490475712
 20
-3.398735531174836
 30
0.0
  0
LINE
  5
6EE9
330
A
100
AcDbEntity
  8
0
100
AcDbLine
 10
24.14487264465714
 20
-119.5690733188748
 30
0.0
 11
25.01089804835715
 21
-119.6984828413748
 31
0.0
  0
LINE
  5
6EEA
330
A
100
AcDbEntity
  8
0
100
AcDbLine
 10
44.78435841765713
 20
-64.98774574187485
 30
0.0
 11
43.91833301385714
 21
-64.85833621937483
 31
0.0
  0
SPLINE
  5
6EEB
330
A
100
AcDbEntity
  8
0
100
AcDbSpline
210
0.0
220
0.0
230
1.0
 70
     8
 71
     3
 72
    13
 73
     9
 74
     0
 42
0.000000001
 43
0.00000001
 40
0.0
 40
0.0
 40
0.0
 40
0.0
 40
0.0382757394193912
 40
0.2461493656504963
 40
0.478183459121392
 40
0.7339369609915278
 40
0.9836481015350553
 40
0.9999999999999999
 40
0.9999999999999999
 40
0.9999999999999999
 40
0.9999999999999999
 10
111.9501092332835
 20
-64.90440624972886
 30
0.0
 10
111.9512163600754
 20
-64.89358479967932
 30
0.0
 10
111.9583362370959
 20
-64.82399259570052
 30
0.0
 10
111.9214458286889
 20
-64.68891838861778
 30
0.0
 10
111.8266484780007
 20
-64.51258829737495
 30
0.0
 10
111.6627271849665
 20
-64.3794514540616
 30
0.0
 10
111.5217201091463
 20
-64.31181830737665
 30
0.0
 10
111.446168972758
 20
-64.31229921518735
 30
0.0
 10
111.4415256953012
 20
-64.31232877117422
 30
0.0
  0
LINE
  5
6EEC
330
A
100
AcDbEntity
  8
0
100
AcDbLine
 10
111.9536388329572
 20
-116.8704820359748
 30
0.0
 11
111.9536388329572
 21
-64.90367258157484
 31
0.0
  0
LINE
  5
6EED
330
A
100
AcDbEntity
  8
0
100
AcDbLine
 10
111.4423118514571
 20
-64.31026117637484
 30
0.0
 11
64.85014512785716
 21
-57.34802886317485
 31
0.0
  0
LINE
  5
6EEE
330
A
100
AcDbEntity
  8
0
100
AcDbLine
 10
108.7990777886571
 20
-118.6731908650748
 30
0.0
 11
111.5990777886572
 21
-117.4179852039748
 31
0.0
  0
SPLINE
  5
6EEF
330
A
100
AcDbEntity
  8
0
100
AcDbSpline
210
0.0
220
0.0
230
1.0
 70
     8
 71
     3
 72
    11
 73
     7
 74
     0
 42
0.000000001
 43
0.00000001
 40
0.0
 40
0.0
 40
0.0
 40
0.0
 40
0.2600148452528176
 40
0.5992129159889539
 40
0.9313556792096838
 40
0.9999999999999999
 40
0.9999999999999999
 40
0.9999999999999999
 40
0.9999999999999999
 10
111.5969992596247
 20
-117.411797138131
 30
0.0
 10
111.6508334818477
 20
-117.3847918947587
 30
0.0
 10
111.7748962492902
 20
-117.3225574072918
 30
0.0
 10
111.8990032905915
 20
-117.1431726465627
 30
0.0
 10
111.9614153913226
 20
-116.9766831355539
 30
0.0
 10
111.9489312049656
 20
-116.8856114257252
 30
0.0
 10
111.9467929911177
 20
-116.8700132292918
 30
0.0
  0
LINE
  5
6EF0
330
A
100
AcDbEntity
  8
0
100
AcDbLine
 10
64.51603315365713
 20
-57.39393710027484
 30
0.0
 11
61.71603315365712
 21
-58.64914276127485
 31
0.0
  0
SPLINE
  5
6EF1
330
A
100
AcDbEntity
  8
0
100
AcDbSpline
210
0.0
220
0.0
230
1.0
 70
     8
 71
     3
 72
    10
 73
     6
 74
     0
 42
0.000000001
 43
0.00000001
 40
0.0
 40
0.0
 40
0.0
 40
0.0
 40
0.0284820990499089
 40
0.5836362881076804
 40
1.0
 40
1.0
 40
1.0
 40
1.0
 10
64.85198353859602
 20
-57.35010090400235
 30
0.0
 10
64.84891677578253
 20
-57.34903540947164
 30
0.0
 10
64.78607470568681
 20
-57.32720200204623
 30
0.0
 10
64.66422414314366
 20
-57.33890848520905
 30
0.0
 10
64.56338882283126
 20
-57.38331370950134
 30
0.0
 10
64.52017380001575
 20
-57.40234446950655
 30
0.0
  0
SPLINE
  5
6EF2
330
A
100
AcDbEntity
  8
0
100
AcDbSpline
210
0.0
220
0.0
230
1.0
 70
     8
 71
     3
 72
    11
 73
     7
 74
     0
 42
0.000000001
 43
0.00000001
 40
0.0
 40
0.0
 40
0.0
 40
0.0
 40
0.2605867872804822
 40
0.599622788473911
 40
0.9316068531922518
 40
1.0
 40
1.0
 40
1.0
 40
1.0
 10
15.48891046249236
 20
-70.99351782218024
 30
0.0
 10
15.43492779686153
 20
-71.02059066765447
 30
0.0
 10
15.31071107492954
 20
-71.08288659318701
 30
0.0
 10
15.18649660567405
 20
-71.2623803998326
 30
0.0
 10
15.12408967209132
 20
-71.42882649214759
 30
0.0
 10
15.13656009533656
 20
-71.51984822526225
 30
0.0
 10
15.13869031519715
 20
-71.5353967194732
 30
0.0
  0
LINE
  5
6EF3
330
A
100
AcDbEntity
  8
0
100
AcDbLine
 10
15.13186056805716
 20
-71.53507676597484
 30
0.0
 11
15.13186056805716
 21
-123.5018862202748
 31
0.0
  0
LINE
  5
6EF4
330
A
100
AcDbEntity
  8
0
100
AcDbLine
 10
42.38642161235714
 20
-58.92863349727484
 30
0.0
 11
15.48642161235716
 21
-70.98757359787484
 31
0.0
  0
LINE
  5
6EF5
330
A
100
AcDbEntity
  8
0
100
AcDbLine
 10
15.64318754955713
 20
-124.0952976254748
 30
0.0
 11
20.49292981075712
 21
-124.8199909517748
 31
0.0
  0
SPLINE
  5
6EF6
330
A
100
AcDbEntity
  8
0
100
AcDbSpline
210
0.0
220
0.0
230
1.0
 70
     8
 71
     3
 72
    13
 73
     9
 74
     0
 42
0.000000001
 43
0.00000001
 40
0.0
 40
0.0
 40
0.0
 40
0.0
 40
0.0383264121931216
 40
0.2460867758396647
 40
0.477994442588922
 40
0.733608593916458
 40
0.9831836761748036
 40
1.0
 40
1.0
 40
1.0
 40
1.0
 10
15.13539519755454
 20
-123.5010918541095
 30
0.0
 10
15.13428567570895
 20
-123.5119335339826
 30
0.0
 10
15.12716164196621
 20
-123.5815459472509
 30
0.0
 10
15.16405163697465
 20
-123.7166414211717
 30
0.0
 10
15.25885193864713
 20
-123.8929662793949
 30
0.0
 10
15.42277024644073
 20
-124.0261246138827
 30
0.0
 10
15.56391123237466
 20
-124.0937639655025
 30
0.0
 10
15.63959886381116
 20
-124.0932629171586
 30
0.0
 10
15.64437674962403
 20
-124.0932312877929
 30
0.0
  0
LINE
  5
6EF7
330
A
100
AcDbEntity
  8
0
100
AcDbLine
 10
47.57027584775716
 20
-59.60741858637483
 30
0.0
 11
42.72053358655711
 21
-58.88272526007484
 31
0.0
  0
SPLINE
  5
6EF8
330
A
100
AcDbEntity
  8
0
100
AcDbSpline
210
0.0
220
0.0
230
1.0
 70
     8
 71
     3
 72
    10
 73
     6
 74
     0
 42
0.000000001
 43
0.00000001
 40
0.0
 40
0.0
 40
0.0
 40
0.0
 40
0.3010333454631124
 40
0.9623574502845176
 40
1.0
 40
1.0
 40
1.0
 40
1.0
 10
42.71906483776542
 20
-58.89226964565916
 30
0.0
 10
42.68544125139306
 20
-58.88562253999612
 30
0.0
 10
42.57795180101016
 20
-58.86437276234174
 30
0.0
 10
42.45459628624815
 20
-58.88466418417633
 30
0.0
 10
42.38837680776322
 20
-58.92934919525638
 30
0.0
 10
42.38481058612041
 20
-58.9317556873833
 30
0.0
  0
SPLINE
  5
6EF9
330
A
100
AcDbEntity
  8
0
100
AcDbSpline
210
0.0
220
0.0
230
1.0
 70
     8
 71
     3
 72
    10
 73
     6
 74
     0
 42
0.000000001
 43
0.00000001
 40
0.0
 40
0.0
 40
0.0
 40
0.0
 40
0.2643668281094795
 40
0.5936784422894481
 40
1.0
 40
1.0
 40
1.0
 40
1.0
 10
34.09084482682766
 20
-126.8434565259273
 30
0.0
 10
34.12949437756475
 20
-126.8503266722307
 30
0.0
 10
34.21628819069491
 20
-126.865754696181
 30
0.0
 10
34.36513836657991
 20
-126.8369139324781
 30
0.0
 10
34.46075069907153
 20
-126.7846850067567
 30
0.0
 10
34.51356146584874
 20
-126.7558367447865
 30
0.0
  0
LINE
  5
6EFA
330
A
100
AcDbEntity
  8
0
100
AcDbLine
 10
29.14885285565714
 20
-126.1134390002748
 30
0.0
 11
34.08952865025714
 21
-126.8517204557748
 31
0.0
  0
LINE
  5
6EFB
330
A
100
AcDbEntity
  8
0
100
AcDbLine
 10
34.42114012445711
 20
-126.8069331621748
 30
0.0
 11
55.97364062435713
 21
-117.1452115060748
 31
0.0
  0
SPLINE
  5
6EFC
330
A
100
AcDbEntity
  8
0
100
AcDbSpline
210
0.0
220
0.0
230
1.0
 70
     8
 71
     3
 72
    10
 73
     6
 74
     0
 42
0.000000001
 43
0.00000001
 40
0.0
 40
0.0
 40
0.0
 40
0.0
 40
0.2643668281138313
 40
0.5936784422911892
 40
0.9999999999999999
 40
0.9999999999999999
 40
0.9999999999999999
 40
0.9999999999999999
 10
100.6162819911326
 20
-122.2298939005275
 30
0.0
 10
100.6549315418706
 20
-122.236764046831
 30
0.0
 10
100.7417253550017
 20
-122.2521920707811
 30
0.0
 10
100.8905755308879
 20
-122.2233513070773
 30
0.0
 10
100.9861878633793
 20
-122.1711223813552
 30
0.0
 10
101.0389986301566
 20
-122.1422741193846
 30
0.0
  0
LINE
  5
6EFD
330
A
100
AcDbEntity
  8
0
100
AcDbLine
 10
63.28927091135716
 20
-116.6606074084748
 30
0.0
 11
100.6149658145571
 21
-122.2381578303748
 31
0.0
  0
LINE
  5
6EFE
330
A
100
AcDbEntity
  8
0
100
AcDbLine
 10
100.9465772887571
 20
-122.1933705367748
 30
0.0
 11
103.8015782886571
 21
-120.9135086019748
 31
0.0
  0
SPLINE
  5
6EFF
330
A
100
AcDbEntity
  8
0
100
AcDbSpline
210
0.0
220
0.0
230
1.0
 70
     8
 71
     3
 72
    13
 73
     9
 74
     0
 42
0.000000001
 43
0.00000001
 40
0.0
 40
0.0
 40
0.0
 40
0.0
 40
0.2669352053717179
 40
0.3733813545263366
 40
0.5487011926587434
 40
0.7277411294641744
 40
0.9164633777103324
 40
0.9999999999999999
 40
0.9999999999999999
 40
0.9999999999999999
 40
0.9999999999999999
 10
60.57794392986841
 20
-116.4730150117463
 30
0.0
 10
60.83147472055555
 20
-116.4755112959834
 30
0.0
 10
61.18610636200236
 20
-116.4790030272012
 30
0.0
 10
61.69908430952842
 20
-116.5020382963037
 30
0.0
 10
62.12387580859013
 20
-116.528777688244
 30
0.0
 10
62.60842801843046
 20
-116.5729698524334
 30
0.0
 10
62.99993745533146
 20
-116.6173730722494
 30
0.0
 10
63.21860849339856
 20
-116.651591395145
 30
0.0
 10
63.28570287264415
 20
-116.6620905319022
 30
0.0
  0
SPLINE
  5
6F00
330
A
100
AcDbEntity
  8
0
100
AcDbSpline
210
0.0
220
0.0
230
1.0
 70
     8
 71
     3
 72
    17
 73
    13
 74
     0
 42
0.000000001
 43
0.00000001
 40
0.0
 40
0.0
 40
0.0
 40
0.0
 40
0.0580068455725103
 40
0.1619465666256401
 40
0.2688388952626157
 40
0.377457121409875
 40
0.4863461946716046
 40
0.5932497538108554
 40
0.7074407273483071
 40
0.7913291313157098
 40
0.8658544814685571
 40
1.0
 40
1.0
 40
1.0
 40
1.0
 10
55.98130619506111
 20
-117.1450944242704
 30
0.0
 10
56.02819010591963
 20
-117.123668865547
 30
0.0
 10
56.15908307757815
 20
-117.0638518622425
 30
0.0
 10
56.44997996818273
 20
-116.9650381724274
 30
0.0
 10
56.84339971525156
 20
-116.8552532458063
 30
0.0
 10
57.30006566793003
 20
-116.7544815479011
 30
0.0
 10
57.80218040094383
 20
-116.6669512545812
 30
0.0
 10
58.35185303998685
 20
-116.5929629803883
 30
0.0
 10
58.88919674237502
 20
-116.5398581913676
 30
0.0
 10
59.38621641304866
 20
-116.5057047857975
 30
0.0
 10
59.92990747531081
 20
-116.4795294870166
 30
0.0
 10
60.32436449357033
 20
-116.4755641537818
 30
0.0
 10
60.57794392986841
 20
-116.4730150117463
 30
0.0
  0
LWPOLYLINE
  5
6F01
330
A
100
AcDbEntity
  8
0
100
AcDbPolyline
 90
       12
 70
   128
 43
0.0
 10
25.03160282925711
 20
-73.06607456287485
 10
24.60465831445714
 20
-73.31645894587484
 10
24.18640515875711
 20
-73.67972701077484
 10
23.78535779025714
 20
-74.14848366737483
 10
23.40968037685712
 20
-74.71318638197484
 10
23.06702062745711
 20
-75.36233943577484
 10
22.76435410615716
 20
-76.08272794457484
 10
22.50784223075715
 20
-76.85968687577484
 10
22.30270684315713
 20
-77.67739958607484
 10
22.15312390845713
 20
-78.51921980287484
 10
22.06213850365714
 20
-79.36801049407484
 10
22.03160282925711
 20
-80.20649272887484
  0
LWPOLYLINE
  5
6F02
330
A
100
AcDbEntity
  8
0
100
AcDbPolyline
 90
       12
 70
   128
 43
0.0
 10
25.89762823305716
 20
-73.19548408547485
 10
25.47068371825713
 20
-73.44586846837484
 10
25.05243056255716
 20
-73.80913653327484
 10
24.65138319405713
 20
-74.27789318997483
 10
24.27570578065712
 20
-74.84259590457484
 10
23.93304603115712
 20
-75.49174895837484
 10
23.63037950995715
 20
-76.21213746717484
 10
23.37386763455714
 20
-76.98909639837484
 10
23.16873224695712
 20
-77.80680910867484
 10
23.01914931215714
 20
-78.64862932537484
 10
22.92816390735715
 20
-79.49742001657484
 10
22.89762823305716
 20
-80.33590225147483
  0
LINE
  5
6F03
330
A
100
AcDbEntity
  8
0
100
AcDbLine
 10
43.89762823305716
 20
-65.12630483597484
 30
0.0
 11
25.89762823305716
 21
-73.19548408547485
 31
0.0
  0
ARC
  5
6F04
330
A
100
AcDbEntity
  8
0
100
AcDbCircle
 10
44.55849284765713
 20
-66.54685618247484
 30
0.0
 40
1.566750831211287
100
AcDbArc
 50
38.95342120710032
 51
114.9486488724009
  0
LINE
  5
6F05
330
A
100
AcDbEntity
  8
0
100
AcDbLine
 10
25.89762823305716
 20
-119.5599237473748
 30
0.0
 11
28.94185686705714
 21
-118.1952333848748
 31
0.0
  0
LWPOLYLINE
  5
6F06
330
A
100
AcDbEntity
  8
0
100
AcDbPolyline
 90
       12
 70
   128
 43
0.0
 10
22.89762823305716
 20
-115.1092319978748
 10
22.92816390735715
 20
-115.9203366960748
 10
23.01914931215714
 20
-116.6875521049748
 10
23.16873224695712
 20
-117.3952599312748
 10
23.37386763455714
 20
-118.0290532846748
 10
23.63037950995715
 20
-118.5760299600748
 10
23.93304603115712
 20
-119.0250550896748
 10
24.27570578065712
 20
-119.3669878167748
 10
24.65138319405713
 20
-119.5948673771748
 10
25.05243056255716
 20
-119.7040547999748
 10
25.47068371825713
 20
-119.6923273443748
 10
25.89762823305716
 20
-119.5599237473748
  0
LINE
  5
6F07
330
A
100
AcDbEntity
  8
0
100
AcDbLine
 10
22.89762823305716
 20
-80.33590225147483
 30
0.0
 11
22.89762823305716
 21
-115.1092319978748
 31
0.0
  0
LINE
  5
6F08
330
A
100
AcDbEntity
  8
0
100
AcDbLine
 10
22.03160282925711
 20
-80.20649272887484
 30
0.0
 11
22.03160282925711
 21
-114.9798224752748
 31
0.0
  0
LINE
  5
6F09
330
A
100
AcDbEntity
  8
0
100
AcDbLine
 10
43.03160282925711
 20
-64.99689531337484
 30
0.0
 11
25.03160282925711
 21
-73.06607456287485
 31
0.0
  0
LWPOLYLINE
  5
6F0A
330
A
100
AcDbEntity
  8
0
100
AcDbPolyline
 90
       10
 70
   128
 43
0.0
 10
22.03160282925711
 20
-114.9798224752748
 10
22.06213850365714
 20
-115.7909271734748
 10
22.15312390845713
 20
-116.5581425823748
 10
22.30270684315713
 20
-117.2658504087748
 10
22.50784223075715
 20
-117.8996437620748
 10
22.76435410615716
 20
-118.4466204374748
 10
23.06702062745711
 20
-118.8956455670748
 10
23.40968037685712
 20
-119.2375782942748
 10
23.78535779025714
 20
-119.4654578545748
 10
24.14487264465714
 20
-119.5690733188748
  0
ARC
  5
6F0B
330
A
100
AcDbEntity
  8
0
100
AcDbCircle
 10
43.70327867875716
 20
-66.38872549167483
 30
0.0
 40
1.545425408047943
100
AcDbArc
 50
82.00102249609948
 51
115.7612422665005
  0
ARC
  5
6F0C
330
A
100
AcDbEntity
  8
0
100
AcDbCircle
 10
99.00658526875714
 20
-74.42550909237484
 30
0.0
 40
7.035724947853772
100
AcDbArc
 50
0.36791681809997
 51
43.9344075501
  0
ARC
  5
6F0D
330
A
100
AcDbEntity
  8
0
100
AcDbCircle
 10
98.50257126215712
 20
-74.65101742777485
 30
0.0
 40
7.039747760608159
100
AcDbArc
 50
0.3788120661000186
 51
37.6910990365001
  0
LINE
  5
6F0E
330
A
100
AcDbEntity
  8
0
100
AcDbLine
 10
105.5421651619571
 20
-109.3778040956748
 30
0.0
 11
105.5421651619571
 21
-74.60447434927484
 31
0.0
  0
ARC
  5
6F0F
330
A
100
AcDbEntity
  8
0
100
AcDbCircle
 10
100.2261756890571
 20
-109.5247046357748
 30
0.0
 40
5.318018789521537
100
AcDbArc
 50
316.3362771073003
 51
1.582892435300088
  0
LINE
  5
6F10
330
A
100
AcDbEntity
  8
0
100
AcDbLine
 10
106.0421651619571
 20
-109.1536602275748
 30
0.0
 11
106.0421651619571
 21
-74.38033048117484
 31
0.0
  0
ARC
  5
6F11
330
A
100
AcDbEntity
  8
0
100
AcDbCircle
 10
100.8394174233571
 20
-109.3225411856748
 30
0.0
 40
5.205487951153445
100
AcDbArc
 50
308.4064519789003
 51
1.859165645199985
  0
LINE
  5
6F12
330
A
100
AcDbEntity
  8
0
100
AcDbLine
 10
61.96147210935715
 20
-58.61709043357484
 30
0.0
 11
108.5536388329571
 21
-65.57932274687484
 31
0.0
  0
ARC
  5
6F13
330
A
100
AcDbEntity
  8
0
100
AcDbCircle
 10
108.4136788776572
 20
-66.22399904207484
 30
0.0
 40
0.6596941069598011
100
AcDbArc
 50
358.9121202896
 51
77.75110246660013
  0
LINE
  5
6F14
330
A
100
AcDbEntity
  8
0
100
AcDbLine
 10
109.0732540752571
 20
-66.23652395617484
 30
0.0
 11
109.0732540752571
 21
-118.2033334104748
 31
0.0
  0
ARC
  5
6F15
330
A
100
AcDbEntity
  8
0
100
AcDbCircle
 10
108.6088242687571
 20
-118.2424478271748
 30
0.0
 40
0.4660740099047437
100
AcDbArc
 50
263.1999475658014
 51
4.814106825501113
  0
LINE
  5
6F16
330
A
100
AcDbEntity
  8
0
100
AcDbLine
 10
108.5536388329571
 20
-118.7052431927748
 30
0.0
 11
104.0732540752571
 21
-118.0357426794748
 31
0.0
  0
LINE
  5
6F17
330
A
100
AcDbEntity
  8
0
100
AcDbLine
 10
61.44185686705714
 20
-61.52802962727483
 30
0.0
 11
61.44185686705714
 21
-59.11900021587483
 31
0.0
  0
ARC
  5
6F18
330
A
100
AcDbEntity
  8
0
100
AcDbCircle
 10
61.90628667355713
 20
-59.07988579917485
 30
0.0
 40
0.4660740099047684
100
AcDbArc
 50
83.19994756580182
 51
184.8141068255008
  0
ARC
  5
6F19
330
A
100
AcDbEntity
  8
0
100
AcDbCircle
 10
64.69298883685713
 20
-57.79322172787484
 30
0.0
 40
0.4367396565935828
100
AcDbArc
 50
80.97846336750227
 51
113.9020499245
  0
LINE
  5
6F1A
330
A
100
AcDbEntity
  8
0
100
AcDbLine
 10
20.58160282925712
 20
-71.68021459647484
 30
0.0
 11
47.48160282925716
 21
-59.62127449577484
 31
0.0
  0
LWPOLYLINE
  5
6F1B
330
A
100
AcDbEntity
  8
0
100
AcDbPolyline
 90
        9
 70
   128
 43
0.0
 10
47.78160282925711
 20
-60.06634367077484
 10
47.77583841335712
 20
-59.95586211937484
 10
47.75876668905715
 20
-59.85479454597484
 10
47.73104371295716
 20
-59.76702492067484
 10
47.69373486365714
 20
-59.69592618097484
 10
47.64827389915712
 20
-59.64423061157484
 10
47.59640785895715
 20
-59.61392484417485
 10
47.54012992585712
 20
-59.60617351247484
 10
47.48160282925716
 20
-59.62127449577484
  0
LINE
  5
6F1C
330
A
100
AcDbEntity
  8
0
100
AcDbLine
 10
47.78160282925711
 20
-60.06634367077484
 30
0.0
 11
47.78160282925711
 21
-64.66316907707484
 31
0.0
  0
LINE
  5
6F1D
330
A
100
AcDbEntity
  8
0
100
AcDbLine
 10
28.94185686705714
 20
-121.0583356866748
 30
0.0
 11
20.58160282925712
 21
-124.8061350423748
 31
0.0
  0
LWPOLYLINE
  5
6F1E
330
A
100
AcDbEntity
  8
0
100
AcDbPolyline
 90
        9
 70
   128
 43
0.0
 10
20.28160282925711
 20
-124.3610658673748
 10
20.28736724515716
 20
-124.4715474187748
 10
20.30443896945712
 20
-124.5726149921748
 10
20.33216194555712
 20
-124.6603846174748
 10
20.36947079485714
 20
-124.7314833571748
 10
20.41493175935716
 20
-124.7831789265748
 10
20.46679779955713
 20
-124.8134846939748
 10
20.52307573265716
 20
-124.8212360256748
 10
20.58160282925712
 20
-124.8061350423748
  0
LINE
  5
6F1F
330
A
100
AcDbEntity
  8
0
100
AcDbLine
 10
20.28160282925711
 20
-124.3610658673748
 30
0.0
 11
20.28160282925711
 21
-72.39425641307484
 31
0.0
  0
ARC
  5
6F20
330
A
100
AcDbEntity
  8
0
100
AcDbCircle
 10
21.10228800465711
 20
-72.31901949547483
 30
0.0
 40
0.8241266594908482
100
AcDbArc
 50
129.1832235483981
 51
185.2379913782
  0
ARC
  5
6F21
330
A
100
AcDbEntity
  8
0
100
AcDbCircle
 10
42.56337729555713
 20
-59.32791812487484
 30
0.0
 40
0.4367396565937844
100
AcDbArc
 50
80.978463367499
 51
113.902049924497
  0
LINE
  5
6F22
330
A
100
AcDbEntity
  8
0
100
AcDbLine
 10
29.24185686705715
 20
-72.97430982197484
 30
0.0
 11
56.14185686705713
 21
-60.91536972127484
 31
0.0
  0
ARC
  5
6F23
330
A
100
AcDbEntity
  8
0
100
AcDbCircle
 10
56.66980107895716
 20
-62.59042436257484
 30
0.0
 40
1.756283901347258
100
AcDbArc
 50
80.44043723440048
 51
107.493824367201
  0
LINE
  5
6F24
330
A
100
AcDbEntity
  8
0
100
AcDbLine
 10
56.96147210935715
 20
-60.85852911397484
 30
0.0
 11
103.5536388329571
 21
-67.82076142727485
 31
0.0
  0
LWPOLYLINE
  5
6F25
330
A
100
AcDbEntity
  8
0
100
AcDbPolyline
 90
       21
 70
   128
 43
0.0
 10
77.59201101455716
 20
-64.62870950267484
 10
77.45185826835711
 20
-64.72320702427484
 10
77.43139040005713
 20
-64.82428885217485
 10
77.53261094725713
 20
-64.92206039287484
 10
77.74561173745712
 20
-65.00695108657484
 10
78.04954276925713
 20
-65.07065124087484
 10
78.41465315575715
 20
-65.10692544087485
 10
78.80520334835711
 20
-65.11222291497484
 10
79.18296357315711
 20
-65.08602510957483
 10
79.51095602725712
 20
-65.03089644847483
 10
79.75707452405715
 20
-64.95223330907484
 10
79.89722727015715
 20
-64.85773578747484
 10
79.91769513845713
 20
-64.75665395957483
 10
79.81647459135712
 20
-64.65888241887484
 10
79.60347380115712
 20
-64.57399172517484
 10
79.29954276925713
 20
-64.51029157077484
 10
78.93443238275711
 20
-64.47401737087483
 10
78.54388219015715
 20
-64.46871989677484
 10
78.16612196545714
 20
-64.49491770207484
 10
77.83812951135712
 20
-64.55004636327484
 10
77.59201101455716
 20
-64.62870950267484
  0
LWPOLYLINE
  5
6F26
330
A
100
AcDbEntity
  8
0
100
AcDbPolyline
 90
       21
 70
   128
 43
0.0
 10
44.30871529575711
 20
-67.41058957457484
 10
44.67382568225713
 20
-67.44686377447483
 10
45.06437587485715
 20
-67.45216124857484
 10
45.44213609965715
 20
-67.42596344327484
 10
45.77012855375716
 20
-67.37083478207484
 10
46.01624705055713
 20
-67.29217164267484
 10
46.15639979675711
 20
-67.19767412107484
 10
46.17686766505716
 20
-67.09659229317484
 10
46.07564711785716
 20
-66.99882075257484
 10
45.86264632765716
 20
-66.91393005877484
 10
45.55871529575711
 20
-66.85022990447484
 10
45.19360490935713
 20
-66.81395570447484
 10
44.80305471675712
 20
-66.80865823037485
 10
44.42529449195712
 20
-66.83485603577483
 10
44.09730203785716
 20
-66.88998469687483
 10
43.85118354105714
 20
-66.96864783627484
 10
43.71103079485715
 20
-67.06314535787484
 10
43.69056292655716
 20
-67.16422718577483
 10
43.79178347375716
 20
-67.26199872647484
 10
44.00478426395716
 20
-67.34688942017485
 10
44.30871529575711
 20
-67.41058957457484
  0
ARC
  5
6F27
330
A
100
AcDbEntity
  8
0
100
AcDbCircle
 10
29.76254204245714
 20
-73.61311472097483
 30
0.0
 40
0.8241266594911077
100
AcDbArc
 50
129.183223548501
 51
185.2379913782003
  0
LINE
  5
6F28
330
A
100
AcDbEntity
  8
0
100
AcDbLine
 10
28.94185686705714
 20
-73.68835163857484
 30
0.0
 11
28.94185686705714
 21
-125.6551610929748
 31
0.0
  0
SPLINE
  5
6F29
330
A
100
AcDbEntity
  8
0
100
AcDbSpline
210
0.0
220
0.0
230
1.0
 70
     8
 71
     3
 72
    11
 73
     7
 74
     0
 42
0.000000001
 43
0.00000001
 40
0.0
 40
0.0
 40
0.0
 40
0.0
 40
0.0725504296369461
 40
0.3817002864246318
 40
0.6908501432123174
 40
1.0
 40
1.0
 40
1.0
 40
1.0
 10
29.15399396286062
 20
-126.1058551236428
 30
0.0
 10
29.14491591821513
 20
-126.1070331665648
 30
0.0
 10
29.09715476423236
 20
-126.1132310529592
 30
0.0
 10
29.02533974236746
 20
-126.0338035743297
 30
0.0
 10
28.95524035865611
 20
-125.8778241597116
 30
0.0
 10
28.94631803095376
 20
-125.7293821151887
 30
0.0
 10
28.94185686710256
 20
-125.6551610929273
 30
0.0
  0
ARC
  5
6F2A
330
A
100
AcDbEntity
  8
0
100
AcDbCircle
 10
103.4136788776572
 20
-68.46543772257483
 30
0.0
 40
0.6596941069597311
100
AcDbArc
 50
358.9121202895998
 51
77.75110246659881
  0
LINE
  5
6F2B
330
A
100
AcDbEntity
  8
0
100
AcDbLine
 10
104.0732540752571
 20
-120.4447720909748
 30
0.0
 11
104.0732540752571
 21
-68.47796263657484
 31
0.0
  0
SPLINE
  5
6F2C
330
A
100
AcDbEntity
  8
0
100
AcDbSpline
210
0.0
220
0.0
230
1.0
 70
     8
 71
     3
 72
    10
 73
     6
 74
     0
 42
0.000000001
 43
0.00000001
 40
0.0
 40
0.0
 40
0.0
 40
0.0
 40
0.3638402382395875
 40
0.7276804764791787
 40
1.0
 40
1.0
 40
1.0
 40
1.0
 10
104.0732540752488
 20
-120.4447720909358
 30
0.0
 10
104.0651933441594
 20
-120.5189254884324
 30
0.0
 10
104.0490718819804
 20
-120.6672322834259
 30
0.0
 10
103.9424232741956
 20
-120.8348463151335
 30
0.0
 10
103.8391139626721
 20
-120.8853817561664
 30
0.0
 10
103.7948905707185
 20
-120.907014352332
 30
0.0
  0
LINE
  5
6F2D
330
A
100
AcDbEntity
  8
0
  6
Continuous
 62
     8
370
     0
100
AcDbLine
 10
22.03160282925711
 20
-80.20649272887484
 30
0.0
 11
22.89762823305716
 21
-80.33590225147483
 31
0.0
  0
LINE
  5
6F2E
330
A
100
AcDbEntity
  8
0
  6
Continuous
 62
     8
370
     0
100
AcDbLine
 10
25.03160282925711
 20
-73.06607456287485
 30
0.0
 11
25.89762823305716
 21
-73.19548408547485
 31
0.0
  0
LINE
  5
6F2F
330
A
100
AcDbEntity
  8
0
  6
Continuous
 62
     8
370
     0
100
AcDbLine
 10
22.03160282925711
 20
-114.9798224752748
 30
0.0
 11
22.89762823305716
 21
-115.1092319978748
 31
0.0
  0
LINE
  5
6F30
330
A
100
AcDbEntity
  8
0
  6
Continuous
 62
     8
370
     0
100
AcDbLine
 10
43.03160282925711
 20
-64.99689531337484
 30
0.0
 11
43.89762823305716
 21
-65.12630483597484
 31
0.0
  0
LINE
  5
6F31
330
A
100
AcDbEntity
  8
0
  6
Continuous
 62
     8
370
     0
100
AcDbLine
 10
105.5421651619571
 20
-74.60447434927484
 30
0.0
 11
106.0421651619571
 21
-74.38033048117484
 31
0.0
  0
LINE
  5
6F32
330
A
100
AcDbEntity
  8
0
  6
Continuous
 62
     8
370
     0
100
AcDbLine
 10
106.0421651619571
 20
-109.1536602275748
 30
0.0
 11
105.5421651619571
 21
-109.3778040956748
 31
0.0
  0
LINE
  5
6F33
330
A
100
AcDbEntity
  8
0
  6
Continuous
 62
     8
370
     0
100
AcDbLine
 10
109.0732540752571
 20
-66.23652395617484
 30
0.0
 11
111.8732540752571
 21
-64.98131829517484
 31
0.0
  0
LINE
  5
6F34
330
A
100
AcDbEntity
  8
0
  6
Continuous
 62
     8
370
     0
100
AcDbLine
 10
111.3536388329571
 20
-64.32411708577484
 30
0.0
 11
108.5536388329571
 21
-65.57932274687484
 31
0.0
  0
ARC
  5
6F35
330
A
100
AcDbEntity
  8
0
  6
Continuous
 62
     8
370
     0
100
AcDbCircle
 10
111.2136788776571
 20
-64.96879338107485
 30
0.0
 40
0.6596941069596243
100
AcDbArc
 50
358.9121202895996
 51
77.75110246660181
  0
LINE
  5
6F36
330
A
100
AcDbEntity
  8
0
  6
Continuous
 62
     8
370
     0
100
AcDbLine
 10
111.8732540752571
 20
-64.98131829517484
 30
0.0
 11
111.8732540752571
 21
-116.9481277494748
 31
0.0
  0
LINE
  5
6F37
330
A
100
AcDbEntity
  8
0
  6
Continuous
 62
     8
370
     0
100
AcDbLine
 10
111.8732540752571
 20
-116.9481277494748
 30
0.0
 11
109.0732540752571
 21
-118.2033334104748
 31
0.0
  0
LINE
  5
6F38
330
A
100
AcDbEntity
  8
0
  6
Continuous
 62
     8
370
     0
100
AcDbLine
 10
61.96147210935715
 20
-58.61709043357484
 30
0.0
 11
64.76147210935716
 21
-57.36188477257484
 31
0.0
  0
LINE
  5
6F39
330
A
100
AcDbEntity
  8
0
  6
Continuous
 62
     8
370
     0
100
AcDbLine
 10
64.76147210935716
 20
-57.36188477257484
 30
0.0
 11
111.3536388329571
 21
-64.32411708577484
 31
0.0
  0
LWPOLYLINE
  5
6F3A
330
A
100
AcDbEntity
  8
0
  6
Continuous
 62
     8
370
     0
100
AcDbPolyline
 90
        3
 70
   128
 43
0.0
 10
111.4421975852571
 20
-64.31024414997484
 10
111.4121659295571
 20
-64.30901610257484
 10
111.3536388329571
 20
-64.32411708577484
  0
ARC
  5
6F3B
330
A
100
AcDbEntity
  8
0
  6
Continuous
 62
     8
370
     0
100
AcDbCircle
 10
111.8520575131571
 20
-64.87892599957485
 30
0.0
 40
0.1045632652422726
100
AcDbArc
 50
281.6957809954047
 51
346.2836849071979
  0
ARC
  5
6F3C
330
A
100
AcDbEntity
  8
0
  6
Continuous
 62
     8
370
     0
100
AcDbCircle
 10
111.8520862874572
 20
-116.8457801736748
 30
0.0
 40
0.1045136426980381
100
AcDbArc
 50
281.6853038369951
 51
346.3287505543016
  0
LWPOLYLINE
  5
6F3D
330
A
100
AcDbEntity
  8
0
  6
Continuous
 62
     8
370
     0
100
AcDbPolyline
 90
        3
 70
   128
 43
0.0
 10
64.76147210935716
 20
-57.36188477257484
 10
64.81999920595712
 20
-57.34678378927484
 10
64.85014512785716
 20
-57.34802886317485
  0
ARC
  5
6F3E
330
A
100
AcDbEntity
  8
0
  6
Continuous
 62
     8
370
     0
100
AcDbCircle
 10
111.3776267728571
 20
-116.9738378418748
 30
0.0
 40
0.4962936950127789
100
AcDbArc
 50
296.5007552296012
 51
2.96949059170111
  0
LINE
  5
6F3F
330
A
100
AcDbEntity
  8
0
  6
Continuous
 62
     8
370
     0
100
AcDbLine
 10
20.58160282925712
 20
-71.68021459647484
 30
0.0
 11
15.73186056805713
 21
-70.95552127017484
 31
0.0
  0
LINE
  5
6F40
330
A
100
AcDbEntity
  8
0
  6
Continuous
 62
     8
370
     0
100
AcDbLine
 10
15.43186056805712
 20
-71.66956308677484
 30
0.0
 11
20.28160282925711
 21
-72.39425641307484
 31
0.0
  0
ARC
  5
6F41
330
A
100
AcDbEntity
  8
0
  6
Continuous
 62
     8
370
     0
100
AcDbCircle
 10
16.25254574345712
 20
-71.59432616917483
 30
0.0
 40
0.8241266594911016
100
AcDbArc
 50
129.183223548501
 51
185.2379913782003
  0
LINE
  5
6F42
330
A
100
AcDbEntity
  8
0
  6
Continuous
 62
     8
370
     0
100
AcDbLine
 10
20.28160282925711
 20
-124.3610658673748
 30
0.0
 11
15.43186056805712
 21
-123.6363725411748
 31
0.0
  0
LINE
  5
6F43
330
A
100
AcDbEntity
  8
0
  6
Continuous
 62
     8
370
     0
100
AcDbLine
 10
15.43186056805712
 20
-123.6363725411748
 30
0.0
 11
15.43186056805712
 21
-71.66956308677484
 31
0.0
  0
LINE
  5
6F44
330
A
100
AcDbEntity
  8
0
  6
Continuous
 62
     8
370
     0
100
AcDbLine
 10
15.73186056805713
 20
-70.95552127017484
 30
0.0
 11
42.63186056805716
 21
-58.89658116947484
 31
0.0
  0
LINE
  5
6F45
330
A
100
AcDbEntity
  8
0
  6
Continuous
 62
     8
370
     0
100
AcDbLine
 10
42.63186056805716
 20
-58.89658116947484
 30
0.0
 11
47.48160282925716
 21
-59.62127449577484
 31
0.0
  0
ARC
  5
6F46
330
A
100
AcDbEntity
  8
0
  6
Continuous
 62
     8
370
     0
100
AcDbCircle
 10
15.66337706575712
 20
-71.38683071617484
 30
0.0
 40
0.4367125236758999
100
AcDbArc
 50
80.97786765860276
 51
113.9617568271014
  0
LWPOLYLINE
  5
6F47
330
A
100
AcDbEntity
  8
0
  6
Continuous
 62
     8
370
     0
100
AcDbPolyline
 90
        7
 70
   128
 43
0.0
 10
15.13186066975715
 20
-71.53516718577484
 10
15.13314521415714
 20
-71.54523331117484
 10
15.15230507225715
 20
-71.57526914477484
 10
15.19373692315713
 20
-71.60376040787484
 10
15.25584856385711
 20
-71.62961219697485
 10
15.33625307895716
 20
-71.65183104257484
 10
15.43186056805712
 20
-71.66956308677484
  0
LWPOLYLINE
  5
6F48
330
A
100
AcDbEntity
  8
0
  6
Continuous
 62
     8
370
     0
100
AcDbPolyline
 90
        7
 70
   128
 43
0.0
 10
15.43186056805712
 20
-123.6363725411748
 10
15.33625307895716
 20
-123.6186404969748
 10
15.25584856385711
 20
-123.5964216513748
 10
15.19373692315713
 20
-123.5705698621748
 10
15.15230507225715
 20
-123.5420785991748
 10
15.13314521415714
 20
-123.5120427655748
 10
15.13186056805716
 20
-123.5018862202748
  0
LWPOLYLINE
  5
6F49
330
A
100
AcDbEntity
  8
0
  6
Continuous
 62
     8
370
     0
100
AcDbPolyline
 90
        8
 70
   128
 43
0.0
 10
15.64318754955713
 20
-124.0952976254748
 10
15.61705553835714
 20
-124.0887913676748
 10
15.56518949815711
 20
-124.0584856002748
 10
15.51972853375713
 20
-124.0067900308748
 10
15.48241968435713
 20
-123.9356912911748
 10
15.45469670835712
 20
-123.8479216658748
 10
15.43762498395716
 20
-123.7468540924748
 10
15.43186056805712
 20
-123.6363725411748
  0
LWPOLYLINE
  5
6F4A
330
A
100
AcDbEntity
  8
0
  6
Continuous
 62
     8
370
     0
100
AcDbPolyline
 90
        3
 70
   128
 43
0.0
 10
42.63186056805716
 20
-58.89658116947484
 10
42.69038766465712
 20
-58.88148018617484
 10
42.72053358655711
 20
-58.88272526007484
  0
LINE
  5
6F4B
330
A
100
AcDbEntity
  8
0
  6
Continuous
 62
     8
370
     0
100
AcDbLine
 10
55.72820166865716
 20
-64.05134338787484
 30
0.0
 11
34.17820166865715
 21
-73.71194410047484
 31
0.0
  0
LINE
  5
6F4C
330
A
100
AcDbEntity
  8
0
  6
Continuous
 62
     8
370
     0
100
AcDbLine
 10
34.17820166865715
 20
-73.71194410047484
 30
0.0
 11
29.24185686705715
 21
-72.97430982197484
 31
0.0
  0
LINE
  5
6F4D
330
A
100
AcDbEntity
  8
0
  6
Continuous
 62
     8
370
     0
100
AcDbLine
 10
103.5536388329571
 20
-67.82076142727485
 30
0.0
 11
100.7036388329572
 21
-69.09838147507485
 31
0.0
  0
LINE
  5
6F4E
330
A
100
AcDbEntity
  8
0
  6
Continuous
 62
     8
370
     0
100
AcDbLine
 10
100.7036388329572
 20
-69.09838147507485
 30
0.0
 11
63.37794392985711
 21
-63.52083105317485
 31
0.0
  0
SPLINE
  5
6F4F
330
A
100
AcDbEntity
  8
0
  6
Continuous
 62
     8
370
     0
100
AcDbSpline
210
0.0
220
0.0
230
1.0
 70
     8
 71
     3
 72
    10
 73
     6
 74
     0
 42
0.000000001
 43
0.00000001
 40
0.0
 40
0.0
 40
0.0
 40
0.0
 40
0.4999999999999997
 40
0.4999999999999997
 40
1.0
 40
1.0
 40
1.0
 40
1.0
 10
55.72820166867416
 20
-64.05134338790558
 30
0.0
 10
56.47078682387405
 20
-63.71845156983127
 30
0.0
 10
57.69399291804001
 20
-63.47552426051601
 30
0.0
 10
60.56312163654661
 20
-63.27654916786875
 30
0.0
 10
62.09174871211542
 20
-63.3286358723809
 30
0.0
 10
63.37794392986854
 20
-63.52083105315711
 30
0.0
  0
ARC
  5
6F50
330
A
100
AcDbEntity
  8
0
  6
Continuous
 62
     8
370
     0
100
AcDbCircle
 10
34.69888684405714
 20
-74.35074899957483
 30
0.0
 40
0.824126659509375
100
AcDbArc
 50
129.1832235480981
 51
185.2379913766999
  0
ARC
  5
6F51
330
A
100
AcDbEntity
  8
0
  6
Continuous
 62
     8
370
     0
100
AcDbCircle
 10
34.03824171335714
 20
-74.35662039577484
 30
0.0
 40
0.6596941069622332
100
AcDbArc
 50
358.9121202897002
 51
77.75110246530213
  0
ARC
  5
6F52
330
A
100
AcDbEntity
  8
0
  6
Continuous
 62
     8
370
     0
100
AcDbCircle
 10
34.16987269915711
 20
-72.69409066847484
 30
0.0
 40
1.756283901346438
100
AcDbArc
 50
260.4404372343997
 51
287.4938243671997
  0
LINE
  5
6F53
330
A
100
AcDbEntity
  8
0
  6
Continuous
 62
     8
370
     0
100
AcDbLine
 10
34.69781691095716
 20
-126.3359547641748
 30
0.0
 11
34.69781691095716
 21
-74.36914530977484
 31
0.0
  0
SPLINE
  5
6F54
330
A
100
AcDbEntity
  8
0
  6
Continuous
 62
     8
370
     0
100
AcDbSpline
210
0.0
220
0.0
230
1.0
 70
     8
 71
     3
 72
    17
 73
    13
 74
     0
 42
0.000000001
 43
0.00000001
 40
0.0
 40
0.0
 40
0.0
 40
0.0
 40
0.0760582856040434
 40
0.1525793772872286
 40
0.2315418222215372
 40
0.3147728424208506
 40
0.4038889810158625
 40
0.500241200311116
 40
0.6198711844247732
 40
0.7601165028980599
 40
0.8592988845463031
 40
1.0
 40
1.0
 40
1.0
 40
1.0
 10
33.87820166867346
 20
-126.3927953714694
 30
0.0
 10
33.89929427824825
 20
-126.395672390517
 30
0.0
 10
33.94160784354511
 20
-126.401443934948
 30
0.0
 10
34.01041057585962
 20
-126.4075974310524
 30
0.0
 10
34.08359280595806
 20
-126.4119919681887
 30
0.0
 10
34.16233630651436
 20
-126.4140456353514
 30
0.0
 10
34.24685322491291
 20
-126.4131974246837
 30
0.0
 10
34.34127284057746
 20
-126.4084755430498
 30
0.0
 10
34.44674269336144
 20
-126.3985969078224
 30
0.0
 10
34.54270734288855
 20
-126.3826084851955
 30
0.0
 10
34.63145486952595
 20
-126.3621040922029
 30
0.0
 10
34.67328304135691
 20
-126.3456221009524
 30
0.0
 10
34.69781691094403
 20
-126.335954764175
 30
0.0
  0
LINE
  5
6F55
330
A
100
AcDbEntity
  8
0
  6
Continuous
 62
     8
370
     0
100
AcDbLine
 10
33.87820166865714
 20
-74.42598591707484
 30
0.0
 11
33.87820166865714
 21
-126.3927953714748
 31
0.0
  0
LINE
  5
6F56
330
A
100
AcDbEntity
  8
0
  6
Continuous
 62
     8
370
     0
100
AcDbLine
 10
33.87820166865714
 20
-74.42598591707484
 30
0.0
 11
28.94185686705714
 21
-73.68835163857484
 31
0.0
  0
LINE
  5
6F57
330
A
100
AcDbEntity
  8
0
  6
Continuous
 62
     8
370
     0
100
AcDbLine
 10
33.87820166865714
 20
-126.3927953714748
 30
0.0
 11
28.94185686705714
 21
-125.6551610929748
 31
0.0
  0
ARC
  5
6F58
330
A
100
AcDbEntity
  8
0
  6
Continuous
 62
     8
370
     0
100
AcDbCircle
 10
55.58824171335715
 20
-64.69601968317484
 30
0.0
 40
0.6596941069596937
100
AcDbArc
 50
358.9121202895998
 51
77.75110246659803
  0
LINE
  5
6F59
330
A
100
AcDbEntity
  8
0
  6
Continuous
 62
     8
370
     0
100
AcDbLine
 10
56.24781691095711
 20
-64.70854459717484
 30
0.0
 11
34.69781691095716
 21
-74.36914530977484
 31
0.0
  0
LINE
  5
6F5A
330
A
100
AcDbEntity
  8
0
  6
Continuous
 62
     8
370
     0
100
AcDbLine
 10
56.24781691035713
 20
-64.70854459747484
 30
0.0
 11
56.24781691035713
 21
-116.6753540517748
 31
0.0
  0
LINE
  5
6F5B
330
A
100
AcDbEntity
  8
0
  6
Continuous
 62
     8
370
     0
100
AcDbLine
 10
56.24781691035713
 20
-116.6753540517748
 30
0.0
 11
34.69781691095716
 21
-126.3359547641748
 31
0.0
  0
LWPOLYLINE
  5
6F5C
330
A
100
AcDbEntity
  8
0
  6
Continuous
 62
     8
370
     0
100
AcDbPolyline
 90
        8
 70
   128
 43
0.0
 10
33.87820166865714
 20
-126.3927953714748
 10
33.88396608455713
 20
-126.5032769227748
 10
33.90103780895714
 20
-126.6043444962748
 10
33.92876078495715
 20
-126.6921141214748
 10
33.96606963435715
 20
-126.7632128611748
 10
34.01153059875713
 20
-126.8149084305748
 10
34.06339663895716
 20
-126.8452141979748
 10
34.08989683965711
 20
-126.8517749736748
  0
SPLINE
  5
6F5D
330
A
100
AcDbEntity
  8
0
  6
Continuous
 62
     8
370
     0
100
AcDbSpline
210
0.0
220
0.0
230
1.0
 70
     8
 71
     3
 72
    10
 73
     6
 74
     0
 42
0.000000001
 43
0.00000001
 40
0.0
 40
0.0
 40
0.0
 40
0.0
 40
0.2719772710791216
 40
0.6359886355395619
 40
1.0
 40
1.0
 40
1.0
 40
1.0
 10
34.41967121995441
 20
-126.798067246342
 30
0.0
 10
34.46381625430985
 20
-126.7764688101303
 30
0.0
 10
34.56704451325271
 20
-126.7259632663341
 30
0.0
 10
34.67363240769055
 20
-126.5584113029074
 30
0.0
 10
34.68975540985952
 20
-126.4101069437525
 30
0.0
 10
34.69781691094403
 20
-126.335954764175
 30
0.0
  0
ARC
  5
6F5E
330
A
100
AcDbEntity
  8
0
  6
Continuous
 62
     8
370
     0
100
AcDbCircle
 10
55.75218960855716
 20
-116.7010641439748
 30
0.0
 40
0.4962936950127502
100
AcDbArc
 50
296.5007552296019
 51
2.969490591699471
  0
ARC
  5
6F5F
330
A
100
AcDbEntity
  8
0
  6
Continuous
 62
     8
370
     0
100
AcDbCircle
 10
101.2243240083571
 20
-69.73718637417484
 30
0.0
 40
0.8241266594910938
100
AcDbArc
 50
129.1832235485017
 51
185.2379913782005
  0
ARC
  5
6F60
330
A
100
AcDbEntity
  8
0
  6
Continuous
 62
     8
370
     0
100
AcDbCircle
 10
100.5636788776571
 20
-69.74305777037485
 30
0.0
 40
0.6596941069596677
100
AcDbArc
 50
358.9121202895997
 51
77.7511024665975
  0
ARC
  5
6F61
330
A
100
AcDbEntity
  8
0
  6
Continuous
 62
     8
370
     0
100
AcDbCircle
 10
100.6953098634571
 20
-68.08052804307484
 30
0.0
 40
1.756283901347411
100
AcDbArc
 50
260.4404372343996
 51
287.4938243671993
  0
SPLINE
  5
6F62
330
A
100
AcDbEntity
  8
0
  6
Continuous
 62
     8
370
     0
100
AcDbSpline
210
0.0
220
0.0
230
1.0
 70
     8
 71
     3
 72
    17
 73
    13
 74
     0
 42
0.000000001
 43
0.00000001
 40
0.0
 40
0.0
 40
0.0
 40
0.0
 40
0.0760582855772911
 40
0.1525793772443827
 40
0.2315418221733262
 40
0.3147728423779774
 40
0.4038889809890939
 40
0.5002412003112067
 40
0.6198711843306548
 40
0.760116502898076
 40
0.8592988845186262
 40
1.0
 40
1.0
 40
1.0
 40
1.0
 10
100.4036388329783
 20
-121.7792327460696
 30
0.0
 10
100.4247314425455
 20
-121.7821097651168
 30
0.0
 10
100.4670450078302
 20
-121.7878813095478
 30
0.0
 10
100.535847740129
 20
-121.7940348056592
 30
0.0
 10
100.6090299702211
 20
-121.7984293428035
 30
0.0
 10
100.687773470782
 20
-121.8004830099708
 30
0.0
 10
100.772290389196
 20
-121.7996347993018
 30
0.0
 10
100.8667100048453
 20
-121.7949129176475
 30
0.0
 10
100.9721798576388
 20
-121.785034282421
 30
0.0
 10
101.0681445071642
 20
-121.7690458598032
 30
0.0
 10
101.1568920338248
 20
-121.7485414668038
 30
0.0
 10
101.1987202056565
 20
-121.7320594755541
 30
0.0
 10
101.223254075249
 20
-121.7223921387751
 30
0.0
  0
LINE
  5
6F63
330
A
100
AcDbEntity
  8
0
  6
Continuous
 62
     8
370
     0
100
AcDbLine
 10
100.4036388329571
 20
-69.81242329167485
 30
0.0
 11
100.4036388329571
 21
-121.7792327460748
 31
0.0
  0
LINE
  5
6F64
330
A
100
AcDbEntity
  8
0
  6
Continuous
 62
     8
370
     0
100
AcDbLine
 10
101.2232540752572
 20
-121.7223921387748
 30
0.0
 11
101.2232540752572
 21
-69.75558268437484
 31
0.0
  0
LINE
  5
6F65
330
A
100
AcDbEntity
  8
0
  6
Continuous
 62
     8
370
     0
100
AcDbLine
 10
100.4036388329571
 20
-69.81242329167485
 30
0.0
 11
63.07794392985716
 21
-64.23487286977483
 31
0.0
  0
ARC
  5
6F66
330
A
100
AcDbEntity
  8
0
  6
Continuous
 62
     8
370
     0
100
AcDbCircle
 10
63.89862910525716
 20
-64.15963595217484
 30
0.0
 40
0.8241266594927302
100
AcDbArc
 50
129.1832235485982
 51
185.2379913781999
  0
LINE
  5
6F67
330
A
100
AcDbEntity
  8
0
  6
Continuous
 62
     8
370
     0
100
AcDbLine
 10
100.4036388329571
 20
-121.7792327460748
 30
0.0
 11
63.07794393065711
 21
-116.2016823242748
 31
0.0
  0
LINE
  5
6F68
330
A
100
AcDbEntity
  8
0
  6
Continuous
 62
     8
370
     0
100
AcDbLine
 10
63.07794393065711
 20
-64.23487286987483
 30
0.0
 11
63.07794393065711
 21
-116.2016823242748
 31
0.0
  0
LINE
  5
6F69
330
A
100
AcDbEntity
  8
0
  6
Continuous
 62
     8
370
     0
100
AcDbLine
 10
104.0732540752571
 20
-68.47796263657484
 30
0.0
 11
101.2232540752572
 21
-69.75558268437484
 31
0.0
  0
LINE
  5
6F6A
330
A
100
AcDbEntity
  8
0
  6
Continuous
 62
     8
370
     0
100
AcDbLine
 10
104.0732540752571
 20
-120.4447720909748
 30
0.0
 11
101.2232540752572
 21
-121.7223921387748
 31
0.0
  0
SPLINE
  5
6F6B
330
A
100
AcDbEntity
  8
0
  6
Continuous
 62
     8
370
     0
100
AcDbSpline
210
0.0
220
0.0
230
1.0
 70
     8
 71
     3
 72
    10
 73
     6
 74
     0
 42
0.000000001
 43
0.00000001
 40
0.0
 40
0.0
 40
0.0
 40
0.0
 40
0.2719772710790875
 40
0.6359886355395455
 40
1.0
 40
1.0
 40
1.0
 40
1.0
 10
100.9451083842594
 20
-122.1845046209421
 30
0.0
 10
100.9892534186147
 20
-122.1629061847304
 30
0.0
 10
101.0924816775577
 20
-122.1124006409342
 30
0.0
 10
101.1990695719956
 20
-121.9448486775076
 30
0.0
 10
101.2151925741645
 20
-121.7965443183526
 30
0.0
 10
101.223254075249
 20
-121.7223921387751
 30
0.0
  0
LWPOLYLINE
  5
6F6C
330
A
100
AcDbEntity
  8
0
  6
Continuous
 62
     8
370
     0
100
AcDbPolyline
 90
        8
 70
   128
 43
0.0
 10
100.4036388329571
 20
-121.7792327460748
 10
100.4094032488571
 20
-121.8897142973748
 10
100.4264749732571
 20
-121.9907818708748
 10
100.4541979492571
 20
-122.0785514960748
 10
100.4915067986572
 20
-122.1496502357748
 10
100.5369677630571
 20
-122.2013458051748
 10
100.5888338032572
 20
-122.2316515725748
 10
100.6153340039571
 20
-122.2382123482748
  0
LWPOLYLINE
  5
6F6D
330
A
100
AcDbEntity
  8
0
  6
Continuous
 62
     8
370
     0
100
AcDbPolyline
 90
        8
 70
   128
 43
0.0
 10
63.07794392985716
 20
-116.2016823240748
 10
63.08370834575715
 20
-116.3121638754748
 10
63.10078007015716
 20
-116.4132314488748
 10
63.12850304615716
 20
-116.5010010741748
 10
63.16581189555711
 20
-116.5720998138748
 10
63.21127285995715
 20
-116.6237953832748
 10
63.26313890015712
 20
-116.6541011506748
 10
63.28927091135716
 20
-116.6606074084748
  0
ARC
  5
6F6E
330
A
100
AcDbEntity
  8
0
  6
Continuous
 62
     8
370
     0
100
AcDbCircle
 10
60.63589417285715
 20
-78.50211657807483
 30
0.0
 40
14.47473143264769
100
AcDbArc
 50
80.28710424549993
 51
107.6471573561999
  0
ARC
  5
6F6F
330
A
100
AcDbEntity
  8
0
  6
Continuous
 62
     8
370
     0
100
AcDbCircle
 10
60.63589417295714
 20
-130.4689260305748
 30
0.0
 40
14.47473143086974
100
AcDbArc
 50
80.28710424140009
 51
107.647157361
  0
LINE
  5
6F70
330
A
100
AcDbEntity
  8
ASSI
  6
CENTER
100
AcDbLine
 10
-46.06624272879287
 20
-131.9123586032479
 30
0.0
 11
-46.06624272879287
 21
-101.8939646781146
 31
0.0
  0
LINE
  5
6F71
330
A
100
AcDbEntity
  8
ASSI
  6
CENTER
100
AcDbLine
 10
-46.06624350994286
 20
81.57063266995212
 30
0.0
 11
-46.06624350994286
 21
111.5890265950855
 31
0.0
  0
CIRCLE
  5
6F72
330
A
100
AcDbEntity
  8
0
  6
CENTER
 62
     1
370
    -2
100
AcDbCircle
 10
-142.5809757420429
 20
-3.398735531174836
 30
0.0
 40
9.5
  0
CIRCLE
  5
6F73
330
A
100
AcDbEntity
  8
0
  6
CENTER
 62
     1
370
    -2
100
AcDbCircle
 10
-46.06624350994286
 20
-3.398735531174836
 30
0.0
 40
9.5
  0
CIRCLE
  5
6F74
330
A
100
AcDbEntity
  8
0
  6
CENTER
 62
     1
370
    -2
100
AcDbCircle
 10
47.77896490475712
 20
-3.398735531174836
 30
0.0
 40
9.5
  0
LINE
  5
6FA3
330
A
100
AcDbEntity
  8
ASSI
  6
CENTER
100
AcDbLine
 10
-63.88098449436978
 20
63.75589168552517
 30
0.0
 11
-93.89937841950314
 21
63.75589168552517
 31
0.0
  0
LINE
  5
6FA4
330
A
100
AcDbEntity
  8
ASSI
  6
CENTER
100
AcDbLine
 10
-63.88098487546978
 20
-84.72709871042485
 30
0.0
 11
-93.89937880060313
 21
-84.72709871042485
 31
0.0
  0
LINE
  5
6FA5
330
A
100
AcDbEntity
  8
ASSI
  6
CENTER
100
AcDbLine
 10
-160.3957171076698
 20
-3.398735417224827
 30
0.0
 11
-190.4141110328031
 21
-3.398735417224827
 31
0.0
  0
LINE
  5
6FA6
330
A
100
AcDbEntity
  8
ASSI
  6
CENTER
100
AcDbLine
 10
94.96422401653024
 20
-3.398736348574843
 30
0.0
 11
64.94583009139689
 21
-3.398736348574843
 31
0.0
  0
ENDSEC
  0
SECTION
  2
OBJECTS
  0
DICTIONARY
  5
19
330
0
100
AcDbDictionary
281
     1
  3
ACAD_DETAILVIEWSTYLE
350
63CB
  3
ACAD_GROUP
350
1A
  3
ACAD_IMAGE_VARS
350
63C9
  3
ACAD_LAYOUT
350
1E
  3
ACAD_MLINESTYLE
350
1B
  3
ACAD_PLOTSETTINGS
350
22
  3
ACAD_PLOTSTYLENAME
350
1F
  3
ACAD_SCALELIST
350
3179
  3
ACAD_SECTIONVIEWSTYLE
350
63CC
  3
ACAD_WIPEOUT_VARS
350
23
  3
AcDbVariableDictionary
350
630B
  3
APPDATA
350
63C7
  3
ASE_INDEX_DICTIONARY
350
5E44
  3
DWGPROPS
350
6FB4
  0
DICTIONARY
  5
5E41
330
14
100
AcDbDictionary
280
     1
281
     1
  3
ADSK_XREC_LAYER_RECONCILED
360
5E42
  0
DICTIONARY
  5
31A7
330
A
100
AcDbDictionary
280
     1
281
     1
  3
ACAD_SORTENTS
360
31A8
  0
DICTIONARY
  5
63CB
102
{ACAD_REACTORS
330
19
102
}
330
19
100
AcDbDictionary
281
     1
  0
DICTIONARY
  5
1A
102
{ACAD_REACTORS
330
19
102
}
330
19
100
AcDbDictionary
281
     1
  0
RASTERVARIABLES
  5
63C9
102
{ACAD_REACTORS
330
19
102
}
330
19
100
AcDbRasterVariables
 90
        0
 70
     1
 71
     1
 72
     0
  0
DICTIONARY
  5
1E
102
{ACAD_REACTORS
330
19
102
}
330
19
100
AcDbDictionary
281
     1
  3
Layout1
350
21
  3
Model
350
20
  0
DICTIONARY
  5
1B
102
{ACAD_REACTORS
330
19
102
}
330
19
100
AcDbDictionary
281
     1
  3
Standard
350
1C
  0
DICTIONARY
  5
22
102
{ACAD_REACTORS
330
19
102
}
330
19
100
AcDbDictionary
281
     1
  0
ACDBDICTIONARYWDFLT
  5
1F
102
{ACAD_REACTORS
330
19
102
}
330
19
100
AcDbDictionary
281
     1
  3
Normal
350
1D
100
AcDbDictionaryWithDefault
340
1D
  0
DICTIONARY
  5
3179
102
{ACAD_REACTORS
330
19
102
}
330
19
100
AcDbDictionary
281
     1
  3
A0
350
317A
  3
A1
350
317B
  3
A2
350
317C
  3
A3
350
317D
  3
A4
350
317E
  3
A5
350
317F
  3
A6
350
3180
  3
A7
350
3181
  3
A8
350
3182
  3
A9
350
3183
  3
B0
350
3184
  3
B1
350
3185
  3
B2
350
3186
  3
B3
350
3187
  3
B4
350
3188
  3
B5
350
3189
  3
B6
350
318A
  3
B7
350
318B
  3
B8
350
318C
  3
B9
350
318D
  3
C0
350
318E
  3
C1
350
318F
  3
C2
350
3190
  3
C3
350
3191
  3
C4
350
3192
  3
C5
350
3193
  3
C6
350
3194
  3
C7
350
3195
  3
C8
350
3196
  3
C9
350
3197
  3
D0
350
3198
  3
D1
350
3199
  3
D2
350
319A
  0
DICTIONARY
  5
63CC
102
{ACAD_REACTORS
330
19
102
}
330
19
100
AcDbDictionary
281
     1
  0
WIPEOUTVARIABLES
  5
23
330
19
100
AcDbWipeoutVariables
 70
     1
  0
DICTIONARY
  5
630B
102
{ACAD_REACTORS
330
19
102
}
330
19
100
AcDbDictionary
281
     1
  3
DIMASSOC
350
6318
  3
INDEXCTL
350
6317
  3
SORTENTS
350
6316
  0
DICTIONARY
  5
63C7
102
{ACAD_REACTORS
330
19
102
}
330
19
100
AcDbDictionary
281
     1
  0
DICTIONARY
  5
5E44
102
{ACAD_REACTORS
330
19
102
}
330
19
100
AcDbDictionary
281
     1
  3
ASEBlockHierarchyIndexRecord
350
5E46
1001
DCO15
1040
1685075681.336
  0
XRECORD
  5
6FB4
102
{ACAD_REACTORS
330
19
102
}
330
19
100
AcDbXrecord
280
     1
  1
DWGPROPS COOKIE
  2

  3

  4

  6

  7

  8
raffaele
  9

300
=
301
=
302
=
303
=
304
=
305
=
306
=
307
=
308
=
309
=
 40
0.0
 41
2455303.644583333
 42
2457380.328844306
  1

 90
        0
  0
XRECORD
  5
5E42
102
{ACAD_REACTORS
330
5E41
102
}
330
5E41
100
AcDbXrecord
280
     1
290
     1
  0
SORTENTSTABLE
  5
31A8
102
{ACAD_REACTORS
330
31A7
102
}
330
31A7
100
AcDbSortentsTable
330
A
331
0
  5
437D
  0
LAYOUT
  5
21
102
{ACAD_REACTORS
330
1E
102
}
330
1E
100
AcDbPlotSettings
  1

  2

  4

  6

 40
0.0
 41
0.0
 42
0.0
 43
0.0
 44
0.0
 45
0.0
 46
0.0
 47
0.0
 48
0.0
 49
0.0
140
0.0
141
0.0
142
1.0
143
1.0
 70
     0
 72
     0
 73
     0
 74
     0
  7

 75
     0
147
1.0
148
0.0
149
0.0
100
AcDbLayout
  1
Layout1
 70
     0
 71
     1
 10
0.0
 20
0.0
 11
12.0
 21
9.0
 12
0.0
 22
0.0
 32
0.0
 14
1.000000000000000E+20
 24
1.000000000000000E+20
 34
1.000000000000000E+20
 15
-1.000000000000000E+20
 25
-1.000000000000000E+20
 35
-1.000000000000000E+20
146
0.0
 13
0.0
 23
0.0
 33
0.0
 16
1.0
 26
0.0
 36
0.0
 17
0.0
 27
1.0
 37
0.0
 76
     0
330
B
  0
LAYOUT
  5
20
102
{ACAD_REACTORS
330
1E
102
}
330
1E
100
AcDbPlotSettings
  1

  2

  4

  6

 40
0.0
 41
0.0
 42
0.0
 43
0.0
 44
0.0
 45
0.0
 46
0.0
 47
0.0
 48
0.0
 49
0.0
140
0.0
141
0.0
142
1.0
143
1.0
 70
  1024
 72
     0
 73
     0
 74
     0
  7

 75
     0
147
1.0
148
0.0
149
0.0
100
AcDbLayout
  1
Model
 70
     0
 71
     0
 10
0.0
 20
0.0
 11
0.0
 21
0.0
 12
0.0
 22
0.0
 32
0.0
 14
-190.4141110328031
 24
-131.9123586032479
 34
0.0
 15
111.9536388330256
 25
111.5890265950855
 35
0.0
146
0.0
 13
0.0
 23
0.0
 33
0.0
 16
0.0
 26
0.0
 36
0.0
 17
0.0
 27
0.0
 37
0.0
 76
     0
330
A
331
15
  0
MLINESTYLE
  5
1C
102
{ACAD_REACTORS
330
1B
102
}
330
1B
100
AcDbMlineStyle
  2
STANDARD
 70
     0
  3

 62
     0
 51
90.0
 52
90.0
 71
     2
 49
0.5
 62
   256
  6
BYLAYER
 49
-0.5
 62
   256
  6
BYLAYER
  0
ACDBPLACEHOLDER
  5
1D
102
{ACAD_REACTORS
330
1F
102
}
330
1F
  0
SCALE
  5
317A
102
{ACAD_REACTORS
330
3179
102
}
330
3179
100
AcDbScale
 70
     0
300
1:1
140
1.0
141
1.0
290
     1
  0
SCALE
  5
317B
102
{ACAD_REACTORS
330
3179
102
}
330
3179
100
AcDbScale
 70
     0
300
1:2
140
1.0
141
2.0
290
     0
  0
SCALE
  5
317C
102
{ACAD_REACTORS
330
3179
102
}
330
3179
100
AcDbScale
 70
     0
300
1:4
140
1.0
141
4.0
290
     0
  0
SCALE
  5
317D
102
{ACAD_REACTORS
330
3179
102
}
330
3179
100
AcDbScale
 70
     0
300
1:5
140
1.0
141
5.0
290
     0
  0
SCALE
  5
317E
102
{ACAD_REACTORS
330
3179
102
}
330
3179
100
AcDbScale
 70
     0
300
1:8
140
1.0
141
8.0
290
     0
  0
SCALE
  5
317F
102
{ACAD_REACTORS
330
3179
102
}
330
3179
100
AcDbScale
 70
     0
300
1:10
140
1.0
141
10.0
290
     0
  0
SCALE
  5
3180
102
{ACAD_REACTORS
330
3179
102
}
330
3179
100
AcDbScale
 70
     0
300
1:16
140
1.0
141
16.0
290
     0
  0
SCALE
  5
3181
102
{ACAD_REACTORS
330
3179
102
}
330
3179
100
AcDbScale
 70
     0
300
1:20
140
1.0
141
20.0
290
     0
  0
SCALE
  5
3182
102
{ACAD_REACTORS
330
3179
102
}
330
3179
100
AcDbScale
 70
     0
300
1:30
140
1.0
141
30.0
290
     0
  0
SCALE
  5
3183
102
{ACAD_REACTORS
330
3179
102
}
330
3179
100
AcDbScale
 70
     0
300
1:40
140
1.0
141
40.0
290
     0
  0
SCALE
  5
3184
102
{ACAD_REACTORS
330
3179
102
}
330
3179
100
AcDbScale
 70
     0
300
1:50
140
1.0
141
50.0
290
     0
  0
SCALE
  5
3185
102
{ACAD_REACTORS
330
3179
102
}
330
3179
100
AcDbScale
 70
     0
300
1:100
140
1.0
141
100.0
290
     0
  0
SCALE
  5
3186
102
{ACAD_REACTORS
330
3179
102
}
330
3179
100
AcDbScale
 70
     0
300
2:1
140
2.0
141
1.0
290
     0
  0
SCALE
  5
3187
102
{ACAD_REACTORS
330
3179
102
}
330
3179
100
AcDbScale
 70
     0
300
4:1
140
4.0
141
1.0
290
     0
  0
SCALE
  5
3188
102
{ACAD_REACTORS
330
3179
102
}
330
3179
100
AcDbScale
 70
     0
300
8:1
140
8.0
141
1.0
290
     0
  0
SCALE
  5
3189
102
{ACAD_REACTORS
330
3179
102
}
330
3179
100
AcDbScale
 70
     0
300
10:1
140
10.0
141
1.0
290
     0
  0
SCALE
  5
318A
102
{ACAD_REACTORS
330
3179
102
}
330
3179
100
AcDbScale
 70
     0
300
100:1
140
100.0
141
1.0
290
     0
  0
SCALE
  5
318B
102
{ACAD_REACTORS
330
3179
102
}
330
3179
100
AcDbScale
 70
     0
300
1/128" = 1'-0"
140
0.0078125
141
12.0
290
     0
  0
SCALE
  5
318C
102
{ACAD_REACTORS
330
3179
102
}
330
3179
100
AcDbScale
 70
     0
300
1/64" = 1'-0"
140
0.015625
141
12.0
290
     0
  0
SCALE
  5
318D
102
{ACAD_REACTORS
330
3179
102
}
330
3179
100
AcDbScale
 70
     0
300
1/32" = 1'-0"
140
0.03125
141
12.0
290
     0
  0
SCALE
  5
318E
102
{ACAD_REACTORS
330
3179
102
}
330
3179
100
AcDbScale
 70
     0
300
1/16" = 1'-0"
140
0.0625
141
12.0
290
     0
  0
SCALE
  5
318F
102
{ACAD_REACTORS
330
3179
102
}
330
3179
100
AcDbScale
 70
     0
300
3/32" = 1'-0"
140
0.09375
141
12.0
290
     0
  0
SCALE
  5
3190
102
{ACAD_REACTORS
330
3179
102
}
330
3179
100
AcDbScale
 70
     0
300
1/8" = 1'-0"
140
0.125
141
12.0
290
     0
  0
SCALE
  5
3191
102
{ACAD_REACTORS
330
3179
102
}
330
3179
100
AcDbScale
 70
     0
300
3/16" = 1'-0"
140
0.1875
141
12.0
290
     0
  0
SCALE
  5
3192
102
{ACAD_REACTORS
330
3179
102
}
330
3179
100
AcDbScale
 70
     0
300
1/4" = 1'-0"
140
0.25
141
12.0
290
     0
  0
SCALE
  5
3193
102
{ACAD_REACTORS
330
3179
102
}
330
3179
100
AcDbScale
 70
     0
300
3/8" = 1'-0"
140
0.375
141
12.0
290
     0
  0
SCALE
  5
3194
102
{ACAD_REACTORS
330
3179
102
}
330
3179
100
AcDbScale
 70
     0
300
1/2" = 1'-0"
140
0.5
141
12.0
290
     0
  0
SCALE
  5
3195
102
{ACAD_REACTORS
330
3179
102
}
330
3179
100
AcDbScale
 70
     0
300
3/4" = 1'-0"
140
0.75
141
12.0
290
     0
  0
SCALE
  5
3196
102
{ACAD_REACTORS
330
3179
102
}
330
3179
100
AcDbScale
 70
     0
300
1" = 1'-0"
140
1.0
141
12.0
290
     0
  0
SCALE
  5
3197
102
{ACAD_REACTORS
330
3179
102
}
330
3179
100
AcDbScale
 70
     0
300
1-1/2" = 1'-0"
140
1.5
141
12.0
290
     0
  0
SCALE
  5
3198
102
{ACAD_REACTORS
330
3179
102
}
330
3179
100
AcDbScale
 70
     0
300
3" = 1'-0"
140
3.0
141
12.0
290
     0
  0
SCALE
  5
3199
102
{ACAD_REACTORS
330
3179
102
}
330
3179
100
AcDbScale
 70
     0
300
6" = 1'-0"
140
6.0
141
12.0
290
     0
  0
SCALE
  5
319A
102
{ACAD_REACTORS
330
3179
102
}
330
3179
100
AcDbScale
 70
     0
300
1'-0" = 1'-0"
140
12.0
141
12.0
290
     0
  0
DICTIONARYVAR
  5
6318
102
{ACAD_REACTORS
330
630B
102
}
330
630B
100
DictionaryVariables
280
     0
  1
1
  0
DICTIONARYVAR
  5
6317
102
{ACAD_REACTORS
330
630B
102
}
330
630B
100
DictionaryVariables
280
     0
  1
0
  0
DICTIONARYVAR
  5
6316
102
{ACAD_REACTORS
330
630B
102
}
330
630B
100
DictionaryVariables
280
     0
  1
127
  0
XRECORD
  5
5E46
102
{ACAD_REACTORS
330
5E44
102
}
330
5E44
100
AcDbXrecord
280
     1
  0
ENDSEC
  0
EOF
