  0
SECTION
  2
HEADER
  9
$ACADVER
  1
AC1015
  9
$ACADMAINTVER
 70
     6
  9
$DWGCODEPAGE
  3
ANSI_1252
  9
$INSBASE
 10
0.0
 20
0.0
 30
0.0
  9
$EXTMIN
 10
142.0956556258655
 20
-137.9531092400215
 30
0.0
  9
$EXTMAX
 10
544.2500111392252
 20
186.580240978748
 30
0.0
  9
$LIMMIN
 10
-66.34999999999982
 20
-2008.85
  9
$LIMMAX
 10
3734.350000000001
 20
346.85
  9
$ORTHOMODE
 70
     1
  9
$REGENMODE
 70
     1
  9
$FILLMODE
 70
     1
  9
$QTEXTMODE
 70
     0
  9
$MIRRTEXT
 70
     1
  9
$LTSCALE
 40
10.0
  9
$ATTMODE
 70
     1
  9
$TEXTSIZE
 40
0.0
  9
$TRACEWID
 40
0.05
  9
$TEXTSTYLE
  7
Standard
  9
$CLAYER
  8
0
  9
$CELTYPE
  6
Continuous
  9
$CECOLOR
 62
   256
  9
$CELTSCALE
 40
1.0
  9
$DISPSILH
 70
     0
  9
$DIMSCALE
 40
1.0
  9
$DIMASZ
 40
1.25
  9
$DIMEXO
 40
0.0
  9
$DIMDLI
 40
0.38
  9
$DIMRND
 40
0.0
  9
$DIMDLE
 40
0.0
  9
$DIMEXE
 40
0.75
  9
$DIMTP
 40
0.0
  9
$DIMTM
 40
0.0
  9
$DIMTXT
 40
2.5
  9
$DIMCEN
 40
0.09
  9
$DIMTSZ
 40
0.0
  9
$DIMTOL
 70
     0
  9
$DIMLIM
 70
     0
  9
$DIMTIH
 70
     0
  9
$DIMTOH
 70
     0
  9
$DIMSE1
 70
     0
  9
$DIMSE2
 70
     0
  9
$DIMTAD
 70
     1
  9
$DIMZIN
 70
     0
  9
$DIMBLK
  1

  9
$DIMASO
 70
     1
  9
$DIMSHO
 70
     1
  9
$DIMPOST
  1

  9
$DIMAPOST
  1

  9
$DIMALT
 70
     0
  9
$DIMALTD
 70
     2
  9
$DIMALTF
 40
25.4
  9
$DIMLFAC
 40
1.0
  9
$DIMTOFL
 70
     0
  9
$DIMTVP
 40
0.0
  9
$DIMTIX
 70
     0
  9
$DIMSOXD
 70
     0
  9
$DIMSAH
 70
     0
  9
$DIMBLK1
  1

  9
$DIMBLK2
  1

  9
$DIMSTYLE
  2
Standard
  9
$DIMCLRD
 70
     7
  9
$DIMCLRE
 70
     7
  9
$DIMCLRT
 70
     7
  9
$DIMTFAC
 40
0.8
  9
$DIMGAP
 40
1.25
  9
$DIMJUST
 70
     0
  9
$DIMSD1
 70
     0
  9
$DIMSD2
 70
     0
  9
$DIMTOLJ
 70
     1
  9
$DIMTZIN
 70
     0
  9
$DIMALTZ
 70
     0
  9
$DIMALTTZ
 70
     0
  9
$DIMUPT
 70
     0
  9
$DIMDEC
 70
     2
  9
$DIMTDEC
 70
     4
  9
$DIMALTU
 70
     2
  9
$DIMALTTD
 70
     2
  9
$DIMTXSTY
  7
Standard
  9
$DIMAUNIT
 70
     0
  9
$DIMADEC
 70
     0
  9
$DIMALTRND
 40
0.0
  9
$DIMAZIN
 70
     0
  9
$DIMDSEP
 70
     0
  9
$DIMATFIT
 70
     3
  9
$DIMFRAC
 70
     0
  9
$DIMLDRBLK
  1

  9
$DIMLUNIT
 70
     2
  9
$DIMLWD
 70
     0
  9
$DIMLWE
 70
     0
  9
$DIMTMOVE
 70
     0
  9
$LUNITS
 70
     2
  9
$LUPREC
 70
     4
  9
$SKETCHINC
 40
0.1
  9
$FILLETRAD
 40
0.0
  9
$AUNITS
 70
     0
  9
$AUPREC
 70
     0
  9
$MENU
  1
acad
  9
$ELEVATION
 40
0.0
  9
$PELEVATION
 40
0.0
  9
$THICKNESS
 40
0.0
  9
$LIMCHECK
 70
     0
  9
$CHAMFERA
 40
0.0
  9
$CHAMFERB
 40
0.0
  9
$CHAMFERC
 40
0.0
  9
$CHAMFERD
 40
0.0
  9
$SKPOLY
 70
     0
  9
$TDCREATE
 40
2455303.68625
  9
$TDUCREATE
 40
2455303.644583333
  9
$TDUPDATE
 40
2457380.36973441
  9
$TDUUPDATE
 40
2457380.328067743
  9
$TDINDWG
 40
0.0439396412
  9
$TDUSRTIMER
 40
2457380.326570498
  9
$USRTIMER
 70
     1
  9
$ANGBASE
 50
0.0
  9
$ANGDIR
 70
     0
  9
$PDMODE
 70
     0
  9
$PDSIZE
 40
0.0
  9
$PLINEWID
 40
0.0
  9
$SPLFRAME
 70
     0
  9
$SPLINETYPE
 70
     6
  9
$SPLINESEGS
 70
     8
  9
$HANDSEED
  5
6B01
  9
$SURFTAB1
 70
     6
  9
$SURFTAB2
 70
     6
  9
$SURFTYPE
 70
     6
  9
$SURFU
 70
     6
  9
$SURFV
 70
     6
  9
$UCSBASE
  2

  9
$UCSNAME
  2

  9
$UCSORG
 10
0.0
 20
0.0
 30
0.0
  9
$UCSXDIR
 10
1.0
 20
0.0
 30
0.0
  9
$UCSYDIR
 10
0.0
 20
1.0
 30
0.0
  9
$UCSORTHOREF
  2

  9
$UCSORTHOVIEW
 70
     0
  9
$UCSORGTOP
 10
0.0
 20
0.0
 30
0.0
  9
$UCSORGBOTTOM
 10
0.0
 20
0.0
 30
0.0
  9
$UCSORGLEFT
 10
0.0
 20
0.0
 30
0.0
  9
$UCSORGRIGHT
 10
0.0
 20
0.0
 30
0.0
  9
$UCSORGFRONT
 10
0.0
 20
0.0
 30
0.0
  9
$UCSORGBACK
 10
0.0
 20
0.0
 30
0.0
  9
$PUCSBASE
  2

  9
$PUCSNAME
  2

  9
$PUCSORG
 10
0.0
 20
0.0
 30
0.0
  9
$PUCSXDIR
 10
1.0
 20
0.0
 30
0.0
  9
$PUCSYDIR
 10
0.0
 20
1.0
 30
0.0
  9
$PUCSORTHOREF
  2

  9
$PUCSORTHOVIEW
 70
     0
  9
$PUCSORGTOP
 10
0.0
 20
0.0
 30
0.0
  9
$PUCSORGBOTTOM
 10
0.0
 20
0.0
 30
0.0
  9
$PUCSORGLEFT
 10
0.0
 20
0.0
 30
0.0
  9
$PUCSORGRIGHT
 10
0.0
 20
0.0
 30
0.0
  9
$PUCSORGFRONT
 10
0.0
 20
0.0
 30
0.0
  9
$PUCSORGBACK
 10
0.0
 20
0.0
 30
0.0
  9
$USERI1
 70
     0
  9
$USERI2
 70
     0
  9
$USERI3
 70
     0
  9
$USERI4
 70
     0
  9
$USERI5
 70
     0
  9
$USERR1
 40
0.0
  9
$USERR2
 40
0.0
  9
$USERR3
 40
0.0
  9
$USERR4
 40
0.0
  9
$USERR5
 40
0.0
  9
$WORLDVIEW
 70
     1
  9
$SHADEDGE
 70
     3
  9
$SHADEDIF
 70
    70
  9
$TILEMODE
 70
     1
  9
$MAXACTVP
 70
    16
  9
$PINSBASE
 10
0.0
 20
0.0
 30
0.0
  9
$PLIMCHECK
 70
     0
  9
$PEXTMIN
 10
1.000000000000000E+20
 20
1.000000000000000E+20
 30
1.000000000000000E+20
  9
$PEXTMAX
 10
-1.000000000000000E+20
 20
-1.000000000000000E+20
 30
-1.000000000000000E+20
  9
$PLIMMIN
 10
0.0
 20
0.0
  9
$PLIMMAX
 10
0.0
 20
0.0
  9
$UNITMODE
 70
     0
  9
$VISRETAIN
 70
     0
  9
$PLINEGEN
 70
     1
  9
$PSLTSCALE
 70
     0
  9
$TREEDEPTH
 70
  3020
  9
$CMLSTYLE
  2
Standard
  9
$CMLJUST
 70
     0
  9
$CMLSCALE
 40
1.0
  9
$PROXYGRAPHICS
 70
     0
  9
$MEASUREMENT
 70
     1
  9
$CELWEIGHT
370
     0
  9
$ENDCAPS
280
     0
  9
$JOINSTYLE
280
     0
  9
$LWDISPLAY
290
     0
  9
$INSUNITS
 70
     0
  9
$HYPERLINKBASE
  1

  9
$STYLESHEET
  1

  9
$XEDIT
290
     1
  9
$CEPSNTYPE
380
     0
  9
$PSTYLEMODE
290
     1
  9
$FINGERPRINTGUID
  2

  9
$VERSIONGUID
  2
{34A8456E-A804-449B-A50C-C34874C7868C}
  9
$EXTNAMES
290
     1
  9
$PSVPSCALE
 40
0.0
  9
$OLESTARTUP
290
     0
  0
ENDSEC
  0
SECTION
  2
CLASSES
  0
CLASS
  1
IMAGE
  2
AcDbRasterImage
  3
ISM
 90
      127
280
     0
281
     1
  0
CLASS
  1
DICTIONARYVAR
  2
AcDbDictionaryVar
  3
ObjectDBX Classes
 90
        0
280
     0
281
     0
  0
CLASS
  1
RASTERVARIABLES
  2
AcDbRasterVariables
  3
ISM
 90
        0
280
     0
281
     0
  0
CLASS
  1
IMAGEDEF
  2
AcDbRasterImageDef
  3
ISM
 90
        0
280
     0
281
     0
  0
CLASS
  1
IMAGEDEF_REACTOR
  2
AcDbRasterImageDefReactor
  3
ISM
 90
        1
280
     0
281
     0
  0
CLASS
  1
IDBUFFER
  2
AcDbIdBuffer
  3
ObjectDBX Classes
 90
        0
280
     0
281
     0
  0
CLASS
  1
SPATIAL_FILTER
  2
AcDbSpatialFilter
  3
ObjectDBX Classes
 90
        0
280
     0
281
     0
  0
CLASS
  1
SORTENTSTABLE
  2
AcDbSortentsTable
  3
ObjectDBX Classes
 90
        0
280
     0
281
     0
  0
CLASS
  1
LAYER_INDEX
  2
AcDbLayerIndex
  3
ObjectDBX Classes
 90
        0
280
     0
281
     0
  0
CLASS
  1
SPATIAL_INDEX
  2
AcDbSpatialIndex
  3
AutoCAD 2000
 90
        0
280
     0
281
     0
  0
CLASS
  1
OBJECT_PTR
  2
CAseDLPNTableRecord
  3
ASE-LPNTableRecord
 90
        1
280
     0
281
     0
  0
CLASS
  1
LAYOUT
  2
AcDbLayout
  3
ObjectDBX Classes
 90
        0
280
     0
281
     0
  0
CLASS
  1
PLOTSETTINGS
  2
AcDbPlotSettings
  3
ObjectDBX Classes
 90
        0
280
     0
281
     0
  0
CLASS
  1
ACDBDICTIONARYWDFLT
  2
AcDbDictionaryWithDefault
  3
ObjectDBX Classes
 90
        0
280
     0
281
     0
  0
CLASS
  1
ACDBPLACEHOLDER
  2
AcDbPlaceHolder
  3
ObjectDBX Classes
 90
        0
280
     0
281
     0
  0
CLASS
  1
VBA_PROJECT
  2
AcDbVbaProject
  3
ObjectDBX Classes
 90
        0
280
     0
281
     0
  0
CLASS
  1
WIPEOUT
  2
AcDbWipeout
  3
WipeOut|AutoCAD Express Tool|expresstools@autodesk.com
 90
      127
280
     0
281
     1
  0
CLASS
  1
WIPEOUTVARIABLES
  2
AcDbWipeoutVariables
  3
WipeOut|AutoCAD Express Tool|expresstools@autodesk.com
 90
        0
280
     0
281
     0
  0
CLASS
  1
RTEXT
  2
RText
  3
RText|AutoCAD Express Tool|expresstools@autodesk.com
 90
        0
280
     0
281
     1
  0
CLASS
  1
ARCALIGNEDTEXT
  2
AcDbArcAlignedText
  3
ATEXT|AutoCAD Express Tool|expresstools@autodesk.com
 90
        0
280
     0
281
     1
  0
CLASS
  1
MATERIAL
  2
AcDbMaterial
  3
ObjectDBX Classes
 90
     1153
280
     0
281
     0
  0
CLASS
  1
VISUALSTYLE
  2
AcDbVisualStyle
  3
ObjectDBX Classes
 90
     4095
280
     0
281
     0
  0
CLASS
  1
TABLESTYLE
  2
AcDbTableStyle
  3
ObjectDBX Classes
 90
     4095
280
     0
281
     0
  0
CLASS
  1
SCALE
  2
AcDbScale
  3
ObjectDBX Classes
 90
     1153
280
     0
281
     0
  0
CLASS
  1
MLEADERSTYLE
  2
AcDbMLeaderStyle
  3
ACDB_MLEADERSTYLE_CLASS
 90
     4095
280
     0
281
     0
  0
CLASS
  1
CELLSTYLEMAP
  2
AcDbCellStyleMap
  3
ObjectDBX Classes
 90
     1152
280
     0
281
     0
  0
CLASS
  1
SUN
  2
AcDbSun
  3
SCENEOE
 90
     1153
280
     0
281
     0
  0
ENDSEC
  0
SECTION
  2
TABLES
  0
TABLE
  2
VPORT
  5
7
330
0
100
AcDbSymbolTable
 70
     1
  0
VPORT
  5
15
330
7
100
AcDbSymbolTableRecord
100
AcDbViewportTableRecord
  2
*ACTIVE
 70
     0
 10
0.0
 20
0.0
 11
1.0
 21
1.0
 12
343.1728333825454
 22
24.31356586936323
 13
0.0
 23
0.0
 14
1.0
 24
1.0
 15
0.0
 25
0.0
 16
0.0
 26
0.0
 36
1.0
 17
0.0
 27
0.0
 37
0.0
 40
331.0240172231448
 41
2.322535211267605
 42
50.0
 43
0.0
 44
0.0
 50
0.0
 51
0.0
 71
    16
 72
   100
 73
     1
 74
     1
 75
     0
 76
     0
 77
     0
 78
     0
281
     0
 65
     0
110
0.0
120
0.0
130
0.0
111
1.0
121
0.0
131
0.0
112
0.0
122
1.0
132
0.0
 79
     0
146
0.0
  0
ENDTAB
  0
TABLE
  2
LTYPE
  5
4
330
0
100
AcDbSymbolTable
 70
     3
  0
LTYPE
  5
11
330
4
100
AcDbSymbolTableRecord
100
AcDbLinetypeTableRecord
  2
ByBlock
 70
     0
  3

 72
    65
 73
     0
 40
0.0
  0
LTYPE
  5
12
330
4
100
AcDbSymbolTableRecord
100
AcDbLinetypeTableRecord
  2
ByLayer
 70
     0
  3

 72
    65
 73
     0
 40
0.0
  0
LTYPE
  5
13
330
4
100
AcDbSymbolTableRecord
100
AcDbLinetypeTableRecord
  2
Continuous
 70
     0
  3
Solid line
 72
    65
 73
     0
 40
0.0
  0
LTYPE
  5
1E4
330
4
100
AcDbSymbolTableRecord
100
AcDbLinetypeTableRecord
  2
CENTER
 70
     0
  3
____ _ ____ _ ____ _ ____ _ ____ _ ____ _ ____
 72
    65
 73
     4
 40
2.0
 49
1.25
 74
     0
 49
-0.25
 74
     0
 49
0.25
 74
     0
 49
-0.25
 74
     0
  0
LTYPE
  5
63D1
330
4
100
AcDbSymbolTableRecord
100
AcDbLinetypeTableRecord
  2
CENTERX2
 70
     0
  3
Center (2x) ________  __  ________  __  _____
 72
    65
 73
     4
 40
20.32
 49
12.7
 74
     0
 49
-2.54
 74
     0
 49
2.54
 74
     0
 49
-2.54
 74
     0
  0
ENDTAB
  0
TABLE
  2
LAYER
  5
2
330
0
100
AcDbSymbolTable
 70
     4
  0
LAYER
  5
14
102
{ACAD_XDICTIONARY
360
5E41
102
}
330
2
100
AcDbSymbolTableRecord
100
AcDbLayerTableRecord
  2
0
 70
     0
 62
     7
  6
Continuous
370
    -3
390
1D
  0
LAYER
  5
63CE
330
2
100
AcDbSymbolTableRecord
100
AcDbLayerTableRecord
  2
QUOTE
 70
     0
 62
     3
  6
Continuous
370
    -3
390
1D
  0
LAYER
  5
63D0
330
2
100
AcDbSymbolTableRecord
100
AcDbLayerTableRecord
  2
ASSI
 70
     0
 62
     1
  6
CENTERX2
370
    -3
390
1D
  0
LAYER
  5
66C0
330
2
100
AcDbSymbolTableRecord
100
AcDbLayerTableRecord
  2
Defpoints
 70
     0
 62
     7
  6
Continuous
290
     0
370
    -3
390
1D
  0
ENDTAB
  0
TABLE
  2
STYLE
  5
3
330
0
100
AcDbSymbolTable
 70
     2
  0
STYLE
  5
17
330
3
100
AcDbSymbolTableRecord
100
AcDbTextStyleTableRecord
  2
Standard
 70
     0
 40
0.0
 41
1.0
 50
0.0
 71
     0
 42
0.0
  3
I011000D.TTF
  4

1001
ACAD
1000
IsonormD
1071
        0
  0
STYLE
  5
63D5
330
3
100
AcDbSymbolTableRecord
100
AcDbTextStyleTableRecord
  2
SLDTEXTSTYLE0
 70
     0
 40
0.0
 41
0.75
 50
0.0
 71
     0
 42
0.0
  3
TXT
  4

  0
ENDTAB
  0
TABLE
  2
VIEW
  5
5
330
0
100
AcDbSymbolTable
 70
     0
  0
ENDTAB
  0
TABLE
  2
UCS
  5
6
330
0
100
AcDbSymbolTable
 70
     0
  0
ENDTAB
  0
TABLE
  2
APPID
  5
8
330
0
100
AcDbSymbolTable
 70
     6
  0
APPID
  5
16
330
8
100
AcDbSymbolTableRecord
100
AcDbRegAppTableRecord
  2
ACAD
 70
     0
  0
APPID
  5
26
330
8
100
AcDbSymbolTableRecord
100
AcDbRegAppTableRecord
  2
TopSolid'Draft
 70
     0
  0
APPID
  5
319D
330
8
100
AcDbSymbolTableRecord
100
AcDbRegAppTableRecord
  2
ACAD_MLEADERVER
 70
     0
  0
APPID
  5
5E45
330
8
100
AcDbSymbolTableRecord
100
AcDbRegAppTableRecord
  2
DCO15
 70
     0
  0
APPID
  5
638E
330
8
100
AcDbSymbolTableRecord
100
AcDbRegAppTableRecord
  2
ACAD_EXEMPT_FROM_CAD_STANDARDS
 70
     0
  0
APPID
  5
698E
330
8
100
AcDbSymbolTableRecord
100
AcDbRegAppTableRecord
  2
ACAD_DSTYLE_DIMRADIAL_EXTENSION
 70
     0
  0
ENDTAB
  0
TABLE
  2
DIMSTYLE
  5
9
330
0
100
AcDbSymbolTable
 70
     3
100
AcDbDimStyleTable
  0
DIMSTYLE
105
18
330
9
100
AcDbSymbolTableRecord
100
AcDbDimStyleTableRecord
  2
Standard
 70
     0
 41
1.25
 42
0.0
 44
0.75
 73
     0
 74
     0
 77
     1
140
2.5
146
0.8
147
1.25
176
     7
177
     7
271
     2
178
     7
271
     2
340
17
  0
DIMSTYLE
105
63D2
330
9
100
AcDbSymbolTableRecord
100
AcDbDimStyleTableRecord
  2
ISO-25
 70
     0
 41
2.5
 42
0.625
 43
3.75
 44
1.25
 73
     0
 74
     0
 77
     1
 78
     8
140
2.5
141
2.5
143
0.0393700787
147
0.625
171
     3
172
     1
178
     0
271
     2
272
     2
274
     3
278
    44
283
     0
284
     8
340
17
  0
DIMSTYLE
105
63D4
330
9
100
AcDbSymbolTableRecord
100
AcDbDimStyleTableRecord
  2
SLDDIMSTYLE0
 70
     0
 41
1.6
 44
0.0
 45
0.000000001
 78
    12
 79
     3
140
1.6
141
0.0
147
0.4
172
     1
173
     1
178
     0
271
     2
272
     2
276
     2
284
    12
340
63D5
  0
ENDTAB
  0
TABLE
  2
BLOCK_RECORD
  5
1
330
0
100
AcDbSymbolTable
 70
     5
  0
BLOCK_RECORD
  5
A
102
{ACAD_XDICTIONARY
360
31A7
102
}
330
1
100
AcDbSymbolTableRecord
100
AcDbBlockTableRecord
  2
*MODEL_SPACE
340
20
  0
BLOCK_RECORD
  5
B
330
1
100
AcDbSymbolTableRecord
100
AcDbBlockTableRecord
  2
*PAPER_SPACE
340
21
  0
BLOCK_RECORD
  5
6452
330
1
100
AcDbSymbolTableRecord
100
AcDbBlockTableRecord
  2
_D
340
0
  0
BLOCK_RECORD
  5
645D
330
1
100
AcDbSymbolTableRecord
100
AcDbBlockTableRecord
  2
SW_CENTERMARKSYMBOL_0
340
0
102
{BLKREFS
331
6720
331
69B3
102
}
  0
ENDTAB
  0
ENDSEC
  0
SECTION
  2
BLOCKS
  0
BLOCK
  5
D
330
A
100
AcDbEntity
  8
0
100
AcDbBlockBegin
  2
*MODEL_SPACE
 70
     0
 10
0.0
 20
0.0
 30
0.0
  3
*MODEL_SPACE
  1
*MODEL_SPACE
  0
ENDBLK
  5
E
330
A
100
AcDbEntity
  8
0
100
AcDbBlockEnd
  0
BLOCK
  5
F
330
B
100
AcDbEntity
 67
     1
  8
0
100
AcDbBlockBegin
  2
*PAPER_SPACE
 70
     0
 10
0.0
 20
0.0
 30
0.0
  3
*PAPER_SPACE
  1
*PAPER_SPACE
  0
ENDBLK
  5
10
330
B
100
AcDbEntity
 67
     1
  8
0
100
AcDbBlockEnd
  0
BLOCK
  5
6453
330
6452
100
AcDbEntity
  8
0
100
AcDbBlockBegin
  2
_D
 70
     0
 10
0.0
 20
0.0
 30
0.0
  3
_D
  1
_D
  0
LINE
  5
6454
330
6452
100
AcDbEntity
  8
QUOTE
 62
     0
370
    -2
100
AcDbLine
 10
241.0967243453348
 20
146.8114248568
 30
0.0
 11
239.4967243453348
 21
146.8114248568
 31
0.0
  0
LINE
  5
6455
330
6452
100
AcDbEntity
  8
QUOTE
 62
     0
370
    -2
100
AcDbLine
 10
239.4967243453348
 20
146.8114248568
 30
0.0
 11
232.7332561323756
 21
126.4755511070098
 31
0.0
  0
MTEXT
  5
6456
330
6452
100
AcDbEntity
  8
QUOTE
  6
Continuous
 62
     0
100
AcDbMText
 10
241.4967243453348
 20
147.6114248568
 30
0.0
 40
1.6
 41
0.0
 71
     1
 72
     1
  1
\A1;%%c19
  7
SLDTEXTSTYLE0
 73
     1
 44
1.0
  0
LINE
  5
6457
330
6452
100
AcDbEntity
  8
QUOTE
 62
     0
370
    -2
100
AcDbLine
 10
238.2245430567
 20
142.9863284332
 30
0.0
 11
232.2283102083
 21
124.9573187092
 31
0.0
  0
SOLID
  5
6458
330
6452
100
AcDbEntity
  8
QUOTE
 62
     0
100
AcDbTrace
 10
232.4802173994073
 20
126.5597087610224
 30
0.0
 11
232.9862948653439
 21
126.3913934529972
 31
0.0
 12
232.2283102083
 22
124.9573187092
 32
0.0
 13
232.2283102083
 23
124.9573187092
 33
0.0
  0
POINT
  5
6459
330
6452
100
AcDbEntity
  8
Defpoints
 62
     0
100
AcDbPoint
 10
232.2283102083
 20
124.9573187092
 30
0.0
  0
POINT
  5
645A
330
6452
100
AcDbEntity
  8
Defpoints
 62
     0
100
AcDbPoint
 10
238.2245430567
 20
142.9863284332
 30
0.0
  0
ENDBLK
  5
645B
330
6452
100
AcDbEntity
  8
0
100
AcDbBlockEnd
  0
BLOCK
  5
645E
330
645D
100
AcDbEntity
  8
0
100
AcDbBlockBegin
  2
SW_CENTERMARKSYMBOL_0
 70
     0
 10
0.0
 20
0.0
 30
0.0
  3
SW_CENTERMARKSYMBOL_0
  1
SW_CENTERMARKSYMBOL_0
  0
LINE
  5
645F
330
645D
100
AcDbEntity
  8
ASSI
 62
     0
100
AcDbLine
 10
0.0
 20
0.0
 30
0.0
 11
0.0
 21
2.5
 31
0.0
  0
LINE
  5
6460
330
645D
100
AcDbEntity
  8
ASSI
 62
     0
100
AcDbLine
 10
0.0
 20
0.0
 30
0.0
 11
-2.5
 21
0.0
 31
0.0
  0
LINE
  5
6461
330
645D
100
AcDbEntity
  8
ASSI
 62
     0
100
AcDbLine
 10
0.0
 20
0.0
 30
0.0
 11
0.0
 21
-2.5
 31
0.0
  0
LINE
  5
6462
330
645D
100
AcDbEntity
  8
ASSI
 62
     0
100
AcDbLine
 10
0.0
 20
0.0
 30
0.0
 11
2.5
 21
0.0
 31
0.0
  0
LINE
  5
6463
330
645D
100
AcDbEntity
  8
ASSI
 62
     0
100
AcDbLine
 10
0.0
 20
5.0
 30
0.0
 11
0.0
 21
12.0
 31
0.0
  0
LINE
  5
6464
330
645D
100
AcDbEntity
  8
ASSI
 62
     0
100
AcDbLine
 10
-5.0
 20
0.0
 30
0.0
 11
-12.0
 21
0.0
 31
0.0
  0
LINE
  5
6465
330
645D
100
AcDbEntity
  8
ASSI
 62
     0
100
AcDbLine
 10
0.0
 20
-5.0
 30
0.0
 11
0.0
 21
-12.0
 31
0.0
  0
LINE
  5
6466
330
645D
100
AcDbEntity
  8
ASSI
 62
     0
100
AcDbLine
 10
5.0
 20
0.0
 30
0.0
 11
12.0
 21
0.0
 31
0.0
  0
ENDBLK
  5
6467
330
645D
100
AcDbEntity
  8
0
100
AcDbBlockEnd
  0
ENDSEC
  0
SECTION
  2
ENTITIES
  0
TEXT
  5
61A2
330
A
100
AcDbEntity
  8
0
  6
Continuous
 62
     7
370
     0
100
AcDbText
 10
440.763474912853
 20
67.66860679214955
 30
0.0
 40
10.0
  1
445W10
100
AcDbText
  0
LINE
  5
66C2
330
A
100
AcDbEntity
  8
0
100
AcDbLine
 10
371.3220822583655
 20
-120.2678505094484
 30
0.0
 11
371.3220822583655
 21
-126.2678505094484
 31
0.0
  0
LINE
  5
66C3
330
A
100
AcDbEntity
  8
0
100
AcDbLine
 10
383.3220822583655
 20
-126.2678505094484
 30
0.0
 11
383.3220822583655
 21
-120.2678505094484
 31
0.0
  0
SPLINE
  5
66C4
330
A
100
AcDbEntity
  8
0
100
AcDbSpline
210
0.0
220
0.0
230
1.0
 70
     8
 71
     3
 72
    11
 73
     7
 74
     0
 42
0.000000001
 43
0.00000001
 40
0.0
 40
0.0
 40
0.0
 40
0.0
 40
0.1723759894629905
 40
0.4622647619985883
 40
0.7923750200955225
 40
1.0
 40
1.0
 40
1.0
 40
1.0
 10
373.01534084444
 20
-119.2678505094835
 30
0.0
 10
372.9548469846357
 20
-119.2939948719247
 30
0.0
 10
372.7926191720966
 20
-119.3641068261425
 30
0.0
 10
372.5849010579093
 20
-119.5921168773624
 30
0.0
 10
372.4369808669351
 20
-119.8810243673786
 30
0.0
 10
372.4351696727678
 20
-120.0869111084661
 30
0.0
 10
372.4344703524963
 20
-120.1664060484663
 30
0.0
  0
SPLINE
  5
66C5
330
A
100
AcDbEntity
  8
0
100
AcDbSpline
210
0.0
220
0.0
230
1.0
 70
     8
 71
     3
 72
    11
 73
     7
 74
     0
 42
0.000000001
 43
0.00000001
 40
0.0
 40
0.0
 40
0.0
 40
0.0
 40
0.1610006308413577
 40
0.4374924526174983
 40
0.7268579735123337
 40
1.0
 40
1.0
 40
1.0
 40
1.0
 10
382.212554203936
 20
-120.1667641965552
 30
0.0
 10
382.2129478653291
 20
-120.1054144010391
 30
0.0
 10
382.2140175747301
 20
-119.9387065293516
 30
0.0
 10
382.1090422674208
 20
-119.6772935467984
 30
0.0
 10
381.9169338191302
 20
-119.4138102964842
 30
0.0
 10
381.7247985585681
 20
-119.3155592061115
 30
0.0
 10
381.6315016513998
 20
-119.2678505094835
 30
0.0
  0
LINE
  5
66C6
330
A
100
AcDbEntity
  8
0
100
AcDbLine
 10
372.4220822583655
 20
-120.1678505094484
 30
0.0
 11
372.4220822583655
 21
-120.2678505094484
 31
0.0
  0
LINE
  5
66C7
330
A
100
AcDbEntity
  8
0
100
AcDbLine
 10
372.4220822583655
 20
-126.2678505094484
 30
0.0
 11
372.4220822583655
 21
-127.2678505094484
 31
0.0
  0
LINE
  5
66C8
330
A
100
AcDbEntity
  8
0
100
AcDbLine
 10
382.2220822583655
 20
-127.2678505094484
 30
0.0
 11
382.2220822583655
 21
-126.2678505094484
 31
0.0
  0
LINE
  5
66C9
330
A
100
AcDbEntity
  8
0
100
AcDbLine
 10
382.2220822583655
 20
-120.2678505094484
 30
0.0
 11
382.2220822583655
 21
-120.1678505094484
 31
0.0
  0
LINE
  5
66CA
330
A
100
AcDbEntity
  8
0
100
AcDbLine
 10
371.3220822583655
 20
-120.2678505094484
 30
0.0
 11
383.3220822583655
 21
-120.2678505094484
 31
0.0
  0
LINE
  5
66CB
330
A
100
AcDbEntity
  8
0
100
AcDbLine
 10
371.3220822583655
 20
-126.2678505094484
 30
0.0
 11
383.3220822583655
 21
-126.2678505094484
 31
0.0
  0
CIRCLE
  5
66CC
330
A
100
AcDbEntity
  8
0
100
AcDbCircle
 10
376.8220822583655
 20
-115.9678505094484
 30
0.0
 40
1.500000000000313
  0
LINE
  5
66CD
330
A
100
AcDbEntity
  8
0
100
AcDbLine
 10
401.3220822583655
 20
-119.2678505094484
 30
0.0
 11
401.3220822583655
 21
-118.2678505094484
 31
0.0
  0
LINE
  5
66CE
330
A
100
AcDbEntity
  8
0
100
AcDbLine
 10
395.3220822583655
 20
-119.2678505094484
 30
0.0
 11
401.3220822583655
 21
-119.2678505094484
 31
0.0
  0
LINE
  5
66CF
330
A
100
AcDbEntity
  8
0
100
AcDbLine
 10
353.3220822583655
 20
-118.2678505094484
 30
0.0
 11
353.3220822583655
 21
-119.2678505094484
 31
0.0
  0
LINE
  5
66D0
330
A
100
AcDbEntity
  8
0
100
AcDbLine
 10
353.3220822583655
 20
-119.2678505094484
 30
0.0
 11
359.3220822583655
 21
-119.2678505094484
 31
0.0
  0
LINE
  5
66D1
330
A
100
AcDbEntity
  8
0
100
AcDbLine
 10
359.3220822583655
 20
-119.2678505094484
 30
0.0
 11
395.3220822583655
 21
-119.2678505094484
 31
0.0
  0
LINE
  5
66D2
330
A
100
AcDbEntity
  8
0
100
AcDbLine
 10
401.3220822583655
 20
-128.2678505094484
 30
0.0
 11
401.3220822583655
 21
-127.2678505094484
 31
0.0
  0
LINE
  5
66D3
330
A
100
AcDbEntity
  8
0
100
AcDbLine
 10
395.3220822583655
 20
-127.2678505094484
 30
0.0
 11
401.3220822583655
 21
-127.2678505094484
 31
0.0
  0
LINE
  5
66D4
330
A
100
AcDbEntity
  8
0
100
AcDbLine
 10
353.3220822583655
 20
-127.2678505094484
 30
0.0
 11
353.3220822583655
 21
-128.2678505094484
 31
0.0
  0
LINE
  5
66D5
330
A
100
AcDbEntity
  8
0
100
AcDbLine
 10
353.3220822583655
 20
-127.2678505094484
 30
0.0
 11
359.3220822583655
 21
-127.2678505094484
 31
0.0
  0
LINE
  5
66D6
330
A
100
AcDbEntity
  8
0
100
AcDbLine
 10
359.3220822583655
 20
-127.2678505094484
 30
0.0
 11
395.3220822583655
 21
-127.2678505094484
 31
0.0
  0
ARC
  5
66D7
330
A
100
AcDbEntity
  8
0
100
AcDbCircle
 10
350.4220822583655
 20
-133.8678505094484
 30
0.0
 40
0.5999999999999979
100
AcDbArc
 50
180.0
 51
270.0
  0
ARC
  5
66D8
330
A
100
AcDbEntity
  8
0
100
AcDbCircle
 10
404.2220822583655
 20
-133.8678505094484
 30
0.0
 40
0.5999999999999979
100
AcDbArc
 50
270.0
 51
0.0
  0
LINE
  5
66D9
330
A
100
AcDbEntity
  8
0
100
AcDbLine
 10
404.2220822583655
 20
-128.2678505094484
 30
0.0
 11
404.8220822583655
 21
-128.2678505094484
 31
0.0
  0
LINE
  5
66DA
330
A
100
AcDbEntity
  8
0
100
AcDbLine
 10
404.8220822583655
 20
-133.8678505094484
 30
0.0
 11
404.8220822583655
 21
-128.2678505094484
 31
0.0
  0
LINE
  5
66DB
330
A
100
AcDbEntity
  8
0
100
AcDbLine
 10
404.2220822583655
 20
-128.2678505094484
 30
0.0
 11
350.4220822583655
 21
-128.2678505094484
 31
0.0
  0
LINE
  5
66DC
330
A
100
AcDbEntity
  8
0
100
AcDbLine
 10
404.2220822583655
 20
-134.4678505094484
 30
0.0
 11
350.4220822583655
 21
-134.4678505094484
 31
0.0
  0
LINE
  5
66DD
330
A
100
AcDbEntity
  8
0
100
AcDbLine
 10
349.8220822583655
 20
-128.2678505094484
 30
0.0
 11
349.8220822583655
 21
-133.8678505094484
 31
0.0
  0
LINE
  5
66DE
330
A
100
AcDbEntity
  8
0
100
AcDbLine
 10
349.8220822583655
 20
-128.2678505094484
 30
0.0
 11
350.4220822583655
 21
-128.2678505094484
 31
0.0
  0
ARC
  5
66DF
330
A
100
AcDbEntity
  8
0
100
AcDbCircle
 10
404.2220822583655
 20
-112.5678505094484
 30
0.0
 40
0.5999999999999943
100
AcDbArc
 50
0.0
 51
90.0
  0
ARC
  5
66E0
330
A
100
AcDbEntity
  8
0
100
AcDbCircle
 10
355.5220822583655
 20
-63.8678505094484
 30
0.0
 40
0.6000000000000227
100
AcDbArc
 50
0.0
 51
90.0
  0
LINE
  5
66E1
330
A
100
AcDbEntity
  8
0
100
AcDbLine
 10
404.2220822583655
 20
-118.2678505094484
 30
0.0
 11
350.4220822583655
 21
-118.2678505094484
 31
0.0
  0
ARC
  5
66E2
330
A
100
AcDbEntity
  8
0
100
AcDbCircle
 10
350.4220822583655
 20
-117.6678505094484
 30
0.0
 40
0.5999999999999943
100
AcDbArc
 50
180.0
 51
270.0
  0
LINE
  5
66E3
330
A
100
AcDbEntity
  8
0
100
AcDbLine
 10
349.8220822583655
 20
-117.6678505094484
 30
0.0
 11
349.8220822583655
 21
-63.8678505094484
 31
0.0
  0
CIRCLE
  5
66E4
330
A
100
AcDbEntity
  8
0
100
AcDbCircle
 10
352.1220822583655
 20
-91.2678505094484
 30
0.0
 40
1.25
  0
CIRCLE
  5
66E5
330
A
100
AcDbEntity
  8
0
100
AcDbCircle
 10
376.8220822583655
 20
-115.9678505094484
 30
0.0
 40
1.250000000000028
  0
LINE
  5
66E6
330
A
100
AcDbEntity
  8
0
100
AcDbLine
 10
356.1220822583655
 20
-63.8678505094484
 30
0.0
 11
356.1220822583655
 21
-106.9678505094484
 31
0.0
  0
LINE
  5
66E7
330
A
100
AcDbEntity
  8
0
100
AcDbLine
 10
361.1220822583655
 20
-111.9678505094484
 30
0.0
 11
404.2220822583655
 21
-111.9678505094484
 31
0.0
  0
ARC
  5
66E8
330
A
100
AcDbEntity
  8
0
100
AcDbCircle
 10
361.1220822583655
 20
-106.9678505094484
 30
0.0
 40
5.000000000001656
100
AcDbArc
 50
180.0
 51
270.0
  0
LINE
  5
66E9
330
A
100
AcDbEntity
  8
0
100
AcDbLine
 10
404.8220822583655
 20
-112.5678505094484
 30
0.0
 11
404.8220822583655
 21
-118.2678505094484
 31
0.0
  0
LINE
  5
66EA
330
A
100
AcDbEntity
  8
0
100
AcDbLine
 10
404.2220822583655
 20
-118.2678505094484
 30
0.0
 11
404.8220822583655
 21
-118.2678505094484
 31
0.0
  0
LINE
  5
66EB
330
A
100
AcDbEntity
  8
0
100
AcDbLine
 10
349.8220822583655
 20
-63.8678505094484
 30
0.0
 11
349.8220822583655
 21
-63.26785050944839
 31
0.0
  0
LINE
  5
66EC
330
A
100
AcDbEntity
  8
0
100
AcDbLine
 10
349.8220822583655
 20
-63.26785050944839
 30
0.0
 11
355.5220822583655
 21
-63.26785050944839
 31
0.0
  0
LINE
  5
66ED
330
A
100
AcDbEntity
  8
0
  6
Continuous
 62
     8
370
     0
100
AcDbLine
 10
395.3220822583655
 20
-119.2678505094484
 30
0.0
 11
395.3220822583655
 21
-118.2678505094484
 31
0.0
  0
LINE
  5
66EE
330
A
100
AcDbEntity
  8
0
  6
Continuous
 62
     8
370
     0
100
AcDbLine
 10
359.3220822583655
 20
-119.2678505094484
 30
0.0
 11
359.3220822583655
 21
-118.2678505094484
 31
0.0
  0
LINE
  5
66EF
330
A
100
AcDbEntity
  8
0
  6
Continuous
 62
     8
370
     0
100
AcDbLine
 10
395.3220822583655
 20
-128.2678505094484
 30
0.0
 11
395.3220822583655
 21
-127.2678505094484
 31
0.0
  0
LINE
  5
66F0
330
A
100
AcDbEntity
  8
0
  6
Continuous
 62
     8
370
     0
100
AcDbLine
 10
359.3220822583655
 20
-128.2678505094484
 30
0.0
 11
359.3220822583655
 21
-127.2678505094484
 31
0.0
  0
LINE
  5
66F1
330
A
100
AcDbEntity
  8
0
  6
Continuous
 62
     8
370
     0
100
AcDbLine
 10
350.4220822583655
 20
-134.4678505094484
 30
0.0
 11
350.4220822583655
 21
-133.8678505094484
 31
0.0
  0
LINE
  5
66F2
330
A
100
AcDbEntity
  8
0
  6
Continuous
 62
     8
370
     0
100
AcDbLine
 10
350.4220822583655
 20
-133.8678505094484
 30
0.0
 11
349.8220822583655
 21
-133.8678505094484
 31
0.0
  0
LINE
  5
66F3
330
A
100
AcDbEntity
  8
0
  6
Continuous
 62
     8
370
     0
100
AcDbLine
 10
404.2220822583655
 20
-133.8678505094484
 30
0.0
 11
404.2220822583655
 21
-134.4678505094484
 31
0.0
  0
LINE
  5
66F4
330
A
100
AcDbEntity
  8
0
  6
Continuous
 62
     8
370
     0
100
AcDbLine
 10
404.8220822583655
 20
-133.8678505094484
 30
0.0
 11
404.2220822583655
 21
-133.8678505094484
 31
0.0
  0
LINE
  5
66F5
330
A
100
AcDbEntity
  8
0
  6
Continuous
 62
     8
370
     0
100
AcDbLine
 10
404.2220822583655
 20
-128.2678505094484
 30
0.0
 11
404.2220822583655
 21
-133.8678505094484
 31
0.0
  0
LINE
  5
66F6
330
A
100
AcDbEntity
  8
0
  6
Continuous
 62
     8
370
     0
100
AcDbLine
 10
404.2220822583655
 20
-133.8678505094484
 30
0.0
 11
350.4220822583655
 21
-133.8678505094484
 31
0.0
  0
LINE
  5
66F7
330
A
100
AcDbEntity
  8
0
  6
Continuous
 62
     8
370
     0
100
AcDbLine
 10
350.4220822583655
 20
-133.8678505094484
 30
0.0
 11
350.4220822583655
 21
-128.2678505094484
 31
0.0
  0
LINE
  5
66F8
330
A
100
AcDbEntity
  8
0
  6
Continuous
 62
     8
370
     0
100
AcDbLine
 10
377.3220822583655
 20
-120.1678505094484
 30
0.0
 11
382.2220822582655
 21
-120.1678505094484
 31
0.0
  0
LINE
  5
66F9
330
A
100
AcDbEntity
  8
0
  6
Continuous
 62
     8
370
     0
100
AcDbLine
 10
372.4220822585655
 20
-120.1678505094484
 30
0.0
 11
377.3220822583655
 21
-120.1678505094484
 31
0.0
  0
LINE
  5
66FA
330
A
100
AcDbEntity
  8
0
  6
Continuous
 62
     8
370
     0
100
AcDbLine
 10
404.2220822583655
 20
-112.5678505094484
 30
0.0
 11
404.8220822583655
 21
-112.5678505094484
 31
0.0
  0
LINE
  5
66FB
330
A
100
AcDbEntity
  8
0
  6
Continuous
 62
     8
370
     0
100
AcDbLine
 10
404.2220822583655
 20
-111.9678505094484
 30
0.0
 11
404.2220822583655
 21
-112.5678505094484
 31
0.0
  0
LINE
  5
66FC
330
A
100
AcDbEntity
  8
0
  6
Continuous
 62
     8
370
     0
100
AcDbLine
 10
355.5220822583655
 20
-63.8678505094484
 30
0.0
 11
356.1220822583655
 21
-63.8678505094484
 31
0.0
  0
LINE
  5
66FD
330
A
100
AcDbEntity
  8
0
  6
Continuous
 62
     8
370
     0
100
AcDbLine
 10
355.5220822583655
 20
-63.26785050944839
 30
0.0
 11
355.5220822583655
 21
-63.8678505094484
 31
0.0
  0
LINE
  5
66FE
330
A
100
AcDbEntity
  8
0
  6
Continuous
 62
     8
370
     0
100
AcDbLine
 10
361.1220822583655
 20
-112.5678505094484
 30
0.0
 11
404.2220822583655
 21
-112.5678505094484
 31
0.0
  0
LINE
  5
66FF
330
A
100
AcDbEntity
  8
0
  6
Continuous
 62
     8
370
     0
100
AcDbLine
 10
404.2220822583655
 20
-112.5678505094484
 30
0.0
 11
404.2220822583655
 21
-118.2678505094484
 31
0.0
  0
LINE
  5
6700
330
A
100
AcDbEntity
  8
0
  6
Continuous
 62
     8
370
     0
100
AcDbLine
 10
349.8220822583655
 20
-63.8678505094484
 30
0.0
 11
355.5220822583655
 21
-63.8678505094484
 31
0.0
  0
LINE
  5
6701
330
A
100
AcDbEntity
  8
0
  6
Continuous
 62
     8
370
     0
100
AcDbLine
 10
355.5220822583655
 20
-63.8678505094484
 30
0.0
 11
355.5220822584655
 21
-106.9678505094484
 31
0.0
  0
SPLINE
  5
6702
330
A
100
AcDbEntity
  8
0
  6
Continuous
 62
     8
370
     0
100
AcDbSpline
210
0.0
220
0.0
230
1.0
 70
     8
 71
     3
 72
    10
 73
     6
 74
     0
 42
0.000000001
 43
0.00000001
 40
0.0
 40
0.0
 40
0.0
 40
0.0
 40
0.4999999999999997
 40
0.4999999999999997
 40
1.0
 40
1.0
 40
1.0
 40
1.0
 10
361.1220822583782
 20
-112.5678505094827
 30
0.0
 10
359.636911947978
 20
-112.5678505094829
 30
0.0
 10
358.2124582814336
 20
-111.9778224818283
 30
0.0
 10
356.1121102860315
 20
-109.8774744864266
 30
0.0
 10
355.5220822583766
 20
-108.4530208198821
 30
0.0
 10
355.5220822583766
 20
-106.9678505094819
 30
0.0
  0
LINE
  5
6703
330
A
100
AcDbEntity
  8
0
  6
Continuous
 62
     8
370
     0
100
AcDbLine
 10
355.5220822583655
 20
-106.9678505094484
 30
0.0
 11
356.1220822583655
 21
-106.9678505094484
 31
0.0
  0
LINE
  5
6704
330
A
100
AcDbEntity
  8
0
  6
Continuous
 62
     8
370
     0
100
AcDbLine
 10
361.1220822583655
 20
-112.5678505094484
 30
0.0
 11
361.1220822583655
 21
-111.9678505094484
 31
0.0
  0
LINE
  5
6705
330
A
100
AcDbEntity
  8
ASSI
  6
CENTER
100
AcDbLine
 10
377.3220822583655
 20
-137.9531092400215
 30
0.0
 11
377.3220822583655
 21
-107.9347153148881
 31
0.0
  0
ARC
  5
6706
330
A
100
AcDbEntity
  8
0
100
AcDbCircle
 10
404.2220822583655
 20
26.4039730617516
 30
0.0
 40
0.5999999999999943
100
AcDbArc
 50
0.0
 51
90.0
  0
ARC
  5
6707
330
A
100
AcDbEntity
  8
0
100
AcDbCircle
 10
404.2220822583655
 20
-27.39602693824841
 30
0.0
 40
0.5999999999999943
100
AcDbArc
 50
270.0
 51
0.0
  0
ARC
  5
6708
330
A
100
AcDbEntity
  8
0
100
AcDbCircle
 10
350.4220822583655
 20
-27.39602693824841
 30
0.0
 40
0.5999999999999943
100
AcDbArc
 50
180.0
 51
270.0
  0
ARC
  5
6709
330
A
100
AcDbEntity
  8
0
100
AcDbCircle
 10
350.4220822583655
 20
26.4039730617516
 30
0.0
 40
0.5999999999999943
100
AcDbArc
 50
90.0
 51
180.0
  0
LINE
  5
670A
330
A
100
AcDbEntity
  8
0
100
AcDbLine
 10
350.4220822583655
 20
-27.99602693824841
 30
0.0
 11
404.2220822583655
 21
-27.99602693824841
 31
0.0
  0
LINE
  5
670B
330
A
100
AcDbEntity
  8
0
100
AcDbLine
 10
404.8220822583655
 20
-27.39602693824841
 30
0.0
 11
404.8220822583655
 21
26.4039730617516
 31
0.0
  0
LINE
  5
670C
330
A
100
AcDbEntity
  8
0
100
AcDbLine
 10
404.2220822583655
 20
27.00397306175159
 30
0.0
 11
350.4220822583655
 21
27.00397306175159
 31
0.0
  0
LINE
  5
670D
330
A
100
AcDbEntity
  8
0
100
AcDbLine
 10
349.8220822583655
 20
26.4039730617516
 30
0.0
 11
349.8220822583655
 21
-27.39602693824841
 31
0.0
  0
LINE
  5
670E
330
A
100
AcDbEntity
  8
0
100
AcDbLine
 10
349.8220822583655
 20
-27.39602693824841
 30
0.0
 11
349.8220822583655
 21
-27.99602693824841
 31
0.0
  0
LINE
  5
670F
330
A
100
AcDbEntity
  8
0
100
AcDbLine
 10
349.8220822583655
 20
-27.99602693824841
 30
0.0
 11
350.4220822583655
 21
-27.99602693824841
 31
0.0
  0
LINE
  5
6710
330
A
100
AcDbEntity
  8
0
100
AcDbLine
 10
349.8220822583655
 20
27.00397306175159
 30
0.0
 11
349.8220822583655
 21
26.4039730617516
 31
0.0
  0
LINE
  5
6711
330
A
100
AcDbEntity
  8
0
100
AcDbLine
 10
350.4220822583655
 20
27.00397306175159
 30
0.0
 11
349.8220822583655
 21
27.00397306175159
 31
0.0
  0
LINE
  5
6712
330
A
100
AcDbEntity
  8
0
  6
Continuous
 62
     8
370
     0
100
AcDbLine
 10
404.2220822583655
 20
27.00397306175159
 30
0.0
 11
404.2220822583655
 21
26.4039730617516
 31
0.0
  0
LINE
  5
6713
330
A
100
AcDbEntity
  8
0
  6
Continuous
 62
     8
370
     0
100
AcDbLine
 10
404.2220822583655
 20
26.4039730617516
 30
0.0
 11
404.8220822583655
 21
26.4039730617516
 31
0.0
  0
LINE
  5
6714
330
A
100
AcDbEntity
  8
0
  6
Continuous
 62
     8
370
     0
100
AcDbLine
 10
404.2220822583655
 20
-27.39602693824841
 30
0.0
 11
404.2220822583655
 21
-27.99602693824841
 31
0.0
  0
LINE
  5
6715
330
A
100
AcDbEntity
  8
0
  6
Continuous
 62
     8
370
     0
100
AcDbLine
 10
404.8220822583655
 20
-27.39602693824841
 30
0.0
 11
404.2220822583655
 21
-27.39602693824841
 31
0.0
  0
LINE
  5
6716
330
A
100
AcDbEntity
  8
0
  6
Continuous
 62
     8
370
     0
100
AcDbLine
 10
350.4220822583655
 20
-27.39602693824841
 30
0.0
 11
349.8220822583655
 21
-27.39602693824841
 31
0.0
  0
LINE
  5
6717
330
A
100
AcDbEntity
  8
0
  6
Continuous
 62
     8
370
     0
100
AcDbLine
 10
350.4220822583655
 20
-27.99602693824841
 30
0.0
 11
350.4220822583655
 21
-27.39602693824841
 31
0.0
  0
LINE
  5
6718
330
A
100
AcDbEntity
  8
0
  6
Continuous
 62
     8
370
     0
100
AcDbLine
 10
350.4220822583655
 20
26.4039730617516
 30
0.0
 11
350.4220822583655
 21
27.00397306175159
 31
0.0
  0
LINE
  5
6719
330
A
100
AcDbEntity
  8
0
  6
Continuous
 62
     8
370
     0
100
AcDbLine
 10
349.8220822583655
 20
26.4039730617516
 30
0.0
 11
350.4220822583655
 21
26.4039730617516
 31
0.0
  0
LINE
  5
671A
330
A
100
AcDbEntity
  8
0
  6
Continuous
 62
     8
370
     0
100
AcDbLine
 10
350.4220822583655
 20
-27.39602693824841
 30
0.0
 11
404.2220822583655
 21
-27.39602693824841
 31
0.0
  0
LINE
  5
671B
330
A
100
AcDbEntity
  8
0
  6
Continuous
 62
     8
370
     0
100
AcDbLine
 10
350.4220822583655
 20
26.4039730617516
 30
0.0
 11
350.4220822583655
 21
-27.39602693824841
 31
0.0
  0
LINE
  5
671C
330
A
100
AcDbEntity
  8
0
  6
Continuous
 62
     8
370
     0
100
AcDbLine
 10
404.2220822583655
 20
26.4039730617516
 30
0.0
 11
350.4220822583655
 21
26.4039730617516
 31
0.0
  0
LINE
  5
671D
330
A
100
AcDbEntity
  8
0
  6
Continuous
 62
     8
370
     0
100
AcDbLine
 10
404.2220822583655
 20
-27.39602693824841
 30
0.0
 11
404.2220822583655
 21
26.4039730617516
 31
0.0
  0
CIRCLE
  5
671E
330
A
100
AcDbEntity
  8
0
  6
CENTER
 62
     1
370
     0
100
AcDbCircle
 10
377.3220822583655
 20
-0.4960269382484057
 30
0.0
 40
9.500000000000005
  0
INSERT
  5
6720
330
A
100
AcDbEntity
  8
ASSI
100
AcDbBlockReference
  2
SW_CENTERMARKSYMBOL_0
 10
377.3220822583655
 20
-0.4960269382484057
 30
0.0
  0
LINE
  5
6721
330
A
100
AcDbEntity
  8
0
100
AcDbLine
 10
383.3220830916655
 20
166.230703547376
 30
0.0
 11
383.3220830916655
 21
172.230703832376
 31
0.0
  0
LINE
  5
6722
330
A
100
AcDbEntity
  8
0
100
AcDbLine
 10
371.3220829873655
 20
172.230703832376
 30
0.0
 11
371.3220829873655
 21
166.230703547376
 31
0.0
  0
SPLINE
  5
6723
330
A
100
AcDbEntity
  8
0
100
AcDbSpline
210
0.0
220
0.0
230
1.0
 70
     8
 71
     3
 72
    14
 73
    10
 74
     0
 42
0.000000001
 43
0.00000001
 40
0.0
 40
0.0
 40
0.0
 40
0.0
 40
0.1288363114882789
 40
0.2561009398428729
 40
0.3823014434124388
 40
0.5077489974869597
 40
0.7553970393321774
 40
0.8784306124900584
 40
1.0
 40
1.0
 40
1.0
 40
1.0
 10
350.4220822857059
 20
180.4210460574827
 30
0.0
 10
350.3816315359506
 20
180.4176350209231
 30
0.0
 10
350.3012234979526
 20
180.4108545592761
 30
0.0
 10
350.1849845248433
 20
180.3726600575383
 30
0.0
 10
350.0792849345696
 20
180.3159181312316
 30
0.0
 10
349.9579921679798
 20
180.2166919453907
 30
0.0
 10
349.8713228039316
 20
180.08538031287
 30
0.0
 10
349.82712148173
 20
179.9379059458225
 30
0.0
 10
349.8237916628165
 20
179.8608950406875
 30
0.0
 10
349.8221367194555
 20
179.8226200805507
 30
0.0
  0
SPLINE
  5
6724
330
A
100
AcDbEntity
  8
0
100
AcDbSpline
210
0.0
220
0.0
230
1.0
 70
     8
 71
     3
 72
    11
 73
     7
 74
     0
 42
0.000000001
 43
0.00000001
 40
0.0
 40
0.0
 40
0.0
 40
0.0
 40
0.1724013978493019
 40
0.4623330756214376
 40
0.7924924666729302
 40
0.9999999999999999
 40
0.9999999999999999
 40
0.9999999999999999
 40
0.9999999999999999
 10
381.6288231670223
 20
165.2307034998663
 30
0.0
 10
381.6893171698976
 20
165.2568478217966
 30
0.0
 10
381.8515454276435
 20
165.3269596939671
 30
0.0
 10
382.0592602335383
 20
165.5549706162158
 30
0.0
 10
382.2071694071943
 20
165.8438234721393
 30
0.0
 10
382.2089820382026
 20
166.0496531054861
 30
0.0
 10
382.2096816062294
 20
166.1290911321991
 30
0.0
  0
SPLINE
  5
6725
330
A
100
AcDbEntity
  8
0
100
AcDbSpline
210
0.0
220
0.0
230
1.0
 70
     8
 71
     3
 72
    11
 73
     7
 74
     0
 42
0.000000001
 43
0.00000001
 40
0.0
 40
0.0
 40
0.0
 40
0.0
 40
0.1610755824072639
 40
0.4375428007931082
 40
0.7268830884285262
 40
1.0
 40
1.0
 40
1.0
 40
1.0
 10
372.4316066860519
 20
166.1297183779531
 30
0.0
 10
372.4312118668742
 20
166.068334457114
 30
0.0
 10
372.4301393871954
 20
165.9015922839915
 30
0.0
 10
372.535120774938
 20
165.6401459453106
 30
0.0
 10
372.7272318424892
 20
165.3766638342696
 30
0.0
 10
372.9193662839981
 20
165.2784122970035
 30
0.0
 10
373.0126625656448
 20
165.2307034998663
 30
0.0
  0
LINE
  5
6726
330
A
100
AcDbEntity
  8
0
100
AcDbLine
 10
382.2220830976655
 20
166.1307034843761
 30
0.0
 11
382.2220830976655
 21
166.230703547376
 31
0.0
  0
LINE
  5
6727
330
A
100
AcDbEntity
  8
0
100
AcDbLine
 10
382.2220830976655
 20
172.230703832376
 30
0.0
 11
382.2220830976655
 21
173.2307030649761
 31
0.0
  0
LINE
  5
6728
330
A
100
AcDbEntity
  8
0
100
AcDbLine
 10
372.4220829813655
 20
173.2307030649761
 30
0.0
 11
372.4220829813655
 21
172.230703832376
 31
0.0
  0
LINE
  5
6729
330
A
100
AcDbEntity
  8
0
100
AcDbLine
 10
372.4220829813655
 20
166.230703547376
 30
0.0
 11
372.4220829813655
 21
166.1307034843761
 31
0.0
  0
LINE
  5
672A
330
A
100
AcDbEntity
  8
0
100
AcDbLine
 10
383.3220830916655
 20
172.230703832376
 30
0.0
 11
371.3220829873655
 21
172.230703832376
 31
0.0
  0
LINE
  5
672B
330
A
100
AcDbEntity
  8
0
100
AcDbLine
 10
383.3220830916655
 20
166.230703547376
 30
0.0
 11
371.3220829873655
 21
166.230703547376
 31
0.0
  0
LINE
  5
672C
330
A
100
AcDbEntity
  8
0
100
AcDbLine
 10
353.3220823652655
 20
165.230703499876
 30
0.0
 11
353.3220823652655
 21
164.2307034511761
 31
0.0
  0
LINE
  5
672D
330
A
100
AcDbEntity
  8
0
100
AcDbLine
 10
359.3220819517655
 20
165.230703499876
 30
0.0
 11
353.3220823652655
 21
165.230703499876
 31
0.0
  0
LINE
  5
672E
330
A
100
AcDbEntity
  8
0
100
AcDbLine
 10
395.3220813333655
 20
165.230703499876
 30
0.0
 11
359.3220819517655
 21
165.230703499876
 31
0.0
  0
LINE
  5
672F
330
A
100
AcDbEntity
  8
0
100
AcDbLine
 10
401.3220823167655
 20
165.230703499876
 30
0.0
 11
401.3220823167655
 21
164.2307034511761
 31
0.0
  0
LINE
  5
6730
330
A
100
AcDbEntity
  8
0
100
AcDbLine
 10
401.3220823167655
 20
165.230703499876
 30
0.0
 11
395.3220813333655
 21
165.230703499876
 31
0.0
  0
LINE
  5
6731
330
A
100
AcDbEntity
  8
0
100
AcDbLine
 10
353.3220823652655
 20
174.2307032288761
 30
0.0
 11
353.3220823652655
 21
173.2307030649761
 31
0.0
  0
LINE
  5
6732
330
A
100
AcDbEntity
  8
0
100
AcDbLine
 10
359.3220819517655
 20
173.2307030649761
 30
0.0
 11
353.3220823652655
 21
173.2307030649761
 31
0.0
  0
LINE
  5
6733
330
A
100
AcDbEntity
  8
0
100
AcDbLine
 10
395.3220813333655
 20
173.2307030649761
 30
0.0
 11
359.3220819517655
 21
173.2307030649761
 31
0.0
  0
LINE
  5
6734
330
A
100
AcDbEntity
  8
0
100
AcDbLine
 10
401.3220823167655
 20
174.2307032288761
 30
0.0
 11
401.3220823167655
 21
173.2307030649761
 31
0.0
  0
LINE
  5
6735
330
A
100
AcDbEntity
  8
0
100
AcDbLine
 10
401.3220823167655
 20
173.2307030649761
 30
0.0
 11
395.3220813333655
 21
173.2307030649761
 31
0.0
  0
ARC
  5
6736
330
A
100
AcDbEntity
  8
0
100
AcDbCircle
 10
404.2220822583655
 20
179.830703451176
 30
0.0
 40
0.6000000000000227
100
AcDbArc
 50
0.0
 51
90.0
  0
LINE
  5
6737
330
A
100
AcDbEntity
  8
0
100
AcDbLine
 10
350.4220822856655
 20
180.4210237057761
 30
0.0
 11
350.4220822856655
 21
180.430703872576
 31
0.0
  0
LINE
  5
6738
330
A
100
AcDbEntity
  8
0
100
AcDbLine
 10
350.4220822856655
 20
174.2307032288761
 30
0.0
 11
349.8220822583655
 21
174.2307032288761
 31
0.0
  0
LINE
  5
6739
330
A
100
AcDbEntity
  8
0
100
AcDbLine
 10
349.8220822583655
 20
179.830703029176
 30
0.0
 11
349.8220822583655
 21
174.2307032288761
 31
0.0
  0
LINE
  5
673A
330
A
100
AcDbEntity
  8
0
100
AcDbLine
 10
350.4220822856655
 20
174.2307032288761
 30
0.0
 11
404.2220829784655
 21
174.2307032288761
 31
0.0
  0
LINE
  5
673B
330
A
100
AcDbEntity
  8
0
100
AcDbLine
 10
350.4220822856655
 20
180.430703872576
 30
0.0
 11
404.2220829784655
 21
180.430703872576
 31
0.0
  0
LINE
  5
673C
330
A
100
AcDbEntity
  8
0
100
AcDbLine
 10
404.8220819591655
 20
174.2307032288761
 30
0.0
 11
404.8220819591655
 21
179.830703029176
 31
0.0
  0
LINE
  5
673D
330
A
100
AcDbEntity
  8
0
100
AcDbLine
 10
404.8220819591655
 20
174.2307032288761
 30
0.0
 11
404.2220829784655
 21
174.2307032288761
 31
0.0
  0
LINE
  5
673E
330
A
100
AcDbEntity
  8
0
100
AcDbLine
 10
349.8220822583655
 20
163.6307034238761
 30
0.0
 11
349.8220822583655
 21
109.830702731176
 31
0.0
  0
ARC
  5
673F
330
A
100
AcDbEntity
  8
0
100
AcDbCircle
 10
350.4220822583655
 20
163.630703451176
 30
0.0
 40
0.6000000000000227
100
AcDbArc
 50
90.0
 51
180.0
  0
LINE
  5
6740
330
A
100
AcDbEntity
  8
0
100
AcDbLine
 10
404.2220829784655
 20
164.2307034511761
 30
0.0
 11
350.4220822856655
 21
164.2307034511761
 31
0.0
  0
LINE
  5
6741
330
A
100
AcDbEntity
  8
0
100
AcDbLine
 10
356.1220822653655
 20
109.830702731176
 30
0.0
 11
356.1220822653655
 21
152.930703090276
 31
0.0
  0
LINE
  5
6742
330
A
100
AcDbEntity
  8
0
100
AcDbLine
 10
349.8220822583655
 20
109.2307037503761
 30
0.0
 11
355.5220823533655
 21
109.2307037503761
 31
0.0
  0
SPLINE
  5
6743
330
A
100
AcDbEntity
  8
0
100
AcDbSpline
210
0.0
220
0.0
230
1.0
 70
    24
 71
     3
 72
    16
 73
    12
 74
     0
 42
0.000000001
 43
0.00000001
 40
0.0
 40
0.0
 40
0.0
 40
0.0
 40
0.0829669543308045
 40
0.1658731899086378
 40
0.2501363560737271
 40
0.3736610409277172
 40
0.500081017383843
 40
0.6236057022378675
 40
0.7500256786939672
 40
0.8742968264562075
 40
1.0
 40
1.0
 40
1.0
 40
1.0
 10
349.8220822583759
 20
109.2307034511988
 30
0.0
 10
349.8220822583759
 20
109.2316709072291
 30
0.0
 10
349.8220822583759
 20
109.2336051112642
 30
0.0
 10
349.8220822583759
 20
109.2496157694922
 30
0.0
 10
349.8220822583759
 20
109.278638838363
 30
0.0
 10
349.8220822583759
 20
109.3282105511161
 30
0.0
 10
349.8220822583759
 20
109.4031276242068
 30
0.0
 10
349.8220822583759
 20
109.4947000103148
 30
0.0
 10
349.8220822583759
 20
109.5990384943346
 30
0.0
 10
349.8220822583759
 20
109.7125792918128
 30
0.0
 10
349.8220822583759
 20
109.7911786409279
 30
0.0
 10
349.8220822583759
 20
109.8307034511988
 30
0.0
  0
LINE
  5
6744
330
A
100
AcDbEntity
  8
0
100
AcDbLine
 10
361.1220826192655
 20
157.930703444176
 30
0.0
 11
404.2220829784655
 21
157.930703444176
 31
0.0
  0
LINE
  5
6745
330
A
100
AcDbEntity
  8
0
100
AcDbLine
 10
404.8220819591655
 20
158.530703356276
 30
0.0
 11
404.8220819591655
 21
164.2307034511761
 31
0.0
  0
SPLINE
  5
6746
330
A
100
AcDbEntity
  8
0
100
AcDbSpline
210
0.0
220
0.0
230
1.0
 70
    24
 71
     3
 72
    16
 73
    12
 74
     0
 42
0.000000001
 43
0.00000001
 40
0.0
 40
0.0
 40
0.0
 40
0.0
 40
0.0829669543307896
 40
0.1658731899086285
 40
0.2501363560737293
 40
0.3736610409278769
 40
0.500081017383851
 40
0.623605702238015
 40
0.7500256786939696
 40
0.8742968264562005
 40
1.0
 40
1.0
 40
1.0
 40
1.0
 10
404.2220822583775
 20
164.2307034512004
 30
0.0
 10
404.2481337422425
 20
164.2307034512004
 30
0.0
 10
404.3002176443866
 20
164.2307034512004
 30
0.0
 10
404.3773964288938
 20
164.2307034512004
 30
0.0
 10
404.4640449478485
 20
164.2307034512004
 30
0.0
 10
404.5573087369655
 20
164.2307034512004
 30
0.0
 10
404.6483414281109
 20
164.2307034512004
 30
0.0
 10
404.7241827515064
 20
164.2307034512004
 30
0.0
 10
404.7793177236099
 20
164.2307034512004
 30
0.0
 10
404.8157369575048
 20
164.2307034512004
 30
0.0
 10
404.8199590956442
 20
164.2307034512004
 30
0.0
 10
404.8220822583774
 20
164.2307034512004
 30
0.0
  0
SPLINE
  5
6747
330
A
100
AcDbEntity
  8
0
100
AcDbSpline
210
0.0
220
0.0
230
1.0
 70
     8
 71
     3
 72
    17
 73
    13
 74
     0
 42
0.000000001
 43
0.00000001
 40
0.0
 40
0.0
 40
0.0
 40
0.0
 40
0.0760582855772911
 40
0.1525793772443827
 40
0.2315418221733262
 40
0.3147728423779774
 40
0.4038889809890939
 40
0.5002412003112067
 40
0.6198711843306548
 40
0.760116502898076
 40
0.8592988845186262
 40
1.0
 40
1.0
 40
1.0
 40
1.0
 10
356.1220822583754
 20
109.8307034511988
 30
0.0
 10
356.1212577010846
 20
109.8068238619497
 30
0.0
 10
356.1196035691647
 20
109.7589193788438
 30
0.0
 10
356.1061127349135
 20
109.687261763603
 30
0.0
 10
356.0839504704336
 20
109.615553592479
 30
0.0
 10
356.0510301961092
 20
109.5436349592306
 30
0.0
 10
356.0058154253824
 20
109.4721479880862
 30
0.0
 10
355.9431946568254
 20
109.3992757246457
 30
0.0
 10
355.8566039762947
 20
109.327482781556
 30
0.0
 10
355.7561639079966
 20
109.274661449553
 30
0.0
 10
355.6417864207851
 20
109.238220505769
 30
0.0
 10
355.5663365677246
 20
109.2334824862101
 30
0.0
 10
355.5220822583754
 20
109.2307034511988
 30
0.0
  0
SPLINE
  5
6748
330
A
100
AcDbEntity
  8
0
100
AcDbSpline
210
0.0
220
0.0
230
1.0
 70
     8
 71
     3
 72
    17
 73
    13
 74
     0
 42
0.000000001
 43
0.00000001
 40
0.0
 40
0.0
 40
0.0
 40
0.0
 40
0.0760582856040434
 40
0.1525793772872286
 40
0.2315418222215372
 40
0.3147728424208506
 40
0.4038889810158625
 40
0.500241200311116
 40
0.6198711844247732
 40
0.7601165028980599
 40
0.8592988845463031
 40
1.0
 40
1.0
 40
1.0
 40
1.0
 10
404.8220822583774
 20
158.5307034512008
 30
0.0
 10
404.821257701086
 20
158.5068238619431
 30
0.0
 10
404.819603569165
 20
158.4589193788239
 30
0.0
 10
404.806112734907
 20
158.3872617635688
 30
0.0
 10
404.7839504704205
 20
158.3155535924415
 30
0.0
 10
404.751030196093
 20
158.2436349592001
 30
0.0
 10
404.7058154253704
 20
158.1721479880711
 30
0.0
 10
404.6431946568016
 20
158.0992757246198
 30
0.0
 10
404.5566039762709
 20
158.0274827815412
 30
0.0
 10
404.4561639079626
 20
157.9746614495421
 30
0.0
 10
404.3417864207783
 20
157.9382205057692
 30
0.0
 10
404.2663365677179
 20
157.9334824862111
 30
0.0
 10
404.2220822583775
 20
157.9307034512009
 30
0.0
  0
ARC
  5
6749
330
A
100
AcDbEntity
  8
0
100
AcDbCircle
 10
361.1220822583655
 20
152.930703451176
 30
0.0
 40
5.000000000000028
100
AcDbArc
 50
89.9999999868995
 51
180.0000000104999
  0
LINE
  5
674A
330
A
100
AcDbEntity
  8
0
  6
Continuous
 62
     8
370
     0
100
AcDbLine
 10
359.3220819517655
 20
165.230703499876
 30
0.0
 11
359.3220819517655
 21
164.2307034511761
 31
0.0
  0
LINE
  5
674B
330
A
100
AcDbEntity
  8
0
  6
Continuous
 62
     8
370
     0
100
AcDbLine
 10
395.3220813333655
 20
165.230703499876
 30
0.0
 11
395.3220813333655
 21
164.2307034511761
 31
0.0
  0
LINE
  5
674C
330
A
100
AcDbEntity
  8
0
  6
Continuous
 62
     8
370
     0
100
AcDbLine
 10
359.3220819517655
 20
174.2307032288761
 30
0.0
 11
359.3220819517655
 21
173.2307030649761
 31
0.0
  0
LINE
  5
674D
330
A
100
AcDbEntity
  8
0
  6
Continuous
 62
     8
370
     0
100
AcDbLine
 10
395.3220813333655
 20
174.2307032288761
 30
0.0
 11
395.3220813333655
 21
173.2307030649761
 31
0.0
  0
LINE
  5
674E
330
A
100
AcDbEntity
  8
0
  6
Continuous
 62
     8
370
     0
100
AcDbLine
 10
404.2220829784655
 20
180.430703872576
 30
0.0
 11
404.2220829784655
 21
179.830703029176
 31
0.0
  0
LINE
  5
674F
330
A
100
AcDbEntity
  8
0
  6
Continuous
 62
     8
370
     0
100
AcDbLine
 10
404.2220829784655
 20
179.830703029176
 30
0.0
 11
404.8220819591655
 21
179.830703029176
 31
0.0
  0
LINE
  5
6750
330
A
100
AcDbEntity
  8
0
  6
Continuous
 62
     8
370
     0
100
AcDbLine
 10
350.4220822856655
 20
179.830703029176
 30
0.0
 11
350.4220822856655
 21
180.4210237057761
 31
0.0
  0
LINE
  5
6751
330
A
100
AcDbEntity
  8
0
  6
Continuous
 62
     8
370
     0
100
AcDbLine
 10
349.8220822583655
 20
179.830703029176
 30
0.0
 11
350.4220822856655
 21
179.830703029176
 31
0.0
  0
LINE
  5
6752
330
A
100
AcDbEntity
  8
0
  6
Continuous
 62
     8
370
     0
100
AcDbLine
 10
350.4220822856655
 20
174.2307032288761
 30
0.0
 11
350.4220822856655
 21
179.830703029176
 31
0.0
  0
LINE
  5
6753
330
A
100
AcDbEntity
  8
0
  6
Continuous
 62
     8
370
     0
100
AcDbLine
 10
350.4220822856655
 20
179.830703029176
 30
0.0
 11
404.2220829784655
 21
179.830703029176
 31
0.0
  0
LINE
  5
6754
330
A
100
AcDbEntity
  8
0
  6
Continuous
 62
     8
370
     0
100
AcDbLine
 10
404.2220829784655
 20
179.830703029176
 30
0.0
 11
404.2220829784655
 21
174.2307032288761
 31
0.0
  0
LINE
  5
6755
330
A
100
AcDbEntity
  8
0
  6
Continuous
 62
     8
370
     0
100
AcDbLine
 10
382.2220830976655
 20
166.1307034843761
 30
0.0
 11
372.4220829813655
 21
166.1307034843761
 31
0.0
  0
LINE
  5
6756
330
A
100
AcDbEntity
  8
0
  6
Continuous
 62
     8
370
     0
100
AcDbLine
 10
355.5220823533655
 20
152.930703090276
 30
0.0
 11
355.5220823533655
 21
109.830702731176
 31
0.0
  0
LINE
  5
6757
330
A
100
AcDbEntity
  8
0
  6
Continuous
 62
     8
370
     0
100
AcDbLine
 10
355.5220823533655
 20
109.830702731176
 30
0.0
 11
349.8220822583655
 21
109.830702731176
 31
0.0
  0
LINE
  5
6758
330
A
100
AcDbEntity
  8
0
  6
Continuous
 62
     8
370
     0
100
AcDbLine
 10
404.2220829784655
 20
164.2307034511761
 30
0.0
 11
404.2220829784655
 21
158.530703356276
 31
0.0
  0
LINE
  5
6759
330
A
100
AcDbEntity
  8
0
  6
Continuous
 62
     8
370
     0
100
AcDbLine
 10
404.2220829784655
 20
158.530703356276
 30
0.0
 11
361.1220826192655
 21
158.530703356276
 31
0.0
  0
SPLINE
  5
675A
330
A
100
AcDbEntity
  8
0
  6
Continuous
 62
     8
370
     0
100
AcDbSpline
210
0.0
220
0.0
230
1.0
 70
     8
 71
     3
 72
    10
 73
     6
 74
     0
 42
0.000000001
 43
0.00000001
 40
0.0
 40
0.0
 40
0.0
 40
0.0
 40
0.5
 40
0.5
 40
1.0
 40
1.0
 40
1.0
 40
1.0
 10
355.5220822583768
 20
152.9307034511982
 30
0.0
 10
355.5220822583766
 20
154.4158737615984
 30
0.0
 10
356.1121102860313
 20
155.8403274281428
 30
0.0
 10
358.2124582814329
 20
157.9406754235447
 30
0.0
 10
359.6369119479773
 20
158.5307034511995
 30
0.0
 10
361.1220822583774
 20
158.5307034511995
 30
0.0
  0
LINE
  5
675B
330
A
100
AcDbEntity
  8
0
  6
Continuous
 62
     8
370
     0
100
AcDbLine
 10
356.1220822653655
 20
109.830702731176
 30
0.0
 11
355.5220823533655
 21
109.830702731176
 31
0.0
  0
LINE
  5
675C
330
A
100
AcDbEntity
  8
0
  6
Continuous
 62
     8
370
     0
100
AcDbLine
 10
356.1220822653655
 20
152.930703090276
 30
0.0
 11
355.5220823533655
 21
152.930703090276
 31
0.0
  0
SPLINE
  5
675D
330
A
100
AcDbEntity
  8
0
  6
Continuous
 62
     8
370
     0
100
AcDbSpline
210
0.0
220
0.0
230
1.0
 70
     8
 71
     3
 72
    16
 73
    12
 74
     0
 42
0.000000001
 43
0.00000001
 40
0.0
 40
0.0
 40
0.0
 40
0.0
 40
0.0756894924019937
 40
0.1409961495987495
 40
0.1958538876616739
 40
0.2403653523228511
 40
0.3806760687247145
 40
0.5004497395812418
 40
0.6855598376282772
 40
0.8475551725321302
 40
1.0
 40
1.0
 40
1.0
 40
1.0
 10
355.5220822583754
 20
109.2307034511988
 30
0.0
 10
355.5221170320257
 20
109.2315091465511
 30
0.0
 10
355.5221818091915
 20
109.2330100146216
 30
0.0
 10
355.5222978565834
 20
109.2438025445807
 30
0.0
 10
355.5221817451671
 20
109.2572239093628
 30
0.0
 10
355.5219844020888
 20
109.2824564715398
 30
0.0
 10
355.5222728794261
 20
109.3275756873014
 30
0.0
 10
355.5219911921241
 20
109.4169985499817
 30
0.0
 10
355.5221891850222
 20
109.5362226789393
 30
0.0
 10
355.5218201637781
 20
109.6839759793292
 30
0.0
 10
355.5219966806281
 20
109.7827947700016
 30
0.0
 10
355.5220822583754
 20
109.8307034511988
 30
0.0
  0
SPLINE
  5
675E
330
A
100
AcDbEntity
  8
0
  6
Continuous
 62
     8
370
     0
100
AcDbSpline
210
0.0
220
0.0
230
1.0
 70
     8
 71
     3
 72
    16
 73
    12
 74
     0
 42
0.000000001
 43
0.00000001
 40
0.0
 40
0.0
 40
0.0
 40
0.0
 40
0.0756894923135647
 40
0.1409961494815888
 40
0.1958538875745546
 40
0.2403653523229035
 40
0.3806760686604474
 40
0.5004497395813475
 40
0.6855598376259611
 40
0.8475551725297116
 40
1.0
 40
1.0
 40
1.0
 40
1.0
 10
404.2220822583775
 20
157.9307034512009
 30
0.0
 10
404.2221170320278
 20
157.9315091465512
 30
0.0
 10
404.2221818091937
 20
157.9330100146188
 30
0.0
 10
404.2222978565867
 20
157.9438025445631
 30
0.0
 10
404.2221817451724
 20
157.9572239093443
 30
0.0
 10
404.2219844020887
 20
157.9824564715223
 30
0.0
 10
404.2222728794205
 20
158.0275756872918
 30
0.0
 10
404.2219911921295
 20
158.1169985499668
 30
0.0
 10
404.2221891850216
 20
158.23622267894
 30
0.0
 10
404.2218201637798
 20
158.3839759793297
 30
0.0
 10
404.2219966806301
 20
158.482794770003
 30
0.0
 10
404.2220822583775
 20
158.5307034512008
 30
0.0
  0
LINE
  5
675F
330
A
100
AcDbEntity
  8
0
  6
Continuous
 62
     8
370
     0
100
AcDbLine
 10
361.1220826192655
 20
157.930703444176
 30
0.0
 11
361.1220826192655
 21
158.530703356276
 31
0.0
  0
LINE
  5
6760
330
A
100
AcDbEntity
  8
0
  6
Continuous
 62
     8
370
     0
100
AcDbLine
 10
404.8220819591655
 20
158.530703356276
 30
0.0
 11
404.2220829784655
 21
158.530703356276
 31
0.0
  0
LINE
  5
6761
330
A
100
AcDbEntity
  8
0
100
AcDbLine
 10
249.1603346022655
 20
5.5039729999516
 30
0.0
 11
243.1603343172655
 21
5.5039729999516
 31
0.0
  0
LINE
  5
6762
330
A
100
AcDbEntity
  8
0
100
AcDbLine
 10
243.1603343172655
 20
-6.4960271043484
 30
0.0
 11
249.1603346022655
 21
-6.4960271043484
 31
0.0
  0
SPLINE
  5
6763
330
A
100
AcDbEntity
  8
0
100
AcDbSpline
210
0.0
220
0.0
230
1.0
 70
     8
 71
     3
 72
    14
 73
    10
 74
     0
 42
0.000000001
 43
0.00000001
 40
0.0
 40
0.0
 40
0.0
 40
0.0
 40
0.1288377052999845
 40
0.256101782668837
 40
0.3823008737245385
 40
0.5077502994834404
 40
0.7553965280407086
 40
0.8784303054154603
 40
1.0
 40
1.0
 40
1.0
 40
1.0
 10
234.9699920921109
 20
-27.3960269911023
 30
0.0
 10
234.9734030992874
 20
-27.43647815639059
 30
0.0
 10
234.9801834514876
 20
-27.5168864151162
 30
0.0
 10
235.0183777045469
 20
-27.6331252477575
 30
0.0
 10
235.075121234902
 20
-27.73882396658141
 30
0.0
 10
235.1743441326269
 20
-27.86011702245091
 30
0.0
 10
235.3056589253849
 20
-27.94678493941561
 30
0.0
 10
235.4531321860535
 20
-27.99098603466101
 30
0.0
 10
235.5301430918861
 20
-27.99431787102779
 30
0.0
 10
235.568418069043
 20
-27.9959738177987
 30
0.0
  0
SPLINE
  5
6764
330
A
100
AcDbEntity
  8
0
100
AcDbSpline
210
0.0
220
0.0
230
1.0
 70
     8
 71
     3
 72
    11
 73
     7
 74
     0
 42
0.000000001
 43
0.00000001
 40
0.0
 40
0.0
 40
0.0
 40
0.0
 40
0.172031534971007
 40
0.461340052921284
 40
0.7907911335751012
 40
0.9999999999999999
 40
0.9999999999999999
 40
0.9999999999999999
 40
0.9999999999999999
 10
250.1603346497275
 20
3.810714937952014
 30
0.0
 10
250.1341901365837
 20
3.871207712477911
 30
0.0
 10
250.0640779267532
 20
4.033432270933588
 30
0.0
 10
249.8360737985386
 20
4.241186730029909
 30
0.0
 10
249.5464386291079
 20
4.3893118761643
 30
0.0
 10
249.3397716434838
 20
4.391061487717707
 30
0.0
 10
249.2595047403581
 20
4.391741015222493
 30
0.0
  0
SPLINE
  5
6765
330
A
100
AcDbEntity
  8
0
100
AcDbSpline
210
0.0
220
0.0
230
1.0
 70
     8
 71
     3
 72
    11
 73
     7
 74
     0
 42
0.000000001
 43
0.00000001
 40
0.0
 40
0.0
 40
0.0
 40
0.0
 40
0.1617222963703136
 40
0.4379759296097108
 40
0.727092686990553
 40
1.0
 40
1.0
 40
1.0
 40
1.0
 10
249.2604435135133
 20
-5.38653879592141
 30
0.0
 10
249.3221227683764
 20
-5.386944125387402
 30
0.0
 10
249.4891623763498
 20
-5.388041837661291
 30
0.0
 10
249.7508941685055
 20
-5.283003020669099
 30
0.0
 10
250.0143744584198
 20
-5.090874759592992
 30
0.0
 10
250.1126258147165
 20
-4.898741578800809
 30
0.0
 10
250.1603346497275
 20
-4.805445663425502
 30
0.0
  0
LINE
  5
6766
330
A
100
AcDbEntity
  8
0
100
AcDbLine
 10
249.2603346651655
 20
4.403973005951599
 30
0.0
 11
249.1603346022655
 21
4.403973005951599
 31
0.0
  0
LINE
  5
6767
330
A
100
AcDbEntity
  8
0
100
AcDbLine
 10
243.1603343172655
 20
4.403973005951599
 30
0.0
 11
242.1603350846655
 21
4.403973005951599
 31
0.0
  0
LINE
  5
6768
330
A
100
AcDbEntity
  8
0
100
AcDbLine
 10
242.1603350846655
 20
-5.396027110348399
 30
0.0
 11
243.1603343172655
 21
-5.396027110348399
 31
0.0
  0
LINE
  5
6769
330
A
100
AcDbEntity
  8
0
100
AcDbLine
 10
249.1603346022655
 20
-5.396027110348399
 30
0.0
 11
249.2603346651655
 21
-5.396027110348399
 31
0.0
  0
SPLINE
  5
676A
330
A
100
AcDbEntity
  8
0
100
AcDbSpline
210
0.0
220
0.0
230
1.0
 70
     8
 71
     3
 72
    14
 73
    10
 74
     0
 42
0.000000001
 43
0.00000001
 40
0.0
 40
0.0
 40
0.0
 40
0.0
 40
0.1288361563652928
 40
0.2561004334189741
 40
0.3823022378737598
 40
0.5077499841439828
 40
0.7553992186987858
 40
0.8784294734498087
 40
1.0
 40
1.0
 40
1.0
 40
1.0
 10
306.1506747214578
 20
26.40397311953879
 30
0.0
 10
306.1472642277586
 20
26.44442374477501
 30
0.0
 10
306.1404848504535
 20
26.5248314730658
 30
0.0
 10
306.1022932365502
 20
26.64107180621181
 30
0.0
 10
306.0455481943154
 20
26.74676968816581
 30
0.0
 10
305.9463229661191
 20
26.8680637769549
 30
0.0
 10
305.8150094489084
 20
26.9547310299115
 30
0.0
 10
305.667537202552
 20
26.99893437993009
 30
0.0
 10
305.590526899186
 20
27.0022637825457
 30
0.0
 10
305.5522515384934
 20
27.00391854925141
 30
0.0
  0
LINE
  5
676B
330
A
100
AcDbEntity
  8
0
100
AcDbLine
 10
243.1603343172655
 20
-0.4960261208483985
 30
0.0
 11
243.1603343172655
 21
-6.4960271043484
 31
0.0
  0
LINE
  5
676C
330
A
100
AcDbEntity
  8
0
100
AcDbLine
 10
243.1603343172655
 20
5.5039729999516
 30
0.0
 11
243.1603343172655
 21
-0.4960261208483985
 31
0.0
  0
LINE
  5
676D
330
A
100
AcDbEntity
  8
0
100
AcDbLine
 10
249.1603346022655
 20
-0.4960261208483985
 30
0.0
 11
249.1603346022655
 21
-6.4960271043484
 31
0.0
  0
LINE
  5
676E
330
A
100
AcDbEntity
  8
0
100
AcDbLine
 10
249.1603346022655
 20
5.5039729999516
 30
0.0
 11
249.1603346022655
 21
-0.4960261208483985
 31
0.0
  0
LINE
  5
676F
330
A
100
AcDbEntity
  8
0
100
AcDbLine
 10
250.1603346497655
 20
23.50397304005159
 30
0.0
 11
251.1603346983655
 21
23.50397304005159
 31
0.0
  0
LINE
  5
6770
330
A
100
AcDbEntity
  8
0
100
AcDbLine
 10
250.1603346497655
 20
23.50397304005159
 30
0.0
 11
250.1603346497655
 21
17.5039731042516
 31
0.0
  0
LINE
  5
6771
330
A
100
AcDbEntity
  8
0
100
AcDbLine
 10
250.1603346497655
 20
-24.4960263294484
 30
0.0
 11
251.1603346983655
 21
-24.4960263294484
 31
0.0
  0
LINE
  5
6772
330
A
100
AcDbEntity
  8
0
100
AcDbLine
 10
250.1603346497655
 20
-18.49602534604841
 30
0.0
 11
250.1603346497655
 21
-24.4960263294484
 31
0.0
  0
LINE
  5
6773
330
A
100
AcDbEntity
  8
0
100
AcDbLine
 10
250.1603346497655
 20
17.5039731042516
 30
0.0
 11
250.1603346497655
 21
-18.49602534604841
 31
0.0
  0
LINE
  5
6774
330
A
100
AcDbEntity
  8
0
100
AcDbLine
 10
241.1603349207655
 20
23.50397304005159
 30
0.0
 11
242.1603350846655
 21
23.50397304005159
 31
0.0
  0
LINE
  5
6775
330
A
100
AcDbEntity
  8
0
100
AcDbLine
 10
242.1603350846655
 20
23.50397304005159
 30
0.0
 11
242.1603350846655
 21
17.5039731042516
 31
0.0
  0
LINE
  5
6776
330
A
100
AcDbEntity
  8
0
100
AcDbLine
 10
241.1603349207655
 20
-24.4960263294484
 30
0.0
 11
242.1603350846655
 21
-24.4960263294484
 31
0.0
  0
LINE
  5
6777
330
A
100
AcDbEntity
  8
0
100
AcDbLine
 10
242.1603350846655
 20
-18.49602534604841
 30
0.0
 11
242.1603350846655
 21
-24.4960263294484
 31
0.0
  0
LINE
  5
6778
330
A
100
AcDbEntity
  8
0
100
AcDbLine
 10
242.1603350846655
 20
17.5039731042516
 30
0.0
 11
242.1603350846655
 21
-18.49602534604841
 31
0.0
  0
LINE
  5
6779
330
A
100
AcDbEntity
  8
0
100
AcDbLine
 10
234.9700144438655
 20
-27.3960269911484
 30
0.0
 11
234.9603342769655
 21
-27.3960269911484
 31
0.0
  0
ARC
  5
677A
330
A
100
AcDbEntity
  8
0
100
AcDbCircle
 10
235.5603346983655
 20
26.4039730617516
 30
0.0
 40
0.5999999999999943
100
AcDbArc
 50
90.0
 51
180.0
  0
LINE
  5
677B
330
A
100
AcDbEntity
  8
0
100
AcDbLine
 10
241.1603349207655
 20
-27.3960269911484
 30
0.0
 11
241.1603349207655
 21
-27.99602597184841
 31
0.0
  0
LINE
  5
677C
330
A
100
AcDbEntity
  8
0
100
AcDbLine
 10
235.5603351204655
 20
-27.99602597184841
 30
0.0
 11
241.1603349207655
 21
-27.99602597184841
 31
0.0
  0
LINE
  5
677D
330
A
100
AcDbEntity
  8
0
100
AcDbLine
 10
241.1603349207655
 20
-27.3960269911484
 30
0.0
 11
241.1603349207655
 21
26.40397311955161
 31
0.0
  0
LINE
  5
677E
330
A
100
AcDbEntity
  8
0
100
AcDbLine
 10
234.9603342769655
 20
-27.3960269911484
 30
0.0
 11
234.9603342769655
 21
26.40397311955161
 31
0.0
  0
LINE
  5
677F
330
A
100
AcDbEntity
  8
0
100
AcDbLine
 10
241.1603349207655
 20
27.00397303165161
 30
0.0
 11
235.5603351204655
 21
27.00397303165161
 31
0.0
  0
LINE
  5
6780
330
A
100
AcDbEntity
  8
0
100
AcDbLine
 10
241.1603349207655
 20
27.00397303165161
 30
0.0
 11
241.1603349207655
 21
26.40397311955161
 31
0.0
  0
LINE
  5
6781
330
A
100
AcDbEntity
  8
0
100
AcDbLine
 10
251.1603346983655
 20
-27.99602597184841
 30
0.0
 11
256.8603347933655
 21
-27.99602597184841
 31
0.0
  0
SPLINE
  5
6782
330
A
100
AcDbEntity
  8
0
100
AcDbSpline
210
0.0
220
0.0
230
1.0
 70
    24
 71
     3
 72
    16
 73
    12
 74
     0
 42
0.000000001
 43
0.00000001
 40
0.0
 40
0.0
 40
0.0
 40
0.0
 40
0.0829669543307896
 40
0.1658731899086285
 40
0.2501363560737293
 40
0.3736610409278769
 40
0.500081017383851
 40
0.623605702238015
 40
0.7500256786939696
 40
0.8742968264562005
 40
1.0
 40
1.0
 40
1.0
 40
1.0
 10
251.1603346983933
 20
-27.99602693828811
 30
0.0
 10
251.1603346983933
 20
-27.9950594822578
 30
0.0
 10
251.1603346983933
 20
-27.99312527822281
 30
0.0
 10
251.1603346983933
 20
-27.97711461999481
 30
0.0
 10
251.1603346983933
 20
-27.94809155112401
 30
0.0
 10
251.1603346983933
 20
-27.89851983837079
 30
0.0
 10
251.1603346983933
 20
-27.82360276527999
 30
0.0
 10
251.1603346983933
 20
-27.7320303791721
 30
0.0
 10
251.1603346983933
 20
-27.62769189515231
 30
0.0
 10
251.1603346983933
 20
-27.51415109767399
 30
0.0
 10
251.1603346983933
 20
-27.43555174855911
 30
0.0
 10
251.1603346983933
 20
-27.39602693828809
 30
0.0
  0
LINE
  5
6783
330
A
100
AcDbEntity
  8
0
100
AcDbLine
 10
257.4603347054655
 20
-27.3960269911484
 30
0.0
 11
257.4603347054655
 21
26.40397311955161
 31
0.0
  0
LINE
  5
6784
330
A
100
AcDbEntity
  8
0
100
AcDbLine
 10
251.1603346983655
 20
26.40397311955161
 30
0.0
 11
251.1603346983655
 21
-27.3960269911484
 31
0.0
  0
SPLINE
  5
6785
330
A
100
AcDbEntity
  8
0
100
AcDbSpline
210
0.0
220
0.0
230
1.0
 70
     8
 71
     3
 72
    16
 73
    12
 74
     0
 42
0.000000001
 43
0.00000001
 40
0.0
 40
0.0
 40
0.0
 40
0.0
 40
0.0756894923135647
 40
0.1409961494815888
 40
0.1958538875745546
 40
0.2403653523229035
 40
0.3806760686604474
 40
0.5004497395813475
 40
0.6855598376259611
 40
0.8475551725297116
 40
1.0
 40
1.0
 40
1.0
 40
1.0
 10
257.4603346983929
 20
-27.39602693828809
 30
0.0
 10
257.4595290030425
 20
-27.419772398612
 30
0.0
 10
257.4580281349749
 20
-27.46400599525791
 30
0.0
 10
257.4472356050307
 20
-27.52463064134469
 30
0.0
 10
257.4338142402495
 20
-27.5745356962079
 30
0.0
 10
257.4085816780715
 20
-27.64536409309579
 30
0.0
 10
257.3634624623019
 20
-27.73053251695501
 30
0.0
 10
257.2740395996269
 20
-27.8387174211357
 30
0.0
 10
257.1548154706538
 20
-27.9268769387167
 30
0.0
 10
257.007062170264
 20
-27.9857752072347
 30
0.0
 10
256.9082433795908
 20
-27.99267959706771
 30
0.0
 10
256.8603346983929
 20
-27.99602693828811
 30
0.0
  0
ARC
  5
6786
330
A
100
AcDbEntity
  8
0
100
AcDbCircle
 10
256.8603346983655
 20
26.4039730617516
 30
0.0
 40
0.6000000000000085
100
AcDbArc
 50
0.0
 51
89.99999999859953
  0
LINE
  5
6787
330
A
100
AcDbEntity
  8
0
100
AcDbLine
 10
256.8603347933655
 20
27.00397303165161
 30
0.0
 11
251.1603346983655
 21
27.00397303165161
 31
0.0
  0
LINE
  5
6788
330
A
100
AcDbEntity
  8
0
100
AcDbLine
 10
251.1603346983655
 20
27.00397303165161
 30
0.0
 11
251.1603346983655
 21
26.40397311955161
 31
0.0
  0
SPLINE
  5
6789
330
A
100
AcDbEntity
  8
0
100
AcDbSpline
210
0.0
220
0.0
230
1.0
 70
    24
 71
     3
 72
    10
 73
     6
 74
     0
 42
0.000000001
 43
0.00000001
 40
0.0
 40
0.0
 40
0.0
 40
0.0
 40
0.5
 40
0.5
 40
1.0
 40
1.0
 40
1.0
 40
1.0
 10
262.4603346983955
 20
-27.99602693828811
 30
0.0
 10
260.9751643879953
 20
-27.99602693828811
 30
0.0
 10
259.5507107214509
 20
-27.99602693828811
 30
0.0
 10
257.450362726049
 20
-27.99602693828811
 30
0.0
 10
256.8603346983942
 20
-27.99602693828811
 30
0.0
 10
256.8603346983942
 20
-27.99602693828811
 30
0.0
  0
SPLINE
  5
678A
330
A
100
AcDbEntity
  8
0
100
AcDbSpline
210
0.0
220
0.0
230
1.0
 70
    24
 71
     3
 72
    10
 73
     6
 74
     0
 42
0.000000001
 43
0.00000001
 40
0.0
 40
0.0
 40
0.0
 40
0.0
 40
0.4999999999999997
 40
0.4999999999999997
 40
1.0
 40
1.0
 40
1.0
 40
1.0
 10
256.8603346983941
 20
27.0039730617149
 30
0.0
 10
256.8603346983939
 20
27.0039730617149
 30
0.0
 10
257.4503627260485
 20
27.0039730617149
 30
0.0
 10
259.5507107214503
 20
27.0039730617149
 30
0.0
 10
260.9751643879947
 20
27.0039730617149
 30
0.0
 10
262.4603346983949
 20
27.0039730617149
 30
0.0
  0
LINE
  5
678B
330
A
100
AcDbEntity
  8
0
100
AcDbLine
 10
306.1506560949655
 20
26.40397311955161
 30
0.0
 11
306.1603343991655
 21
26.40397311955161
 31
0.0
  0
LINE
  5
678C
330
A
100
AcDbEntity
  8
0
100
AcDbLine
 10
306.1603343991655
 20
-27.3960269911484
 30
0.0
 11
306.1603343991655
 21
26.40397311955161
 31
0.0
  0
LINE
  5
678D
330
A
100
AcDbEntity
  8
0
100
AcDbLine
 10
262.4603350593655
 20
-27.99602597184841
 30
0.0
 11
305.5603354184655
 21
-27.99602597184841
 31
0.0
  0
SPLINE
  5
678E
330
A
100
AcDbEntity
  8
0
100
AcDbSpline
210
0.0
220
0.0
230
1.0
 70
     8
 71
     3
 72
    16
 73
    12
 74
     0
 42
0.000000001
 43
0.00000001
 40
0.0
 40
0.0
 40
0.0
 40
0.0
 40
0.0756894924019937
 40
0.1409961495987495
 40
0.1958538876616739
 40
0.2403653523228511
 40
0.3806760687247145
 40
0.5004497395812418
 40
0.6855598376282772
 40
0.8475551725321302
 40
1.0
 40
1.0
 40
1.0
 40
1.0
 10
306.1603346983949
 20
-27.39602693828809
 30
0.0
 10
306.1595290030426
 20
-27.41977239863971
 30
0.0
 10
306.1580281349721
 20
-27.46400599532251
 30
0.0
 10
306.147235605013
 20
-27.5246306414347
 30
0.0
 10
306.133814240231
 20
-27.57453569626881
 30
0.0
 10
306.1085816780539
 20
-27.64536409313911
 30
0.0
 10
306.0634624622923
 20
-27.73053251697249
 30
0.0
 10
305.9740395996121
 20
-27.83871742114829
 30
0.0
 10
305.8548154706544
 20
-27.92687693871761
 30
0.0
 10
305.7070621702645
 20
-27.98577520723501
 30
0.0
 10
305.6082433795921
 20
-27.99267959706779
 30
0.0
 10
305.5603346983949
 20
-27.99602693828811
 30
0.0
  0
LINE
  5
678F
330
A
100
AcDbEntity
  8
0
100
AcDbLine
 10
305.5603354184655
 20
27.00397303165161
 30
0.0
 11
262.4603350593655
 21
27.00397303165161
 31
0.0
  0
LINE
  5
6790
330
A
100
AcDbEntity
  8
0
  6
Continuous
 62
     8
370
     0
100
AcDbLine
 10
250.1603346497655
 20
17.5039731042516
 30
0.0
 11
251.1603346983655
 21
17.5039731042516
 31
0.0
  0
LINE
  5
6791
330
A
100
AcDbEntity
  8
0
  6
Continuous
 62
     8
370
     0
100
AcDbLine
 10
250.1603346497655
 20
-18.49602534604841
 30
0.0
 11
251.1603346983655
 21
-18.49602534604841
 31
0.0
  0
LINE
  5
6792
330
A
100
AcDbEntity
  8
0
  6
Continuous
 62
     8
370
     0
100
AcDbLine
 10
241.1603349207655
 20
17.5039731042516
 30
0.0
 11
242.1603350846655
 21
17.5039731042516
 31
0.0
  0
LINE
  5
6793
330
A
100
AcDbEntity
  8
0
  6
Continuous
 62
     8
370
     0
100
AcDbLine
 10
241.1603349207655
 20
-18.49602534604841
 30
0.0
 11
242.1603350846655
 21
-18.49602534604841
 31
0.0
  0
LINE
  5
6794
330
A
100
AcDbEntity
  8
0
  6
Continuous
 62
     8
370
     0
100
AcDbLine
 10
235.5603351204655
 20
-27.3960269911484
 30
0.0
 11
234.9700144438655
 21
-27.3960269911484
 31
0.0
  0
LINE
  5
6795
330
A
100
AcDbEntity
  8
0
  6
Continuous
 62
     8
370
     0
100
AcDbLine
 10
235.5603351204655
 20
-27.99602597184841
 30
0.0
 11
235.5603351204655
 21
-27.3960269911484
 31
0.0
  0
LINE
  5
6796
330
A
100
AcDbEntity
  8
0
  6
Continuous
 62
     8
370
     0
100
AcDbLine
 10
235.5603351204655
 20
26.40397311955161
 30
0.0
 11
235.5603351204655
 21
27.00397303165161
 31
0.0
  0
LINE
  5
6797
330
A
100
AcDbEntity
  8
0
  6
Continuous
 62
     8
370
     0
100
AcDbLine
 10
234.9603342769655
 20
26.40397311955161
 30
0.0
 11
235.5603351204655
 21
26.40397311955161
 31
0.0
  0
LINE
  5
6798
330
A
100
AcDbEntity
  8
0
  6
Continuous
 62
     8
370
     0
100
AcDbLine
 10
241.1603349207655
 20
-27.3960269911484
 30
0.0
 11
235.5603351204655
 21
-27.3960269911484
 31
0.0
  0
LINE
  5
6799
330
A
100
AcDbEntity
  8
0
  6
Continuous
 62
     8
370
     0
100
AcDbLine
 10
235.5603351204655
 20
-27.3960269911484
 30
0.0
 11
235.5603351204655
 21
26.40397311955161
 31
0.0
  0
LINE
  5
679A
330
A
100
AcDbEntity
  8
0
  6
Continuous
 62
     8
370
     0
100
AcDbLine
 10
235.5603351204655
 20
26.40397311955161
 30
0.0
 11
241.1603349207655
 21
26.40397311955161
 31
0.0
  0
LINE
  5
679B
330
A
100
AcDbEntity
  8
0
  6
Continuous
 62
     8
370
     0
100
AcDbLine
 10
249.2603346651655
 20
4.403973005951599
 30
0.0
 11
249.2603346651655
 21
-5.396027110348399
 31
0.0
  0
LINE
  5
679C
330
A
100
AcDbEntity
  8
0
  6
Continuous
 62
     8
370
     0
100
AcDbLine
 10
256.8603347933655
 20
-27.3960269911484
 30
0.0
 11
251.1603346983655
 21
-27.3960269911484
 31
0.0
  0
LINE
  5
679D
330
A
100
AcDbEntity
  8
0
  6
Continuous
 62
     8
370
     0
100
AcDbLine
 10
256.8603347933655
 20
-27.3960269911484
 30
0.0
 11
256.8603347933655
 21
-27.99602597184841
 31
0.0
  0
LINE
  5
679E
330
A
100
AcDbEntity
  8
0
  6
Continuous
 62
     8
370
     0
100
AcDbLine
 10
256.8603347933655
 20
26.40397311955161
 30
0.0
 11
257.4603347054655
 21
26.40397311955161
 31
0.0
  0
SPLINE
  5
679F
330
A
100
AcDbEntity
  8
0
  6
Continuous
 62
     8
370
     0
100
AcDbSpline
210
0.0
220
0.0
230
1.0
 70
     8
 71
     3
 72
    17
 73
    13
 74
     0
 42
0.000000001
 43
0.00000001
 40
0.0
 40
0.0
 40
0.0
 40
0.0
 40
0.0760582856040434
 40
0.1525793772872286
 40
0.2315418222215372
 40
0.3147728424208506
 40
0.4038889810158625
 40
0.500241200311116
 40
0.6198711844247732
 40
0.7601165028980599
 40
0.8592988845463031
 40
1.0
 40
1.0
 40
1.0
 40
1.0
 10
256.8603346983929
 20
-27.39602693828809
 30
0.0
 10
256.8842142876505
 20
-27.3959975284354
 30
0.0
 10
256.9321187707698
 20
-27.3959385297743
 30
0.0
 10
257.0037763860248
 20
-27.39583935663219
 30
0.0
 10
257.0754845571522
 20
-27.39592461435291
 30
0.0
 10
257.1474031903936
 20
-27.3960546334431
 30
0.0
 10
257.2188901615226
 20
-27.3960911871113
 30
0.0
 10
257.2917624249739
 20
-27.39597090337489
 30
0.0
 10
257.3635553680526
 20
-27.3962187944139
 30
0.0
 10
257.4163767000517
 20
-27.3958968436431
 30
0.0
 10
257.4528176438246
 20
-27.39632836152521
 30
0.0
 10
257.4575556633825
 20
-27.39613837365431
 30
0.0
 10
257.4603346983929
 20
-27.39602693828809
 30
0.0
  0
LINE
  5
67A0
330
A
100
AcDbEntity
  8
0
  6
Continuous
 62
     8
370
     0
100
AcDbLine
 10
256.8603347933655
 20
26.40397311955161
 30
0.0
 11
256.8603347933655
 21
-27.3960269911484
 31
0.0
  0
LINE
  5
67A1
330
A
100
AcDbEntity
  8
0
  6
Continuous
 62
     8
370
     0
100
AcDbLine
 10
256.8603347933655
 20
26.40397311955161
 30
0.0
 11
251.1603346983655
 21
26.40397311955161
 31
0.0
  0
LINE
  5
67A2
330
A
100
AcDbEntity
  8
0
  6
Continuous
 62
     8
370
     0
100
AcDbLine
 10
256.8603347933655
 20
27.00397303165161
 30
0.0
 11
256.8603347933655
 21
26.40397311955161
 31
0.0
  0
LINE
  5
67A3
330
A
100
AcDbEntity
  8
0
  6
Continuous
 62
     8
370
     0
100
AcDbLine
 10
262.4603350593655
 20
-27.3960269911484
 30
0.0
 11
262.4603350593655
 21
-27.99602597184841
 31
0.0
  0
LINE
  5
67A4
330
A
100
AcDbEntity
  8
0
  6
Continuous
 62
     8
370
     0
100
AcDbLine
 10
262.4603350593655
 20
-27.3960269911484
 30
0.0
 11
257.4603347054655
 21
-27.3960269911484
 31
0.0
  0
LINE
  5
67A5
330
A
100
AcDbEntity
  8
0
  6
Continuous
 62
     8
370
     0
100
AcDbLine
 10
262.4603350593655
 20
27.00397303165161
 30
0.0
 11
262.4603350593655
 21
26.40397311955161
 31
0.0
  0
LINE
  5
67A6
330
A
100
AcDbEntity
  8
0
  6
Continuous
 62
     8
370
     0
100
AcDbLine
 10
262.4603350593655
 20
26.40397311955161
 30
0.0
 11
257.4603347054655
 21
26.40397311955161
 31
0.0
  0
LINE
  5
67A7
330
A
100
AcDbEntity
  8
0
  6
Continuous
 62
     8
370
     0
100
AcDbLine
 10
262.4603350593655
 20
26.40397311955161
 30
0.0
 11
262.4603350593655
 21
-27.3960269911484
 31
0.0
  0
SPLINE
  5
67A8
330
A
100
AcDbEntity
  8
0
  6
Continuous
 62
     8
370
     0
100
AcDbSpline
210
0.0
220
0.0
230
1.0
 70
     8
 71
     3
 72
    17
 73
    13
 74
     0
 42
0.000000001
 43
0.00000001
 40
0.0
 40
0.0
 40
0.0
 40
0.0
 40
0.0760582855772911
 40
0.1525793772443827
 40
0.2315418221733262
 40
0.3147728423779774
 40
0.4038889809890939
 40
0.5002412003112067
 40
0.6198711843306548
 40
0.760116502898076
 40
0.8592988845186262
 40
1.0
 40
1.0
 40
1.0
 40
1.0
 10
305.5603346983949
 20
-27.39602693828809
 30
0.0
 10
305.5842142876441
 20
-27.39599752843611
 30
0.0
 10
305.6321187707499
 20
-27.3959385297764
 30
0.0
 10
305.7037763859907
 20
-27.39583935664189
 30
0.0
 10
305.7754845571147
 20
-27.39592461436979
 30
0.0
 10
305.8474031903631
 20
-27.39605463346319
 30
0.0
 10
305.9188901615075
 20
-27.396091187129
 30
0.0
 10
305.991762424948
 20
-27.39597090337
 30
0.0
 10
306.0635553680377
 20
-27.39621879440861
 30
0.0
 10
306.1163767000408
 20
-27.39589684364421
 30
0.0
 10
306.1528176438247
 20
-27.39632836152421
 30
0.0
 10
306.1575556633835
 20
-27.396138373654
 30
0.0
 10
306.1603346983949
 20
-27.39602693828809
 30
0.0
  0
LINE
  5
67A9
330
A
100
AcDbEntity
  8
0
  6
Continuous
 62
     8
370
     0
100
AcDbLine
 10
305.5603354184655
 20
26.40397311955161
 30
0.0
 11
305.5603354184655
 21
-27.3960269911484
 31
0.0
  0
LINE
  5
67AA
330
A
100
AcDbEntity
  8
0
  6
Continuous
 62
     8
370
     0
100
AcDbLine
 10
305.5603354184655
 20
26.40397311955161
 30
0.0
 11
306.1506560949655
 21
26.40397311955161
 31
0.0
  0
LINE
  5
67AB
330
A
100
AcDbEntity
  8
0
  6
Continuous
 62
     8
370
     0
100
AcDbLine
 10
305.5603354184655
 20
-27.3960269911484
 30
0.0
 11
305.5603354184655
 21
-27.99602597184841
 31
0.0
  0
LINE
  5
67AC
330
A
100
AcDbEntity
  8
0
  6
Continuous
 62
     8
370
     0
100
AcDbLine
 10
305.5603354184655
 20
-27.3960269911484
 30
0.0
 11
262.4603350593655
 21
-27.3960269911484
 31
0.0
  0
LINE
  5
67AD
330
A
100
AcDbEntity
  8
0
  6
Continuous
 62
     8
370
     0
100
AcDbLine
 10
305.5603354184655
 20
26.40397311955161
 30
0.0
 11
262.4603350593655
 21
26.40397311955161
 31
0.0
  0
LINE
  5
67AE
330
A
100
AcDbEntity
  8
0
  6
Continuous
 62
     8
370
     0
100
AcDbLine
 10
305.5603354184655
 20
27.00397303165161
 30
0.0
 11
305.5603354184655
 21
26.40397311955161
 31
0.0
  0
LINE
  5
67AF
330
A
100
AcDbEntity
  8
0
100
AcDbLine
 10
498.2900618177655
 20
-6.4960271043484
 30
0.0
 11
504.2900621027655
 21
-6.4960271043484
 31
0.0
  0
LINE
  5
67B0
330
A
100
AcDbEntity
  8
0
100
AcDbLine
 10
504.2900621027655
 20
5.5039729999516
 30
0.0
 11
498.2900618177655
 21
5.5039729999516
 31
0.0
  0
LINE
  5
67B1
330
A
100
AcDbEntity
  8
0
100
AcDbLine
 10
467.7900617078655
 20
22.8039729485516
 30
0.0
 11
469.2900610224655
 21
21.3039731683516
 31
0.0
  0
LINE
  5
67B2
330
A
100
AcDbEntity
  8
0
100
AcDbLine
 10
469.2900610224655
 20
21.3039731683516
 30
0.0
 11
470.7900621996655
 21
22.8039729485516
 31
0.0
  0
SPLINE
  5
67B3
330
A
100
AcDbEntity
  8
0
100
AcDbSpline
210
0.0
220
0.0
230
1.0
 70
     8
 71
     3
 72
    11
 73
     7
 74
     0
 42
0.000000001
 43
0.00000001
 40
0.0
 40
0.0
 40
0.0
 40
0.0
 40
0.1721558737374196
 40
0.461673494421336
 40
0.7913620124637833
 40
1.0
 40
1.0
 40
1.0
 40
1.0
 10
497.2900617702819
 20
-4.802769042346085
 30
0.0
 10
497.3162062105961
 20
-4.863262214524696
 30
0.0
 10
497.3863182251184
 20
-5.025487839372687
 30
0.0
 10
497.6143245162635
 20
-5.233229242212587
 30
0.0
 10
497.9036973935447
 20
-5.381277586108894
 30
0.0
 10
498.1100823389586
 20
-5.383051664649997
 30
0.0
 10
498.1900704859711
 20
-5.383739240262088
 30
0.0
  0
SPLINE
  5
67B4
330
A
100
AcDbEntity
  8
0
100
AcDbSpline
210
0.0
220
0.0
230
1.0
 70
     8
 71
     3
 72
    11
 73
     7
 74
     0
 42
0.000000001
 43
0.00000001
 40
0.0
 40
0.0
 40
0.0
 40
0.0
 40
0.162085613124036
 40
0.4382195156670327
 40
0.7272109673630363
 40
1.0
 40
1.0
 40
1.0
 40
1.0
 10
498.190445576138
 20
4.394505180624009
 30
0.0
 10
498.1286002713535
 20
4.394916203795106
 30
0.0
 10
497.9613934540022
 20
4.39602745834469
 30
0.0
 10
497.6995011192619
 20
4.290956710938588
 30
0.0
 10
497.436022231239
 20
4.098818798858105
 30
0.0
 10
497.337770693431
 20
3.906686867639394
 30
0.0
 10
497.2900617702819
 20
3.813391559031402
 30
0.0
  0
LINE
  5
67B5
330
A
100
AcDbEntity
  8
0
100
AcDbLine
 10
498.1900617548655
 20
-5.396027110348399
 30
0.0
 11
498.2900618177655
 21
-5.396027110348399
 31
0.0
  0
LINE
  5
67B6
330
A
100
AcDbEntity
  8
0
100
AcDbLine
 10
504.2900621027655
 20
-5.396027110348399
 30
0.0
 11
505.2900613353655
 21
-5.396027110348399
 31
0.0
  0
LINE
  5
67B7
330
A
100
AcDbEntity
  8
0
100
AcDbLine
 10
505.2900613353655
 20
4.403973005951599
 30
0.0
 11
504.2900621027655
 21
4.403973005951599
 31
0.0
  0
LINE
  5
67B8
330
A
100
AcDbEntity
  8
0
100
AcDbLine
 10
498.2900618177655
 20
4.403973005951599
 30
0.0
 11
498.1900617548655
 21
4.403973005951599
 31
0.0
  0
SPLINE
  5
67B9
330
A
100
AcDbEntity
  8
0
100
AcDbSpline
210
0.0
220
0.0
230
1.0
 70
     8
 71
     3
 72
    14
 73
    10
 74
     0
 42
0.000000001
 43
0.00000001
 40
0.0
 40
0.0
 40
0.0
 40
0.0
 40
0.121570169186366
 40
0.2446036573678248
 40
0.4922521689598005
 40
0.6176995346814564
 40
0.7438990576134378
 40
0.8711640638932625
 40
1.0
 40
1.0
 40
1.0
 40
1.0
 10
496.2900072605364
 20
-26.60411223003581
 30
0.0
 10
496.2883523422365
 20
-26.5658369349205
 30
0.0
 10
496.2850225856728
 20
-26.4888256316155
 30
0.0
 10
496.2408210662062
 20
-26.3413510798236
 30
0.0
 10
496.1541519175967
 20
-26.210037927586
 30
0.0
 10
496.0328595174108
 20
-26.1108108482687
 30
0.0
 10
495.9271586275371
 20
-26.0540724254669
 30
0.0
 10
495.8109209952479
 20
-26.0158737922666
 30
0.0
 10
495.7305125371296
 20
-26.00909533834709
 30
0.0
 10
495.690061694286
 20
-26.00568532178119
 30
0.0
  0
LINE
  5
67BA
330
A
100
AcDbEntity
  8
0
100
AcDbLine
 10
504.2900621027655
 20
-6.4960271043484
 30
0.0
 11
504.2900621027655
 21
5.5039729999516
 31
0.0
  0
LINE
  5
67BB
330
A
100
AcDbEntity
  8
0
100
AcDbLine
 10
498.2900618177655
 20
-6.4960271043484
 30
0.0
 11
498.2900618177655
 21
5.5039729999516
 31
0.0
  0
LINE
  5
67BC
330
A
100
AcDbEntity
  8
0
100
AcDbLine
 10
497.2900617702655
 20
23.50397304005159
 30
0.0
 11
496.2900617216655
 21
23.50397304005159
 31
0.0
  0
LINE
  5
67BD
330
A
100
AcDbEntity
  8
0
100
AcDbLine
 10
497.2900617702655
 20
17.5039731042516
 30
0.0
 11
497.2900617702655
 21
23.50397304005159
 31
0.0
  0
LINE
  5
67BE
330
A
100
AcDbEntity
  8
0
100
AcDbLine
 10
496.2900617216655
 20
17.5039731042516
 30
0.0
 11
496.2900617216655
 21
22.95832918795159
 31
0.0
  0
LINE
  5
67BF
330
A
100
AcDbEntity
  8
0
100
AcDbLine
 10
497.2900617702655
 20
-18.49602534604841
 30
0.0
 11
497.2900617702655
 21
17.5039731042516
 31
0.0
  0
LINE
  5
67C0
330
A
100
AcDbEntity
  8
0
100
AcDbLine
 10
496.2900617216655
 20
-18.49602534604841
 30
0.0
 11
496.2900617216655
 21
17.5039731042516
 31
0.0
  0
LINE
  5
67C1
330
A
100
AcDbEntity
  8
0
100
AcDbLine
 10
497.2900617702655
 20
-24.4960263294484
 30
0.0
 11
496.2900617216655
 21
-24.4960263294484
 31
0.0
  0
LINE
  5
67C2
330
A
100
AcDbEntity
  8
0
100
AcDbLine
 10
497.2900617702655
 20
-24.4960263294484
 30
0.0
 11
497.2900617702655
 21
-18.49602534604841
 31
0.0
  0
LINE
  5
67C3
330
A
100
AcDbEntity
  8
0
100
AcDbLine
 10
496.2900617216655
 20
-23.9503830594484
 30
0.0
 11
496.2900617216655
 21
-18.49602534604841
 31
0.0
  0
LINE
  5
67C4
330
A
100
AcDbEntity
  8
0
100
AcDbLine
 10
506.2900614992655
 20
23.50397304005159
 30
0.0
 11
505.2900613353655
 21
23.50397304005159
 31
0.0
  0
LINE
  5
67C5
330
A
100
AcDbEntity
  8
0
100
AcDbLine
 10
505.2900613353655
 20
17.5039731042516
 30
0.0
 11
505.2900613353655
 21
23.50397304005159
 31
0.0
  0
LINE
  5
67C6
330
A
100
AcDbEntity
  8
0
100
AcDbLine
 10
505.2900613353655
 20
-18.49602534604841
 30
0.0
 11
505.2900613353655
 21
17.5039731042516
 31
0.0
  0
LINE
  5
67C7
330
A
100
AcDbEntity
  8
0
100
AcDbLine
 10
506.2900614992655
 20
-24.4960263294484
 30
0.0
 11
505.2900613353655
 21
-24.4960263294484
 31
0.0
  0
LINE
  5
67C8
330
A
100
AcDbEntity
  8
0
100
AcDbLine
 10
505.2900613353655
 20
-24.4960263294484
 30
0.0
 11
505.2900613353655
 21
-18.49602534604841
 31
0.0
  0
ARC
  5
67C9
330
A
100
AcDbEntity
  8
0
100
AcDbCircle
 10
511.8900617215655
 20
-27.39602693824841
 30
0.0
 40
0.6000000000000796
100
AcDbArc
 50
270.0
 51
0.0
  0
ARC
  5
67CA
330
A
100
AcDbEntity
  8
0
100
AcDbCircle
 10
511.8900617215655
 20
26.4039730617516
 30
0.0
 40
0.6000000000000796
100
AcDbArc
 50
0.0
 51
90.0
  0
LINE
  5
67CB
330
A
100
AcDbEntity
  8
0
100
AcDbLine
 10
512.4900621429656
 20
26.40397311955161
 30
0.0
 11
512.4900621429656
 21
-27.3960269911484
 31
0.0
  0
LINE
  5
67CC
330
A
100
AcDbEntity
  8
0
100
AcDbLine
 10
506.2900614992655
 20
26.40397311955161
 30
0.0
 11
506.2900614992655
 21
27.00397303165161
 31
0.0
  0
LINE
  5
67CD
330
A
100
AcDbEntity
  8
0
100
AcDbLine
 10
511.8900612995655
 20
27.00397303165161
 30
0.0
 11
506.2900614992655
 21
27.00397303165161
 31
0.0
  0
LINE
  5
67CE
330
A
100
AcDbEntity
  8
0
100
AcDbLine
 10
506.2900614992655
 20
26.40397311955161
 30
0.0
 11
506.2900614992655
 21
-27.3960269911484
 31
0.0
  0
LINE
  5
67CF
330
A
100
AcDbEntity
  8
0
100
AcDbLine
 10
506.2900614992655
 20
-27.99602597184841
 30
0.0
 11
511.8900612995655
 21
-27.99602597184841
 31
0.0
  0
LINE
  5
67D0
330
A
100
AcDbEntity
  8
0
100
AcDbLine
 10
506.2900614992655
 20
-27.99602597184841
 30
0.0
 11
506.2900614992655
 21
-27.3960269911484
 31
0.0
  0
LINE
  5
67D1
330
A
100
AcDbEntity
  8
0
100
AcDbLine
 10
495.6900616942655
 20
-25.99602564404839
 30
0.0
 11
495.6900616942655
 21
-26.00569649764839
 31
0.0
  0
ARC
  5
67D2
330
A
100
AcDbEntity
  8
0
100
AcDbCircle
 10
495.6900617216655
 20
25.60397306175159
 30
0.0
 40
0.5999999999999943
100
AcDbArc
 50
270.0
 51
0.0
  0
LINE
  5
67D3
330
A
100
AcDbEntity
  8
0
100
AcDbLine
 10
495.6900616942655
 20
-27.99602597184841
 30
0.0
 11
441.8900610015655
 21
-27.99602597184841
 31
0.0
  0
SPLINE
  5
67D4
330
A
100
AcDbEntity
  8
0
100
AcDbSpline
210
0.0
220
0.0
230
1.0
 70
     8
 71
     3
 72
    16
 73
    12
 74
     0
 42
0.000000001
 43
0.00000001
 40
0.0
 40
0.0
 40
0.0
 40
0.0
 40
0.0829669543308045
 40
0.1658731899086378
 40
0.2501363560737271
 40
0.3736610409277172
 40
0.500081017383843
 40
0.6236057022378675
 40
0.7500256786939672
 40
0.8742968264562075
 40
1.0
 40
1.0
 40
1.0
 40
1.0
 10
441.2900617216144
 20
-27.39602693828809
 30
0.0
 10
441.2910291776447
 20
-27.42207842215319
 30
0.0
 10
441.2929633816797
 20
-27.47416232429731
 30
0.0
 10
441.3089740399077
 20
-27.55134110880451
 30
0.0
 10
441.3379971087785
 20
-27.63798962775911
 30
0.0
 10
441.3875688215318
 20
-27.73125341687609
 30
0.0
 10
441.4624858946225
 20
-27.82228610802159
 30
0.0
 10
441.5540582807304
 20
-27.89812743141701
 30
0.0
 10
441.6583967647502
 20
-27.95326240352051
 30
0.0
 10
441.7719375622284
 20
-27.98968163741549
 30
0.0
 10
441.8505369113434
 20
-27.99390377555491
 30
0.0
 10
441.8900617216144
 20
-27.99602693828811
 30
0.0
  0
LINE
  5
67D5
330
A
100
AcDbEntity
  8
0
100
AcDbLine
 10
441.2900620207655
 20
-27.3960269911484
 30
0.0
 11
441.2900620207655
 21
26.40397311955161
 31
0.0
  0
ARC
  5
67D6
330
A
100
AcDbEntity
  8
0
100
AcDbCircle
 10
441.8900617215655
 20
26.4039730617516
 30
0.0
 40
0.5999999999999943
100
AcDbArc
 50
90.0
 51
180.0
  0
LINE
  5
67D7
330
A
100
AcDbEntity
  8
0
100
AcDbLine
 10
495.6900616942655
 20
27.00397303165161
 30
0.0
 11
441.8900610015655
 21
27.00397303165161
 31
0.0
  0
LINE
  5
67D8
330
A
100
AcDbEntity
  8
0
100
AcDbLine
 10
467.4900622174655
 20
-26.59602835004839
 30
0.0
 11
467.4900622174655
 21
-21.19602634734841
 31
0.0
  0
LINE
  5
67D9
330
A
100
AcDbEntity
  8
0
100
AcDbLine
 10
467.4900622174655
 20
-21.19602634734841
 30
0.0
 11
473.9900623515655
 21
-21.19602634734841
 31
0.0
  0
LINE
  5
67DA
330
A
100
AcDbEntity
  8
0
100
AcDbLine
 10
473.9900623515655
 20
-21.19602634734841
 30
0.0
 11
473.9900623515655
 21
-26.59602835004839
 31
0.0
  0
SPLINE
  5
67DB
330
A
100
AcDbEntity
  8
0
100
AcDbSpline
210
0.0
220
0.0
230
1.0
 70
     8
 71
     3
 72
    14
 73
    10
 74
     0
 42
0.000000001
 43
0.00000001
 40
0.0
 40
0.0
 40
0.0
 40
0.0
 40
0.0815718483062828
 40
0.1692180000775106
 40
0.2631869296917419
 40
0.3636801955587204
 40
0.4708625289551888
 40
0.6884592439486505
 40
1.0
 40
1.0
 40
1.0
 40
1.0
 10
467.4021937559714
 20
25.29136983174601
 30
0.0
 10
467.3917382485824
 20
25.27532024329841
 30
0.0
 10
467.3700486572969
 20
25.2420259228243
 30
0.0
 10
467.3317635199852
 20
25.19675867254881
 30
0.0
 10
467.287995621137
 20
25.15363062902301
 30
0.0
 10
467.2383125117152
 20
25.11400304361851
 30
0.0
 10
467.1650510525512
 20
25.0676431774674
 30
0.0
 10
467.0486039294394
 20
25.0172111057966
 30
0.0
 10
466.9488147114032
 20
25.0088788510273
 30
0.0
 10
466.8900617216152
 20
25.0039730617145
 30
0.0
  0
LINE
  5
67DC
330
A
100
AcDbEntity
  8
0
100
AcDbLine
 10
466.8900613740655
 20
25.00397306755161
 30
0.0
 11
448.2900613055655
 21
25.00397306755161
 31
0.0
  0
SPLINE
  5
67DD
330
A
100
AcDbEntity
  8
0
100
AcDbSpline
210
0.0
220
0.0
230
1.0
 70
     8
 71
     3
 72
     8
 73
     4
 74
     0
 42
0.000000001
 43
0.00000001
 40
0.0
 40
0.0
 40
0.0
 40
0.0
 40
1.0
 40
1.0
 40
1.0
 40
1.0
 10
467.4021937585791
 20
25.29136983602359
 30
0.0
 10
467.4623363864098
 20
25.38990037956881
 30
0.0
 10
467.5395844257621
 20
25.498272222981
 30
0.0
 10
467.6143257903244
 20
25.6039730617145
 30
0.0
  0
LINE
  5
67DE
330
A
100
AcDbEntity
  8
0
100
AcDbLine
 10
443.2900623486655
 20
20.00397304835161
 30
0.0
 11
443.2900623486655
 21
-20.9960266871484
 31
0.0
  0
ARC
  5
67DF
330
A
100
AcDbEntity
  8
0
100
AcDbCircle
 10
466.8900617215655
 20
-26.5960269382484
 30
0.0
 40
0.6000000000001933
100
AcDbArc
 50
0.0000000014004618
 51
89.9999999999023
  0
LINE
  5
67E0
330
A
100
AcDbEntity
  8
0
100
AcDbLine
 10
448.2900613055655
 20
-25.99602564404839
 30
0.0
 11
466.8900613740655
 21
-25.99602564404839
 31
0.0
  0
SPLINE
  5
67E1
330
A
100
AcDbEntity
  8
0
100
AcDbSpline
210
0.0
220
0.0
230
1.0
 70
     8
 71
     3
 72
    15
 73
    11
 74
     0
 42
0.000000001
 43
0.00000001
 40
0.0
 40
0.0
 40
0.0
 40
0.0
 40
0.1141309697489185
 40
0.2315297381402228
 40
0.3584660698049592
 40
0.50014274098999
 40
0.5831662827316002
 40
0.6750347667543171
 40
0.808586990749864
 40
1.0
 40
1.0
 40
1.0
 40
1.0
 10
473.9900617216144
 20
23.1039730617149
 30
0.0
 10
473.9891304315077
 20
23.08605632412139
 30
0.0
 10
473.9872411865903
 20
23.0497098567912
 30
0.0
 10
473.9715182828533
 20
22.99525972065481
 30
0.0
 10
473.9444870656379
 20
22.9407608231096
 30
0.0
 10
473.9097109981828
 20
22.89732011249029
 30
0.0
 10
473.8723197720253
 20
22.86447306044019
 30
0.0
 10
473.8318133088003
 20
22.8379021464703
 30
0.0
 10
473.771358937127
 20
22.81092232413641
 30
0.0
 10
473.7201972761058
 20
22.80654904017939
 30
0.0
 10
473.6900617216144
 20
22.80397306171491
 30
0.0
  0
ARC
  5
67E2
330
A
100
AcDbEntity
  8
0
100
AcDbCircle
 10
448.2900617215655
 20
-20.99602693824841
 30
0.0
 40
4.999999999996533
100
AcDbArc
 50
180.0
 51
270.0
  0
ARC
  5
67E3
330
A
100
AcDbEntity
  8
0
100
AcDbCircle
 10
448.2900617215655
 20
20.00397306175159
 30
0.0
 40
4.999999999999829
100
AcDbArc
 50
90.0
 51
180.0
  0
SPLINE
  5
67E4
330
A
100
AcDbEntity
  8
0
100
AcDbSpline
210
0.0
220
0.0
230
1.0
 70
     8
 71
     3
 72
    10
 73
     6
 74
     0
 42
0.000000001
 43
0.00000001
 40
0.0
 40
0.0
 40
0.0
 40
0.0
 40
0.5
 40
0.5
 40
1.0
 40
1.0
 40
1.0
 40
1.0
 10
473.9900617216144
 20
25.08435781944391
 30
0.0
 10
473.9900617216144
 20
25.14417740512249
 30
0.0
 10
473.9414868603101
 20
25.22972627719591
 30
0.0
 10
473.8263125509009
 20
25.41185699152109
 30
0.0
 10
473.7576518569595
 20
25.5083856445454
 30
0.0
 10
473.6900617216144
 20
25.6039730617145
 30
0.0
  0
LINE
  5
67E5
330
A
100
AcDbEntity
  8
0
100
AcDbLine
 10
473.9900623515655
 20
25.08435781825159
 30
0.0
 11
473.9900623515655
 21
23.10397313745159
 31
0.0
  0
LINE
  5
67E6
330
A
100
AcDbEntity
  8
0
100
AcDbLine
 10
467.6143248633655
 20
22.8039729485516
 30
0.0
 11
473.6900609985655
 21
22.8039729485516
 31
0.0
  0
SPLINE
  5
67E7
330
A
100
AcDbEntity
  8
0
100
AcDbSpline
210
0.0
220
0.0
230
1.0
 70
     8
 71
     3
 72
    14
 73
    10
 74
     0
 42
0.000000001
 43
0.00000001
 40
0.0
 40
0.0
 40
0.0
 40
0.0
 40
0.0943584841015386
 40
0.1898858375700939
 40
0.286883914579384
 40
0.3856410842954262
 40
0.4864306181825001
 40
0.7412820819023263
 40
1.0
 40
1.0
 40
1.0
 40
1.0
 10
465.6791907393218
 20
-25.66733015245291
 30
0.0
 10
465.7061577532616
 20
-25.68805982525799
 30
0.0
 10
465.7604258360683
 20
-25.7297759604908
 30
0.0
 10
465.8454825592576
 20
-25.78424454811579
 30
0.0
 10
465.9336930610383
 20
-25.8331842050633
 30
0.0
 10
466.0253084793395
 20
-25.87602935647311
 30
0.0
 10
466.1678466241458
 20
-25.9311610468998
 30
0.0
 10
466.3649342699231
 20
-25.9842044080944
 30
0.0
 10
466.5320475877428
 20
-25.9920663650679
 30
0.0
 10
466.6162333106527
 20
-25.99602693828811
 30
0.0
  0
LINE
  5
67E8
330
A
100
AcDbEntity
  8
0
100
AcDbLine
 10
465.6791911528655
 20
-25.66732837984839
 30
0.0
 11
464.1530179486655
 21
-24.4463942868484
 31
0.0
  0
SPLINE
  5
67E9
330
A
100
AcDbEntity
  8
0
100
AcDbSpline
210
0.0
220
0.0
230
1.0
 70
     8
 71
     3
 72
    16
 73
    12
 74
     0
 42
0.000000001
 43
0.00000001
 40
0.0
 40
0.0
 40
0.0
 40
0.0
 40
0.0757107643066352
 40
0.1516158730093048
 40
0.2283141290759355
 40
0.3063860875590567
 40
0.3863824011012879
 40
0.4688151671626887
 40
0.6382356180971511
 40
0.8142698160547719
 40
1.0
 40
1.0
 40
1.0
 40
1.0
 10
463.5994101359948
 20
-23.44229567856931
 30
0.0
 10
463.6036899966303
 20
-23.4749884739675
 30
0.0
 10
463.6122607040133
 20
-23.54045798495179
 30
0.0
 10
463.6330014735395
 20
-23.63647682757909
 30
0.0
 10
463.6594853609301
 20
-23.7306323863107
 30
0.0
 10
463.6922718054221
 20
-23.82278741434519
 30
0.0
 10
463.7312041569652
 20
-23.91296156183481
 30
0.0
 10
463.7915679035011
 20
-24.0311192163868
 30
0.0
 10
463.8811784131732
 20
-24.1705046347478
 30
0.0
 10
464.0076408914889
 20
-24.3214793007424
 30
0.0
 10
464.1037015270018
 20
-24.40401762541751
 30
0.0
 10
464.1530191502842
 20
-24.44639288122289
 30
0.0
  0
LINE
  5
67EA
330
A
100
AcDbEntity
  8
0
100
AcDbLine
 10
467.4900622174655
 20
-21.19602634734841
 30
0.0
 11
463.5994100079655
 21
-23.44229444094839
 31
0.0
  0
LINE
  5
67EB
330
A
100
AcDbEntity
  8
0
100
AcDbLine
 10
495.6900616942655
 20
25.00397306755161
 30
0.0
 11
473.9900623515655
 21
25.00397306755161
 31
0.0
  0
LINE
  5
67EC
330
A
100
AcDbEntity
  8
0
100
AcDbLine
 10
496.2900617216655
 20
27.00397303165161
 30
0.0
 11
496.2900617216655
 21
25.60397305245161
 31
0.0
  0
LINE
  5
67ED
330
A
100
AcDbEntity
  8
0
100
AcDbLine
 10
496.2900617216655
 20
27.00397303165161
 30
0.0
 11
495.6900616942655
 21
27.00397303165161
 31
0.0
  0
LINE
  5
67EE
330
A
100
AcDbEntity
  8
0
100
AcDbLine
 10
473.9900623515655
 20
-25.99602564404839
 30
0.0
 11
495.6900616942655
 21
-25.99602564404839
 31
0.0
  0
LINE
  5
67EF
330
A
100
AcDbEntity
  8
0
100
AcDbLine
 10
496.2900617216655
 20
-27.99602597184841
 30
0.0
 11
496.2900617216655
 21
-26.59602835004839
 31
0.0
  0
LINE
  5
67F0
330
A
100
AcDbEntity
  8
0
100
AcDbLine
 10
495.6900616942655
 20
-27.99602597184841
 30
0.0
 11
496.2900617216655
 21
-27.99602597184841
 31
0.0
  0
SPLINE
  5
67F1
330
A
100
AcDbEntity
  8
0
100
AcDbSpline
210
0.0
220
0.0
230
1.0
 70
     8
 71
     3
 72
    15
 73
    11
 74
     0
 42
0.000000001
 43
0.00000001
 40
0.0
 40
0.0
 40
0.0
 40
0.0
 40
0.1309644641657683
 40
0.2478205439464722
 40
0.3505689450790319
 40
0.439211391926247
 40
0.5137512980029454
 40
0.6911352177423712
 40
0.8531676046935411
 40
1.0
 40
1.0
 40
1.0
 40
1.0
 10
466.6162333106537
 20
25.0039730617145
 30
0.0
 10
466.5736649836661
 20
25.00293423830959
 30
0.0
 10
466.4931140799065
 20
25.00096850063491
 30
0.0
 10
466.3796460631482
 20
24.98633057254759
 30
0.0
 10
466.2803079558159
 20
24.96680250968481
 30
0.0
 10
466.1951025195507
 20
24.94434265106301
 30
0.0
 10
466.0869230224981
 20
24.90955753088099
 30
0.0
 10
465.9579070097889
 20
24.85514435827301
 30
0.0
 10
465.8102923234173
 20
24.773506389582
 30
0.0
 10
465.7214336158833
 20
24.70692747671291
 30
0.0
 10
465.6791907393219
 20
24.67527627588001
 30
0.0
  0
SPLINE
  5
67F2
330
A
100
AcDbEntity
  8
0
100
AcDbSpline
210
0.0
220
0.0
230
1.0
 70
     8
 71
     3
 72
    11
 73
     7
 74
     0
 42
0.000000001
 43
0.00000001
 40
0.0
 40
0.0
 40
0.0
 40
0.0
 40
0.2609137508905412
 40
0.5135688033084578
 40
0.7594087768588104
 40
1.0
 40
1.0
 40
1.0
 40
1.0
 10
464.1530191502828
 20
23.45433900464971
 30
0.0
 10
464.1226880944178
 20
23.42897983364449
 30
0.0
 10
464.0629860510779
 20
23.37906418503829
 30
0.0
 10
463.9798748831785
 20
23.29394259265581
 30
0.0
 10
463.9030700770239
 20
23.20357650561411
 30
0.0
 10
463.8572911314485
 20
23.13693451344321
 30
0.0
 10
463.8346486434975
 20
23.1039730617147
 30
0.0
  0
LINE
  5
67F3
330
A
100
AcDbEntity
  8
0
100
AcDbLine
 10
464.1530179486655
 20
23.4543390182516
 30
0.0
 11
465.6791911528655
 21
24.67527625455159
 31
0.0
  0
LINE
  5
67F4
330
A
100
AcDbEntity
  8
0
100
AcDbLine
 10
464.1076886162655
 20
22.8039729485516
 30
0.0
 11
467.6143248633655
 21
22.8039729485516
 31
0.0
  0
SPLINE
  5
67F5
330
A
100
AcDbEntity
  8
0
100
AcDbSpline
210
0.0
220
0.0
230
1.0
 70
     8
 71
     3
 72
    16
 73
    12
 74
     0
 42
0.000000001
 43
0.00000001
 40
0.0
 40
0.0
 40
0.0
 40
0.0
 40
0.0916483102343282
 40
0.1753599453417333
 40
0.2539359692069725
 40
0.3641102351609687
 40
0.4743072065493866
 40
0.5794814042550817
 40
0.6969459616537409
 40
0.8418546150487126
 40
1.0
 40
1.0
 40
1.0
 40
1.0
 10
463.8346486435006
 20
23.10397306171629
 30
0.0
 10
463.8271684487831
 20
23.09138085958841
 30
0.0
 10
463.8128558386168
 20
23.06728693061979
 30
0.0
 10
463.8008473015303
 20
23.0284904586008
 30
0.0
 10
463.7973163502032
 20
22.98494136998681
 30
0.0
 10
463.8083045727402
 20
22.93624546241301
 30
0.0
 10
463.8412290430957
 20
22.89003393487241
 30
0.0
 10
463.8884395534511
 20
22.85401382058089
 30
0.0
 10
463.9490230308139
 20
22.82659752352691
 30
0.0
 10
464.0235341521623
 20
22.80748605635171
 30
0.0
 10
464.0788329146896
 20
22.805177668358
 30
0.0
 10
464.1076899599049
 20
22.80397306171471
 30
0.0
  0
ARC
  5
67F6
330
A
100
AcDbEntity
  8
0
100
AcDbCircle
 10
495.4162333106655
 20
-24.49602693824841
 30
0.0
 40
1.499999999999972
100
AcDbArc
 50
231.3401917458007
 51
270.0
  0
ARC
  5
67F7
330
A
100
AcDbEntity
  8
0
100
AcDbCircle
 10
495.4162333106655
 20
23.50397306175159
 30
0.0
 40
1.499999999999972
100
AcDbArc
 50
90.0
 51
128.6598082540993
  0
LINE
  5
67F8
330
A
100
AcDbEntity
  8
0
100
AcDbLine
 10
493.9525617354655
 20
24.25397304655161
 30
0.0
 11
494.4791907745655
 21
24.67527625455159
 31
0.0
  0
LINE
  5
67F9
330
A
100
AcDbEntity
  8
0
100
AcDbLine
 10
494.4791907745655
 20
-25.66732837984839
 30
0.0
 11
493.9525617354655
 21
-25.24602784944841
 31
0.0
  0
SPLINE
  5
67FA
330
A
100
AcDbEntity
  8
0
100
AcDbSpline
210
0.0
220
0.0
230
1.0
 70
     8
 71
     3
 72
     9
 73
     5
 74
     0
 42
0.000000001
 43
0.00000001
 40
0.0
 40
0.0
 40
0.0
 40
0.0
 40
0.4989653900549332
 40
1.0
 40
1.0
 40
1.0
 40
1.0
 10
463.5900617216135
 20
-23.2750896670581
 30
0.0
 10
463.5904544528808
 20
-23.30302950012751
 30
0.0
 10
463.5912415440804
 20
-23.3590250333373
 30
0.0
 10
463.5966835184765
 20
-23.41450053315589
 30
0.0
 10
463.5994101359953
 20
-23.44229567856911
 30
0.0
  0
LINE
  5
67FC
330
A
100
AcDbEntity
  8
0
100
AcDbLine
 10
496.2900617216655
 20
-26.59602835004839
 30
0.0
 11
496.2900617216655
 21
-25.24602784944841
 31
0.0
  0
LINE
  5
67FD
330
A
100
AcDbEntity
  8
0
100
AcDbLine
 10
496.2900617216655
 20
24.25397304655161
 30
0.0
 11
496.2900617216655
 21
25.60397305245161
 31
0.0
  0
LINE
  5
67FE
330
A
100
AcDbEntity
  8
0
100
AcDbLine
 10
475.2900620058655
 20
22.05397305845159
 30
0.0
 11
476.7899830893655
 21
23.8872108824516
 31
0.0
  0
ARC
  5
67FF
330
A
100
AcDbEntity
  8
0
100
AcDbCircle
 10
477.5639408492655
 20
23.25397306175159
 30
0.0
 40
1.000000000000986
100
AcDbArc
 50
90.0
 51
140.7105931375984
  0
LINE
  5
6800
330
A
100
AcDbEntity
  8
0
100
AcDbLine
 10
478.3900623277655
 20
19.6539731772516
 30
0.0
 11
478.3900623277655
 21
24.25397304655161
 31
0.0
  0
LINE
  5
6801
330
A
100
AcDbEntity
  8
0
100
AcDbLine
 10
478.3900623277655
 20
19.6539731772516
 30
0.0
 11
475.2900620058655
 21
21.66897315365159
 31
0.0
  0
LINE
  5
6802
330
A
100
AcDbEntity
  8
0
100
AcDbLine
 10
475.2900620058655
 20
21.66897315365159
 30
0.0
 11
475.2900620058655
 21
22.05397305845159
 31
0.0
  0
LINE
  5
6803
330
A
100
AcDbEntity
  8
0
100
AcDbLine
 10
477.5639400885655
 20
24.25397304655161
 30
0.0
 11
478.3900623277655
 21
24.25397304655161
 31
0.0
  0
LINE
  5
6804
330
A
100
AcDbEntity
  8
0
100
AcDbLine
 10
478.3900623277655
 20
-25.24602784944841
 30
0.0
 11
489.2900615067655
 21
-25.24602784944841
 31
0.0
  0
LINE
  5
6805
330
A
100
AcDbEntity
  8
0
100
AcDbLine
 10
478.3900623277655
 20
-25.24602784944841
 30
0.0
 11
478.3900623277655
 21
-20.64602821294841
 31
0.0
  0
LINE
  5
6806
330
A
100
AcDbEntity
  8
0
100
AcDbLine
 10
478.3900623277655
 20
-20.64602821294841
 30
0.0
 11
462.2900598750655
 21
-20.64602821294841
 31
0.0
  0
LINE
  5
6807
330
A
100
AcDbEntity
  8
0
100
AcDbLine
 10
462.2900598750655
 20
-20.64602821294841
 30
0.0
 11
462.2900598750655
 21
-25.24602784944841
 31
0.0
  0
LINE
  5
6808
330
A
100
AcDbEntity
  8
0
100
AcDbLine
 10
462.2900598750655
 20
-25.24602784944841
 30
0.0
 11
450.2900616333655
 21
-25.24602784944841
 31
0.0
  0
ARC
  5
6809
330
A
100
AcDbEntity
  8
0
100
AcDbCircle
 10
450.2900617215655
 20
-19.24602693824841
 30
0.0
 40
6.000000000000028
100
AcDbArc
 50
180.0
 51
270.0
  0
LINE
  5
680A
330
A
100
AcDbEntity
  8
0
100
AcDbLine
 10
444.2900606498655
 20
-19.24602686594841
 30
0.0
 11
444.2900606498655
 21
18.25397322715159
 31
0.0
  0
ARC
  5
680B
330
A
100
AcDbEntity
  8
0
100
AcDbCircle
 10
450.2900617215655
 20
18.25397306175159
 30
0.0
 40
5.999999999999773
100
AcDbArc
 50
90.0
 51
180.0
  0
LINE
  5
680C
330
A
100
AcDbEntity
  8
0
100
AcDbLine
 10
450.2900616333655
 20
24.25397304655161
 30
0.0
 11
462.2900598750655
 21
24.25397304655161
 31
0.0
  0
LINE
  5
680D
330
A
100
AcDbEntity
  8
0
100
AcDbLine
 10
462.2900598750655
 20
24.25397304655161
 30
0.0
 11
462.2900598750655
 21
19.6539731772516
 31
0.0
  0
LINE
  5
680E
330
A
100
AcDbEntity
  8
0
100
AcDbLine
 10
462.2900598750655
 20
19.6539731772516
 30
0.0
 11
478.3900623277655
 21
19.6539731772516
 31
0.0
  0
ARC
  5
680F
330
A
100
AcDbEntity
  8
0
100
AcDbCircle
 10
462.2900617215655
 20
-14.49602693824841
 30
0.0
 40
2.600000000000023
100
AcDbArc
 50
90.0
 51
270.0
  0
LINE
  5
6810
330
A
100
AcDbEntity
  8
0
100
AcDbLine
 10
462.2900629148655
 20
-17.09602772424839
 30
0.0
 11
474.2900611565655
 21
-17.09602772424839
 31
0.0
  0
ARC
  5
6811
330
A
100
AcDbEntity
  8
0
100
AcDbCircle
 10
474.2900617215655
 20
-14.49602693824841
 30
0.0
 40
2.600000000000023
100
AcDbArc
 50
270.0
 51
90.0
  0
LINE
  5
6812
330
A
100
AcDbEntity
  8
0
100
AcDbLine
 10
474.2900611565655
 20
-11.89602538174839
 30
0.0
 11
462.2900629148655
 21
-11.89602538174839
 31
0.0
  0
ARC
  5
6813
330
A
100
AcDbEntity
  8
0
100
AcDbCircle
 10
474.2900617215655
 20
13.50397306175159
 30
0.0
 40
2.600000000002979
100
AcDbArc
 50
270.0
 51
90.0
  0
LINE
  5
6814
330
A
100
AcDbEntity
  8
0
100
AcDbLine
 10
474.2900611565655
 20
16.10397268855161
 30
0.0
 11
462.2900629148655
 21
16.10397268855161
 31
0.0
  0
ARC
  5
6815
330
A
100
AcDbEntity
  8
0
100
AcDbCircle
 10
462.2900617215655
 20
13.50397306175159
 30
0.0
 40
2.600000000001472
100
AcDbArc
 50
90.0
 51
270.0
  0
LINE
  5
6816
330
A
100
AcDbEntity
  8
0
100
AcDbLine
 10
462.2900629148655
 20
10.90397314005159
 30
0.0
 11
474.2900611565655
 21
10.90397314005159
 31
0.0
  0
CIRCLE
  5
6817
330
A
100
AcDbEntity
  8
0
100
AcDbCircle
 10
455.2900617215655
 20
-0.4960269382484057
 30
0.0
 40
2.599999999999966
  0
LINE
  5
6818
330
A
100
AcDbEntity
  8
0
100
AcDbLine
 10
489.2900615067655
 20
24.25397304655161
 30
0.0
 11
478.3900623277655
 21
24.25397304655161
 31
0.0
  0
LINE
  5
6819
330
A
100
AcDbEntity
  8
0
100
AcDbLine
 10
478.3900623277655
 20
-25.24602784944841
 30
0.0
 11
477.5639400885655
 21
-25.24602784944841
 31
0.0
  0
ARC
  5
681A
330
A
100
AcDbEntity
  8
0
100
AcDbCircle
 10
477.5639408492655
 20
-24.24602693824841
 30
0.0
 40
1.0
100
AcDbArc
 50
219.2894068626009
 51
270.0
  0
LINE
  5
681B
330
A
100
AcDbEntity
  8
0
100
AcDbLine
 10
476.7899830893655
 20
-24.8792655689484
 30
0.0
 11
475.2900620058655
 21
-23.04602786134839
 31
0.0
  0
LINE
  5
681C
330
A
100
AcDbEntity
  8
0
100
AcDbLine
 10
475.2900620058655
 20
-23.04602786134839
 30
0.0
 11
475.2900620058655
 21
-22.66102655954839
 31
0.0
  0
LINE
  5
681D
330
A
100
AcDbEntity
  8
0
100
AcDbLine
 10
478.3900623277655
 20
-20.64602821294841
 30
0.0
 11
475.2900620058655
 21
-22.66102655954839
 31
0.0
  0
LINE
  5
681E
330
A
100
AcDbEntity
  8
0
100
AcDbLine
 10
462.2900598750655
 20
21.8026377337516
 30
0.0
 11
468.7913973883655
 21
21.8026377337516
 31
0.0
  0
LINE
  5
681F
330
A
100
AcDbEntity
  8
0
100
AcDbLine
 10
469.7887265191655
 20
21.8026377337516
 30
0.0
 11
475.2900620058655
 21
21.8026377337516
 31
0.0
  0
LINE
  5
6820
330
A
100
AcDbEntity
  8
0
100
AcDbLine
 10
496.2900617216655
 20
-25.24602784944841
 30
0.0
 11
496.2900617216655
 21
-23.9503830594484
 31
0.0
  0
LINE
  5
6821
330
A
100
AcDbEntity
  8
0
100
AcDbLine
 10
496.2900617216655
 20
22.95832918795159
 30
0.0
 11
496.2900617216655
 21
24.25397304655161
 31
0.0
  0
LINE
  5
6822
330
A
100
AcDbEntity
  8
0
100
AcDbLine
 10
496.2900617216655
 20
-25.24602784944841
 30
0.0
 11
489.2900615067655
 21
-25.24602784944841
 31
0.0
  0
LINE
  5
6823
330
A
100
AcDbEntity
  8
0
100
AcDbLine
 10
496.2900617216655
 20
24.25397304655161
 30
0.0
 11
489.2900615067655
 21
24.25397304655161
 31
0.0
  0
LINE
  5
6824
330
A
100
AcDbEntity
  8
0
100
AcDbLine
 10
475.2900620058655
 20
-22.79468997544839
 30
0.0
 11
473.9900623515655
 21
-22.79468997544839
 31
0.0
  0
LINE
  5
6825
330
A
100
AcDbEntity
  8
0
100
AcDbLine
 10
464.7210949168655
 20
-22.79468997544839
 30
0.0
 11
462.2900598750655
 21
-22.79468997544839
 31
0.0
  0
LINE
  5
6826
330
A
100
AcDbEntity
  8
0
  6
Continuous
 62
     8
370
     0
100
AcDbLine
 10
496.2900617216655
 20
17.5039731042516
 30
0.0
 11
497.2900617702655
 21
17.5039731042516
 31
0.0
  0
LINE
  5
6827
330
A
100
AcDbEntity
  8
0
  6
Continuous
 62
     8
370
     0
100
AcDbLine
 10
497.2900617702655
 20
-18.49602534604841
 30
0.0
 11
496.2900617216655
 21
-18.49602534604841
 31
0.0
  0
LINE
  5
6828
330
A
100
AcDbEntity
  8
0
  6
Continuous
 62
     8
370
     0
100
AcDbLine
 10
505.2900613353655
 20
17.5039731042516
 30
0.0
 11
506.2900614992655
 21
17.5039731042516
 31
0.0
  0
LINE
  5
6829
330
A
100
AcDbEntity
  8
0
  6
Continuous
 62
     8
370
     0
100
AcDbLine
 10
506.2900614992655
 20
-18.49602534604841
 30
0.0
 11
505.2900613353655
 21
-18.49602534604841
 31
0.0
  0
LINE
  5
682A
330
A
100
AcDbEntity
  8
0
  6
Continuous
 62
     8
370
     0
100
AcDbLine
 10
512.4900621429656
 20
-27.3960269911484
 30
0.0
 11
511.8900612995655
 21
-27.3960269911484
 31
0.0
  0
LINE
  5
682B
330
A
100
AcDbEntity
  8
0
  6
Continuous
 62
     8
370
     0
100
AcDbLine
 10
511.8900612995655
 20
-27.3960269911484
 30
0.0
 11
511.8900612995655
 21
-27.99602597184841
 31
0.0
  0
LINE
  5
682C
330
A
100
AcDbEntity
  8
0
  6
Continuous
 62
     8
370
     0
100
AcDbLine
 10
511.8900612995655
 20
26.40397311955161
 30
0.0
 11
512.4900621429656
 21
26.40397311955161
 31
0.0
  0
LINE
  5
682D
330
A
100
AcDbEntity
  8
0
  6
Continuous
 62
     8
370
     0
100
AcDbLine
 10
511.8900612995655
 20
27.00397303165161
 30
0.0
 11
511.8900612995655
 21
26.40397311955161
 31
0.0
  0
LINE
  5
682E
330
A
100
AcDbEntity
  8
0
  6
Continuous
 62
     8
370
     0
100
AcDbLine
 10
511.8900612995655
 20
26.40397311955161
 30
0.0
 11
511.8900612995655
 21
-27.3960269911484
 31
0.0
  0
LINE
  5
682F
330
A
100
AcDbEntity
  8
0
  6
Continuous
 62
     8
370
     0
100
AcDbLine
 10
506.2900614992655
 20
26.40397311955161
 30
0.0
 11
511.8900612995655
 21
26.40397311955161
 31
0.0
  0
LINE
  5
6830
330
A
100
AcDbEntity
  8
0
  6
Continuous
 62
     8
370
     0
100
AcDbLine
 10
511.8900612995655
 20
-27.3960269911484
 30
0.0
 11
506.2900614992655
 21
-27.3960269911484
 31
0.0
  0
LINE
  5
6831
330
A
100
AcDbEntity
  8
0
  6
Continuous
 62
     8
370
     0
100
AcDbLine
 10
498.1900617548655
 20
-5.396027110348399
 30
0.0
 11
498.1900617548655
 21
4.403973005951599
 31
0.0
  0
LINE
  5
6832
330
A
100
AcDbEntity
  8
0
  6
Continuous
 62
     8
370
     0
100
AcDbLine
 10
495.6900616942655
 20
-26.59602835004839
 30
0.0
 11
496.2900617216655
 21
-26.59602835004839
 31
0.0
  0
LINE
  5
6833
330
A
100
AcDbEntity
  8
0
  6
Continuous
 62
     8
370
     0
100
AcDbLine
 10
495.6900616942655
 20
-26.00569649764839
 30
0.0
 11
495.6900616942655
 21
-26.59602835004839
 31
0.0
  0
LINE
  5
6834
330
A
100
AcDbEntity
  8
0
  6
Continuous
 62
     8
370
     0
100
AcDbLine
 10
495.6900616942655
 20
25.60397305245161
 30
0.0
 11
495.6900616942655
 21
25.00397306755161
 31
0.0
  0
LINE
  5
6835
330
A
100
AcDbEntity
  8
0
  6
Continuous
 62
     8
370
     0
100
AcDbLine
 10
496.2900617216655
 20
25.60397305245161
 30
0.0
 11
495.6900616942655
 21
25.60397305245161
 31
0.0
  0
ARC
  5
6836
330
A
100
AcDbEntity
  8
0
  6
Continuous
 62
     8
370
     0
100
AcDbCircle
 10
467.6673596925655
 20
23.0664734054516
 30
0.0
 40
0.2678043745024484
100
AcDbArc
 50
171.9506154069998
 51
258.5778838968025
  0
LINE
  5
6837
330
A
100
AcDbEntity
  8
0
  6
Continuous
 62
     8
370
     0
100
AcDbLine
 10
467.6143248633655
 20
23.10397313745159
 30
0.0
 11
467.4021937952655
 21
23.10397313745159
 31
0.0
  0
LINE
  5
6838
330
A
100
AcDbEntity
  8
0
  6
Continuous
 62
     8
370
     0
100
AcDbLine
 10
467.6143248633655
 20
22.8039729485516
 30
0.0
 11
467.6143248633655
 21
23.10397313745159
 31
0.0
  0
LINE
  5
6839
330
A
100
AcDbEntity
  8
0
  6
Continuous
 62
     8
370
     0
100
AcDbLine
 10
495.6900616942655
 20
27.00397303165161
 30
0.0
 11
495.6900616942655
 21
25.60397305245161
 31
0.0
  0
LINE
  5
683A
330
A
100
AcDbEntity
  8
0
  6
Continuous
 62
     8
370
     0
100
AcDbLine
 10
495.6900616942655
 20
25.60397305245161
 30
0.0
 11
473.6900609985655
 21
25.60397305245161
 31
0.0
  0
LINE
  5
683B
330
A
100
AcDbEntity
  8
0
  6
Continuous
 62
     8
370
     0
100
AcDbLine
 10
473.6900609985655
 20
25.60397305245161
 30
0.0
 11
473.6900609985655
 21
23.10397313745159
 31
0.0
  0
LINE
  5
683C
330
A
100
AcDbEntity
  8
0
  6
Continuous
 62
     8
370
     0
100
AcDbLine
 10
473.6900609985655
 20
23.10397313745159
 30
0.0
 11
467.6143248633655
 21
23.10397313745159
 31
0.0
  0
LINE
  5
683D
330
A
100
AcDbEntity
  8
0
  6
Continuous
 62
     8
370
     0
100
AcDbLine
 10
467.6143248633655
 20
23.10397313745159
 30
0.0
 11
467.6143248633655
 21
25.60397305245161
 31
0.0
  0
LINE
  5
683E
330
A
100
AcDbEntity
  8
0
  6
Continuous
 62
     8
370
     0
100
AcDbLine
 10
467.6143248633655
 20
25.60397305245161
 30
0.0
 11
448.2900613055655
 21
25.60397305245161
 31
0.0
  0
SPLINE
  5
683F
330
A
100
AcDbEntity
  8
0
  6
Continuous
 62
     8
370
     0
100
AcDbSpline
210
0.0
220
0.0
230
1.0
 70
     8
 71
     3
 72
    10
 73
     6
 74
     0
 42
0.000000001
 43
0.00000001
 40
0.0
 40
0.0
 40
0.0
 40
0.0
 40
0.5
 40
0.5
 40
1.0
 40
1.0
 40
1.0
 40
1.0
 10
442.6900617216145
 20
20.00397306171419
 30
0.0
 10
442.6900617216143
 20
21.4891433721142
 30
0.0
 10
443.2800897492689
 20
22.91359703865839
 30
0.0
 10
445.3804377446703
 20
25.0139450340601
 30
0.0
 10
446.8048914112145
 20
25.60397306171481
 30
0.0
 10
448.2900617216144
 20
25.60397306171481
 30
0.0
  0
LINE
  5
6840
330
A
100
AcDbEntity
  8
0
  6
Continuous
 62
     8
370
     0
100
AcDbLine
 10
442.6900633678655
 20
20.00397304835161
 30
0.0
 11
442.6900633678655
 21
-20.9960266871484
 31
0.0
  0
SPLINE
  5
6841
330
A
100
AcDbEntity
  8
0
  6
Continuous
 62
     8
370
     0
100
AcDbSpline
210
0.0
220
0.0
230
1.0
 70
     8
 71
     3
 72
    10
 73
     6
 74
     0
 42
0.000000001
 43
0.00000001
 40
0.0
 40
0.0
 40
0.0
 40
0.0
 40
0.5
 40
0.5
 40
1.0
 40
1.0
 40
1.0
 40
1.0
 10
448.2900617216151
 20
-26.59602693828629
 30
0.0
 10
446.8048914112156
 20
-26.59602693828649
 30
0.0
 10
445.3804377446718
 20
-26.00599891063209
 30
0.0
 10
443.2800897492707
 20
-23.9056509152314
 30
0.0
 10
442.6900617216162
 20
-22.48119724868761
 30
0.0
 10
442.6900617216162
 20
-20.99602693828811
 30
0.0
  0
LINE
  5
6842
330
A
100
AcDbEntity
  8
0
  6
Continuous
 62
     8
370
     0
100
AcDbLine
 10
448.2900613055655
 20
-26.59602835004839
 30
0.0
 11
467.4900622174655
 21
-26.59602835004839
 31
0.0
  0
LINE
  5
6843
330
A
100
AcDbEntity
  8
0
  6
Continuous
 62
     8
370
     0
100
AcDbLine
 10
473.9900623515655
 20
-26.59602835004839
 30
0.0
 11
495.6900616942655
 21
-26.59602835004839
 31
0.0
  0
LINE
  5
6844
330
A
100
AcDbEntity
  8
0
  6
Continuous
 62
     8
370
     0
100
AcDbLine
 10
495.6900616942655
 20
-26.59602835004839
 30
0.0
 11
495.6900616942655
 21
-27.99602597184841
 31
0.0
  0
LINE
  5
6845
330
A
100
AcDbEntity
  8
0
  6
Continuous
 62
     8
370
     0
100
AcDbLine
 10
448.2900613055655
 20
25.60397305245161
 30
0.0
 11
448.2900613055655
 21
25.00397306755161
 31
0.0
  0
LINE
  5
6846
330
A
100
AcDbEntity
  8
0
  6
Continuous
 62
     8
370
     0
100
AcDbLine
 10
442.6900633678655
 20
20.00397304835161
 30
0.0
 11
443.2900623486655
 21
20.00397304835161
 31
0.0
  0
LINE
  5
6847
330
A
100
AcDbEntity
  8
0
  6
Continuous
 62
     8
370
     0
100
AcDbLine
 10
442.6900633678655
 20
-20.9960266871484
 30
0.0
 11
443.2900623486655
 21
-20.9960266871484
 31
0.0
  0
LINE
  5
6848
330
A
100
AcDbEntity
  8
0
  6
Continuous
 62
     8
370
     0
100
AcDbLine
 10
448.2900613055655
 20
-26.59602835004839
 30
0.0
 11
448.2900613055655
 21
-25.99602564404839
 31
0.0
  0
LINE
  5
6849
330
A
100
AcDbEntity
  8
0
  6
Continuous
 62
     8
370
     0
100
AcDbLine
 10
473.6900609985655
 20
23.10397313745159
 30
0.0
 11
473.6900609985655
 21
22.8039729485516
 31
0.0
  0
LINE
  5
684A
330
A
100
AcDbEntity
  8
0
  6
Continuous
 62
     8
370
     0
100
AcDbLine
 10
473.9900623515655
 20
23.10397313745159
 30
0.0
 11
473.6900609985655
 21
23.10397313745159
 31
0.0
  0
LINE
  5
684B
330
A
100
AcDbEntity
  8
0
  6
Continuous
 62
     8
370
     0
100
AcDbLine
 10
467.4021937952655
 20
23.10397313745159
 30
0.0
 11
467.4021937952655
 21
25.29136987175161
 31
0.0
  0
LINE
  5
684C
330
A
100
AcDbEntity
  8
0
  6
Continuous
 62
     8
370
     0
100
AcDbLine
 10
463.8346471891655
 20
23.10397313745159
 30
0.0
 11
467.4021937952655
 21
23.10397313745159
 31
0.0
  0
LINE
  5
684D
330
A
100
AcDbEntity
  8
0
  6
Continuous
 62
     8
370
     0
100
AcDbLine
 10
448.2900613055655
 20
24.67527625455159
 30
0.0
 11
465.6791911528655
 21
24.67527625455159
 31
0.0
  0
LINE
  5
684E
330
A
100
AcDbEntity
  8
0
  6
Continuous
 62
     8
370
     0
100
AcDbLine
 10
448.2900613055655
 20
25.00397306755161
 30
0.0
 11
448.2900613055655
 21
24.67527625455159
 31
0.0
  0
LINE
  5
684F
330
A
100
AcDbEntity
  8
0
  6
Continuous
 62
     8
370
     0
100
AcDbLine
 10
465.6791911528655
 20
-25.66732837984839
 30
0.0
 11
448.2900613055655
 21
-25.66732837984839
 31
0.0
  0
LINE
  5
6850
330
A
100
AcDbEntity
  8
0
  6
Continuous
 62
     8
370
     0
100
AcDbLine
 10
448.2900613055655
 20
-25.99602564404839
 30
0.0
 11
448.2900613055655
 21
-25.66732837984839
 31
0.0
  0
LINE
  5
6851
330
A
100
AcDbEntity
  8
0
  6
Continuous
 62
     8
370
     0
100
AcDbLine
 10
473.9900623515655
 20
24.67527625455159
 30
0.0
 11
484.9900613606655
 21
24.67527625455159
 31
0.0
  0
LINE
  5
6852
330
A
100
AcDbEntity
  8
0
  6
Continuous
 62
     8
370
     0
100
AcDbLine
 10
484.9900613606655
 20
25.00397306755161
 30
0.0
 11
484.9900613606655
 21
24.67527625455159
 31
0.0
  0
LINE
  5
6853
330
A
100
AcDbEntity
  8
0
  6
Continuous
 62
     8
370
     0
100
AcDbLine
 10
484.9900613606655
 20
-25.66732837984839
 30
0.0
 11
473.9900623515655
 21
-25.66732837984839
 31
0.0
  0
LINE
  5
6854
330
A
100
AcDbEntity
  8
0
  6
Continuous
 62
     8
370
     0
100
AcDbLine
 10
484.9900613606655
 20
-25.99602564404839
 30
0.0
 11
484.9900613606655
 21
-25.66732837984839
 31
0.0
  0
LINE
  5
6855
330
A
100
AcDbEntity
  8
0
  6
Continuous
 62
     8
370
     0
100
AcDbLine
 10
484.9900613606655
 20
-25.66732837984839
 30
0.0
 11
494.4791907745655
 21
-25.66732837984839
 31
0.0
  0
LINE
  5
6856
330
A
100
AcDbEntity
  8
0
  6
Continuous
 62
     8
370
     0
100
AcDbLine
 10
494.4791907745655
 20
24.67527625455159
 30
0.0
 11
484.9900613606655
 21
24.67527625455159
 31
0.0
  0
LINE
  5
6857
330
A
100
AcDbEntity
  8
0
  6
Continuous
 62
     8
370
     0
100
AcDbLine
 10
443.2900623486655
 20
-20.9960266871484
 30
0.0
 11
443.6187596128655
 21
-20.9960266871484
 31
0.0
  0
LINE
  5
6858
330
A
100
AcDbEntity
  8
0
  6
Continuous
 62
     8
370
     0
100
AcDbLine
 10
443.2900623486655
 20
20.00397304835161
 30
0.0
 11
443.6187596128655
 21
20.00397304835161
 31
0.0
  0
LINE
  5
6859
330
A
100
AcDbEntity
  8
0
  6
Continuous
 62
     8
370
     0
100
AcDbLine
 10
443.6187596128655
 20
20.00397304835161
 30
0.0
 11
443.6187596128655
 21
-20.9960266871484
 31
0.0
  0
ARC
  5
685A
330
A
100
AcDbEntity
  8
0
  6
Continuous
 62
     8
370
     0
100
AcDbCircle
 10
448.2900617215655
 20
-20.99602693824841
 30
0.0
 40
4.671303214164652
100
AcDbArc
 50
179.9999998180999
 51
270.0000002397
  0
ARC
  5
685B
330
A
100
AcDbEntity
  8
0
  6
Continuous
 62
     8
370
     0
100
AcDbCircle
 10
448.2900617215655
 20
20.00397306175159
 30
0.0
 40
4.671303214164254
100
AcDbArc
 50
90.0
 51
180.0
  0
LINE
  5
685C
330
A
100
AcDbEntity
  8
0
  6
Continuous
 62
     8
370
     0
100
AcDbLine
 10
448.2900613055655
 20
-25.66732837984839
 30
0.0
 11
448.2900613055655
 21
-24.90288018414839
 31
0.0
  0
LINE
  5
685D
330
A
100
AcDbEntity
  8
0
  6
Continuous
 62
     8
370
     0
100
AcDbLine
 10
462.2900598750655
 20
-24.4463942868484
 30
0.0
 11
464.1530179486655
 21
-24.4463942868484
 31
0.0
  0
LINE
  5
685E
330
A
100
AcDbEntity
  8
0
  6
Continuous
 62
     8
370
     0
100
AcDbLine
 10
462.2900598750655
 20
23.4543390182516
 30
0.0
 11
464.1530179486655
 21
23.4543390182516
 31
0.0
  0
LINE
  5
685F
330
A
100
AcDbEntity
  8
0
  6
Continuous
 62
     8
370
     0
100
AcDbLine
 10
448.2900613055655
 20
23.91082736035159
 30
0.0
 11
448.2900613055655
 21
24.67527625455159
 31
0.0
  0
LINE
  5
6860
330
A
100
AcDbEntity
  8
0
  6
Continuous
 62
     8
370
     0
100
AcDbLine
 10
484.9900613606655
 20
24.67527625455159
 30
0.0
 11
484.9900613606655
 21
24.25397304655161
 31
0.0
  0
LINE
  5
6861
330
A
100
AcDbEntity
  8
0
  6
Continuous
 62
     8
370
     0
100
AcDbLine
 10
473.9900623515655
 20
23.4543390182516
 30
0.0
 11
476.4358160153655
 21
23.4543390182516
 31
0.0
  0
LINE
  5
6862
330
A
100
AcDbEntity
  8
0
  6
Continuous
 62
     8
370
     0
100
AcDbLine
 10
473.9900623515655
 20
-24.4463942868484
 30
0.0
 11
476.4358160153655
 21
-24.4463942868484
 31
0.0
  0
LINE
  5
6863
330
A
100
AcDbEntity
  8
0
  6
Continuous
 62
     8
370
     0
100
AcDbLine
 10
484.9900613606655
 20
-25.24602784944841
 30
0.0
 11
484.9900613606655
 21
-25.66732837984839
 31
0.0
  0
LINE
  5
6864
330
A
100
AcDbEntity
  8
0
  6
Continuous
 62
     8
370
     0
100
AcDbLine
 10
443.6187596128655
 20
-20.9960266871484
 30
0.0
 11
444.5509427294655
 21
-20.9960266871484
 31
0.0
  0
ARC
  5
6865
330
A
100
AcDbEntity
  8
0
  6
Continuous
 62
     8
370
     0
100
AcDbCircle
 10
448.2900617215655
 20
-20.99602693824841
 30
0.0
 40
3.45036594293276
100
AcDbArc
 50
199.4282213276001
 51
242.9436290041004
  0
ARC
  5
6866
330
A
100
AcDbEntity
  8
0
  6
Continuous
 62
     8
370
     0
100
AcDbCircle
 10
448.2900617215655
 20
20.00397306175159
 30
0.0
 40
3.450365942931935
100
AcDbArc
 50
117.0563709987005
 51
160.5717786698997
  0
LINE
  5
6867
330
A
100
AcDbEntity
  8
0
  6
Continuous
 62
     8
370
     0
100
AcDbLine
 10
444.5509427294655
 20
20.00397304835161
 30
0.0
 11
443.6187596128655
 21
20.00397304835161
 31
0.0
  0
LINE
  5
6868
330
A
100
AcDbEntity
  8
0
  6
Continuous
 62
     8
370
     0
100
AcDbLine
 10
475.4774757728655
 20
22.2830358037516
 30
0.0
 11
470.2691250548655
 21
22.2830358037516
 31
0.0
  0
LINE
  5
6869
330
A
100
AcDbEntity
  8
0
  6
Continuous
 62
     8
370
     0
100
AcDbLine
 10
468.3109988526655
 20
22.2830358037516
 30
0.0
 11
462.2900598750655
 21
22.2830358037516
 31
0.0
  0
LINE
  5
686A
330
A
100
AcDbEntity
  8
0
  6
Continuous
 62
     8
370
     0
100
AcDbLine
 10
463.5900632546655
 20
-23.27508851124841
 30
0.0
 11
462.2900598750655
 21
-23.27508851124841
 31
0.0
  0
LINE
  5
686B
330
A
100
AcDbEntity
  8
0
  6
Continuous
 62
     8
370
     0
100
AcDbLine
 10
475.4774757728655
 20
-23.27508851124841
 30
0.0
 11
473.9900623515655
 21
-23.27508851124841
 31
0.0
  0
LINE
  5
686D
330
A
100
AcDbEntity
  8
0
  6
Continuous
 62
     8
370
     0
100
AcDbLine
 10
495.9900617085655
 20
24.25397304655161
 30
0.0
 11
495.9900617085655
 21
25.08435781825159
 31
0.0
  0
LINE
  5
686E
330
A
100
AcDbEntity
  8
0
  6
Continuous
 62
     8
370
     0
100
AcDbLine
 10
489.2900615067655
 20
-25.24602784944841
 30
0.0
 11
489.2900615067655
 21
24.25397304655161
 31
0.0
  0
LINE
  5
686F
330
A
100
AcDbEntity
  8
0
100
AcDbLine
 10
464.3215107992655
 20
-121.8091182337484
 30
0.0
 11
465.1875362030655
 21
-121.9385277563484
 31
0.0
  0
LINE
  5
6870
330
A
100
AcDbEntity
  8
0
100
AcDbLine
 10
484.9609965723655
 20
-67.2277906568484
 30
0.0
 11
484.0949711685655
 21
-67.0983811342484
 31
0.0
  0
SPLINE
  5
6871
330
A
100
AcDbEntity
  8
0
100
AcDbSpline
210
0.0
220
0.0
230
1.0
 70
     8
 71
     3
 72
    11
 73
     7
 74
     0
 42
0.000000001
 43
0.00000001
 40
0.0
 40
0.0
 40
0.0
 40
0.0
 40
0.248838031963847
 40
0.5878564171716443
 40
0.9202336881942406
 40
1.0
 40
1.0
 40
1.0
 40
1.0
 10
455.6659711784322
 20
-73.23421947812139
 30
0.0
 10
455.6141695347023
 20
-73.25947544033453
 30
0.0
 10
455.4917930296063
 20
-73.31914027268216
 30
0.0
 10
455.3666838569414
 20
-73.49511920104557
 30
0.0
 10
455.3018426091906
 20
-73.66328925106349
 30
0.0
 10
455.313804574616
 20
-73.75716206301792
 30
0.0
 10
455.3161196946462
 20
-73.77533021678865
 30
0.0
  0
LINE
  5
6872
330
A
100
AcDbEntity
  8
0
100
AcDbLine
 10
455.3084987226655
 20
-73.7751216808484
 30
0.0
 11
455.3084987226655
 21
-125.7419311352484
 31
0.0
  0
LINE
  5
6873
330
A
100
AcDbEntity
  8
0
100
AcDbLine
 10
482.5630597669655
 20
-61.1686784121484
 30
0.0
 11
455.6630597669655
 21
-73.2276185128484
 31
0.0
  0
LINE
  5
6874
330
A
100
AcDbEntity
  8
0
100
AcDbLine
 10
455.8198257042655
 20
-126.3353425404484
 30
0.0
 11
460.6695679654655
 21
-127.0600358667484
 31
0.0
  0
SPLINE
  5
6875
330
A
100
AcDbEntity
  8
0
100
AcDbSpline
210
0.0
220
0.0
230
1.0
 70
     8
 71
     3
 72
    13
 73
     9
 74
     0
 42
0.000000001
 43
0.00000001
 40
0.0
 40
0.0
 40
0.0
 40
0.0
 40
0.0370946507212086
 40
0.2446995925961251
 40
0.4764628535383186
 40
0.7319127082166815
 40
0.9815207607635046
 40
1.0
 40
1.0
 40
1.0
 40
1.0
 10
455.3119432905802
 20
-125.7411134380117
 30
0.0
 10
455.3108574571188
 20
-125.7516047760227
 30
0.0
 10
455.3036946182599
 20
-125.8208122247293
 30
0.0
 10
455.3402980729413
 20
-125.9555416332576
 30
0.0
 10
455.434622847529
 20
-126.1319290129057
 30
0.0
 10
455.5981642509051
 20
-126.2654854697116
 30
0.0
 10
455.7395715605423
 20
-126.3334970291099
 30
0.0
 10
455.8157488490183
 20
-126.3330954242595
 30
0.0
 10
455.8209997444589
 20
-126.3330677416638
 30
0.0
  0
LINE
  5
6876
330
A
100
AcDbEntity
  8
0
100
AcDbLine
 10
487.7469140023655
 20
-61.8474635013484
 30
0.0
 11
482.8971717411655
 21
-61.1227701750484
 31
0.0
  0
SPLINE
  5
6877
330
A
100
AcDbEntity
  8
0
100
AcDbSpline
210
0.0
220
0.0
230
1.0
 70
     8
 71
     3
 72
    10
 73
     6
 74
     0
 42
0.000000001
 43
0.00000001
 40
0.0
 40
0.0
 40
0.0
 40
0.0
 40
0.2820612670408933
 40
0.9452793526385609
 40
1.0
 40
1.0
 40
1.0
 40
1.0
 10
482.8957139475993
 20
-61.13223182262112
 30
0.0
 10
482.8642951950396
 20
-61.12569444684192
 30
0.0
 10
482.759000702138
 20
-61.10378556722382
 30
0.0
 10
482.635789747311
 20
-61.12356856875071
 30
0.0
 10
482.5675379866688
 20
-61.16893213690808
 30
0.0
 10
482.5623358985875
 20
-61.17238970745309
 30
0.0
  0
SPLINE
  5
6878
330
A
100
AcDbEntity
  8
0
100
AcDbSpline
210
0.0
220
0.0
230
1.0
 70
     8
 71
     3
 72
    10
 73
     6
 74
     0
 42
0.000000001
 43
0.00000001
 40
0.0
 40
0.0
 40
0.0
 40
0.0
 40
0.2605499594605654
 40
0.5896577075637869
 40
0.9999999999999999
 40
0.9999999999999999
 40
0.9999999999999999
 40
0.9999999999999999
 10
474.2675053702765
 20
-129.08343034646
 30
0.0
 10
474.3055756976658
 20
-129.0903051299538
 30
0.0
 10
474.3917336921673
 20
-129.1058636396667
 30
0.0
 10
474.5406749015128
 20
-129.0773742843247
 30
0.0
 10
474.6368366659714
 20
-129.024965059781
 30
0.0
 10
474.6901996204772
 20
-128.9958816597337
 30
0.0
  0
LINE
  5
6879
330
A
100
AcDbEntity
  8
0
100
AcDbLine
 10
469.3254910102655
 20
-128.3534839152484
 30
0.0
 11
474.2661668048655
 21
-129.0917653707484
 31
0.0
  0
LINE
  5
687A
330
A
100
AcDbEntity
  8
0
100
AcDbLine
 10
474.5977782790655
 20
-129.0469780771484
 30
0.0
 11
496.1502787789655
 21
-119.3852564210484
 31
0.0
  0
SPLINE
  5
687B
330
A
100
AcDbEntity
  8
0
100
AcDbSpline
210
0.0
220
0.0
230
1.0
 70
     8
 71
     3
 72
    10
 73
     6
 74
     0
 42
0.000000001
 43
0.00000001
 40
0.0
 40
0.0
 40
0.0
 40
0.0
 40
0.2605499594650441
 40
0.5896577075657156
 40
0.9999999999999999
 40
0.9999999999999999
 40
0.9999999999999999
 40
0.9999999999999999
 10
540.7929425345812
 20
-124.4698677210602
 30
0.0
 10
540.8310128619717
 20
-124.4767425045541
 30
0.0
 10
540.9171708564743
 20
-124.4923010142668
 30
0.0
 10
541.0661120658208
 20
-124.4638116589239
 30
0.0
 10
541.1622738302793
 20
-124.4114024343796
 30
0.0
 10
541.2156367847851
 20
-124.3823190343319
 30
0.0
  0
LINE
  5
687C
330
A
100
AcDbEntity
  8
0
100
AcDbLine
 10
503.4659090660655
 20
-118.9006523234484
 30
0.0
 11
540.7916039691655
 21
-124.4782027453484
 31
0.0
  0
LINE
  5
687D
330
A
100
AcDbEntity
  8
0
100
AcDbLine
 10
541.1232154433656
 20
-124.4334154517484
 30
0.0
 11
543.9782164432655
 21
-123.1535535169484
 31
0.0
  0
SPLINE
  5
687E
330
A
100
AcDbEntity
  8
0
100
AcDbSpline
210
0.0
220
0.0
230
1.0
 70
     8
 71
     3
 72
    13
 73
     9
 74
     0
 42
0.000000001
 43
0.00000001
 40
0.0
 40
0.0
 40
0.0
 40
0.0
 40
0.2544294588455938
 40
0.355980754281233
 40
0.5233718794086311
 40
0.6945754203729283
 40
0.875333193116413
 40
1.0
 40
1.0
 40
1.0
 40
1.0
 10
500.754582084497
 20
-118.7130599266935
 30
0.0
 10
500.9962096725563
 20
-118.715328031252
 30
0.0
 10
501.3342789018146
 20
-118.7185014120986
 30
0.0
 10
501.8242582036232
 20
-118.7394479193942
 30
0.0
 10
502.2309932293875
 20
-118.7638626793968
 30
0.0
 10
502.6973660079235
 20
-118.8041016881363
 30
0.0
 10
503.1129703342869
 20
-118.8495773511337
 30
0.0
 10
503.3615390732806
 20
-118.8867209193574
 30
0.0
 10
503.4629987233824
 20
-118.9018820110166
 30
0.0
  0
SPLINE
  5
687F
330
A
100
AcDbEntity
  8
0
100
AcDbSpline
210
0.0
220
0.0
230
1.0
 70
     8
 71
     3
 72
    18
 73
    14
 74
     0
 42
0.000000001
 43
0.00000001
 40
0.0
 40
0.0
 40
0.0
 40
0.0
 40
0.0330753516798919
 40
0.1322643403767881
 40
0.2344439418936939
 40
0.3385873597425308
 40
0.4435798967104986
 40
0.5479562559275183
 40
0.6490184680332195
 40
0.7486560844746135
 40
0.8211318035693471
 40
0.8947734774237209
 40
1.0
 40
1.0
 40
1.0
 40
1.0
 10
496.1569043924289
 20
-119.3850281730307
 30
0.0
 10
496.1823222078406
 20
-119.3728977126813
 30
0.0
 10
496.283964984667
 20
-119.3243894654492
 30
0.0
 10
496.5282918492685
 20
-119.2371573786789
 30
0.0
 10
496.8868514000183
 20
-119.1297953804017
 30
0.0
 10
497.3086579140034
 20
-119.0292692779669
 30
0.0
 10
497.7778692534565
 20
-118.9396971784198
 30
0.0
 10
498.2810417399996
 20
-118.8641479726415
 30
0.0
 10
498.8055187357302
 20
-118.8038093103729
 30
0.0
 10
499.2957898745062
 20
-118.7625940942196
 30
0.0
 10
499.7480917253906
 20
-118.7360832563819
 30
0.0
 10
500.2177478398348
 20
-118.7173506884251
 30
0.0
 10
500.5557427644169
 20
-118.7146491921955
 30
0.0
 10
500.754582084497
 20
-118.7130599266935
 30
0.0
  0
LWPOLYLINE
  5
6880
330
A
100
AcDbEntity
  8
0
100
AcDbPolyline
 90
       24
 70
   128
 43
0.0
 10
485.8603534504655
 20
-69.0342388523484
 10
485.4820651294655
 20
-68.9943352393484
 10
485.0762086536655
 20
-68.9823266826484
 10
484.6728845412655
 20
-68.9991038021484
 10
484.3020054965655
 20
-69.0434223154484
 10
483.9910779216655
 20
-69.1119953213484
 10
483.7631618923655
 20
-69.1997370735484
 10
483.6351608979655
 20
-69.3001401677484
 10
483.6165681866655
 20
-69.4057581657484
 10
483.7087626946655
 20
-69.5087578638484
 10
483.9049067772655
 20
-69.6015002456484
 10
484.1904533249655
 20
-69.6771070328484
 10
484.5442246567655
 20
-69.7299708159484
 10
484.9399831713655
 20
-69.7561709300484
 10
485.3483772701655
 20
-69.7537642325484
 10
485.7391182310655
 20
-69.7229292171484
 10
486.0832265846655
 20
-69.6659527759484
 10
486.3551813884655
 20
-69.5870605908484
 10
486.5348129987655
 20
-69.4921037343484
 10
486.6087989608655
 20
-69.3881247220484
 10
486.5716520744655
 20
-69.2828352017484
 10
486.4261273540655
 20
-69.1840440153484
 10
486.1830177024655
 20
-69.09907805334839
 10
485.8603534504655
 20
-69.0342388523484
  0
LWPOLYLINE
  5
6881
330
A
100
AcDbEntity
  8
0
100
AcDbPolyline
 90
       12
 70
   128
 43
0.0
 10
465.2082409838655
 20
-75.3061194778484
 10
464.7812964690655
 20
-75.55650386074839
 10
464.3630433133655
 20
-75.91977192574839
 10
463.9619959448655
 20
-76.3885285823484
 10
463.5863185315655
 20
-76.9532312969484
 10
463.2436587820655
 20
-77.6023843507484
 10
462.9409922608655
 20
-78.3227728595484
 10
462.6844803853655
 20
-79.0997317907484
 10
462.4793449978655
 20
-79.9174445010484
 10
462.3297620630655
 20
-80.7592647178484
 10
462.2387766582655
 20
-81.6080554089484
 10
462.2082409838655
 20
-82.4465376438484
  0
LWPOLYLINE
  5
6882
330
A
100
AcDbEntity
  8
0
100
AcDbPolyline
 90
       12
 70
   128
 43
0.0
 10
466.0742663876655
 20
-75.4355290003484
 10
465.6473218728655
 20
-75.68591338334839
 10
465.2290687171655
 20
-76.0491814482484
 10
464.8280213486655
 20
-76.5179381048484
 10
464.4523439352655
 20
-77.0826408194484
 10
464.1096841858655
 20
-77.73179387324839
 10
463.8070176645655
 20
-78.4521823820484
 10
463.5505057891655
 20
-79.2291413132484
 10
463.3453704015655
 20
-80.0468540236484
 10
463.1957874668655
 20
-80.8886742403484
 10
463.1048020620655
 20
-81.7374649315484
 10
463.0742663876655
 20
-82.5759471663484
  0
LINE
  5
6883
330
A
100
AcDbEntity
  8
0
100
AcDbLine
 10
484.0742663876655
 20
-67.3663497508484
 30
0.0
 11
466.0742663876655
 21
-75.4355290003484
 31
0.0
  0
ARC
  5
6884
330
A
100
AcDbEntity
  8
0
100
AcDbCircle
 10
484.7351310022655
 20
-68.78690109744839
 30
0.0
 40
1.566750831211233
100
AcDbArc
 50
38.95342120709911
 51
114.9486488723995
  0
LINE
  5
6885
330
A
100
AcDbEntity
  8
0
100
AcDbLine
 10
466.0742663876655
 20
-121.7999686622484
 30
0.0
 11
469.1184950217655
 21
-120.4352782997484
 31
0.0
  0
LWPOLYLINE
  5
6886
330
A
100
AcDbEntity
  8
0
100
AcDbPolyline
 90
       12
 70
   128
 43
0.0
 10
463.0742663876655
 20
-117.3492769127484
 10
463.1048020620655
 20
-118.1603816109484
 10
463.1957874668655
 20
-118.9275970198484
 10
463.3453704015655
 20
-119.6353048462484
 10
463.5505057891655
 20
-120.2690981996484
 10
463.8070176645655
 20
-120.8160748749484
 10
464.1096841858655
 20
-121.2651000046484
 10
464.4523439352655
 20
-121.6070327317484
 10
464.8280213486655
 20
-121.8349122920484
 10
465.2290687171655
 20
-121.9440997149484
 10
465.6473218728655
 20
-121.9323722592484
 10
466.0742663876655
 20
-121.7999686622484
  0
LINE
  5
6887
330
A
100
AcDbEntity
  8
0
100
AcDbLine
 10
463.0742663876655
 20
-82.5759471663484
 30
0.0
 11
463.0742663876655
 21
-117.3492769127484
 31
0.0
  0
LINE
  5
6888
330
A
100
AcDbEntity
  8
0
100
AcDbLine
 10
462.2082409838655
 20
-82.4465376438484
 30
0.0
 11
462.2082409838655
 21
-117.2198673902484
 31
0.0
  0
LINE
  5
6889
330
A
100
AcDbEntity
  8
0
100
AcDbLine
 10
483.2082409838655
 20
-67.2369402283484
 30
0.0
 11
465.2082409838655
 21
-75.3061194778484
 31
0.0
  0
LWPOLYLINE
  5
688A
330
A
100
AcDbEntity
  8
0
100
AcDbPolyline
 90
       10
 70
   128
 43
0.0
 10
462.2082409838655
 20
-117.2198673902484
 10
462.2387766582655
 20
-118.0309720884484
 10
462.3297620630655
 20
-118.7981874973484
 10
462.4793449978655
 20
-119.5058953237484
 10
462.6844803853655
 20
-120.1396886770484
 10
462.9409922608655
 20
-120.6866653524484
 10
463.2436587820655
 20
-121.1356904820484
 10
463.5863185315655
 20
-121.4776232091484
 10
463.9619959448655
 20
-121.7055027695484
 10
464.3215107992655
 20
-121.8091182337484
  0
ARC
  5
688B
330
A
100
AcDbEntity
  8
0
100
AcDbCircle
 10
483.8799168333655
 20
-68.6287704065484
 30
0.0
 40
1.545425408048845
100
AcDbArc
 50
82.00102249609992
 51
115.7612422665005
  0
LINE
  5
688C
330
A
100
AcDbEntity
  8
0
100
AcDbLine
 10
460.7582409838655
 20
-73.92025951144839
 30
0.0
 11
487.6582409838655
 21
-61.86131941074839
 31
0.0
  0
LWPOLYLINE
  5
688D
330
A
100
AcDbEntity
  8
0
100
AcDbPolyline
 90
        9
 70
   128
 43
0.0
 10
487.9582409838655
 20
-62.30638858564839
 10
487.9524765679655
 20
-62.19590703434839
 10
487.9354048436655
 20
-62.09483946094839
 10
487.9076818675655
 20
-62.00706983564839
 10
487.8703730182655
 20
-61.9359710959484
 10
487.8249120537655
 20
-61.88427552654839
 10
487.7730460135655
 20
-61.8539697591484
 10
487.7167680804655
 20
-61.84621842744841
 10
487.6582409838655
 20
-61.86131941074839
  0
LINE
  5
688E
330
A
100
AcDbEntity
  8
0
100
AcDbLine
 10
487.9582409838655
 20
-62.30638858564839
 30
0.0
 11
487.9582409838655
 21
-66.9032139919484
 31
0.0
  0
LINE
  5
688F
330
A
100
AcDbEntity
  8
0
100
AcDbLine
 10
469.1184950217655
 20
-123.2983806015484
 30
0.0
 11
460.7582409838655
 21
-127.0461799573484
 31
0.0
  0
LWPOLYLINE
  5
6890
330
A
100
AcDbEntity
  8
0
100
AcDbPolyline
 90
        9
 70
   128
 43
0.0
 10
460.4582409838655
 20
-126.6011107823484
 10
460.4640053997655
 20
-126.7115923337484
 10
460.4810771241655
 20
-126.8126599071484
 10
460.5088001001655
 20
-126.9004295324484
 10
460.5461089495655
 20
-126.9715282721484
 10
460.5915699139655
 20
-127.0232238415484
 10
460.6434359541655
 20
-127.0535296088484
 10
460.6997138872655
 20
-127.0612809406484
 10
460.7582409838655
 20
-127.0461799573484
  0
LINE
  5
6891
330
A
100
AcDbEntity
  8
0
100
AcDbLine
 10
460.4582409838655
 20
-126.6011107823484
 30
0.0
 11
460.4582409838655
 21
-74.6343013280484
 31
0.0
  0
ARC
  5
6892
330
A
100
AcDbEntity
  8
0
100
AcDbCircle
 10
461.2789261592655
 20
-74.5590644104484
 30
0.0
 40
0.8241266594908482
100
AcDbArc
 50
129.1832235483981
 51
185.2379913782
  0
ARC
  5
6893
330
A
100
AcDbEntity
  8
0
100
AcDbCircle
 10
482.7400154501655
 20
-61.56796303974841
 30
0.0
 40
0.4367396565933863
100
AcDbArc
 50
80.9784633674982
 51
113.902049924503
  0
LINE
  5
6894
330
A
100
AcDbEntity
  8
0
100
AcDbLine
 10
469.4184950217655
 20
-75.2143547369484
 30
0.0
 11
496.3184950217655
 21
-63.15541463624839
 31
0.0
  0
ARC
  5
6895
330
A
100
AcDbEntity
  8
0
100
AcDbCircle
 10
496.8464392335655
 20
-64.8304692775484
 30
0.0
 40
1.75628390134697
100
AcDbArc
 50
80.44043723440076
 51
107.4938243671999
  0
LINE
  5
6896
330
A
100
AcDbEntity
  8
0
100
AcDbLine
 10
497.1381102639655
 20
-63.09857402894841
 30
0.0
 11
543.7302769875655
 21
-70.0608063422484
 31
0.0
  0
LWPOLYLINE
  5
6897
330
A
100
AcDbEntity
  8
0
100
AcDbPolyline
 90
       22
 70
   128
 43
0.0
 10
517.7686491691655
 20
-66.8687544176484
 10
517.6325210336655
 20
-66.9585255012484
 10
517.6046761774655
 20
-67.0546932851484
 10
517.6875887380655
 20
-67.1487128396484
 10
517.8738915708655
 20
-67.2322301147484
 10
518.1470308513656
 20
-67.2978242340484
 10
518.4827369558654
 20
-67.3396668722484
 10
518.8511809238655
 20
-67.3540401271484
 10
519.2196248919655
 20
-67.3396668722484
 10
519.5553309964655
 20
-67.2978242340484
 10
519.8284702769655
 20
-67.2322301147484
 10
520.0147731097655
 20
-67.1487128396484
 10
520.0976856703655
 20
-67.0546932851484
 10
520.0698408141654
 20
-66.9585255012484
 10
519.9337126786655
 20
-66.8687544176484
 10
519.7013968461655
 20
-66.7933565889484
 10
519.3935355977655
 20
-66.7390314432484
 10
519.0374837566656
 20
-66.7106060080484
 10
518.6648780911655
 20
-66.7106060080484
 10
518.3088262500655
 20
-66.7390314432484
 10
518.0009650016655
 20
-66.7933565889484
 10
517.7686491691655
 20
-66.8687544176484
  0
LWPOLYLINE
  5
6898
330
A
100
AcDbEntity
  8
0
100
AcDbPolyline
 90
       22
 70
   128
 43
0.0
 10
484.4853534504655
 20
-69.6506344894484
 10
484.8322022829655
 20
-69.6858670435484
 10
485.2037660674655
 20
-69.6930738226484
 10
485.5670297308655
 20
-69.6716144728484
 10
485.8897157027655
 20
-69.6233957515484
 10
486.1431519183655
 20
-69.5527021038484
 10
486.3048194576655
 20
-69.4658149704484
 10
486.3603534504655
 20
-69.3704546544484
 10
486.3048194576655
 20
-69.2750943384484
 10
486.1431519183655
 20
-69.1882072050484
 10
485.8897157027655
 20
-69.1175135572484
 10
485.5670297308655
 20
-69.0692948360484
 10
485.2037660674655
 20
-69.0478354862484
 10
484.8322022829655
 20
-69.0550422653484
 10
484.4853534504655
 20
-69.0902748193484
 10
484.1940386106655
 20
-69.1504025813484
 10
483.9841423655655
 20
-69.2300829356484
 10
483.8743149176655
 20
-69.3222359331484
 10
483.8743149176655
 20
-69.4186733757484
 10
483.9841423655655
 20
-69.5108263732484
 10
484.1940386106655
 20
-69.5905067275484
 10
484.4853534504655
 20
-69.6506344894484
  0
ARC
  5
6899
330
A
100
AcDbEntity
  8
0
100
AcDbCircle
 10
469.9391801971655
 20
-75.8531596359484
 30
0.0
 40
0.8241266594908777
100
AcDbArc
 50
129.1832235484993
 51
185.2379913781996
  0
LINE
  5
689A
330
A
100
AcDbEntity
  8
0
100
AcDbLine
 10
469.1184950217655
 20
-75.9283965535484
 30
0.0
 11
469.1184950217655
 21
-127.8952060078484
 31
0.0
  0
SPLINE
  5
689B
330
A
100
AcDbEntity
  8
0
100
AcDbSpline
210
0.0
220
0.0
230
1.0
 70
     8
 71
     3
 72
    11
 73
     7
 74
     0
 42
0.000000001
 43
0.00000001
 40
0.0
 40
0.0
 40
0.0
 40
0.0
 40
0.0725504296369461
 40
0.3817002864246318
 40
0.6908501432123174
 40
1.0
 40
1.0
 40
1.0
 40
1.0
 10
469.3306321174892
 20
-128.3459000385901
 30
0.0
 10
469.3215540728436
 20
-128.3470780815121
 30
0.0
 10
469.2737929188608
 20
-128.3532759679065
 30
0.0
 10
469.201977896996
 20
-128.2738484892769
 30
0.0
 10
469.1318785132847
 20
-128.1178690746588
 30
0.0
 10
469.1229561855822
 20
-127.9694270301359
 30
0.0
 10
469.118495021731
 20
-127.8952060078745
 30
0.0
  0
ARC
  5
689C
330
A
100
AcDbEntity
  8
0
100
AcDbCircle
 10
543.5903170322655
 20
-70.7054826374484
 30
0.0
 40
0.6596941069597313
100
AcDbArc
 50
358.9121202896
 51
77.75110246659399
  0
LINE
  5
689D
330
A
100
AcDbEntity
  8
0
100
AcDbLine
 10
544.2498922298655
 20
-122.6848170058484
 30
0.0
 11
544.2498922298655
 21
-70.7180075515484
 31
0.0
  0
SPLINE
  5
689E
330
A
100
AcDbEntity
  8
0
100
AcDbSpline
210
0.0
220
0.0
230
1.0
 70
     8
 71
     3
 72
    10
 73
     6
 74
     0
 42
0.000000001
 43
0.00000001
 40
0.0
 40
0.0
 40
0.0
 40
0.0
 40
0.3638402382395875
 40
0.7276804764791787
 40
1.0
 40
1.0
 40
1.0
 40
1.0
 10
544.2498922298773
 20
-122.684817005883
 30
0.0
 10
544.2418314987879
 20
-122.7589704033797
 30
0.0
 10
544.2257100366088
 20
-122.9072771983731
 30
0.0
 10
544.119061428824
 20
-123.0748912300807
 30
0.0
 10
544.0157521173006
 20
-123.1254266711136
 30
0.0
 10
543.9715287253471
 20
-123.1470592672792
 30
0.0
  0
LINE
  5
689F
330
A
100
AcDbEntity
  8
0
  6
Continuous
 62
     8
370
     0
100
AcDbLine
 10
462.2082409838655
 20
-82.4465376438484
 30
0.0
 11
463.0742663876655
 21
-82.5759471663484
 31
0.0
  0
LINE
  5
68A0
330
A
100
AcDbEntity
  8
0
  6
Continuous
 62
     8
370
     0
100
AcDbLine
 10
465.2082409838655
 20
-75.3061194778484
 30
0.0
 11
466.0742663876655
 21
-75.4355290003484
 31
0.0
  0
LINE
  5
68A1
330
A
100
AcDbEntity
  8
0
  6
Continuous
 62
     8
370
     0
100
AcDbLine
 10
462.2082409838655
 20
-117.2198673902484
 30
0.0
 11
463.0742663876655
 21
-117.3492769127484
 31
0.0
  0
LINE
  5
68A2
330
A
100
AcDbEntity
  8
0
  6
Continuous
 62
     8
370
     0
100
AcDbLine
 10
483.2082409838655
 20
-67.2369402283484
 30
0.0
 11
484.0742663876655
 21
-67.3663497508484
 31
0.0
  0
LINE
  5
68A3
330
A
100
AcDbEntity
  8
0
  6
Continuous
 62
     8
370
     0
100
AcDbLine
 10
460.7582409838655
 20
-73.92025951144839
 30
0.0
 11
455.9084987226655
 21
-73.1955661851484
 31
0.0
  0
LINE
  5
68A4
330
A
100
AcDbEntity
  8
0
  6
Continuous
 62
     8
370
     0
100
AcDbLine
 10
455.6084987226655
 20
-73.9096080017484
 30
0.0
 11
460.4582409838655
 21
-74.6343013280484
 31
0.0
  0
ARC
  5
68A5
330
A
100
AcDbEntity
  8
0
  6
Continuous
 62
     8
370
     0
100
AcDbCircle
 10
456.4291838980655
 20
-73.8343710841484
 30
0.0
 40
0.8241266594908238
100
AcDbArc
 50
129.1832235485012
 51
185.2379913782
  0
LINE
  5
68A6
330
A
100
AcDbEntity
  8
0
  6
Continuous
 62
     8
370
     0
100
AcDbLine
 10
460.4582409838655
 20
-126.6011107823484
 30
0.0
 11
455.6084987226655
 21
-125.8764174560484
 31
0.0
  0
LINE
  5
68A7
330
A
100
AcDbEntity
  8
0
  6
Continuous
 62
     8
370
     0
100
AcDbLine
 10
455.6084987226655
 20
-125.8764174560484
 30
0.0
 11
455.6084987226655
 21
-73.9096080017484
 31
0.0
  0
LINE
  5
68A8
330
A
100
AcDbEntity
  8
0
  6
Continuous
 62
     8
370
     0
100
AcDbLine
 10
455.9084987226655
 20
-73.1955661851484
 30
0.0
 11
482.8084987226655
 21
-61.13662608444839
 31
0.0
  0
LINE
  5
68A9
330
A
100
AcDbEntity
  8
0
  6
Continuous
 62
     8
370
     0
100
AcDbLine
 10
482.8084987226655
 20
-61.13662608444839
 30
0.0
 11
487.6582409838655
 21
-61.86131941074839
 31
0.0
  0
ARC
  5
68AA
330
A
100
AcDbEntity
  8
0
  6
Continuous
 62
     8
370
     0
100
AcDbCircle
 10
455.8400152261655
 20
-73.62687631904839
 30
0.0
 40
0.4367132021679956
100
AcDbArc
 50
80.97788255499668
 51
113.9602619412987
  0
LWPOLYLINE
  5
68AB
330
A
100
AcDbEntity
  8
0
  6
Continuous
 62
     8
370
     0
100
AcDbPolyline
 90
        7
 70
   128
 43
0.0
 10
455.3084988442655
 20
-73.7752205515484
 10
455.3097833687655
 20
-73.78527822614839
 10
455.3289432269655
 20
-73.8153140597484
 10
455.3703750777655
 20
-73.8438053227484
 10
455.4324867185655
 20
-73.8696571119484
 10
455.5128912336655
 20
-73.8918759575484
 10
455.6084987226655
 20
-73.9096080017484
  0
LWPOLYLINE
  5
68AC
330
A
100
AcDbEntity
  8
0
  6
Continuous
 62
     8
370
     0
100
AcDbPolyline
 90
        7
 70
   128
 43
0.0
 10
455.6084987226655
 20
-125.8764174560484
 10
455.5128912336655
 20
-125.8586854118484
 10
455.4324867185655
 20
-125.8364665663484
 10
455.3703750777655
 20
-125.8106147771484
 10
455.3289432269655
 20
-125.7821235141484
 10
455.3097833687655
 20
-125.7520876805484
 10
455.3084987226655
 20
-125.7419311352484
  0
LWPOLYLINE
  5
68AD
330
A
100
AcDbEntity
  8
0
  6
Continuous
 62
     8
370
     0
100
AcDbPolyline
 90
        8
 70
   128
 43
0.0
 10
455.8198257042655
 20
-126.3353425404484
 10
455.7936936929655
 20
-126.3288362826484
 10
455.7418276527655
 20
-126.2985305152484
 10
455.6963666883655
 20
-126.2468349458484
 10
455.6590578389655
 20
-126.1757362061484
 10
455.6313348629655
 20
-126.0879665808484
 10
455.6142631385655
 20
-125.9868990074484
 10
455.6084987226655
 20
-125.8764174560484
  0
LWPOLYLINE
  5
68AE
330
A
100
AcDbEntity
  8
0
  6
Continuous
 62
     8
370
     0
100
AcDbPolyline
 90
        3
 70
   128
 43
0.0
 10
482.8084987226655
 20
-61.13662608444839
 10
482.8670258192655
 20
-61.12152510114839
 10
482.8971717411655
 20
-61.1227701750484
  0
LINE
  5
68AF
330
A
100
AcDbEntity
  8
0
  6
Continuous
 62
     8
370
     0
100
AcDbLine
 10
495.9048398233655
 20
-66.2913883028484
 30
0.0
 11
474.3548398232655
 21
-75.9519890154484
 31
0.0
  0
LINE
  5
68B0
330
A
100
AcDbEntity
  8
0
  6
Continuous
 62
     8
370
     0
100
AcDbLine
 10
474.3548398232655
 20
-75.9519890154484
 30
0.0
 11
469.4184950217655
 21
-75.2143547369484
 31
0.0
  0
LINE
  5
68B1
330
A
100
AcDbEntity
  8
0
  6
Continuous
 62
     8
370
     0
100
AcDbLine
 10
543.7302769875655
 20
-70.0608063422484
 30
0.0
 11
540.8802769875656
 21
-71.3384263900484
 31
0.0
  0
LINE
  5
68B2
330
A
100
AcDbEntity
  8
0
  6
Continuous
 62
     8
370
     0
100
AcDbLine
 10
540.8802769875656
 20
-71.3384263900484
 30
0.0
 11
503.5545820844655
 21
-65.7608759681484
 31
0.0
  0
SPLINE
  5
68B3
330
A
100
AcDbEntity
  8
0
  6
Continuous
 62
     8
370
     0
100
AcDbSpline
210
0.0
220
0.0
230
1.0
 70
     8
 71
     3
 72
    10
 73
     6
 74
     0
 42
0.000000001
 43
0.00000001
 40
0.0
 40
0.0
 40
0.0
 40
0.0
 40
0.4999999999999997
 40
0.4999999999999997
 40
1.0
 40
1.0
 40
1.0
 40
1.0
 10
495.9048398233026
 20
-66.29138830285278
 30
0.0
 10
496.6474249785025
 20
-65.95849648477851
 30
0.0
 10
497.8706310726686
 20
-65.71556917546323
 30
0.0
 10
500.7397597911752
 20
-65.51659408281597
 30
0.0
 10
502.268386866744
 20
-65.56868078732812
 30
0.0
 10
503.554582084497
 20
-65.76087596810433
 30
0.0
  0
ARC
  5
68B4
330
A
100
AcDbEntity
  8
0
  6
Continuous
 62
     8
370
     0
100
AcDbCircle
 10
474.8755249987655
 20
-76.5907939144484
 30
0.0
 40
0.8241266595097726
100
AcDbArc
 50
129.183223548101
 51
185.2379913767003
  0
ARC
  5
68B5
330
A
100
AcDbEntity
  8
0
  6
Continuous
 62
     8
370
     0
100
AcDbCircle
 10
474.2148798679655
 20
-76.59666531074839
 30
0.0
 40
0.6596941069623303
100
AcDbArc
 50
358.9121202897004
 51
77.75110246529887
  0
ARC
  5
68B6
330
A
100
AcDbEntity
  8
0
  6
Continuous
 62
     8
370
     0
100
AcDbCircle
 10
474.3465108537655
 20
-74.9341355834484
 30
0.0
 40
1.756283901347296
100
AcDbArc
 50
260.4404372344007
 51
287.4938243672004
  0
LINE
  5
68B7
330
A
100
AcDbEntity
  8
0
  6
Continuous
 62
     8
370
     0
100
AcDbLine
 10
474.8744550655655
 20
-128.5759996791484
 30
0.0
 11
474.8744550655655
 21
-76.6091902247484
 31
0.0
  0
SPLINE
  5
68B8
330
A
100
AcDbEntity
  8
0
  6
Continuous
 62
     8
370
     0
100
AcDbSpline
210
0.0
220
0.0
230
1.0
 70
     8
 71
     3
 72
    17
 73
    13
 74
     0
 42
0.000000001
 43
0.00000001
 40
0.0
 40
0.0
 40
0.0
 40
0.0
 40
0.0760582856040434
 40
0.1525793772872286
 40
0.2315418222215372
 40
0.3147728424208506
 40
0.4038889810158625
 40
0.500241200311116
 40
0.6198711844247732
 40
0.7601165028980599
 40
0.8592988845463031
 40
1.0
 40
1.0
 40
1.0
 40
1.0
 10
474.0548398233019
 20
-128.6328402864167
 30
0.0
 10
474.0759324328767
 20
-128.6357173054642
 30
0.0
 10
474.1182459981736
 20
-128.6414888498953
 30
0.0
 10
474.1870487304881
 20
-128.6476423459996
 30
0.0
 10
474.2602309605866
 20
-128.6520368831359
 30
0.0
 10
474.3389744611429
 20
-128.6540905502987
 30
0.0
 10
474.4234913795415
 20
-128.6532423396309
 30
0.0
 10
474.517910995206
 20
-128.6485204579971
 30
0.0
 10
474.6233808479899
 20
-128.6386418227696
 30
0.0
 10
474.7193454975171
 20
-128.6226534001428
 30
0.0
 10
474.8080930241544
 20
-128.6021490071501
 30
0.0
 10
474.8499211959855
 20
-128.5856670158996
 30
0.0
 10
474.8744550655726
 20
-128.5759996791222
 30
0.0
  0
LINE
  5
68B9
330
A
100
AcDbEntity
  8
0
  6
Continuous
 62
     8
370
     0
100
AcDbLine
 10
474.0548398232655
 20
-76.66603083204839
 30
0.0
 11
474.0548398232655
 21
-128.6328402864484
 31
0.0
  0
LINE
  5
68BA
330
A
100
AcDbEntity
  8
0
  6
Continuous
 62
     8
370
     0
100
AcDbLine
 10
474.0548398232655
 20
-76.66603083204839
 30
0.0
 11
469.1184950217655
 21
-75.9283965535484
 31
0.0
  0
LINE
  5
68BB
330
A
100
AcDbEntity
  8
0
  6
Continuous
 62
     8
370
     0
100
AcDbLine
 10
474.0548398232655
 20
-128.6328402864484
 30
0.0
 11
469.1184950217655
 21
-127.8952060078484
 31
0.0
  0
ARC
  5
68BC
330
A
100
AcDbEntity
  8
0
  6
Continuous
 62
     8
370
     0
100
AcDbCircle
 10
495.7648798679655
 20
-66.9360645981484
 30
0.0
 40
0.6596941069597879
100
AcDbArc
 50
358.9121202896
 51
77.75110246659986
  0
LINE
  5
68BD
330
A
100
AcDbEntity
  8
0
  6
Continuous
 62
     8
370
     0
100
AcDbLine
 10
496.4244550655655
 20
-66.9485895121484
 30
0.0
 11
474.8744550655655
 21
-76.6091902247484
 31
0.0
  0
LINE
  5
68BE
330
A
100
AcDbEntity
  8
0
  6
Continuous
 62
     8
370
     0
100
AcDbLine
 10
496.4244550649655
 20
-66.9485895124484
 30
0.0
 11
496.4244550649655
 21
-118.9153989667484
 31
0.0
  0
LINE
  5
68BF
330
A
100
AcDbEntity
  8
0
  6
Continuous
 62
     8
370
     0
100
AcDbLine
 10
496.4244550649655
 20
-118.9153989667484
 30
0.0
 11
474.8744550655655
 21
-128.5759996791484
 31
0.0
  0
LWPOLYLINE
  5
68C0
330
A
100
AcDbEntity
  8
0
  6
Continuous
 62
     8
370
     0
100
AcDbPolyline
 90
        8
 70
   128
 43
0.0
 10
474.0548398232655
 20
-128.6328402864484
 10
474.0606042391655
 20
-128.7433218377484
 10
474.0776759635655
 20
-128.8443894111484
 10
474.1053989395655
 20
-128.9321590364484
 10
474.1427077889655
 20
-129.0032577761484
 10
474.1881687533655
 20
-129.0549533455484
 10
474.2400347935655
 20
-129.0852591129484
 10
474.2665417601655
 20
-129.0918208810484
  0
SPLINE
  5
68C1
330
A
100
AcDbEntity
  8
0
  6
Continuous
 62
     8
370
     0
100
AcDbSpline
210
0.0
220
0.0
230
1.0
 70
     8
 71
     3
 72
    10
 73
     6
 74
     0
 42
0.000000001
 43
0.00000001
 40
0.0
 40
0.0
 40
0.0
 40
0.0
 40
0.2719404737467484
 40
0.6359702368733752
 40
1.0
 40
1.0
 40
1.0
 40
1.0
 10
474.5963327806524
 20
-129.0380982153167
 30
0.0
 10
474.6404693949864
 20
-129.01650345026
 30
0.0
 10
474.7436889440516
 20
-128.9660011191465
 30
0.0
 10
474.850270313871
 20
-128.7984558248784
 30
0.0
 10
474.866393481672
 20
-128.6501517277076
 30
0.0
 10
474.8744550655726
 20
-128.5759996791222
 30
0.0
  0
ARC
  5
68C2
330
A
100
AcDbEntity
  8
0
  6
Continuous
 62
     8
370
     0
100
AcDbCircle
 10
495.9288277631655
 20
-118.9411090588484
 30
0.0
 40
0.4962936950129139
100
AcDbArc
 50
296.5007552296005
 51
2.96949059170009
  0
ARC
  5
68C3
330
A
100
AcDbEntity
  8
0
  6
Continuous
 62
     8
370
     0
100
AcDbCircle
 10
541.4009621629655
 20
-71.9772312890484
 30
0.0
 40
0.82412665949084
100
AcDbArc
 50
129.1832235484975
 51
185.2379913782007
  0
ARC
  5
68C4
330
A
100
AcDbEntity
  8
0
  6
Continuous
 62
     8
370
     0
100
AcDbCircle
 10
540.7403170322655
 20
-71.9831026853484
 30
0.0
 40
0.659694106959675
100
AcDbArc
 50
358.9121202895997
 51
77.75110246659295
  0
ARC
  5
68C5
330
A
100
AcDbEntity
  8
0
  6
Continuous
 62
     8
370
     0
100
AcDbCircle
 10
540.8719480180655
 20
-70.3205729580484
 30
0.0
 40
1.756283901346865
100
AcDbArc
 50
260.4404372344002
 51
287.4938243671974
  0
SPLINE
  5
68C6
330
A
100
AcDbEntity
  8
0
  6
Continuous
 62
     8
370
     0
100
AcDbSpline
210
0.0
220
0.0
230
1.0
 70
     8
 71
     3
 72
    17
 73
    13
 74
     0
 42
0.000000001
 43
0.00000001
 40
0.0
 40
0.0
 40
0.0
 40
0.0
 40
0.0760582855772911
 40
0.1525793772443827
 40
0.2315418221733262
 40
0.3147728423779774
 40
0.4038889809890939
 40
0.5002412003112067
 40
0.6198711843306548
 40
0.760116502898076
 40
0.8592988845186262
 40
1.0
 40
1.0
 40
1.0
 40
1.0
 10
540.5802769876069
 20
-124.0192776610168
 30
0.0
 10
540.6013695971742
 20
-124.0221546800641
 30
0.0
 10
540.6436831624588
 20
-124.027926224495
 30
0.0
 10
540.7124858947575
 20
-124.0340797206064
 30
0.0
 10
540.7856681248497
 20
-124.0384742577507
 30
0.0
 10
540.8644116254105
 20
-124.0405279249181
 30
0.0
 10
540.9489285438246
 20
-124.039679714249
 30
0.0
 10
541.0433481594738
 20
-124.0349578325947
 30
0.0
 10
541.1488180122674
 20
-124.0250791973682
 30
0.0
 10
541.2447826617929
 20
-124.0090907747504
 30
0.0
 10
541.3335301884533
 20
-123.988586381751
 30
0.0
 10
541.3753583602852
 20
-123.9721043905013
 30
0.0
 10
541.3998922298775
 20
-123.9624370537224
 30
0.0
  0
LINE
  5
68C7
330
A
100
AcDbEntity
  8
0
  6
Continuous
 62
     8
370
     0
100
AcDbLine
 10
540.5802769875655
 20
-72.0524682066484
 30
0.0
 11
540.5802769875655
 21
-124.0192776610484
 31
0.0
  0
LINE
  5
68C8
330
A
100
AcDbEntity
  8
0
  6
Continuous
 62
     8
370
     0
100
AcDbLine
 10
541.3998922298655
 20
-123.9624370537484
 30
0.0
 11
541.3998922298655
 21
-71.9956275993484
 31
0.0
  0
LINE
  5
68C9
330
A
100
AcDbEntity
  8
0
  6
Continuous
 62
     8
370
     0
100
AcDbLine
 10
540.5802769875655
 20
-72.0524682066484
 30
0.0
 11
503.2545820844655
 21
-66.4749177847484
 31
0.0
  0
ARC
  5
68CA
330
A
100
AcDbEntity
  8
0
  6
Continuous
 62
     8
370
     0
100
AcDbCircle
 10
504.0752672598655
 20
-66.3996808671484
 30
0.0
 40
0.8241266594926748
100
AcDbArc
 50
129.1832235486007
 51
185.2379913782002
  0
LINE
  5
68CB
330
A
100
AcDbEntity
  8
0
  6
Continuous
 62
     8
370
     0
100
AcDbLine
 10
540.5802769875655
 20
-124.0192776610484
 30
0.0
 11
503.2545820852655
 21
-118.4417272391484
 31
0.0
  0
LINE
  5
68CC
330
A
100
AcDbEntity
  8
0
  6
Continuous
 62
     8
370
     0
100
AcDbLine
 10
503.2545820852655
 20
-66.4749177848484
 30
0.0
 11
503.2545820852655
 21
-118.4417272391484
 31
0.0
  0
LINE
  5
68CD
330
A
100
AcDbEntity
  8
0
  6
Continuous
 62
     8
370
     0
100
AcDbLine
 10
544.2498922298655
 20
-70.7180075515484
 30
0.0
 11
541.3998922298655
 21
-71.9956275993484
 31
0.0
  0
LINE
  5
68CE
330
A
100
AcDbEntity
  8
0
  6
Continuous
 62
     8
370
     0
100
AcDbLine
 10
544.2498922298655
 20
-122.6848170058484
 30
0.0
 11
541.3998922298655
 21
-123.9624370537484
 31
0.0
  0
SPLINE
  5
68CF
330
A
100
AcDbEntity
  8
0
  6
Continuous
 62
     8
370
     0
100
AcDbSpline
210
0.0
220
0.0
230
1.0
 70
     8
 71
     3
 72
    10
 73
     6
 74
     0
 42
0.000000001
 43
0.00000001
 40
0.0
 40
0.0
 40
0.0
 40
0.0
 40
0.2719404737467168
 40
0.6359702368733602
 40
0.9999999999999999
 40
0.9999999999999999
 40
0.9999999999999999
 40
0.9999999999999999
 10
541.1217699449574
 20
-124.4245355899168
 30
0.0
 10
541.1659065592912
 20
-124.4029408248601
 30
0.0
 10
541.2691261083564
 20
-124.3524384937466
 30
0.0
 10
541.3757074781759
 20
-124.1848931994785
 30
0.0
 10
541.3918306459769
 20
-124.0365891023077
 30
0.0
 10
541.3998922298775
 20
-123.9624370537224
 30
0.0
  0
LWPOLYLINE
  5
68D0
330
A
100
AcDbEntity
  8
0
  6
Continuous
 62
     8
370
     0
100
AcDbPolyline
 90
        8
 70
   128
 43
0.0
 10
540.5802769875655
 20
-124.0192776610484
 10
540.5860414034655
 20
-124.1297592123484
 10
540.6031131278655
 20
-124.2308267857484
 10
540.6308361039655
 20
-124.3185964110484
 10
540.6681449532655
 20
-124.3896951507484
 10
540.7136059176655
 20
-124.4413907201484
 10
540.7654719578654
 20
-124.4716964875484
 10
540.7919789244655
 20
-124.4782582556484
  0
LWPOLYLINE
  5
68D1
330
A
100
AcDbEntity
  8
0
  6
Continuous
 62
     8
370
     0
100
AcDbPolyline
 90
        8
 70
   128
 43
0.0
 10
503.2545820844655
 20
-118.4417272390484
 10
503.2603465003655
 20
-118.5522087904484
 10
503.2774182247655
 20
-118.6532763638484
 10
503.3051412007655
 20
-118.7410459891484
 10
503.3424500501655
 20
-118.8121447288484
 10
503.3879110145655
 20
-118.8638402982484
 10
503.4397770547655
 20
-118.8941460655484
 10
503.4659090660655
 20
-118.9006523234484
  0
ARC
  5
68D2
330
A
100
AcDbEntity
  8
0
  6
Continuous
 62
     8
370
     0
100
AcDbCircle
 10
500.8125323275655
 20
-80.7421614929484
 30
0.0
 40
14.47473143264813
100
AcDbArc
 50
80.2871042455
 51
107.6471573562001
  0
ARC
  5
68D3
330
A
100
AcDbEntity
  8
0
  6
Continuous
 62
     8
370
     0
100
AcDbCircle
 10
500.8125323275655
 20
-132.7089709455484
 30
0.0
 40
14.47473143087019
100
AcDbArc
 50
80.28710424139993
 51
107.6471573610001
  0
LINE
  5
68D4
330
A
100
AcDbEntity
  8
0
100
AcDbLine
 10
156.2956559510655
 20
5.5039729999516
 30
0.0
 11
150.2956556660655
 21
5.5039729999516
 31
0.0
  0
LINE
  5
68D5
330
A
100
AcDbEntity
  8
0
100
AcDbLine
 10
150.2956556660655
 20
-6.4960271043484
 30
0.0
 11
156.2956559510655
 21
-6.4960271043484
 31
0.0
  0
SPLINE
  5
68D6
330
A
100
AcDbEntity
  8
0
100
AcDbSpline
210
0.0
220
0.0
230
1.0
 70
     8
 71
     3
 72
    14
 73
    10
 74
     0
 42
0.000000001
 43
0.00000001
 40
0.0
 40
0.0
 40
0.0
 40
0.0
 40
0.1288377052999845
 40
0.256101782668837
 40
0.3823008737245385
 40
0.5077502994834404
 40
0.7553965280407086
 40
0.8784303054154603
 40
1.0
 40
1.0
 40
1.0
 40
1.0
 10
142.105313440977
 20
-27.3960269911023
 30
0.0
 10
142.1087244481535
 20
-27.43647815639059
 30
0.0
 10
142.1155048003536
 20
-27.5168864151162
 30
0.0
 10
142.153699053413
 20
-27.6331252477575
 30
0.0
 10
142.2104425837681
 20
-27.73882396658141
 30
0.0
 10
142.3096654814929
 20
-27.86011702245091
 30
0.0
 10
142.440980274251
 20
-27.94678493941561
 30
0.0
 10
142.5884535349196
 20
-27.99098603466101
 30
0.0
 10
142.6654644407521
 20
-27.99431787102779
 30
0.0
 10
142.703739417909
 20
-27.9959738177987
 30
0.0
  0
SPLINE
  5
68D7
330
A
100
AcDbEntity
  8
0
100
AcDbSpline
210
0.0
220
0.0
230
1.0
 70
     8
 71
     3
 72
    11
 73
     7
 74
     0
 42
0.000000001
 43
0.00000001
 40
0.0
 40
0.0
 40
0.0
 40
0.0
 40
0.172031534971007
 40
0.461340052921284
 40
0.7907911335751012
 40
0.9999999999999999
 40
0.9999999999999999
 40
0.9999999999999999
 40
0.9999999999999999
 10
157.2956559985935
 20
3.810714937952014
 30
0.0
 10
157.2695114854498
 20
3.871207712477911
 30
0.0
 10
157.1993992756193
 20
4.033432270933588
 30
0.0
 10
156.9713951474047
 20
4.241186730029909
 30
0.0
 10
156.681759977974
 20
4.3893118761643
 30
0.0
 10
156.4750929923499
 20
4.391061487717707
 30
0.0
 10
156.3948260892242
 20
4.391741015222493
 30
0.0
  0
SPLINE
  5
68D8
330
A
100
AcDbEntity
  8
0
100
AcDbSpline
210
0.0
220
0.0
230
1.0
 70
     8
 71
     3
 72
    11
 73
     7
 74
     0
 42
0.000000001
 43
0.00000001
 40
0.0
 40
0.0
 40
0.0
 40
0.0
 40
0.1617222963703136
 40
0.4379759296097108
 40
0.727092686990553
 40
1.0
 40
1.0
 40
1.0
 40
1.0
 10
156.3957648623794
 20
-5.38653879592141
 30
0.0
 10
156.4574441172424
 20
-5.386944125387402
 30
0.0
 10
156.6244837252159
 20
-5.388041837661291
 30
0.0
 10
156.8862155173716
 20
-5.283003020669099
 30
0.0
 10
157.1496958072859
 20
-5.090874759592992
 30
0.0
 10
157.2479471635825
 20
-4.898741578800809
 30
0.0
 10
157.2956559985935
 20
-4.805445663425502
 30
0.0
  0
LINE
  5
68D9
330
A
100
AcDbEntity
  8
0
100
AcDbLine
 10
156.3956560140655
 20
4.403973005951599
 30
0.0
 11
156.2956559510655
 21
4.403973005951599
 31
0.0
  0
LINE
  5
68DA
330
A
100
AcDbEntity
  8
0
100
AcDbLine
 10
150.2956556660655
 20
4.403973005951599
 30
0.0
 11
149.2956564335655
 21
4.403973005951599
 31
0.0
  0
LINE
  5
68DB
330
A
100
AcDbEntity
  8
0
100
AcDbLine
 10
149.2956564335655
 20
-5.396027110348399
 30
0.0
 11
150.2956556660655
 21
-5.396027110348399
 31
0.0
  0
LINE
  5
68DC
330
A
100
AcDbEntity
  8
0
100
AcDbLine
 10
156.2956559510655
 20
-5.396027110348399
 30
0.0
 11
156.3956560140655
 21
-5.396027110348399
 31
0.0
  0
LINE
  5
68DD
330
A
100
AcDbEntity
  8
0
100
AcDbLine
 10
150.2956556660655
 20
-0.4960261208483985
 30
0.0
 11
150.2956556660655
 21
-6.4960271043484
 31
0.0
  0
LINE
  5
68DE
330
A
100
AcDbEntity
  8
0
100
AcDbLine
 10
150.2956556660655
 20
5.5039729999516
 30
0.0
 11
150.2956556660655
 21
-0.4960261208483985
 31
0.0
  0
LINE
  5
68DF
330
A
100
AcDbEntity
  8
0
100
AcDbLine
 10
156.2956559510655
 20
-0.4960261208483985
 30
0.0
 11
156.2956559510655
 21
-6.4960271043484
 31
0.0
  0
LINE
  5
68E0
330
A
100
AcDbEntity
  8
0
100
AcDbLine
 10
156.2956559510655
 20
5.5039729999516
 30
0.0
 11
156.2956559510655
 21
-0.4960261208483985
 31
0.0
  0
LINE
  5
68E1
330
A
100
AcDbEntity
  8
0
100
AcDbLine
 10
157.2956559985655
 20
23.50397304005159
 30
0.0
 11
158.2956560472655
 21
23.50397304005159
 31
0.0
  0
LINE
  5
68E2
330
A
100
AcDbEntity
  8
0
100
AcDbLine
 10
157.2956559985655
 20
23.50397304005159
 30
0.0
 11
157.2956559985655
 21
17.5039731042516
 31
0.0
  0
LINE
  5
68E3
330
A
100
AcDbEntity
  8
0
100
AcDbLine
 10
157.2956559985655
 20
-24.4960263294484
 30
0.0
 11
158.2956560472655
 21
-24.4960263294484
 31
0.0
  0
LINE
  5
68E4
330
A
100
AcDbEntity
  8
0
100
AcDbLine
 10
157.2956559985655
 20
-18.49602534604841
 30
0.0
 11
157.2956559985655
 21
-24.4960263294484
 31
0.0
  0
LINE
  5
68E5
330
A
100
AcDbEntity
  8
0
100
AcDbLine
 10
157.2956559985655
 20
17.5039731042516
 30
0.0
 11
157.2956559985655
 21
-18.49602534604841
 31
0.0
  0
LINE
  5
68E6
330
A
100
AcDbEntity
  8
0
100
AcDbLine
 10
148.2956562695655
 20
23.50397304005159
 30
0.0
 11
149.2956564335655
 21
23.50397304005159
 31
0.0
  0
LINE
  5
68E7
330
A
100
AcDbEntity
  8
0
100
AcDbLine
 10
149.2956564335655
 20
23.50397304005159
 30
0.0
 11
149.2956564335655
 21
17.5039731042516
 31
0.0
  0
LINE
  5
68E8
330
A
100
AcDbEntity
  8
0
100
AcDbLine
 10
148.2956562695655
 20
-24.4960263294484
 30
0.0
 11
149.2956564335655
 21
-24.4960263294484
 31
0.0
  0
LINE
  5
68E9
330
A
100
AcDbEntity
  8
0
100
AcDbLine
 10
149.2956564335655
 20
-18.49602534604841
 30
0.0
 11
149.2956564335655
 21
-24.4960263294484
 31
0.0
  0
LINE
  5
68EA
330
A
100
AcDbEntity
  8
0
100
AcDbLine
 10
149.2956564335655
 20
17.5039731042516
 30
0.0
 11
149.2956564335655
 21
-18.49602534604841
 31
0.0
  0
LINE
  5
68EB
330
A
100
AcDbEntity
  8
0
100
AcDbLine
 10
142.1053357927655
 20
-27.3960269911484
 30
0.0
 11
142.0956556258655
 21
-27.3960269911484
 31
0.0
  0
ARC
  5
68EC
330
A
100
AcDbEntity
  8
0
100
AcDbCircle
 10
142.6956560472655
 20
26.4039730617516
 30
0.0
 40
0.5999999999999943
100
AcDbArc
 50
90.0
 51
180.0
  0
LINE
  5
68ED
330
A
100
AcDbEntity
  8
0
100
AcDbLine
 10
148.2956562695655
 20
-27.3960269911484
 30
0.0
 11
148.2956562695655
 21
-27.99602597184841
 31
0.0
  0
LINE
  5
68EE
330
A
100
AcDbEntity
  8
0
100
AcDbLine
 10
142.6956564692655
 20
-27.99602597184841
 30
0.0
 11
148.2956562695655
 21
-27.99602597184841
 31
0.0
  0
LINE
  5
68EF
330
A
100
AcDbEntity
  8
0
100
AcDbLine
 10
148.2956562695655
 20
-27.3960269911484
 30
0.0
 11
148.2956562695655
 21
26.40397311955161
 31
0.0
  0
LINE
  5
68F0
330
A
100
AcDbEntity
  8
0
100
AcDbLine
 10
142.0956556258655
 20
-27.3960269911484
 30
0.0
 11
142.0956556258655
 21
26.40397311955161
 31
0.0
  0
LINE
  5
68F1
330
A
100
AcDbEntity
  8
0
100
AcDbLine
 10
148.2956562695655
 20
27.00397303165161
 30
0.0
 11
142.6956564692655
 21
27.00397303165161
 31
0.0
  0
LINE
  5
68F2
330
A
100
AcDbEntity
  8
0
100
AcDbLine
 10
148.2956562695655
 20
27.00397303165161
 30
0.0
 11
148.2956562695655
 21
26.40397311955161
 31
0.0
  0
LINE
  5
68F3
330
A
100
AcDbEntity
  8
0
100
AcDbLine
 10
158.2956560472655
 20
-25.24602784944841
 30
0.0
 11
159.1217769465655
 21
-25.24602784944841
 31
0.0
  0
LINE
  5
68F4
330
A
100
AcDbEntity
  8
0
100
AcDbLine
 10
158.2956560472655
 20
-19.24602686594841
 30
0.0
 11
158.2956560472655
 21
-25.24602784944841
 31
0.0
  0
LINE
  5
68F5
330
A
100
AcDbEntity
  8
0
100
AcDbLine
 10
158.2956560472655
 20
18.25397322715159
 30
0.0
 11
158.2956560472655
 21
-19.24602686594841
 31
0.0
  0
LINE
  5
68F6
330
A
100
AcDbEntity
  8
0
100
AcDbLine
 10
158.2956560472655
 20
24.25397304655161
 30
0.0
 11
159.1217769465655
 21
24.25397304655161
 31
0.0
  0
LINE
  5
68F7
330
A
100
AcDbEntity
  8
0
100
AcDbLine
 10
158.2956560472655
 20
24.25397304655161
 30
0.0
 11
158.2956560472655
 21
18.25397322715159
 31
0.0
  0
ARC
  5
68F8
330
A
100
AcDbEntity
  8
0
100
AcDbCircle
 10
159.1217769196655
 20
-24.24602693824841
 30
0.0
 40
1.0
100
AcDbArc
 50
270.0
 51
320.7105931377995
  0
ARC
  5
68F9
330
A
100
AcDbEntity
  8
0
100
AcDbCircle
 10
159.1217769196655
 20
23.25397306175159
 30
0.0
 40
1.0
100
AcDbArc
 50
39.28940686260084
 51
90.0
  0
LINE
  5
68FA
330
A
100
AcDbEntity
  8
0
100
AcDbLine
 10
159.8957342367655
 20
-24.8792655689484
 30
0.0
 11
162.0696133041655
 21
-22.2223028464484
 31
0.0
  0
LINE
  5
68FB
330
A
100
AcDbEntity
  8
0
100
AcDbLine
 10
162.0696133041655
 20
21.23024734505159
 30
0.0
 11
159.8957342367655
 21
23.8872108824516
 31
0.0
  0
SPLINE
  5
68FC
330
A
100
AcDbEntity
  8
0
100
AcDbSpline
210
0.0
220
0.0
230
1.0
 70
    24
 71
     3
 72
     8
 73
     4
 74
     0
 42
0.000000001
 43
0.00000001
 40
0.0
 40
0.0
 40
0.0
 40
0.0
 40
1.0
 40
1.0
 40
1.0
 40
1.0
 10
162.2956560472589
 20
-19.2460269382866
 30
0.0
 10
162.2956560472589
 20
-20.53918401867301
 30
0.0
 10
162.2956560472589
 20
-21.5890635601161
 30
0.0
 10
162.2956560472589
 20
-21.5890635601161
 30
0.0
  0
ARC
  5
68FD
330
A
100
AcDbEntity
  8
0
100
AcDbCircle
 10
161.2956560472655
 20
-21.58906356014839
 30
0.0
 40
1.000000000000014
100
AcDbArc
 50
320.7105931379997
 51
0.0
  0
ARC
  5
68FE
330
A
100
AcDbEntity
  8
0
100
AcDbCircle
 10
161.2956560472655
 20
20.59700968355159
 30
0.0
 40
1.0
100
AcDbArc
 50
0.0
 51
39.28940685660056
  0
SPLINE
  5
68FF
330
A
100
AcDbEntity
  8
0
100
AcDbSpline
210
0.0
220
0.0
230
1.0
 70
    24
 71
     3
 72
    20
 73
    16
 74
     0
 42
0.000000001
 43
0.00000001
 40
0.0
 40
0.0
 40
0.0
 40
0.0
 40
0.0419817720461388
 40
0.0836112491270546
 40
0.1250676930238241
 40
0.1665326097576145
 40
0.2081873945914558
 40
0.2502109841573892
 40
0.3750622464207611
 40
0.5000652682299208
 40
0.6249165304918948
 40
0.7499195523023738
 40
0.8334882557964755
 40
0.9163641420378463
 40
1.0
 40
1.0
 40
1.0
 40
1.0
 10
162.295656047259
 20
20.59700968354289
 30
0.0
 10
162.295656047259
 20
20.59606623394771
 30
0.0
 10
162.295656047259
 20
20.59418725182519
 30
0.0
 10
162.295656047259
 20
20.57877510738189
 30
0.0
 10
162.295656047259
 20
20.554104754386
 30
0.0
 10
162.295656047259
 20
20.5193014826138
 30
0.0
 10
162.295656047259
 20
20.47458207033591
 30
0.0
 10
162.295656047259
 20
20.38437201110679
 30
0.0
 10
162.295656047259
 20
20.21544697379841
 30
0.0
 10
162.295656047259
 20
19.92125340862299
 30
0.0
 10
162.295656047259
 20
19.56469904076181
 30
0.0
 10
162.295656047259
 20
19.20121583484999
 30
0.0
 10
162.295656047259
 20
18.86236224150701
 30
0.0
 10
162.295656047259
 20
18.56080380553229
 30
0.0
 10
162.295656047259
 20
18.35656070311609
 30
0.0
 10
162.295656047259
 20
18.2539730617149
 30
0.0
  0
LINE
  5
6900
330
A
100
AcDbEntity
  8
0
100
AcDbLine
 10
162.2956562360655
 20
-19.24602686594841
 30
0.0
 11
162.2956562360655
 21
18.25397322715159
 31
0.0
  0
SPLINE
  5
6901
330
A
100
AcDbEntity
  8
0
100
AcDbSpline
210
0.0
220
0.0
230
1.0
 70
    24
 71
     3
 72
    10
 73
     6
 74
     0
 42
0.000000001
 43
0.00000001
 40
0.0
 40
0.0
 40
0.0
 40
0.0
 40
0.4999999999999997
 40
0.4999999999999997
 40
1.0
 40
1.0
 40
1.0
 40
1.0
 10
159.1217769196634
 20
24.2539730617149
 30
0.0
 10
159.1217769196634
 20
24.2539730617149
 30
0.0
 10
159.7722700847764
 20
24.2539730617149
 30
0.0
 10
162.0878584150437
 20
24.2539730617149
 30
0.0
 10
163.6582878364906
 20
24.2539730617149
 30
0.0
 10
165.295656047259
 20
24.2539730617149
 30
0.0
  0
SPLINE
  5
6902
330
A
100
AcDbEntity
  8
0
100
AcDbSpline
210
0.0
220
0.0
230
1.0
 70
    24
 71
     3
 72
    10
 73
     6
 74
     0
 42
0.000000001
 43
0.00000001
 40
0.0
 40
0.0
 40
0.0
 40
0.0
 40
0.5000000000000002
 40
0.5000000000000002
 40
1.0
 40
1.0
 40
1.0
 40
1.0
 10
165.2956560472589
 20
-25.24602693828811
 30
0.0
 10
163.6582878364904
 20
-25.24602693828811
 30
0.0
 10
162.0878584150436
 20
-25.24602693828811
 30
0.0
 10
159.7722700847763
 20
-25.24602693828811
 30
0.0
 10
159.1217769196633
 20
-25.24602693828811
 30
0.0
 10
159.1217769196633
 20
-25.24602693828811
 30
0.0
  0
ARC
  5
6907
330
A
100
AcDbEntity
  8
0
100
AcDbCircle
 10
192.2956560472655
 20
13.50397306175159
 30
0.0
 40
4.600000000001472
100
AcDbArc
 50
270.0
 51
90.0
  0
LINE
  5
6908
330
A
100
AcDbEntity
  8
0
100
AcDbLine
 10
180.2956566123655
 20
18.1039730163516
 30
0.0
 11
192.2956548539655
 21
18.1039730163516
 31
0.0
  0
ARC
  5
6909
330
A
100
AcDbEntity
  8
0
100
AcDbCircle
 10
180.2956560472655
 20
13.50397306175159
 30
0.0
 40
4.600000000002979
100
AcDbArc
 50
90.0
 51
270.0
  0
LINE
  5
690A
330
A
100
AcDbEntity
  8
0
100
AcDbLine
 10
192.2956548539655
 20
8.903972812251595
 30
0.0
 11
180.2956566123655
 21
8.903972812251595
 31
0.0
  0
CIRCLE
  5
690B
330
A
100
AcDbEntity
  8
0
100
AcDbCircle
 10
199.2956560472655
 20
-0.4960269382484057
 30
0.0
 40
4.85000000000001
  0
LINE
  5
690C
330
A
100
AcDbEntity
  8
0
100
AcDbLine
 10
179.2956557629655
 20
22.05397305845159
 30
0.0
 11
177.7957346795655
 21
23.8872108824516
 31
0.0
  0
LINE
  5
690D
330
A
100
AcDbEntity
  8
0
100
AcDbLine
 10
179.2956557629655
 20
22.05397305845159
 30
0.0
 11
179.2956557629655
 21
21.8026377337516
 31
0.0
  0
LINE
  5
690E
330
A
100
AcDbEntity
  8
0
100
AcDbLine
 10
192.2956578938655
 20
21.8026377337516
 30
0.0
 11
179.2956557629655
 21
21.8026377337516
 31
0.0
  0
LINE
  5
690F
330
A
100
AcDbEntity
  8
0
100
AcDbLine
 10
192.2956578938655
 20
23.8872108824516
 30
0.0
 11
192.2956578938655
 21
21.8026377337516
 31
0.0
  0
LINE
  5
6910
330
A
100
AcDbEntity
  8
0
100
AcDbLine
 10
192.2956578938655
 20
-22.79468997544839
 30
0.0
 11
192.2956578938655
 21
-24.8792655689484
 31
0.0
  0
LINE
  5
6911
330
A
100
AcDbEntity
  8
0
100
AcDbLine
 10
179.2956557629655
 20
-22.79468997544839
 30
0.0
 11
192.2956578938655
 21
-22.79468997544839
 31
0.0
  0
LINE
  5
6912
330
A
100
AcDbEntity
  8
0
100
AcDbLine
 10
179.2956557629655
 20
-22.79468997544839
 30
0.0
 11
179.2956557629655
 21
-23.04602786134839
 31
0.0
  0
LINE
  5
6913
330
A
100
AcDbEntity
  8
0
100
AcDbLine
 10
177.7957346795655
 20
-24.8792655689484
 30
0.0
 11
179.2956557629655
 21
-23.04602786134839
 31
0.0
  0
LINE
  5
6918
330
A
100
AcDbEntity
  8
0
100
AcDbLine
 10
192.2956548539655
 20
10.90397314005159
 30
0.0
 11
180.2956566123655
 21
10.90397314005159
 31
0.0
  0
ARC
  5
6919
330
A
100
AcDbEntity
  8
0
100
AcDbCircle
 10
180.2956560472655
 20
13.50397306175159
 30
0.0
 40
2.600000000003035
100
AcDbArc
 50
90.0
 51
270.0
  0
ARC
  5
691A
330
A
100
AcDbEntity
  8
0
100
AcDbCircle
 10
192.2956560472655
 20
13.50397306175159
 30
0.0
 40
2.600000000000023
100
AcDbArc
 50
270.0
 51
90.0
  0
LINE
  5
691B
330
A
100
AcDbEntity
  8
0
100
AcDbLine
 10
180.2956566123655
 20
16.10397268855161
 30
0.0
 11
192.2956548539655
 21
16.10397268855161
 31
0.0
  0
CIRCLE
  5
691C
330
A
100
AcDbEntity
  8
0
100
AcDbCircle
 10
199.2956560472655
 20
-0.4960269382484057
 30
0.0
 40
2.599999999999998
  0
LINE
  5
691D
330
A
100
AcDbEntity
  8
0
100
AcDbLine
 10
210.2956571189655
 20
-19.24602686594841
 30
0.0
 11
210.2956571189655
 21
18.25397322715159
 31
0.0
  0
LINE
  5
691E
330
A
100
AcDbEntity
  8
0
100
AcDbLine
 10
204.2956561354655
 20
24.25397304655161
 30
0.0
 11
192.2956578938655
 21
24.25397304655161
 31
0.0
  0
LINE
  5
691F
330
A
100
AcDbEntity
  8
0
100
AcDbLine
 10
192.2956578938655
 20
23.8872108824516
 30
0.0
 11
192.2956578938655
 21
24.25397304655161
 31
0.0
  0
LINE
  5
6920
330
A
100
AcDbEntity
  8
0
100
AcDbLine
 10
192.2956578938655
 20
-25.24602784944841
 30
0.0
 11
204.2956561354655
 21
-25.24602784944841
 31
0.0
  0
LINE
  5
6921
330
A
100
AcDbEntity
  8
0
100
AcDbLine
 10
192.2956578938655
 20
-24.8792655689484
 30
0.0
 11
192.2956578938655
 21
-25.24602784944841
 31
0.0
  0
ARC
  5
6922
330
A
100
AcDbEntity
  8
0
100
AcDbCircle
 10
177.0217769196655
 20
-24.24602693824841
 30
0.0
 40
1.0
100
AcDbArc
 50
270.0
 51
320.7105931373992
  0
LINE
  5
6923
330
A
100
AcDbEntity
  8
0
100
AcDbLine
 10
165.2956562621655
 20
-25.24602784944841
 30
0.0
 11
177.0217776803655
 21
-25.24602784944841
 31
0.0
  0
ARC
  5
6924
330
A
100
AcDbEntity
  8
0
100
AcDbCircle
 10
177.0217769196655
 20
23.25397306175159
 30
0.0
 40
1.000000000000971
100
AcDbArc
 50
39.28940686240033
 51
90.0
  0
LINE
  5
6925
330
A
100
AcDbEntity
  8
0
100
AcDbLine
 10
177.0217776803655
 20
24.25397304655161
 30
0.0
 11
165.2956562621655
 21
24.25397304655161
 31
0.0
  0
ARC
  5
6926
330
A
100
AcDbEntity
  8
0
100
AcDbCircle
 10
204.2956560472655
 20
-19.24602693824841
 30
0.0
 40
6.000000000000028
100
AcDbArc
 50
270.0
 51
0.0
  0
ARC
  5
6927
330
A
100
AcDbEntity
  8
0
100
AcDbCircle
 10
204.2956560472655
 20
18.25397306175159
 30
0.0
 40
5.999999999999602
100
AcDbArc
 50
0.0
 51
90.0
  0
LINE
  5
6928
330
A
100
AcDbEntity
  8
0
  6
Continuous
 62
     8
370
     0
100
AcDbLine
 10
157.2956559985655
 20
17.5039731042516
 30
0.0
 11
158.2956560472655
 21
17.5039731042516
 31
0.0
  0
LINE
  5
6929
330
A
100
AcDbEntity
  8
0
  6
Continuous
 62
     8
370
     0
100
AcDbLine
 10
157.2956559985655
 20
-18.49602534604841
 30
0.0
 11
158.2956560472655
 21
-18.49602534604841
 31
0.0
  0
LINE
  5
692A
330
A
100
AcDbEntity
  8
0
  6
Continuous
 62
     8
370
     0
100
AcDbLine
 10
148.2956562695655
 20
17.5039731042516
 30
0.0
 11
149.2956564335655
 21
17.5039731042516
 31
0.0
  0
LINE
  5
692B
330
A
100
AcDbEntity
  8
0
  6
Continuous
 62
     8
370
     0
100
AcDbLine
 10
148.2956562695655
 20
-18.49602534604841
 30
0.0
 11
149.2956564335655
 21
-18.49602534604841
 31
0.0
  0
LINE
  5
692C
330
A
100
AcDbEntity
  8
0
  6
Continuous
 62
     8
370
     0
100
AcDbLine
 10
142.6956564692655
 20
-27.3960269911484
 30
0.0
 11
142.1053357927655
 21
-27.3960269911484
 31
0.0
  0
LINE
  5
692D
330
A
100
AcDbEntity
  8
0
  6
Continuous
 62
     8
370
     0
100
AcDbLine
 10
142.6956564692655
 20
-27.99602597184841
 30
0.0
 11
142.6956564692655
 21
-27.3960269911484
 31
0.0
  0
LINE
  5
692E
330
A
100
AcDbEntity
  8
0
  6
Continuous
 62
     8
370
     0
100
AcDbLine
 10
142.6956564692655
 20
26.40397311955161
 30
0.0
 11
142.6956564692655
 21
27.00397303165161
 31
0.0
  0
LINE
  5
692F
330
A
100
AcDbEntity
  8
0
  6
Continuous
 62
     8
370
     0
100
AcDbLine
 10
142.0956556258655
 20
26.40397311955161
 30
0.0
 11
142.6956564692655
 21
26.40397311955161
 31
0.0
  0
LINE
  5
6930
330
A
100
AcDbEntity
  8
0
  6
Continuous
 62
     8
370
     0
100
AcDbLine
 10
148.2956562695655
 20
-27.3960269911484
 30
0.0
 11
142.6956564692655
 21
-27.3960269911484
 31
0.0
  0
LINE
  5
6931
330
A
100
AcDbEntity
  8
0
  6
Continuous
 62
     8
370
     0
100
AcDbLine
 10
142.6956564692655
 20
-27.3960269911484
 30
0.0
 11
142.6956564692655
 21
26.40397311955161
 31
0.0
  0
LINE
  5
6932
330
A
100
AcDbEntity
  8
0
  6
Continuous
 62
     8
370
     0
100
AcDbLine
 10
142.6956564692655
 20
26.40397311955161
 30
0.0
 11
148.2956562695655
 21
26.40397311955161
 31
0.0
  0
LINE
  5
6933
330
A
100
AcDbEntity
  8
0
  6
Continuous
 62
     8
370
     0
100
AcDbLine
 10
156.3956560140655
 20
4.403973005951599
 30
0.0
 11
156.3956560140655
 21
-5.396027110348399
 31
0.0
  0
LINE
  5
6934
330
A
100
AcDbEntity
  8
0
  6
Continuous
 62
     8
370
     0
100
AcDbLine
 10
158.2956560472655
 20
-19.24602686594841
 30
0.0
 11
159.1217769465655
 21
-19.24602686594841
 31
0.0
  0
LINE
  5
6935
330
A
100
AcDbEntity
  8
0
  6
Continuous
 62
     8
370
     0
100
AcDbLine
 10
159.1217769465655
 20
-19.24602686594841
 30
0.0
 11
159.1217769465655
 21
-25.24602784944841
 31
0.0
  0
LINE
  5
6936
330
A
100
AcDbEntity
  8
0
  6
Continuous
 62
     8
370
     0
100
AcDbLine
 10
159.1217769465655
 20
-19.24602686594841
 30
0.0
 11
159.8957342367655
 21
-19.24602686594841
 31
0.0
  0
LINE
  5
6937
330
A
100
AcDbEntity
  8
0
  6
Continuous
 62
     8
370
     0
100
AcDbLine
 10
159.1217769465655
 20
18.25397322715159
 30
0.0
 11
159.1217769465655
 21
-19.24602686594841
 31
0.0
  0
LINE
  5
6938
330
A
100
AcDbEntity
  8
0
  6
Continuous
 62
     8
370
     0
100
AcDbLine
 10
159.1217769465655
 20
18.25397322715159
 30
0.0
 11
159.8957342367655
 21
18.25397322715159
 31
0.0
  0
LINE
  5
6939
330
A
100
AcDbEntity
  8
0
  6
Continuous
 62
     8
370
     0
100
AcDbLine
 10
159.8957342367655
 20
18.25397322715159
 30
0.0
 11
159.8957342367655
 21
-19.24602686594841
 31
0.0
  0
LINE
  5
693A
330
A
100
AcDbEntity
  8
0
  6
Continuous
 62
     8
370
     0
100
AcDbLine
 10
158.2956560472655
 20
18.25397322715159
 30
0.0
 11
159.1217769465655
 21
18.25397322715159
 31
0.0
  0
LINE
  5
693B
330
A
100
AcDbEntity
  8
0
  6
Continuous
 62
     8
370
     0
100
AcDbLine
 10
159.1217769465655
 20
24.25397304655161
 30
0.0
 11
159.1217769465655
 21
18.25397322715159
 31
0.0
  0
LINE
  5
693C
330
A
100
AcDbEntity
  8
0
  6
Continuous
 62
     8
370
     0
100
AcDbLine
 10
159.8957342367655
 20
-19.24602686594841
 30
0.0
 11
159.8957342367655
 21
-24.8792655689484
 31
0.0
  0
LINE
  5
693D
330
A
100
AcDbEntity
  8
0
  6
Continuous
 62
     8
370
     0
100
AcDbLine
 10
159.8957342367655
 20
23.8872108824516
 30
0.0
 11
159.8957342367655
 21
18.25397322715159
 31
0.0
  0
LINE
  5
693E
330
A
100
AcDbEntity
  8
0
  6
Continuous
 62
     8
370
     0
100
AcDbLine
 10
159.8957342367655
 20
-19.24602686594841
 30
0.0
 11
162.0696133041655
 21
-19.24602686594841
 31
0.0
  0
LINE
  5
693F
330
A
100
AcDbEntity
  8
0
  6
Continuous
 62
     8
370
     0
100
AcDbLine
 10
162.0696133041655
 20
-19.24602686594841
 30
0.0
 11
162.0696133041655
 21
-22.2223028464484
 31
0.0
  0
LINE
  5
6940
330
A
100
AcDbEntity
  8
0
  6
Continuous
 62
     8
370
     0
100
AcDbLine
 10
162.0696133041655
 20
18.25397322715159
 30
0.0
 11
159.8957342367655
 21
18.25397322715159
 31
0.0
  0
LINE
  5
6941
330
A
100
AcDbEntity
  8
0
  6
Continuous
 62
     8
370
     0
100
AcDbLine
 10
162.0696133041655
 20
18.25397322715159
 30
0.0
 11
162.0696133041655
 21
-19.24602686594841
 31
0.0
  0
LINE
  5
6942
330
A
100
AcDbEntity
  8
0
  6
Continuous
 62
     8
370
     0
100
AcDbLine
 10
162.0696133041655
 20
21.23024734505159
 30
0.0
 11
162.0696133041655
 21
18.25397322715159
 31
0.0
  0
LINE
  5
6943
330
A
100
AcDbEntity
  8
0
  6
Continuous
 62
     8
370
     0
100
AcDbLine
 10
162.0696133041655
 20
-19.24602686594841
 30
0.0
 11
162.2956562360655
 21
-19.24602686594841
 31
0.0
  0
LINE
  5
6944
330
A
100
AcDbEntity
  8
0
  6
Continuous
 62
     8
370
     0
100
AcDbLine
 10
162.2956562360655
 20
18.25397322715159
 30
0.0
 11
162.0696133041655
 21
18.25397322715159
 31
0.0
  0
LINE
  5
6945
330
A
100
AcDbEntity
  8
0
  6
Continuous
 62
     8
370
     0
100
AcDbLine
 10
165.2956562621655
 20
24.25397304655161
 30
0.0
 11
165.2956562621655
 21
23.8872108824516
 31
0.0
  0
LINE
  5
6946
330
A
100
AcDbEntity
  8
0
  6
Continuous
 62
     8
370
     0
100
AcDbLine
 10
165.2956562621655
 20
23.8872108824516
 30
0.0
 11
159.8957342367655
 21
23.8872108824516
 31
0.0
  0
LINE
  5
6947
330
A
100
AcDbEntity
  8
0
  6
Continuous
 62
     8
370
     0
100
AcDbLine
 10
165.2956562621655
 20
-25.24602784944841
 30
0.0
 11
165.2956562621655
 21
-24.8792655689484
 31
0.0
  0
LINE
  5
6948
330
A
100
AcDbEntity
  8
0
  6
Continuous
 62
     8
370
     0
100
AcDbLine
 10
159.8957342367655
 20
-24.8792655689484
 30
0.0
 11
165.2956562621655
 21
-24.8792655689484
 31
0.0
  0
LINE
  5
6949
330
A
100
AcDbEntity
  8
0
  6
Continuous
 62
     8
370
     0
100
AcDbLine
 10
165.2956562621655
 20
23.8872108824516
 30
0.0
 11
165.2956562621655
 21
21.23024734505159
 31
0.0
  0
LINE
  5
694A
330
A
100
AcDbEntity
  8
0
  6
Continuous
 62
     8
370
     0
100
AcDbLine
 10
165.2956562621655
 20
21.23024734505159
 30
0.0
 11
162.0696133041655
 21
21.23024734505159
 31
0.0
  0
LINE
  5
694B
330
A
100
AcDbEntity
  8
0
  6
Continuous
 62
     8
370
     0
100
AcDbLine
 10
162.0696133041655
 20
-22.2223028464484
 30
0.0
 11
165.2956562621655
 21
-22.2223028464484
 31
0.0
  0
LINE
  5
694C
330
A
100
AcDbEntity
  8
0
  6
Continuous
 62
     8
370
     0
100
AcDbLine
 10
165.2956562621655
 20
-22.2223028464484
 30
0.0
 11
165.2956562621655
 21
-24.8792655689484
 31
0.0
  0
LINE
  5
694D
330
A
100
AcDbEntity
  8
0
  6
Continuous
 62
     8
370
     0
100
AcDbLine
 10
165.2956562621655
 20
20.59700946155161
 30
0.0
 11
165.2956562621655
 21
-21.5890631003484
 31
0.0
  0
LINE
  5
694E
330
A
100
AcDbEntity
  8
0
  6
Continuous
 62
     8
370
     0
100
AcDbLine
 10
162.2956562360655
 20
-21.5890631003484
 30
0.0
 11
165.2956562621655
 21
-21.5890631003484
 31
0.0
  0
LINE
  5
694F
330
A
100
AcDbEntity
  8
0
  6
Continuous
 62
     8
370
     0
100
AcDbLine
 10
165.2956562621655
 20
20.59700946155161
 30
0.0
 11
162.2956562360655
 21
20.59700946155161
 31
0.0
  0
LINE
  5
6950
330
A
100
AcDbEntity
  8
0
  6
Continuous
 62
     8
370
     0
100
AcDbLine
 10
165.2956562621655
 20
21.23024734505159
 30
0.0
 11
165.2956562621655
 21
20.59700946155161
 31
0.0
  0
LINE
  5
6951
330
A
100
AcDbEntity
  8
0
  6
Continuous
 62
     8
370
     0
100
AcDbLine
 10
165.2956562621655
 20
-21.5890631003484
 30
0.0
 11
165.2956562621655
 21
-22.2223028464484
 31
0.0
  0
SPLINE
  5
6952
330
A
100
AcDbEntity
  8
0
  6
Continuous
 62
     8
370
     0
100
AcDbSpline
210
0.0
220
0.0
230
1.0
 70
     8
 71
     3
 72
     8
 73
     4
 74
     0
 42
0.000000001
 43
0.00000001
 40
0.0
 40
0.0
 40
0.0
 40
0.0
 40
1.0
 40
1.0
 40
1.0
 40
1.0
 10
204.295656047261
 20
-21.5890635601161
 30
0.0
 10
205.5888131276474
 20
-21.5890635601161
 30
0.0
 10
206.638692669089
 20
-20.53918401867449
 30
0.0
 10
206.638692669089
 20
-19.24602693828811
 30
0.0
  0
LINE
  5
6953
330
A
100
AcDbEntity
  8
0
  6
Continuous
 62
     8
370
     0
100
AcDbLine
 10
165.2956562621655
 20
-21.5890631003484
 30
0.0
 11
204.2956561354655
 21
-21.5890631003484
 31
0.0
  0
LINE
  5
6954
330
A
100
AcDbEntity
  8
0
  6
Continuous
 62
     8
370
     0
100
AcDbLine
 10
204.2956561354655
 20
20.59700946155161
 30
0.0
 11
165.2956562621655
 21
20.59700946155161
 31
0.0
  0
SPLINE
  5
6955
330
A
100
AcDbEntity
  8
0
  6
Continuous
 62
     8
370
     0
100
AcDbSpline
210
0.0
220
0.0
230
1.0
 70
     8
 71
     3
 72
    20
 73
    16
 74
     0
 42
0.000000001
 43
0.00000001
 40
0.0
 40
0.0
 40
0.0
 40
0.0
 40
0.0419817720468291
 40
0.0836112491281565
 40
0.1250676930250607
 40
0.1665326097587175
 40
0.2081873945921626
 40
0.2502109841574491
 40
0.3750622464214576
 40
0.5000652682299118
 40
0.6249165304930614
 40
0.7499195523024497
 40
0.8334882557979993
 40
0.9163641420393718
 40
1.0
 40
1.0
 40
1.0
 40
1.0
 10
206.638692669089
 20
18.2539730617149
 30
0.0
 10
206.6377492194937
 20
18.3054383147541
 30
0.0
 10
206.6358702373713
 20
18.40793694412349
 30
0.0
 10
206.620458092928
 20
18.56061788288639
 30
0.0
 10
206.5957877399322
 20
18.7113597629241
 30
0.0
 10
206.56098446816
 20
18.8601508013073
 30
0.0
 10
206.5162650558821
 20
19.0069963641316
 30
0.0
 10
206.4260549966515
 20
19.246242360445
 30
0.0
 10
206.2571299593425
 20
19.56456986728571
 30
0.0
 10
205.9629363941675
 20
19.9209895999164
 30
0.0
 10
205.606382026308
 20
20.21531385533959
 30
0.0
 10
205.2428988203933
 20
20.4084461054606
 30
0.0
 10
204.904045227049
 20
20.52361858721181
 30
0.0
 10
204.6024867910746
 20
20.58578430204091
 30
0.0
 10
204.3982436886603
 20
20.59325652179069
 30
0.0
 10
204.295656047261
 20
20.59700968354289
 30
0.0
  0
LINE
  5
6956
330
A
100
AcDbEntity
  8
0
  6
Continuous
 62
     8
370
     0
100
AcDbLine
 10
206.6386923698655
 20
18.25397322715159
 30
0.0
 11
206.6386923698655
 21
-19.24602686594841
 31
0.0
  0
LINE
  5
6957
330
A
100
AcDbEntity
  8
0
  6
Continuous
 62
     8
370
     0
100
AcDbLine
 10
204.2956561354655
 20
21.23024734505159
 30
0.0
 11
204.2956561354655
 21
20.59700946155161
 31
0.0
  0
LINE
  5
6958
330
A
100
AcDbEntity
  8
0
  6
Continuous
 62
     8
370
     0
100
AcDbLine
 10
204.2956561354655
 20
21.23024734505159
 30
0.0
 11
165.2956562621655
 21
21.23024734505159
 31
0.0
  0
LINE
  5
6959
330
A
100
AcDbEntity
  8
0
  6
Continuous
 62
     8
370
     0
100
AcDbLine
 10
204.2956561354655
 20
-21.5890631003484
 30
0.0
 11
204.2956561354655
 21
-22.2223028464484
 31
0.0
  0
LINE
  5
695A
330
A
100
AcDbEntity
  8
0
  6
Continuous
 62
     8
370
     0
100
AcDbLine
 10
165.2956562621655
 20
-22.2223028464484
 30
0.0
 11
204.2956561354655
 21
-22.2223028464484
 31
0.0
  0
LINE
  5
695B
330
A
100
AcDbEntity
  8
0
  6
Continuous
 62
     8
370
     0
100
AcDbLine
 10
206.6386923698655
 20
-19.24602686594841
 30
0.0
 11
207.2719321159655
 21
-19.24602686594841
 31
0.0
  0
LINE
  5
695C
330
A
100
AcDbEntity
  8
0
  6
Continuous
 62
     8
370
     0
100
AcDbLine
 10
207.2719321159655
 20
18.25397322715159
 30
0.0
 11
206.6386923698655
 21
18.25397322715159
 31
0.0
  0
LINE
  5
695D
330
A
100
AcDbEntity
  8
0
  6
Continuous
 62
     8
370
     0
100
AcDbLine
 10
207.2719321159655
 20
-19.24602686594841
 30
0.0
 11
207.2719321159655
 21
18.25397322715159
 31
0.0
  0
ARC
  5
695E
330
A
100
AcDbEntity
  8
0
  6
Continuous
 62
     8
370
     0
100
AcDbCircle
 10
204.2956560472655
 20
18.25397306175159
 30
0.0
 40
2.976274412084337
100
AcDbArc
 50
359.9999998722999
 51
90.00000028529995
  0
ARC
  5
695F
330
A
100
AcDbEntity
  8
0
  6
Continuous
 62
     8
370
     0
100
AcDbCircle
 10
204.2956560472655
 20
-19.24602693824841
 30
0.0
 40
2.976274412084365
100
AcDbArc
 50
269.9999998566001
 51
0.0000001319000093
  0
LINE
  5
6960
330
A
100
AcDbEntity
  8
0
  6
Continuous
 62
     8
370
     0
100
AcDbLine
 10
209.9288948384655
 20
18.25397322715159
 30
0.0
 11
207.2719321159655
 21
18.25397322715159
 31
0.0
  0
LINE
  5
6961
330
A
100
AcDbEntity
  8
0
  6
Continuous
 62
     8
370
     0
100
AcDbLine
 10
204.2956561354655
 20
23.8872108824516
 30
0.0
 11
204.2956561354655
 21
21.23024734505159
 31
0.0
  0
ARC
  5
6962
330
A
100
AcDbEntity
  8
0
  6
Continuous
 62
     8
370
     0
100
AcDbCircle
 10
204.2956560472655
 20
18.25397306175159
 30
0.0
 40
5.633237790256942
100
AcDbArc
 50
0.0
 51
90.0
  0
LINE
  5
6963
330
A
100
AcDbEntity
  8
0
  6
Continuous
 62
     8
370
     0
100
AcDbLine
 10
177.7957346795655
 20
23.8872108824516
 30
0.0
 11
165.2956562621655
 21
23.8872108824516
 31
0.0
  0
LINE
  5
6964
330
A
100
AcDbEntity
  8
0
  6
Continuous
 62
     8
370
     0
100
AcDbLine
 10
192.2956578938655
 20
23.8872108824516
 30
0.0
 11
204.2956561354655
 21
23.8872108824516
 31
0.0
  0
LINE
  5
6965
330
A
100
AcDbEntity
  8
0
  6
Continuous
 62
     8
370
     0
100
AcDbLine
 10
204.2956561354655
 20
-22.2223028464484
 30
0.0
 11
204.2956561354655
 21
-24.8792655689484
 31
0.0
  0
LINE
  5
6966
330
A
100
AcDbEntity
  8
0
  6
Continuous
 62
     8
370
     0
100
AcDbLine
 10
207.2719321159655
 20
-19.24602686594841
 30
0.0
 11
209.9288948384655
 21
-19.24602686594841
 31
0.0
  0
ARC
  5
6967
330
A
100
AcDbEntity
  8
0
  6
Continuous
 62
     8
370
     0
100
AcDbCircle
 10
204.2956560472655
 20
-19.24602693824841
 30
0.0
 40
5.633237790256572
100
AcDbArc
 50
270.0
 51
0.0
  0
LINE
  5
6968
330
A
100
AcDbEntity
  8
0
  6
Continuous
 62
     8
370
     0
100
AcDbLine
 10
209.9288948384655
 20
-19.24602686594841
 30
0.0
 11
209.9288948384655
 21
18.25397322715159
 31
0.0
  0
LINE
  5
6969
330
A
100
AcDbEntity
  8
0
  6
Continuous
 62
     8
370
     0
100
AcDbLine
 10
204.2956561354655
 20
-24.8792655689484
 30
0.0
 11
192.2956578938655
 21
-24.8792655689484
 31
0.0
  0
LINE
  5
696A
330
A
100
AcDbEntity
  8
0
  6
Continuous
 62
     8
370
     0
100
AcDbLine
 10
165.2956562621655
 20
-24.8792655689484
 30
0.0
 11
177.7957346795655
 21
-24.8792655689484
 31
0.0
  0
LINE
  5
696F
330
A
100
AcDbEntity
  8
0
  6
Continuous
 62
     8
370
     0
100
AcDbLine
 10
192.2956548539655
 20
10.90397314005159
 30
0.0
 11
192.2956548539655
 21
8.903972812251595
 31
0.0
  0
LINE
  5
6970
330
A
100
AcDbEntity
  8
0
  6
Continuous
 62
     8
370
     0
100
AcDbLine
 10
180.2956566123655
 20
10.90397314005159
 30
0.0
 11
180.2956566123655
 21
8.903972812251595
 31
0.0
  0
LINE
  5
6971
330
A
100
AcDbEntity
  8
0
  6
Continuous
 62
     8
370
     0
100
AcDbLine
 10
180.2956566123655
 20
18.1039730163516
 30
0.0
 11
180.2956566123655
 21
16.10397268855161
 31
0.0
  0
LINE
  5
6972
330
A
100
AcDbEntity
  8
0
  6
Continuous
 62
     8
370
     0
100
AcDbLine
 10
192.2956548539655
 20
16.10397268855161
 30
0.0
 11
192.2956548539655
 21
18.1039730163516
 31
0.0
  0
LINE
  5
6973
330
A
100
AcDbEntity
  8
0
  6
Continuous
 62
     8
370
     0
100
AcDbLine
 10
210.2956571189655
 20
18.25397322715159
 30
0.0
 11
209.9288948384655
 21
18.25397322715159
 31
0.0
  0
LINE
  5
6974
330
A
100
AcDbEntity
  8
0
  6
Continuous
 62
     8
370
     0
100
AcDbLine
 10
210.2956571189655
 20
-19.24602686594841
 30
0.0
 11
209.9288948384655
 21
-19.24602686594841
 31
0.0
  0
LINE
  5
6975
330
A
100
AcDbEntity
  8
0
  6
Continuous
 62
     8
370
     0
100
AcDbLine
 10
204.2956561354655
 20
24.25397304655161
 30
0.0
 11
204.2956561354655
 21
23.8872108824516
 31
0.0
  0
LINE
  5
6976
330
A
100
AcDbEntity
  8
0
  6
Continuous
 62
     8
370
     0
100
AcDbLine
 10
204.2956561354655
 20
-25.24602784944841
 30
0.0
 11
204.2956561354655
 21
-24.8792655689484
 31
0.0
  0
ARC
  5
699A
330
A
100
AcDbEntity
  8
0
100
AcDbCircle
 10
404.2220822583655
 20
96.89730166792455
 30
0.0
 40
0.5999999999999943
100
AcDbArc
 50
0.0
 51
90.0
  0
ARC
  5
699B
330
A
100
AcDbEntity
  8
0
100
AcDbCircle
 10
404.2220822583655
 20
43.09730166792454
 30
0.0
 40
0.5999999999999943
100
AcDbArc
 50
270.0
 51
0.0
  0
ARC
  5
699C
330
A
100
AcDbEntity
  8
0
100
AcDbCircle
 10
350.4220822583655
 20
43.09730166792454
 30
0.0
 40
0.5999999999999943
100
AcDbArc
 50
180.0
 51
270.0
  0
ARC
  5
699D
330
A
100
AcDbEntity
  8
0
100
AcDbCircle
 10
350.4220822583655
 20
96.89730166792455
 30
0.0
 40
0.5999999999999943
100
AcDbArc
 50
90.0
 51
180.0
  0
LINE
  5
699E
330
A
100
AcDbEntity
  8
0
100
AcDbLine
 10
350.4220822583655
 20
42.49730166792455
 30
0.0
 11
404.2220822583655
 21
42.49730166792455
 31
0.0
  0
LINE
  5
699F
330
A
100
AcDbEntity
  8
0
100
AcDbLine
 10
404.8220822583655
 20
43.09730166792454
 30
0.0
 11
404.8220822583655
 21
96.89730166792455
 31
0.0
  0
LINE
  5
69A0
330
A
100
AcDbEntity
  8
0
100
AcDbLine
 10
404.2220822583655
 20
97.49730166792455
 30
0.0
 11
350.4220822583655
 21
97.49730166792455
 31
0.0
  0
LINE
  5
69A1
330
A
100
AcDbEntity
  8
0
100
AcDbLine
 10
349.8220822583655
 20
96.89730166792455
 30
0.0
 11
349.8220822583655
 21
43.09730166792454
 31
0.0
  0
LINE
  5
69A2
330
A
100
AcDbEntity
  8
0
100
AcDbLine
 10
349.8220822583655
 20
43.09730166792454
 30
0.0
 11
349.8220822583655
 21
42.49730166792455
 31
0.0
  0
LINE
  5
69A3
330
A
100
AcDbEntity
  8
0
100
AcDbLine
 10
349.8220822583655
 20
42.49730166792455
 30
0.0
 11
350.4220822583655
 21
42.49730166792455
 31
0.0
  0
LINE
  5
69A4
330
A
100
AcDbEntity
  8
0
100
AcDbLine
 10
349.8220822583655
 20
97.49730166792455
 30
0.0
 11
349.8220822583655
 21
96.89730166792455
 31
0.0
  0
LINE
  5
69A5
330
A
100
AcDbEntity
  8
0
100
AcDbLine
 10
350.4220822583655
 20
97.49730166792455
 30
0.0
 11
349.8220822583655
 21
97.49730166792455
 31
0.0
  0
LINE
  5
69A6
330
A
100
AcDbEntity
  8
0
  6
Continuous
 62
     8
370
     0
100
AcDbLine
 10
404.2220822583655
 20
97.49730166792455
 30
0.0
 11
404.2220822583655
 21
96.89730166792455
 31
0.0
  0
LINE
  5
69A7
330
A
100
AcDbEntity
  8
0
  6
Continuous
 62
     8
370
     0
100
AcDbLine
 10
404.2220822583655
 20
96.89730166792455
 30
0.0
 11
404.8220822583655
 21
96.89730166792455
 31
0.0
  0
LINE
  5
69A8
330
A
100
AcDbEntity
  8
0
  6
Continuous
 62
     8
370
     0
100
AcDbLine
 10
404.2220822583655
 20
43.09730166792454
 30
0.0
 11
404.2220822583655
 21
42.49730166792455
 31
0.0
  0
LINE
  5
69A9
330
A
100
AcDbEntity
  8
0
  6
Continuous
 62
     8
370
     0
100
AcDbLine
 10
404.8220822583655
 20
43.09730166792454
 30
0.0
 11
404.2220822583655
 21
43.09730166792454
 31
0.0
  0
LINE
  5
69AA
330
A
100
AcDbEntity
  8
0
  6
Continuous
 62
     8
370
     0
100
AcDbLine
 10
350.4220822583655
 20
43.09730166792454
 30
0.0
 11
349.8220822583655
 21
43.09730166792454
 31
0.0
  0
LINE
  5
69AB
330
A
100
AcDbEntity
  8
0
  6
Continuous
 62
     8
370
     0
100
AcDbLine
 10
350.4220822583655
 20
42.49730166792455
 30
0.0
 11
350.4220822583655
 21
43.09730166792454
 31
0.0
  0
LINE
  5
69AC
330
A
100
AcDbEntity
  8
0
  6
Continuous
 62
     8
370
     0
100
AcDbLine
 10
350.4220822583655
 20
96.89730166792455
 30
0.0
 11
350.4220822583655
 21
97.49730166792455
 31
0.0
  0
LINE
  5
69AD
330
A
100
AcDbEntity
  8
0
  6
Continuous
 62
     8
370
     0
100
AcDbLine
 10
349.8220822583655
 20
96.89730166792455
 30
0.0
 11
350.4220822583655
 21
96.89730166792455
 31
0.0
  0
LINE
  5
69AE
330
A
100
AcDbEntity
  8
0
  6
Continuous
 62
     8
370
     0
100
AcDbLine
 10
350.4220822583655
 20
43.09730166792454
 30
0.0
 11
404.2220822583655
 21
43.09730166792454
 31
0.0
  0
LINE
  5
69AF
330
A
100
AcDbEntity
  8
0
  6
Continuous
 62
     8
370
     0
100
AcDbLine
 10
350.4220822583655
 20
96.89730166792455
 30
0.0
 11
350.4220822583655
 21
43.09730166792454
 31
0.0
  0
LINE
  5
69B0
330
A
100
AcDbEntity
  8
0
  6
Continuous
 62
     8
370
     0
100
AcDbLine
 10
404.2220822583655
 20
96.89730166792455
 30
0.0
 11
350.4220822583655
 21
96.89730166792455
 31
0.0
  0
LINE
  5
69B1
330
A
100
AcDbEntity
  8
0
  6
Continuous
 62
     8
370
     0
100
AcDbLine
 10
404.2220822583655
 20
43.09730166792454
 30
0.0
 11
404.2220822583655
 21
96.89730166792455
 31
0.0
  0
ARC
  5
69B2
330
A
100
AcDbEntity
  8
0
  6
CENTER
 62
     1
370
     0
100
AcDbCircle
 10
377.3220822583655
 20
69.99730166792455
 30
0.0
 40
9.500000000000005
100
AcDbArc
 50
270.0
 51
90.0
  0
INSERT
  5
69B3
330
A
100
AcDbEntity
  8
ASSI
100
AcDbBlockReference
  2
SW_CENTERMARKSYMBOL_0
 10
377.3220822583655
 20
69.99730166792455
 30
0.0
  0
TEXT
  5
69B4
330
A
100
AcDbEntity
  8
0
  6
Continuous
 62
     7
370
     0
100
AcDbText
 10
352.4194975214545
 20
19.91728051439063
 30
0.0
 40
5.0
  1
GLASS CUT 1
100
AcDbText
  0
TEXT
  5
69B5
330
A
100
AcDbEntity
  8
0
  6
Continuous
 62
     7
370
     0
100
AcDbText
 10
352.4194975214545
 20
90.41060912056358
 30
0.0
 40
5.0
  1
GLASS CUT 2
100
AcDbText
  0
LINE
  5
69B6
330
A
100
AcDbEntity
  8
0
  6
CENTER
 62
     1
100
AcDbLine
 10
377.3220822583655
 20
79.49730166792455
 30
0.0
 11
349.8220822583655
 21
79.49730166792455
 31
0.0
  0
LINE
  5
69B7
330
A
100
AcDbEntity
  8
0
  6
CENTER
 62
     1
100
AcDbLine
 10
377.3220822583655
 20
60.49730166792454
 30
0.0
 11
349.8220822583655
 21
60.49730166792454
 31
0.0
  0
LINE
  5
69B8
330
A
100
AcDbEntity
  8
0
  6
Continuous
370
     0
100
AcDbLine
 10
349.8220822583655
 20
79.49730166792455
 30
0.0
 11
349.8220822583655
 21
60.49730166792454
 31
0.0
  0
ARC
  5
6A49
330
A
100
AcDbEntity
  8
0
100
AcDbCircle
 10
192.2956560472655
 20
-14.49602530344839
 30
0.0
 40
4.600000000001472
100
AcDbArc
 50
270.0
 51
90.0
  0
LINE
  5
6A4A
330
A
100
AcDbEntity
  8
0
100
AcDbLine
 10
180.2956566123655
 20
-19.0960252580484
 30
0.0
 11
192.2956548539655
 21
-19.0960252580484
 31
0.0
  0
ARC
  5
6A4B
330
A
100
AcDbEntity
  8
0
100
AcDbCircle
 10
180.2956560472655
 20
-14.49602530344839
 30
0.0
 40
4.600000000002979
100
AcDbArc
 50
90.0
 51
270.0
  0
LINE
  5
6A4C
330
A
100
AcDbEntity
  8
0
100
AcDbLine
 10
192.2956548539655
 20
-9.896025053948392
 30
0.0
 11
180.2956566123655
 21
-9.896025053948392
 31
0.0
  0
LINE
  5
6A4D
330
A
100
AcDbEntity
  8
0
100
AcDbLine
 10
192.2956548539655
 20
-11.89602538174839
 30
0.0
 11
180.2956566123655
 21
-11.89602538174839
 31
0.0
  0
ARC
  5
6A4E
330
A
100
AcDbEntity
  8
0
100
AcDbCircle
 10
180.2956560472655
 20
-14.49602530344839
 30
0.0
 40
2.600000000003035
100
AcDbArc
 50
90.0
 51
270.0
  0
ARC
  5
6A4F
330
A
100
AcDbEntity
  8
0
100
AcDbCircle
 10
192.2956560472655
 20
-14.49602530344839
 30
0.0
 40
2.600000000000023
100
AcDbArc
 50
270.0
 51
90.0
  0
LINE
  5
6A50
330
A
100
AcDbEntity
  8
0
100
AcDbLine
 10
180.2956566123655
 20
-17.0960249302484
 30
0.0
 11
192.2956548539655
 21
-17.0960249302484
 31
0.0
  0
LINE
  5
6A51
330
A
100
AcDbEntity
  8
0
  6
Continuous
 62
     8
370
     0
100
AcDbLine
 10
192.2956548539655
 20
-11.89602538174839
 30
0.0
 11
192.2956548539655
 21
-9.896025053948392
 31
0.0
  0
LINE
  5
6A52
330
A
100
AcDbEntity
  8
0
  6
Continuous
 62
     8
370
     0
100
AcDbLine
 10
180.2956566123655
 20
-11.89602538174839
 30
0.0
 11
180.2956566123655
 21
-9.896025053948392
 31
0.0
  0
LINE
  5
6A53
330
A
100
AcDbEntity
  8
0
  6
Continuous
 62
     8
370
     0
100
AcDbLine
 10
180.2956566123655
 20
-19.0960252580484
 30
0.0
 11
180.2956566123655
 21
-17.0960249302484
 31
0.0
  0
LINE
  5
6A54
330
A
100
AcDbEntity
  8
0
  6
Continuous
 62
     8
370
     0
100
AcDbLine
 10
192.2956548539655
 20
-17.0960249302484
 30
0.0
 11
192.2956548539655
 21
-19.0960252580484
 31
0.0
  0
LINE
  5
6AC4
330
A
100
AcDbEntity
  8
ASSI
  6
CENTER
100
AcDbLine
 10
377.3220822583655
 20
153.0447903386689
 30
0.0
 11
377.3220822583655
 21
186.580240978748
 31
0.0
  0
LINE
  5
6AC6
330
A
100
AcDbEntity
  8
0
  6
CENTER
 62
     1
370
     0
100
AcDbLine
 10
199.2956560472655
 20
-7.595071335756881
 30
0.0
 11
199.2956560472655
 21
6.603017459260069
 31
0.0
  0
LINE
  5
6AC7
330
A
100
AcDbEntity
  8
0
  6
CENTER
 62
     1
370
     0
100
AcDbLine
 10
206.394700444774
 20
-0.4960269382484057
 30
0.0
 11
192.196611649757
 21
-0.4960269382484057
 31
0.0
  0
LINE
  5
6AC8
330
A
100
AcDbEntity
  8
0
  6
CENTERX2
 62
     1
370
     0
100
AcDbLine
 10
192.2956560472655
 20
6.404928664243119
 30
0.0
 11
192.2956560472655
 21
20.60301745926007
 31
0.0
  0
LINE
  5
6AC9
330
A
100
AcDbEntity
  8
0
  6
CENTERX2
 62
     1
370
     0
100
AcDbLine
 10
199.394700444774
 20
13.50397306175159
 30
0.0
 11
185.196611649757
 21
13.50397306175159
 31
0.0
  0
LINE
  5
6ACA
330
A
100
AcDbEntity
  8
0
  6
CENTERX2
 62
     1
370
     0
100
AcDbLine
 10
180.2956560472655
 20
6.404928664243119
 30
0.0
 11
180.2956560472655
 21
20.60301745926007
 31
0.0
  0
LINE
  5
6ACB
330
A
100
AcDbEntity
  8
0
  6
CENTERX2
 62
     1
370
     0
100
AcDbLine
 10
187.394700444774
 20
13.50397306175159
 30
0.0
 11
173.196611649757
 21
13.50397306175159
 31
0.0
  0
LINE
  5
6ACC
330
A
100
AcDbEntity
  8
0
  6
CENTER
 62
     1
370
     0
100
AcDbLine
 10
192.2956560472655
 20
-21.59506970095687
 30
0.0
 11
192.2956560472655
 21
-7.396980905939916
 31
0.0
  0
LINE
  5
6ACD
330
A
100
AcDbEntity
  8
0
  6
CENTER
 62
     1
370
     0
100
AcDbLine
 10
199.394700444774
 20
-14.49602530344839
 30
0.0
 11
185.196611649757
 21
-14.49602530344839
 31
0.0
  0
LINE
  5
6ACE
330
A
100
AcDbEntity
  8
0
  6
CENTER
 62
     1
370
     0
100
AcDbLine
 10
180.2956560472655
 20
-21.59506970095687
 30
0.0
 11
180.2956560472655
 21
-7.396980905939916
 31
0.0
  0
LINE
  5
6ACF
330
A
100
AcDbEntity
  8
0
  6
CENTER
 62
     1
370
     0
100
AcDbLine
 10
187.394700444774
 20
-14.49602530344839
 30
0.0
 11
173.196611649757
 21
-14.49602530344839
 31
0.0
  0
ENDSEC
  0
SECTION
  2
OBJECTS
  0
DICTIONARY
  5
19
330
0
100
AcDbDictionary
281
     1
  3
ACAD_DETAILVIEWSTYLE
350
63CB
  3
ACAD_GROUP
350
1A
  3
ACAD_IMAGE_VARS
350
63C9
  3
ACAD_LAYOUT
350
1E
  3
ACAD_MLINESTYLE
350
1B
  3
ACAD_PLOTSETTINGS
350
22
  3
ACAD_PLOTSTYLENAME
350
1F
  3
ACAD_SCALELIST
350
3179
  3
ACAD_SECTIONVIEWSTYLE
350
63CC
  3
ACAD_WIPEOUT_VARS
350
23
  3
AcDbVariableDictionary
350
630B
  3
APPDATA
350
63C7
  3
ASE_INDEX_DICTIONARY
350
5E44
  3
DWGPROPS
350
6B00
  0
DICTIONARY
  5
5E41
330
14
100
AcDbDictionary
280
     1
281
     1
  3
ADSK_XREC_LAYER_RECONCILED
360
5E42
  0
DICTIONARY
  5
31A7
330
A
100
AcDbDictionary
280
     1
281
     1
  3
ACAD_SORTENTS
360
31A8
  0
DICTIONARY
  5
63CB
102
{ACAD_REACTORS
330
19
102
}
330
19
100
AcDbDictionary
281
     1
  0
DICTIONARY
  5
1A
102
{ACAD_REACTORS
330
19
102
}
330
19
100
AcDbDictionary
281
     1
  0
RASTERVARIABLES
  5
63C9
102
{ACAD_REACTORS
330
19
102
}
330
19
100
AcDbRasterVariables
 90
        0
 70
     1
 71
     1
 72
     0
  0
DICTIONARY
  5
1E
102
{ACAD_REACTORS
330
19
102
}
330
19
100
AcDbDictionary
281
     1
  3
Layout1
350
21
  3
Model
350
20
  0
DICTIONARY
  5
1B
102
{ACAD_REACTORS
330
19
102
}
330
19
100
AcDbDictionary
281
     1
  3
Standard
350
1C
  0
DICTIONARY
  5
22
102
{ACAD_REACTORS
330
19
102
}
330
19
100
AcDbDictionary
281
     1
  0
ACDBDICTIONARYWDFLT
  5
1F
102
{ACAD_REACTORS
330
19
102
}
330
19
100
AcDbDictionary
281
     1
  3
Normal
350
1D
100
AcDbDictionaryWithDefault
340
1D
  0
DICTIONARY
  5
3179
102
{ACAD_REACTORS
330
19
102
}
330
19
100
AcDbDictionary
281
     1
  3
A0
350
317A
  3
A1
350
317B
  3
A2
350
317C
  3
A3
350
317D
  3
A4
350
317E
  3
A5
350
317F
  3
A6
350
3180
  3
A7
350
3181
  3
A8
350
3182
  3
A9
350
3183
  3
B0
350
3184
  3
B1
350
3185
  3
B2
350
3186
  3
B3
350
3187
  3
B4
350
3188
  3
B5
350
3189
  3
B6
350
318A
  3
B7
350
318B
  3
B8
350
318C
  3
B9
350
318D
  3
C0
350
318E
  3
C1
350
318F
  3
C2
350
3190
  3
C3
350
3191
  3
C4
350
3192
  3
C5
350
3193
  3
C6
350
3194
  3
C7
350
3195
  3
C8
350
3196
  3
C9
350
3197
  3
D0
350
3198
  3
D1
350
3199
  3
D2
350
319A
  0
DICTIONARY
  5
63CC
102
{ACAD_REACTORS
330
19
102
}
330
19
100
AcDbDictionary
281
     1
  0
WIPEOUTVARIABLES
  5
23
330
19
100
AcDbWipeoutVariables
 70
     1
  0
DICTIONARY
  5
630B
102
{ACAD_REACTORS
330
19
102
}
330
19
100
AcDbDictionary
281
     1
  3
DIMASSOC
350
6318
  3
INDEXCTL
350
6317
  3
SORTENTS
350
6316
  0
DICTIONARY
  5
63C7
102
{ACAD_REACTORS
330
19
102
}
330
19
100
AcDbDictionary
281
     1
  0
DICTIONARY
  5
5E44
102
{ACAD_REACTORS
330
19
102
}
330
19
100
AcDbDictionary
281
     1
  3
ASEBlockHierarchyIndexRecord
350
5E46
1001
DCO15
1040
1685075681.336
  0
XRECORD
  5
6B00
102
{ACAD_REACTORS
330
19
102
}
330
19
100
AcDbXrecord
280
     1
  1
DWGPROPS COOKIE
  2

  3

  4

  6

  7

  8
raffaele
  9

300
=
301
=
302
=
303
=
304
=
305
=
306
=
307
=
308
=
309
=
 40
0.0
 41
2455303.644583333
 42
2457380.328067743
  1

 90
        0
  0
XRECORD
  5
5E42
102
{ACAD_REACTORS
330
5E41
102
}
330
5E41
100
AcDbXrecord
280
     1
290
     1
  0
SORTENTSTABLE
  5
31A8
102
{ACAD_REACTORS
330
31A7
102
}
330
31A7
100
AcDbSortentsTable
330
A
331
0
  5
437D
  0
LAYOUT
  5
21
102
{ACAD_REACTORS
330
1E
102
}
330
1E
100
AcDbPlotSettings
  1

  2

  4

  6

 40
0.0
 41
0.0
 42
0.0
 43
0.0
 44
0.0
 45
0.0
 46
0.0
 47
0.0
 48
0.0
 49
0.0
140
0.0
141
0.0
142
1.0
143
1.0
 70
     0
 72
     0
 73
     0
 74
     0
  7

 75
     0
147
1.0
148
0.0
149
0.0
100
AcDbLayout
  1
Layout1
 70
     0
 71
     1
 10
0.0
 20
0.0
 11
12.0
 21
9.0
 12
0.0
 22
0.0
 32
0.0
 14
1.000000000000000E+20
 24
1.000000000000000E+20
 34
1.000000000000000E+20
 15
-1.000000000000000E+20
 25
-1.000000000000000E+20
 35
-1.000000000000000E+20
146
0.0
 13
0.0
 23
0.0
 33
0.0
 16
1.0
 26
0.0
 36
0.0
 17
0.0
 27
1.0
 37
0.0
 76
     0
330
B
  0
LAYOUT
  5
20
102
{ACAD_REACTORS
330
1E
102
}
330
1E
100
AcDbPlotSettings
  1

  2

  4

  6

 40
0.0
 41
0.0
 42
0.0
 43
0.0
 44
0.0
 45
0.0
 46
0.0
 47
0.0
 48
0.0
 49
0.0
140
0.0
141
0.0
142
1.0
143
1.0
 70
  1024
 72
     0
 73
     0
 74
     0
  7

 75
     0
147
1.0
148
0.0
149
0.0
100
AcDbLayout
  1
Model
 70
     0
 71
     0
 10
0.0
 20
0.0
 11
0.0
 21
0.0
 12
0.0
 22
0.0
 32
0.0
 14
142.0956556258655
 24
-137.9531092400215
 34
0.0
 15
544.2500111392252
 25
186.580240978748
 35
0.0
146
0.0
 13
0.0
 23
0.0
 33
0.0
 16
0.0
 26
0.0
 36
0.0
 17
0.0
 27
0.0
 37
0.0
 76
     0
330
A
331
15
  0
MLINESTYLE
  5
1C
102
{ACAD_REACTORS
330
1B
102
}
330
1B
100
AcDbMlineStyle
  2
STANDARD
 70
     0
  3

 62
     0
 51
90.0
 52
90.0
 71
     2
 49
0.5
 62
   256
  6
BYLAYER
 49
-0.5
 62
   256
  6
BYLAYER
  0
ACDBPLACEHOLDER
  5
1D
102
{ACAD_REACTORS
330
1F
102
}
330
1F
  0
SCALE
  5
317A
102
{ACAD_REACTORS
330
3179
102
}
330
3179
100
AcDbScale
 70
     0
300
1:1
140
1.0
141
1.0
290
     1
  0
SCALE
  5
317B
102
{ACAD_REACTORS
330
3179
102
}
330
3179
100
AcDbScale
 70
     0
300
1:2
140
1.0
141
2.0
290
     0
  0
SCALE
  5
317C
102
{ACAD_REACTORS
330
3179
102
}
330
3179
100
AcDbScale
 70
     0
300
1:4
140
1.0
141
4.0
290
     0
  0
SCALE
  5
317D
102
{ACAD_REACTORS
330
3179
102
}
330
3179
100
AcDbScale
 70
     0
300
1:5
140
1.0
141
5.0
290
     0
  0
SCALE
  5
317E
102
{ACAD_REACTORS
330
3179
102
}
330
3179
100
AcDbScale
 70
     0
300
1:8
140
1.0
141
8.0
290
     0
  0
SCALE
  5
317F
102
{ACAD_REACTORS
330
3179
102
}
330
3179
100
AcDbScale
 70
     0
300
1:10
140
1.0
141
10.0
290
     0
  0
SCALE
  5
3180
102
{ACAD_REACTORS
330
3179
102
}
330
3179
100
AcDbScale
 70
     0
300
1:16
140
1.0
141
16.0
290
     0
  0
SCALE
  5
3181
102
{ACAD_REACTORS
330
3179
102
}
330
3179
100
AcDbScale
 70
     0
300
1:20
140
1.0
141
20.0
290
     0
  0
SCALE
  5
3182
102
{ACAD_REACTORS
330
3179
102
}
330
3179
100
AcDbScale
 70
     0
300
1:30
140
1.0
141
30.0
290
     0
  0
SCALE
  5
3183
102
{ACAD_REACTORS
330
3179
102
}
330
3179
100
AcDbScale
 70
     0
300
1:40
140
1.0
141
40.0
290
     0
  0
SCALE
  5
3184
102
{ACAD_REACTORS
330
3179
102
}
330
3179
100
AcDbScale
 70
     0
300
1:50
140
1.0
141
50.0
290
     0
  0
SCALE
  5
3185
102
{ACAD_REACTORS
330
3179
102
}
330
3179
100
AcDbScale
 70
     0
300
1:100
140
1.0
141
100.0
290
     0
  0
SCALE
  5
3186
102
{ACAD_REACTORS
330
3179
102
}
330
3179
100
AcDbScale
 70
     0
300
2:1
140
2.0
141
1.0
290
     0
  0
SCALE
  5
3187
102
{ACAD_REACTORS
330
3179
102
}
330
3179
100
AcDbScale
 70
     0
300
4:1
140
4.0
141
1.0
290
     0
  0
SCALE
  5
3188
102
{ACAD_REACTORS
330
3179
102
}
330
3179
100
AcDbScale
 70
     0
300
8:1
140
8.0
141
1.0
290
     0
  0
SCALE
  5
3189
102
{ACAD_REACTORS
330
3179
102
}
330
3179
100
AcDbScale
 70
     0
300
10:1
140
10.0
141
1.0
290
     0
  0
SCALE
  5
318A
102
{ACAD_REACTORS
330
3179
102
}
330
3179
100
AcDbScale
 70
     0
300
100:1
140
100.0
141
1.0
290
     0
  0
SCALE
  5
318B
102
{ACAD_REACTORS
330
3179
102
}
330
3179
100
AcDbScale
 70
     0
300
1/128" = 1'-0"
140
0.0078125
141
12.0
290
     0
  0
SCALE
  5
318C
102
{ACAD_REACTORS
330
3179
102
}
330
3179
100
AcDbScale
 70
     0
300
1/64" = 1'-0"
140
0.015625
141
12.0
290
     0
  0
SCALE
  5
318D
102
{ACAD_REACTORS
330
3179
102
}
330
3179
100
AcDbScale
 70
     0
300
1/32" = 1'-0"
140
0.03125
141
12.0
290
     0
  0
SCALE
  5
318E
102
{ACAD_REACTORS
330
3179
102
}
330
3179
100
AcDbScale
 70
     0
300
1/16" = 1'-0"
140
0.0625
141
12.0
290
     0
  0
SCALE
  5
318F
102
{ACAD_REACTORS
330
3179
102
}
330
3179
100
AcDbScale
 70
     0
300
3/32" = 1'-0"
140
0.09375
141
12.0
290
     0
  0
SCALE
  5
3190
102
{ACAD_REACTORS
330
3179
102
}
330
3179
100
AcDbScale
 70
     0
300
1/8" = 1'-0"
140
0.125
141
12.0
290
     0
  0
SCALE
  5
3191
102
{ACAD_REACTORS
330
3179
102
}
330
3179
100
AcDbScale
 70
     0
300
3/16" = 1'-0"
140
0.1875
141
12.0
290
     0
  0
SCALE
  5
3192
102
{ACAD_REACTORS
330
3179
102
}
330
3179
100
AcDbScale
 70
     0
300
1/4" = 1'-0"
140
0.25
141
12.0
290
     0
  0
SCALE
  5
3193
102
{ACAD_REACTORS
330
3179
102
}
330
3179
100
AcDbScale
 70
     0
300
3/8" = 1'-0"
140
0.375
141
12.0
290
     0
  0
SCALE
  5
3194
102
{ACAD_REACTORS
330
3179
102
}
330
3179
100
AcDbScale
 70
     0
300
1/2" = 1'-0"
140
0.5
141
12.0
290
     0
  0
SCALE
  5
3195
102
{ACAD_REACTORS
330
3179
102
}
330
3179
100
AcDbScale
 70
     0
300
3/4" = 1'-0"
140
0.75
141
12.0
290
     0
  0
SCALE
  5
3196
102
{ACAD_REACTORS
330
3179
102
}
330
3179
100
AcDbScale
 70
     0
300
1" = 1'-0"
140
1.0
141
12.0
290
     0
  0
SCALE
  5
3197
102
{ACAD_REACTORS
330
3179
102
}
330
3179
100
AcDbScale
 70
     0
300
1-1/2" = 1'-0"
140
1.5
141
12.0
290
     0
  0
SCALE
  5
3198
102
{ACAD_REACTORS
330
3179
102
}
330
3179
100
AcDbScale
 70
     0
300
3" = 1'-0"
140
3.0
141
12.0
290
     0
  0
SCALE
  5
3199
102
{ACAD_REACTORS
330
3179
102
}
330
3179
100
AcDbScale
 70
     0
300
6" = 1'-0"
140
6.0
141
12.0
290
     0
  0
SCALE
  5
319A
102
{ACAD_REACTORS
330
3179
102
}
330
3179
100
AcDbScale
 70
     0
300
1'-0" = 1'-0"
140
12.0
141
12.0
290
     0
  0
DICTIONARYVAR
  5
6318
102
{ACAD_REACTORS
330
630B
102
}
330
630B
100
DictionaryVariables
280
     0
  1
1
  0
DICTIONARYVAR
  5
6317
102
{ACAD_REACTORS
330
630B
102
}
330
630B
100
DictionaryVariables
280
     0
  1
0
  0
DICTIONARYVAR
  5
6316
102
{ACAD_REACTORS
330
630B
102
}
330
630B
100
DictionaryVariables
280
     0
  1
127
  0
XRECORD
  5
5E46
102
{ACAD_REACTORS
330
5E44
102
}
330
5E44
100
AcDbXrecord
280
     1
  0
ENDSEC
  0
EOF
