  0
SECTION
  2
HEADER
  9
$ACADVER
  1
AC1015
  9
$ACADMAINTVER
 70
    20
  9
$DWGCODEPAGE
  3
ANSI_1252
  9
$INSBASE
 10
0.0
 20
0.0
 30
0.0
  9
$EXTMIN
 10
-130.2633680146491
 20
-107.667946399637
 30
-0.0000000000001846
  9
$EXTMAX
 10
92.73747514991828
 20
105.1402062965044
 30
0.0000000000041672
  9
$LIMMIN
 10
-66.34999999999982
 20
-2008.85
  9
$LIMMAX
 10
3734.350000000001
 20
346.85
  9
$ORTHOMODE
 70
     0
  9
$REGENMODE
 70
     1
  9
$FILLMODE
 70
     1
  9
$QTEXTMODE
 70
     0
  9
$MIRRTEXT
 70
     1
  9
$LTSCALE
 40
10.0
  9
$ATTMODE
 70
     1
  9
$TEXTSIZE
 40
0.0
  9
$TRACEWID
 40
0.05
  9
$TEXTSTYLE
  7
Standard
  9
$CLAYER
  8
0
  9
$CELTYPE
  6
Continuous
  9
$CECOLOR
 62
   256
  9
$CELTSCALE
 40
1.0
  9
$DISPSILH
 70
     0
  9
$DIMSCALE
 40
1.0
  9
$DIMASZ
 40
1.25
  9
$DIMEXO
 40
0.0
  9
$DIMDLI
 40
0.38
  9
$DIMRND
 40
0.0
  9
$DIMDLE
 40
0.0
  9
$DIMEXE
 40
0.75
  9
$DIMTP
 40
0.0
  9
$DIMTM
 40
0.0
  9
$DIMTXT
 40
2.5
  9
$DIMCEN
 40
0.09
  9
$DIMTSZ
 40
0.0
  9
$DIMTOL
 70
     0
  9
$DIMLIM
 70
     0
  9
$DIMTIH
 70
     0
  9
$DIMTOH
 70
     0
  9
$DIMSE1
 70
     0
  9
$DIMSE2
 70
     0
  9
$DIMTAD
 70
     1
  9
$DIMZIN
 70
     0
  9
$DIMBLK
  1

  9
$DIMASO
 70
     1
  9
$DIMSHO
 70
     1
  9
$DIMPOST
  1

  9
$DIMAPOST
  1

  9
$DIMALT
 70
     0
  9
$DIMALTD
 70
     2
  9
$DIMALTF
 40
25.4
  9
$DIMLFAC
 40
1.0
  9
$DIMTOFL
 70
     0
  9
$DIMTVP
 40
0.0
  9
$DIMTIX
 70
     0
  9
$DIMSOXD
 70
     0
  9
$DIMSAH
 70
     0
  9
$DIMBLK1
  1

  9
$DIMBLK2
  1

  9
$DIMSTYLE
  2
Standard
  9
$DIMCLRD
 70
     7
  9
$DIMCLRE
 70
     7
  9
$DIMCLRT
 70
     7
  9
$DIMTFAC
 40
0.8
  9
$DIMGAP
 40
1.25
  9
$DIMJUST
 70
     0
  9
$DIMSD1
 70
     0
  9
$DIMSD2
 70
     0
  9
$DIMTOLJ
 70
     1
  9
$DIMTZIN
 70
     0
  9
$DIMALTZ
 70
     0
  9
$DIMALTTZ
 70
     0
  9
$DIMUPT
 70
     0
  9
$DIMDEC
 70
     2
  9
$DIMTDEC
 70
     4
  9
$DIMALTU
 70
     2
  9
$DIMALTTD
 70
     2
  9
$DIMTXSTY
  7
Standard
  9
$DIMAUNIT
 70
     0
  9
$DIMADEC
 70
     0
  9
$DIMALTRND
 40
0.0
  9
$DIMAZIN
 70
     0
  9
$DIMDSEP
 70
     0
  9
$DIMATFIT
 70
     3
  9
$DIMFRAC
 70
     0
  9
$DIMLDRBLK
  1

  9
$DIMLUNIT
 70
     2
  9
$DIMLWD
 70
     0
  9
$DIMLWE
 70
     0
  9
$DIMTMOVE
 70
     0
  9
$LUNITS
 70
     2
  9
$LUPREC
 70
     4
  9
$SKETCHINC
 40
0.1
  9
$FILLETRAD
 40
0.0
  9
$AUNITS
 70
     0
  9
$AUPREC
 70
     0
  9
$MENU
  1
acad
  9
$ELEVATION
 40
0.0
  9
$PELEVATION
 40
0.0
  9
$THICKNESS
 40
0.0
  9
$LIMCHECK
 70
     0
  9
$CHAMFERA
 40
0.0
  9
$CHAMFERB
 40
0.0
  9
$CHAMFERC
 40
0.0
  9
$CHAMFERD
 40
0.0
  9
$SKPOLY
 70
     0
  9
$TDCREATE
 40
2455303.727916667
  9
$TDUCREATE
 40
2455303.644583334
  9
$TDUPDATE
 40
2455306.415545891
  9
$TDUUPDATE
 40
2455306.332212558
  9
$TDINDWG
 40
0.0021505093
  9
$TDUSRTIMER
 40
0.0021503356
  9
$USRTIMER
 70
     1
  9
$ANGBASE
 50
0.0
  9
$ANGDIR
 70
     0
  9
$PDMODE
 70
     0
  9
$PDSIZE
 40
0.0
  9
$PLINEWID
 40
0.0
  9
$SPLFRAME
 70
     0
  9
$SPLINETYPE
 70
     6
  9
$SPLINESEGS
 70
     8
  9
$HANDSEED
  5
638B
  9
$SURFTAB1
 70
     6
  9
$SURFTAB2
 70
     6
  9
$SURFTYPE
 70
     6
  9
$SURFU
 70
     6
  9
$SURFV
 70
     6
  9
$UCSBASE
  2

  9
$UCSNAME
  2

  9
$UCSORG
 10
0.0
 20
0.0
 30
0.0
  9
$UCSXDIR
 10
1.0
 20
0.0
 30
0.0
  9
$UCSYDIR
 10
0.0
 20
1.0
 30
0.0
  9
$UCSORTHOREF
  2

  9
$UCSORTHOVIEW
 70
     0
  9
$UCSORGTOP
 10
0.0
 20
0.0
 30
0.0
  9
$UCSORGBOTTOM
 10
0.0
 20
0.0
 30
0.0
  9
$UCSORGLEFT
 10
0.0
 20
0.0
 30
0.0
  9
$UCSORGRIGHT
 10
0.0
 20
0.0
 30
0.0
  9
$UCSORGFRONT
 10
0.0
 20
0.0
 30
0.0
  9
$UCSORGBACK
 10
0.0
 20
0.0
 30
0.0
  9
$PUCSBASE
  2

  9
$PUCSNAME
  2

  9
$PUCSORG
 10
0.0
 20
0.0
 30
0.0
  9
$PUCSXDIR
 10
1.0
 20
0.0
 30
0.0
  9
$PUCSYDIR
 10
0.0
 20
1.0
 30
0.0
  9
$PUCSORTHOREF
  2

  9
$PUCSORTHOVIEW
 70
     0
  9
$PUCSORGTOP
 10
0.0
 20
0.0
 30
0.0
  9
$PUCSORGBOTTOM
 10
0.0
 20
0.0
 30
0.0
  9
$PUCSORGLEFT
 10
0.0
 20
0.0
 30
0.0
  9
$PUCSORGRIGHT
 10
0.0
 20
0.0
 30
0.0
  9
$PUCSORGFRONT
 10
0.0
 20
0.0
 30
0.0
  9
$PUCSORGBACK
 10
0.0
 20
0.0
 30
0.0
  9
$USERI1
 70
     0
  9
$USERI2
 70
     0
  9
$USERI3
 70
     0
  9
$USERI4
 70
     0
  9
$USERI5
 70
     0
  9
$USERR1
 40
0.0
  9
$USERR2
 40
0.0
  9
$USERR3
 40
0.0
  9
$USERR4
 40
0.0
  9
$USERR5
 40
0.0
  9
$WORLDVIEW
 70
     1
  9
$SHADEDGE
 70
     3
  9
$SHADEDIF
 70
    70
  9
$TILEMODE
 70
     1
  9
$MAXACTVP
 70
    16
  9
$PINSBASE
 10
0.0
 20
0.0
 30
0.0
  9
$PLIMCHECK
 70
     0
  9
$PEXTMIN
 10
1.000000000000000E+20
 20
1.000000000000000E+20
 30
1.000000000000000E+20
  9
$PEXTMAX
 10
-1.000000000000000E+20
 20
-1.000000000000000E+20
 30
-1.000000000000000E+20
  9
$PLIMMIN
 10
0.0
 20
0.0
  9
$PLIMMAX
 10
12.0
 20
9.0
  9
$UNITMODE
 70
     0
  9
$VISRETAIN
 70
     0
  9
$PLINEGEN
 70
     1
  9
$PSLTSCALE
 70
     0
  9
$TREEDEPTH
 70
  3020
  9
$CMLSTYLE
  2
Standard
  9
$CMLJUST
 70
     0
  9
$CMLSCALE
 40
1.0
  9
$PROXYGRAPHICS
 70
     0
  9
$MEASUREMENT
 70
     1
  9
$CELWEIGHT
370
     0
  9
$ENDCAPS
280
     0
  9
$JOINSTYLE
280
     0
  9
$LWDISPLAY
290
     0
  9
$INSUNITS
 70
     0
  9
$HYPERLINKBASE
  1

  9
$STYLESHEET
  1

  9
$XEDIT
290
     1
  9
$CEPSNTYPE
380
     0
  9
$PSTYLEMODE
290
     1
  9
$FINGERPRINTGUID
  2

  9
$VERSIONGUID
  2
{E3EF177E-A559-4281-8429-5A9DBC7B2C2E}
  9
$EXTNAMES
290
     1
  9
$PSVPSCALE
 40
0.0
  9
$OLESTARTUP
290
     0
  0
ENDSEC
  0
SECTION
  2
CLASSES
  0
CLASS
  1
IMAGE
  2
AcDbRasterImage
  3
ISM
 90
    34943
280
     0
281
     1
  0
CLASS
  1
DICTIONARYVAR
  2
AcDbDictionaryVar
  3
ObjectDBX Classes
 90
        0
280
     0
281
     0
  0
CLASS
  1
RASTERVARIABLES
  2
AcDbRasterVariables
  3
ISM
 90
    32768
280
     0
281
     0
  0
CLASS
  1
IMAGEDEF
  2
AcDbRasterImageDef
  3
ISM
 90
    32768
280
     0
281
     0
  0
CLASS
  1
IMAGEDEF_REACTOR
  2
AcDbRasterImageDefReactor
  3
ISM
 90
    32769
280
     0
281
     0
  0
CLASS
  1
IDBUFFER
  2
AcDbIdBuffer
  3
ObjectDBX Classes
 90
    32768
280
     0
281
     0
  0
CLASS
  1
SPATIAL_FILTER
  2
AcDbSpatialFilter
  3
ObjectDBX Classes
 90
    32768
280
     0
281
     0
  0
CLASS
  1
SORTENTSTABLE
  2
AcDbSortentsTable
  3
ObjectDBX Classes
 90
        0
280
     0
281
     0
  0
CLASS
  1
LAYER_INDEX
  2
AcDbLayerIndex
  3
ObjectDBX Classes
 90
    32768
280
     0
281
     0
  0
CLASS
  1
SPATIAL_INDEX
  2
AcDbSpatialIndex
  3
ObjectDBX Classes
 90
    32768
280
     0
281
     0
  0
CLASS
  1
OBJECT_PTR
  2
CAseDLPNTableRecord
  3
ASE-LPNTableRecord
 90
    32769
280
     0
281
     0
  0
CLASS
  1
LAYOUT
  2
AcDbLayout
  3
ObjectDBX Classes
 90
        0
280
     0
281
     0
  0
CLASS
  1
PLOTSETTINGS
  2
AcDbPlotSettings
  3
ObjectDBX Classes
 90
    32768
280
     0
281
     0
  0
CLASS
  1
ACDBDICTIONARYWDFLT
  2
AcDbDictionaryWithDefault
  3
ObjectDBX Classes
 90
        0
280
     0
281
     0
  0
CLASS
  1
ACDBPLACEHOLDER
  2
AcDbPlaceHolder
  3
ObjectDBX Classes
 90
        0
280
     0
281
     0
  0
CLASS
  1
VBA_PROJECT
  2
AcDbVbaProject
  3
acad
 90
    32768
280
     0
281
     0
  0
CLASS
  1
WIPEOUT
  2
AcDbWipeout
  3
"WipeOut|Product Desc: Object Enabler for WipeOut entity                        |Company: Autodesk, Inc.                        |WEB Address: www.autodesk.com"
 90
    34943
280
     0
281
     1
  0
CLASS
  1
WIPEOUTVARIABLES
  2
AcDbWipeoutVariables
  3
"WipeOut|Product Desc:     WipeOut Dbx Application|Company:          Autodesk, Inc.|WEB Address:      www.autodesk.com"
 90
        0
280
     0
281
     0
  0
CLASS
  1
RTEXT
  2
RText
  3
RText|AutoCAD Express Tool|expresstools@autodesk.com
 90
    35839
280
     0
281
     1
  0
CLASS
  1
ARCALIGNEDTEXT
  2
AcDbArcAlignedText
  3
ATEXT|AutoCAD Express Tool|expresstools@autodesk.com
 90
    32768
280
     0
281
     1
  0
CLASS
  1
MATERIAL
  2
AcDbMaterial
  3
ObjectDBX Classes
 90
     1153
280
     0
281
     0
  0
CLASS
  1
VISUALSTYLE
  2
AcDbVisualStyle
  3
ObjectDBX Classes
 90
     4095
280
     0
281
     0
  0
CLASS
  1
TABLESTYLE
  2
AcDbTableStyle
  3
ObjectDBX Classes
 90
     4095
280
     0
281
     0
  0
CLASS
  1
SCALE
  2
AcDbScale
  3
ObjectDBX Classes
 90
     1153
280
     0
281
     0
  0
CLASS
  1
MLEADERSTYLE
  2
AcDbMLeaderStyle
  3
ACDB_MLEADERSTYLE_CLASS
 90
     4095
280
     0
281
     0
  0
CLASS
  1
CELLSTYLEMAP
  2
AcDbCellStyleMap
  3
ObjectDBX Classes
 90
     1152
280
     0
281
     0
  0
ENDSEC
  0
SECTION
  2
TABLES
  0
TABLE
  2
VPORT
  5
7
330
0
100
AcDbSymbolTable
 70
     1
  0
VPORT
  5
15
330
7
100
AcDbSymbolTableRecord
100
AcDbViewportTableRecord
  2
*ACTIVE
 70
     0
 10
0.0
 20
0.0
 11
1.0
 21
1.0
 12
-19.25513588980846
 22
-4.287131589448108
 13
0.0
 23
0.0
 14
1.0
 24
1.0
 15
0.0
 25
0.0
 16
0.0
 26
0.0
 36
1.0
 17
0.0
 27
0.0
 37
0.0
 40
240.7737724644376
 41
1.611330698287219
 42
50.0
 43
0.0
 44
0.0
 50
0.0
 51
0.0
 71
     0
 72
   100
 73
     1
 74
     1
 75
     0
 76
     0
 77
     0
 78
     0
281
     0
 65
     0
110
0.0
120
0.0
130
0.0
111
1.0
121
0.0
131
0.0
112
0.0
122
1.0
132
0.0
 79
     0
146
0.0
  0
ENDTAB
  0
TABLE
  2
LTYPE
  5
4
330
0
100
AcDbSymbolTable
 70
     4
  0
LTYPE
  5
11
330
4
100
AcDbSymbolTableRecord
100
AcDbLinetypeTableRecord
  2
ByBlock
 70
     0
  3

 72
    65
 73
     0
 40
0.0
  0
LTYPE
  5
12
330
4
100
AcDbSymbolTableRecord
100
AcDbLinetypeTableRecord
  2
ByLayer
 70
     0
  3

 72
    65
 73
     0
 40
0.0
  0
LTYPE
  5
13
330
4
100
AcDbSymbolTableRecord
100
AcDbLinetypeTableRecord
  2
Continuous
 70
     0
  3
Solid line
 72
    65
 73
     0
 40
0.0
  0
LTYPE
  5
1E4
330
4
100
AcDbSymbolTableRecord
100
AcDbLinetypeTableRecord
  2
CENTER
 70
     0
  3
____ _ ____ _ ____ _ ____ _ ____ _ ____ _ ____
 72
    65
 73
     4
 40
2.0
 49
1.25
 74
     0
 49
-0.25
 74
     0
 49
0.25
 74
     0
 49
-0.25
 74
     0
  0
ENDTAB
  0
TABLE
  2
LAYER
  5
2
330
0
100
AcDbSymbolTable
 70
     1
  0
LAYER
  5
14
102
{ACAD_XDICTIONARY
360
5E41
102
}
330
2
100
AcDbSymbolTableRecord
100
AcDbLayerTableRecord
  2
0
 70
     0
 62
     7
  6
Continuous
370
    -3
390
1D
  0
ENDTAB
  0
TABLE
  2
STYLE
  5
3
330
0
100
AcDbSymbolTable
 70
     1
  0
STYLE
  5
17
330
3
100
AcDbSymbolTableRecord
100
AcDbTextStyleTableRecord
  2
Standard
 70
     0
 40
0.0
 41
1.0
 50
0.0
 71
     0
 42
0.0
  3
I011000D.TTF
  4

1001
ACAD
1000
IsonormD
1071
        0
  0
ENDTAB
  0
TABLE
  2
VIEW
  5
5
330
0
100
AcDbSymbolTable
 70
     0
  0
ENDTAB
  0
TABLE
  2
UCS
  5
6
330
0
100
AcDbSymbolTable
 70
     0
  0
ENDTAB
  0
TABLE
  2
APPID
  5
8
330
0
100
AcDbSymbolTable
 70
     5
  0
APPID
  5
16
330
8
100
AcDbSymbolTableRecord
100
AcDbRegAppTableRecord
  2
ACAD
 70
     0
  0
APPID
  5
26
330
8
100
AcDbSymbolTableRecord
100
AcDbRegAppTableRecord
  2
TopSolid'Draft
 70
     0
  0
APPID
  5
319D
330
8
100
AcDbSymbolTableRecord
100
AcDbRegAppTableRecord
  2
ACAD_MLEADERVER
 70
     0
  0
APPID
  5
5E45
330
8
100
AcDbSymbolTableRecord
100
AcDbRegAppTableRecord
  2
DCO15
 70
     0
  0
APPID
  5
632F
330
8
100
AcDbSymbolTableRecord
100
AcDbRegAppTableRecord
  2
ACAD_EXEMPT_FROM_CAD_STANDARDS
 70
     0
  0
ENDTAB
  0
TABLE
  2
DIMSTYLE
  5
9
330
0
100
AcDbSymbolTable
 70
     2
100
AcDbDimStyleTable
 71
     1
340
18
  0
DIMSTYLE
105
18
330
9
100
AcDbSymbolTableRecord
100
AcDbDimStyleTableRecord
  2
Standard
 70
     0
 41
1.25
 42
0.0
 44
0.75
 73
     0
 74
     0
 77
     1
140
2.5
146
0.8
147
1.25
176
     7
177
     7
178
     7
271
     2
340
17
  0
ENDTAB
  0
TABLE
  2
BLOCK_RECORD
  5
1
330
0
100
AcDbSymbolTable
 70
     2
  0
BLOCK_RECORD
  5
A
102
{ACAD_XDICTIONARY
360
31A7
102
}
330
1
100
AcDbSymbolTableRecord
100
AcDbBlockTableRecord
  2
*MODEL_SPACE
340
20
  0
BLOCK_RECORD
  5
B
330
1
100
AcDbSymbolTableRecord
100
AcDbBlockTableRecord
  2
*PAPER_SPACE
340
21
  0
ENDTAB
  0
ENDSEC
  0
SECTION
  2
BLOCKS
  0
BLOCK
  5
D
330
A
100
AcDbEntity
  8
0
100
AcDbBlockBegin
  2
*MODEL_SPACE
 70
     0
 10
0.0
 20
0.0
 30
0.0
  3
*MODEL_SPACE
  1

  0
ENDBLK
  5
E
330
A
100
AcDbEntity
  8
0
100
AcDbBlockEnd
  0
BLOCK
  5
F
330
B
100
AcDbEntity
 67
     1
  8
0
100
AcDbBlockBegin
  2
*PAPER_SPACE
 70
     0
 10
0.0
 20
0.0
 30
0.0
  3
*PAPER_SPACE
  1

  0
ENDBLK
  5
10
330
B
100
AcDbEntity
 67
     1
  8
0
100
AcDbBlockEnd
  0
ENDSEC
  0
SECTION
  2
ENTITIES
  0
LINE
  5
6B1
330
A
100
AcDbEntity
  8
0
  6
CENTER
 62
     1
100
AcDbLine
 10
-9.0
 20
0.0
 30
0.0
 11
9.0
 21
0.0
 31
0.0
  0
LINE
  5
6B2
330
A
100
AcDbEntity
  8
0
  6
CENTER
 62
     1
100
AcDbLine
 10
0.0
 20
-9.0
 30
0.0
 11
0.0
 21
9.0
 31
0.0
  0
LINE
  5
880
330
A
100
AcDbEntity
  8
0
  6
CENTER
 62
     1
100
AcDbLine
 10
-0.0000001649469823
 20
81.15000000001131
 30
0.0
 11
-0.0000001649469823
 21
86.60000000001124
 31
0.0
  0
LINE
  5
881
330
A
100
AcDbEntity
  8
0
  6
CENTER
 62
     1
100
AcDbLine
 10
-26.15000016495651
 20
65.00000016485993
 30
0.0
 11
-31.60000016495633
 21
65.00000016520752
 31
0.0
  0
LINE
  5
882
330
A
100
AcDbEntity
  8
0
  6
CENTER
 62
     1
100
AcDbLine
 10
-47.00000016494676
 20
65.00000000001134
 30
0.0
 11
-33.90000016494639
 21
65.00000000001134
 31
0.0
  0
LINE
  5
883
330
A
100
AcDbEntity
  8
0
  6
CENTER
 62
     1
100
AcDbLine
 10
-0.0000000825153847
 20
102.0000000000112
 30
0.0
 11
-0.0000000825153847
 21
88.90000000001132
 31
0.0
  0
LINE
  5
884
330
A
100
AcDbEntity
  8
0
  6
CENTER
 62
     1
100
AcDbLine
 10
-106.1500001237349
 20
0.0000000000057412
 30
0.0
 11
-111.6000001237347
 21
0.0000000000057412
 31
0.0
  0
LINE
  5
885
330
A
100
AcDbEntity
  8
0
  6
CENTER
 62
     1
100
AcDbLine
 10
-98.20100973703837
 20
-0.000031455050447
 30
0.0
 11
-81.80107247236902
 21
-0.000031455050447
 31
0.0
  0
LINE
  5
886
330
A
100
AcDbEntity
  8
0
  6
CENTER
 62
     1
100
AcDbLine
 10
-90.00104110470363
 20
-8.200000087385177
 30
0.0
 11
-90.00104110470363
 21
8.199937177284141
 31
0.0
  0
LINE
  5
887
330
A
100
AcDbEntity
  8
0
  6
CENTER
 62
     1
100
AcDbLine
 10
-97.41284239838591
 20
-0.0000000000414673
 30
0.0
 11
-82.5871581790359
 21
-0.0000000000414673
 31
0.0
  0
LINE
  5
888
330
A
100
AcDbEntity
  8
0
  6
CENTER
 62
     1
100
AcDbLine
 10
-90.0000002887109
 20
-7.412842109716336
 30
0.0
 11
-90.0000002887109
 21
7.412842109633544
 31
0.0
  0
LINE
  5
889
330
A
100
AcDbEntity
  8
0
  6
CENTER
 62
     1
100
AcDbLine
 10
-127.0000001237347
 20
0.0
 30
0.0
 11
-113.9000001237347
 21
0.0
 31
0.0
  0
LINE
  5
88A
330
A
100
AcDbEntity
  8
0
  6
CENTER
 62
     1
100
AcDbLine
 10
89.49999987626529
 20
0.0
 30
0.0
 11
76.39999987626538
 21
0.0
 31
0.0
  0
LINE
  5
88B
330
A
100
AcDbEntity
  8
0
  6
CENTER
 62
     1
100
AcDbLine
 10
-0.0000001649469823
 20
-83.64999999998866
 30
0.0
 11
-0.0000001649469823
 21
-89.09999999998865
 31
0.0
  0
LINE
  5
88C
330
A
100
AcDbEntity
  8
0
  6
CENTER
 62
     1
100
AcDbLine
 10
-26.15000016495651
 20
-67.50000016483736
 30
0.0
 11
-31.60000016495633
 21
-67.50000016518495
 31
0.0
  0
LINE
  5
88D
330
A
100
AcDbEntity
  8
0
  6
CENTER
 62
     1
100
AcDbLine
 10
-47.00000016494676
 20
-67.49999999998866
 30
0.0
 11
-33.90000016494639
 21
-67.49999999998866
 31
0.0
  0
LINE
  5
88E
330
A
100
AcDbEntity
  8
0
  6
CENTER
 62
     1
100
AcDbLine
 10
-0.0000000825153847
 20
-104.4999999999885
 30
0.0
 11
-0.0000000825153847
 21
-91.39999999998867
 31
0.0
  0
ELLIPSE
  5
56A7
330
A
100
AcDbEntity
  8
0
  6
Continuous
 62
     7
370
     0
100
AcDbEllipse
 10
54.08359198177937
 20
-67.69703256057207
 30
0.0
 11
-1.120000000350173
 21
-5.486857023762864
 31
0.0
210
-0.0000000000000001
220
0.0
230
1.0
 40
0.4082482904372793
 41
3.748587831653003
 42
6.283185307179546
  0
LINE
  5
56A8
330
A
100
AcDbEntity
  8
0
  6
Continuous
 62
     9
370
     0
100
AcDbLine
 10
45.4970909481783
 20
-56.81561108480185
 30
0.0
 11
45.4970909481783
 21
-86.02748081841065
 31
0.0
  0
LINE
  5
56A9
330
A
100
AcDbEntity
  8
0
  6
Continuous
 62
     7
370
     0
100
AcDbLine
 10
46.92817445377738
 20
-57.10772978213796
 30
0.0
 11
45.4970909481783
 21
-56.81561108480185
 31
0.0
  0
LINE
  5
56AA
330
A
100
AcDbEntity
  8
0
  6
Continuous
 62
     7
370
     0
100
AcDbLine
 10
46.92817445377738
 20
-57.10772978213796
 30
0.0
 11
46.92817445377738
 21
-86.31959951574676
 31
0.0
  0
LINE
  5
56AB
330
A
100
AcDbEntity
  8
0
  6
Continuous
 62
     7
370
     0
100
AcDbLine
 10
46.92817445377738
 20
-86.31959951574676
 30
0.0
 11
45.4970909481783
 21
-86.02748081841065
 31
0.0
  0
LINE
  5
56AC
330
A
100
AcDbEntity
  8
0
  6
Continuous
 62
     7
370
     0
100
AcDbLine
 10
57.6613007457762
 20
-48.34416886205525
 30
0.0
 11
46.92817445377738
 21
-57.10772978213796
 31
0.0
  0
LINE
  5
56AD
330
A
100
AcDbEntity
  8
0
  6
Continuous
 62
     7
370
     0
100
AcDbLine
 10
57.6613007457762
 20
-48.34416886205525
 30
0.0
 11
57.6613007457762
 21
-50.00044477134898
 31
0.0
  0
LINE
  5
56AE
330
A
100
AcDbEntity
  8
0
  6
Continuous
 62
     7
370
     0
100
AcDbLine
 10
48.71702883577734
 20
-84.85900602906625
 30
0.0
 11
46.92817445377738
 21
-86.31959951574676
 31
0.0
  0
ELLIPSE
  5
56AF
330
A
100
AcDbEntity
  8
0
  6
Continuous
 62
     7
370
     0
100
AcDbEllipse
 10
52.29473759977725
 20
-67.33188418890105
 30
0.0
 11
0.7839999999998958
 21
3.840799916684011
 31
0.0
210
0.0
220
0.0
230
1.0
 40
0.4082482904638631
 41
2.873723241594006
 42
3.141592653589734
  0
ELLIPSE
  5
56B0
330
A
100
AcDbEntity
  8
0
  6
Continuous
 62
     7
370
     0
100
AcDbEllipse
 10
46.57040357737821
 20
-55.93925499279357
 30
0.0
 11
2.399999999999957
 21
0.0
 31
0.0
210
0.0
220
0.0000000000000001
230
1.0
 40
0.4082482904638633
 41
3.141592653589792
 42
4.248741371383866
  0
LINE
  5
56B1
330
A
100
AcDbEntity
  8
0
  6
Continuous
 62
     7
370
     0
100
AcDbLine
 10
44.42377831897829
 20
-55.50107694678946
 30
0.0
 11
53.0102793525773
 21
-48.49022821072324
 31
0.0
  0
ELLIPSE
  5
56B2
330
A
100
AcDbEntity
  8
0
  6
Continuous
 62
     7
370
     0
100
AcDbEllipse
 10
55.15690461097733
 20
-48.92840625672747
 30
0.0
 11
2.399999999999957
 21
0.0
 31
0.0
210
0.0
220
0.0000000000000001
230
1.0
 40
0.4082482904638633
 41
1.107148717794062
 42
2.677945044588985
  0
LINE
  5
56B3
330
A
100
AcDbEntity
  8
0
  6
Continuous
 62
     7
370
     0
100
AcDbLine
 10
56.23021724017736
 20
-48.05205016471916
 30
0.0
 11
57.6613007457762
 21
-48.34416886205525
 31
0.0
  0
ELLIPSE
  5
56B4
330
A
100
AcDbEntity
  8
0
  6
Continuous
 62
     7
370
     0
100
AcDbEllipse
 10
46.57040357737821
 20
-55.93925499279357
 30
0.0
 11
2.399999999999957
 21
0.0
 31
0.0
210
0.0
220
0.0000000000000001
230
1.0
 40
0.4082482904638633
 41
2.677945044588997
 42
3.141592653589792
  0
ELLIPSE
  5
56B5
330
A
100
AcDbEntity
  8
0
  6
Continuous
 62
     7
370
     0
100
AcDbEllipse
 10
46.57040357737821
 20
-85.15112472640245
 30
0.0
 11
2.399999999999957
 21
0.0
 31
0.0
210
0.0
220
0.0000000000000001
230
1.0
 40
0.4082482904638633
 41
3.141592653589792
 42
4.248741371383863
  0
ELLIPSE
  5
56B6
330
A
100
AcDbEntity
  8
0
  6
Continuous
 62
     7
370
     0
100
AcDbEllipse
 10
52.29473759977725
 20
-67.33188418890105
 30
0.0
 11
0.7839999999998958
 21
3.840799916684011
 31
-0.0000000000000003
210
0.0
220
0.0000000000000001
230
1.0
 40
0.4082482904638633
 41
0.0000000000000569
 42
0.2678694120156884
  0
LINE
  5
56B7
330
A
100
AcDbEntity
  8
0
  6
Continuous
 62
     9
370
     0
100
AcDbLine
 10
48.71702883577734
 20
-57.10772978213796
 30
0.0
 11
48.00148708297729
 21
-56.96167043346997
 31
0.0
  0
ELLIPSE
  5
56B8
330
A
100
AcDbEntity
  8
0
  6
Continuous
 62
     7
370
     0
100
AcDbEllipse
 10
48.71702883577734
 20
-58.56832326881846
 30
0.0
 11
0.320000000000098
 21
1.567673435381195
 31
-0.0000000000000001
210
0.0
220
0.0000000000000001
230
1.0
 40
0.4082482904638568
 41
0.4636476090007701
 42
2.034443935795589
  0
LINE
  5
56B9
330
A
100
AcDbEntity
  8
0
  6
Continuous
 62
     9
370
     0
100
AcDbLine
 10
48.00148708297729
 20
-59.15256066349067
 30
0.0
 11
47.28594533017735
 21
-59.00650131482257
 31
0.0
  0
ELLIPSE
  5
56BA
330
A
100
AcDbEntity
  8
0
  6
Continuous
 62
     7
370
     0
100
AcDbEllipse
 10
48.00148708297729
 20
-58.42226392015035
 30
0.0
 11
0.320000000000098
 21
1.567673435381195
 31
-0.0000000000000001
210
0.0
220
0.0000000000000001
230
1.0
 40
0.4082482904638568
 41
0.4636476090007655
 42
2.034443935795589
  0
ELLIPSE
  5
56BB
330
A
100
AcDbEntity
  8
0
  6
Continuous
 62
     7
370
     0
100
AcDbEllipse
 10
53.0102793525773
 20
-67.47794353756908
 30
0.0
 11
0.944000000000056
 21
4.624636634374649
 31
-0.0000000000000003
210
0.0
220
0.0000000000000001
230
1.0
 40
0.4082482904638567
 41
0.4636476090008089
 42
3.067241232114488
  0
LINE
  5
56BC
330
A
100
AcDbEntity
  8
0
  6
Continuous
 62
     7
370
     0
100
AcDbLine
 10
57.30352986937623
 20
-50.09688104607199
 30
0.0
 11
48.71702883577734
 21
-57.10772978213796
 31
0.0
  0
ELLIPSE
  5
56BD
330
A
100
AcDbEntity
  8
0
  6
Continuous
 62
     7
370
     0
100
AcDbEllipse
 10
57.30352986937623
 20
-51.55747453275234
 30
0.0
 11
0.320000000000098
 21
1.567673435381249
 31
-0.0000000000000001
210
0.0
220
0.0000000000000001
230
1.0
 40
0.4082482904638568
 41
5.176036589385534
 42
6.283185307179447
  0
LINE
  5
56BE
330
A
100
AcDbEntity
  8
0
  6
Continuous
 62
     7
370
     0
100
AcDbLine
 10
58.01907162217628
 20
-55.35501759812134
 30
0.0
 11
58.01907162217628
 21
-50.97323713808018
 31
0.0
  0
LINE
  5
56BF
330
A
100
AcDbEntity
  8
0
  6
Continuous
 62
     7
370
     0
100
AcDbLine
 10
48.71702883577734
 20
-84.85900602906616
 30
0.0
 11
53.72582110537724
 21
-80.76934426636105
 31
0.0
  0
ELLIPSE
  5
56C0
330
A
100
AcDbEntity
  8
0
  6
Continuous
 62
     7
370
     0
100
AcDbEllipse
 10
48.71702883577734
 20
-83.39841254238576
 30
0.0
 11
0.320000000000098
 21
1.567673435381195
 31
-0.0000000000000001
210
0.0
220
0.0000000000000001
230
1.0
 40
0.4082482904638568
 41
2.034443935795589
 42
3.141592653589513
  0
LINE
  5
56C1
330
A
100
AcDbEntity
  8
0
  6
Continuous
 62
     7
370
     0
100
AcDbLine
 10
48.00148708297729
 20
-59.15256066349067
 30
0.0
 11
48.00148708297729
 21
-83.98264993705796
 31
0.0
  0
LINE
  5
56C2
330
A
100
AcDbEntity
  8
0
  6
Continuous
 62
     9
370
     0
100
AcDbLine
 10
48.00148708297729
 20
-83.98264993705796
 30
0.0
 11
47.28594533017735
 21
-83.83659058838986
 31
0.0
  0
LINE
  5
56C3
330
A
100
AcDbEntity
  8
0
  6
Continuous
 62
     7
370
     0
100
AcDbLine
 10
47.28594533017735
 20
-59.00650131482257
 30
0.0
 11
47.28594533017735
 21
-83.83659058838986
 31
0.0
  0
LINE
  5
56C4
330
A
100
AcDbEntity
  8
0
  6
Continuous
 62
     9
370
     0
100
AcDbLine
 10
57.30352986937623
 20
-50.09688104607199
 30
0.0
 11
56.58798811657732
 21
-49.95082169740385
 31
0.0
  0
LINE
  5
56C5
330
A
100
AcDbEntity
  8
0
  6
Continuous
 62
     7
370
     0
100
AcDbLine
 10
56.58798811657732
 20
-49.95082169740385
 30
0.0
 11
48.00148708297729
 21
-56.96167043346997
 31
0.0
  0
ELLIPSE
  5
56C6
330
A
100
AcDbEntity
  8
0
  6
Continuous
 62
     7
370
     0
100
AcDbEllipse
 10
52.29473759977725
 20
-67.33188418890105
 30
0.0
 11
0.9440000000000559
 21
4.624636634374623
 31
-0.0000000000000003
210
0.0
220
0.0000000000000001
230
1.0
 40
0.4082482904638566
 41
3.332242784400564
 42
3.403192084272981
  0
ELLIPSE
  5
56C7
330
A
100
AcDbEntity
  8
0
  6
Continuous
 62
     7
370
     0
100
AcDbEllipse
 10
52.29473759977725
 20
-67.33188418890105
 30
0.0
 11
0.9440000000000559
 21
4.624636634374623
 31
-0.0000000000000003
210
0.0
220
0.0000000000000001
230
1.0
 40
0.4082482904638566
 41
6.021585876306454
 42
6.092535176368857
  0
ELLIPSE
  5
56C8
330
A
100
AcDbEntity
  8
0
  6
Continuous
 62
     7
370
     0
100
AcDbEllipse
 10
53.0102793525773
 20
-67.47794353756908
 30
0.0
 11
0.944000000000056
 21
4.624636634374649
 31
-0.0000000000000003
210
0.0
220
0.0000000000000001
230
1.0
 40
0.4082482904638567
 41
0.1178118717632646
 42
0.4636476090008089
  0
ELLIPSE
  5
56C9
330
A
100
AcDbEntity
  8
0
  6
Continuous
 62
     7
370
     0
100
AcDbEllipse
 10
48.71702883577734
 20
-83.39841254238576
 30
0.0
 11
0.320000000000098
 21
1.567673435381195
 31
-0.0000000000000001
210
0.0
220
0.0000000000000001
230
1.0
 40
0.4082482904638568
 41
3.141592653589516
 42
3.605240262590565
  0
ELLIPSE
  5
56CA
330
A
100
AcDbEntity
  8
0
  6
Continuous
 62
     7
370
     0
100
AcDbEllipse
 10
48.00148708297729
 20
-83.25235319371776
 30
0.0
 11
0.320000000000098
 21
1.567673435381221
 31
-0.0000000000000001
210
0.0
220
0.0000000000000001
230
1.0
 40
0.4082482904638566
 41
2.034443935795585
 42
3.141592653589509
  0
ELLIPSE
  5
56CB
330
A
100
AcDbEntity
  8
0
  6
Continuous
 62
     7
370
     0
100
AcDbEllipse
 10
57.30352986937623
 20
-51.55747453275234
 30
0.0
 11
0.320000000000098
 21
1.567673435381249
 31
-0.0000000000000001
210
0.0
220
0.0000000000000001
230
1.0
 40
0.4082482904638568
 41
6.283185307179449
 42
6.746832916180486
  0
ELLIPSE
  5
56CC
330
A
100
AcDbEntity
  8
0
  6
Continuous
 62
     7
370
     0
100
AcDbEllipse
 10
56.58798811657732
 20
-51.41141518408435
 30
0.0
 11
0.320000000000098
 21
1.567673435381249
 31
-0.0000000000000001
210
0.0
220
0.0000000000000001
230
1.0
 40
0.4082482904638568
 41
6.283185307179445
 42
6.74683291618049
  0
LINE
  5
56CD
330
A
100
AcDbEntity
  8
0
  6
Continuous
 62
     9
370
     0
100
AcDbLine
 10
55.15690461097733
 20
-58.42226392015025
 30
0.0
 11
54.44136285817717
 21
-58.27620457148225
 31
0.0
  0
ELLIPSE
  5
56CE
330
A
100
AcDbEntity
  8
0
  6
Continuous
 62
     7
370
     0
100
AcDbEllipse
 10
55.15690461097733
 20
-59.88285740683076
 30
0.0
 11
0.320000000000098
 21
1.567673435381277
 31
0.0
210
0.0
220
0.0
230
1.0
 40
0.4082482904638625
 41
0.4636476090008978
 42
2.034443935795827
  0
LINE
  5
56CF
330
A
100
AcDbEntity
  8
0
  6
Continuous
 62
     9
370
     0
100
AcDbLine
 10
54.44136285817717
 20
-60.46709480150298
 30
0.0
 11
53.72582110537724
 21
-60.32103545283485
 31
0.0
  0
ELLIPSE
  5
56D0
330
A
100
AcDbEntity
  8
0
  6
Continuous
 62
     7
370
     0
100
AcDbEllipse
 10
54.44136285817717
 20
-59.73679805816274
 30
0.0
 11
0.320000000000098
 21
1.567673435381195
 31
0.0
210
0.0
220
0.0
230
1.0
 40
0.4082482904638625
 41
0.4636476090007655
 42
2.034443935795589
  0
LINE
  5
56D1
330
A
100
AcDbEntity
  8
0
  6
Continuous
 62
     7
370
     0
100
AcDbLine
 10
56.23021724017736
 20
-57.54590782814204
 30
0.0
 11
55.15690461097733
 21
-58.42226392015025
 31
0.0
  0
LINE
  5
56D2
330
A
100
AcDbEntity
  8
0
  6
Continuous
 62
     7
370
     0
100
AcDbLine
 10
55.15690461097733
 20
-86.17354016707865
 30
0.0
 11
55.40557265577627
 21
-85.97050355871445
 31
0.0
  0
ELLIPSE
  5
56D3
330
A
100
AcDbEntity
  8
0
  6
Continuous
 62
     7
370
     0
100
AcDbEllipse
 10
55.15690461097733
 20
-84.71294668039826
 30
0.0
 11
0.320000000000098
 21
1.567673435381277
 31
0.0
210
0.0
220
0.0
230
1.0
 40
0.4082482904638625
 41
2.034443935795827
 42
3.141592653589928
  0
LINE
  5
56D4
330
A
100
AcDbEntity
  8
0
  6
Continuous
 62
     7
370
     0
100
AcDbLine
 10
54.44136285817717
 20
-60.46709480150298
 30
0.0
 11
54.44136285817717
 21
-85.29718407507045
 31
0.0
  0
LINE
  5
56D5
330
A
100
AcDbEntity
  8
0
  6
Continuous
 62
     9
370
     0
100
AcDbLine
 10
54.44136285817717
 20
-85.29718407507045
 30
0.0
 11
53.72582110537724
 21
-85.15112472640238
 31
0.0
  0
LINE
  5
56D6
330
A
100
AcDbEntity
  8
0
  6
Continuous
 62
     7
370
     0
100
AcDbLine
 10
53.72582110537724
 20
-60.32103545283485
 30
0.0
 11
53.72582110537724
 21
-85.15112472640238
 31
0.0
  0
LINE
  5
56D7
330
A
100
AcDbEntity
  8
0
  6
Continuous
 62
     7
370
     0
100
AcDbLine
 10
56.23021724017736
 20
-56.81561108480185
 30
0.0
 11
54.44136285817717
 21
-58.27620457148225
 31
0.0
  0
ELLIPSE
  5
56D8
330
A
100
AcDbEntity
  8
0
  6
Continuous
 62
     7
370
     0
100
AcDbEllipse
 10
55.15690461097733
 20
-84.71294668039826
 30
0.0
 11
0.320000000000098
 21
1.567673435381277
 31
-0.0000000000000001
210
0.0
220
0.0000000000000001
230
1.0
 40
0.4082482904638625
 41
3.141592653589928
 42
3.605240262590695
  0
ELLIPSE
  5
56D9
330
A
100
AcDbEntity
  8
0
  6
Continuous
 62
     7
370
     0
100
AcDbEllipse
 10
54.44136285817717
 20
-84.56688733173026
 30
0.0
 11
0.320000000000098
 21
1.567673435381195
 31
0.0
210
0.0
220
0.0
230
1.0
 40
0.4082482904638625
 41
2.03444393579558
 42
3.141592653589516
  0
LINE
  5
56DA
330
A
100
AcDbEntity
  8
0
  6
Continuous
 62
     7
370
     0
100
AcDbLine
 10
83.77857472297433
 20
-69.37671507025476
 30
0.0
 11
66.60557265577631
 21
-65.87129070222175
 31
0.0
  0
LINE
  5
56DB
330
A
100
AcDbEntity
  8
0
  6
Continuous
 62
     7
370
     0
100
AcDbLine
 10
85.20965822857329
 20
-95.95951652783757
 30
0.0
 11
85.20965822857329
 21
-71.12942725427124
 31
0.0
  0
ELLIPSE
  5
56DC
330
A
100
AcDbEntity
  8
0
  6
Continuous
 62
     7
370
     0
100
AcDbEllipse
 10
83.77857472297433
 20
-95.66739783050145
 30
0.0
 11
1.011928851253784
 21
-1.239354670786327
 31
0.0000000000000001
210
0.0000000000000001
220
0.0000000000000001
230
1.0
 40
0.8164965809276639
 41
5.49778714378212
 42
6.28318530717959
  0
LINE
  5
56DD
330
A
100
AcDbEntity
  8
0
  6
Continuous
 62
     7
370
     0
100
AcDbLine
 10
82.70526215275731
 20
-96.90890230621967
 30
0.0
 11
83.77857472297433
 21
-97.12799131718186
 31
0.0
  0
LINE
  5
56DE
330
A
100
AcDbEntity
  8
0
  6
Continuous
 62
     7
370
     0
100
AcDbLine
 10
65.17448915017621
 20
-67.03976549156607
 30
0.0
 11
65.17448915017621
 21
-68.13521060657925
 31
0.0
  0
ELLIPSE
  5
56DF
330
A
100
AcDbEntity
  8
0
  6
Continuous
 62
     7
370
     0
100
AcDbEllipse
 10
66.60557265577631
 20
-67.33188418890216
 30
0.0
 11
1.011928851253784
 21
-1.239354670786312
 31
0.0000000000000001
210
0.0000000000000001
220
0.0000000000000001
230
1.0
 40
0.8164965809276637
 41
2.356194490192319
 42
3.141592653589792
  0
LINE
  5
56E0
330
A
100
AcDbEntity
  8
0
  6
Continuous
 62
     9
370
     0
100
AcDbLine
 10
85.20965822857329
 20
-71.12942725427124
 30
0.0
 11
85.56742910497337
 21
-70.83730855693517
 31
0.0
  0
ELLIPSE
  5
56E1
330
A
100
AcDbEntity
  8
0
  6
Continuous
 62
     7
370
     0
100
AcDbEllipse
 10
83.77857472297433
 20
-70.83730855693517
 30
0.0
 11
1.011928851253784
 21
-1.239354670786312
 31
0.0000000000000001
210
0.0000000000000001
220
0.0000000000000001
230
1.0
 40
0.8164965809276637
 41
0.7853981633975377
 42
2.35619449019245
  0
LINE
  5
56E2
330
A
100
AcDbEntity
  8
0
  6
Continuous
 62
     9
370
     0
100
AcDbLine
 10
83.77857472297433
 20
-69.37671507025476
 30
0.0
 11
84.13634559937419
 21
-69.08459637291866
 31
0.0
  0
ELLIPSE
  5
56E3
330
A
100
AcDbEntity
  8
0
  6
Continuous
 62
     7
370
     0
100
AcDbEllipse
 10
84.13634559937419
 20
-70.54518985959908
 30
0.0
 11
1.011928851253784
 21
-1.239354670786312
 31
0.0000000000000001
210
0.0000000000000001
220
0.0000000000000001
230
1.0
 40
0.8164965809276637
 41
0.7853981633975238
 42
2.356194490192453
  0
LINE
  5
56E4
330
A
100
AcDbEntity
  8
0
  6
Continuous
 62
     9
370
     0
100
AcDbLine
 10
85.20965822857329
 20
-95.95951652783757
 30
0.0
 11
85.56742910497337
 21
-95.66739783050145
 31
0.0
  0
LINE
  5
56E5
330
A
100
AcDbEntity
  8
0
  6
Continuous
 62
     7
370
     0
100
AcDbLine
 10
85.56742910497337
 20
-95.66739783050145
 30
0.0
 11
85.56742910497337
 21
-70.83730855693517
 31
0.0
  0
LINE
  5
56E6
330
A
100
AcDbEntity
  8
0
  6
Continuous
 62
     9
370
     0
100
AcDbLine
 10
66.60557265577631
 20
-65.87129070222175
 30
0.0
 11
66.96334353217617
 21
-65.57917200488574
 31
0.0
  0
LINE
  5
56E7
330
A
100
AcDbEntity
  8
0
  6
Continuous
 62
     7
370
     0
100
AcDbLine
 10
84.13634559937419
 20
-69.08459637291866
 30
0.0
 11
66.96334353217617
 21
-65.57917200488574
 31
0.0
  0
ELLIPSE
  5
56E8
330
A
100
AcDbEntity
  8
0
  6
Continuous
 62
     7
370
     0
100
AcDbEllipse
 10
66.60557265577631
 20
-67.33188418890216
 30
0.0
 11
1.011928851253784
 21
-1.239354670786312
 31
0.0000000000000001
210
0.0
220
0.0
230
1.0
 40
0.8164965809276637
 41
3.141592653590018
 42
3.926990816987296
  0
ELLIPSE
  5
56E9
330
A
100
AcDbEntity
  8
0
  6
Continuous
 62
     7
370
     0
100
AcDbEllipse
 10
66.96334353217617
 20
-67.03976549156616
 30
0.0
 11
1.011928851253784
 21
-1.239354670786312
 31
0.0000000000000001
210
0.0000000000000001
220
0.0000000000000001
230
1.0
 40
0.8164965809276637
 41
2.356194490192323
 42
2.87979326579091
  0
ELLIPSE
  5
56EA
330
A
100
AcDbEntity
  8
0
  6
Continuous
 62
     7
370
     0
100
AcDbEllipse
 10
66.96334353217617
 20
-67.03976549156616
 30
0.0
 11
1.011928851253784
 21
-1.239354670786312
 31
0.0000000000000001
210
0.0000000000000001
220
0.0000000000000001
230
1.0
 40
0.8164965809276637
 41
2.879793265790911
 42
3.141592653589912
  0
ELLIPSE
  5
56EB
330
A
100
AcDbEntity
  8
0
  6
Continuous
 62
     7
370
     0
100
AcDbEllipse
 10
83.77857472297433
 20
-95.66739783050145
 30
0.0
 11
1.011928851253784
 21
-1.239354670786327
 31
0.0
210
0.0
220
0.0
230
1.0
 40
0.8164965809276642
 41
6.28318530717958
 42
7.06858347057707
  0
ELLIPSE
  5
56EC
330
A
100
AcDbEntity
  8
0
  6
Continuous
 62
     7
370
     0
100
AcDbEllipse
 10
84.13634559937419
 20
-95.37527913316536
 30
0.0
 11
1.011928851253784
 21
-1.239354670786327
 31
0.0
210
0.0
220
0.0
230
1.0
 40
0.8164965809276642
 41
6.28318530717958
 42
7.06858347057707
  0
ELLIPSE
  5
56ED
330
A
100
AcDbEntity
  8
0
  6
Continuous
 62
     7
370
     0
100
AcDbEllipse
 10
79.84309514155825
 20
-71.85972400965477
 30
0.0
 11
2.399999999999957
 21
-0.0000000000000555
 31
0.0000000000000002
210
-0.0000000000000001
220
0.0000000000000001
230
1.0
 40
0.4082482904638745
 41
4.248741371383876
 42
5.81953769817878
  0
LINE
  5
56EE
330
A
100
AcDbEntity
  8
0
  6
Continuous
 62
     7
370
     0
100
AcDbLine
 10
78.76978251235823
 20
-72.73608010166293
 30
0.0
 11
61.59678044516022
 21
-69.23065573362947
 31
0.0
  0
ELLIPSE
  5
56EF
330
A
100
AcDbEntity
  8
0
  6
Continuous
 62
     7
370
     0
100
AcDbEllipse
 10
62.67009307436024
 20
-68.35429964162116
 30
0.0
 11
2.399999999999957
 21
-0.0000000000000555
 31
0.0000000000000002
210
-0.0000000000000001
220
0.0
230
1.0
 40
0.4082482904638745
 41
3.141592653589803
 42
4.248741371383884
  0
LINE
  5
56F0
330
A
100
AcDbEntity
  8
0
  6
Continuous
 62
     7
370
     0
100
AcDbLine
 10
60.52346781596032
 20
-67.91612159561708
 30
0.0
 11
61.23900956876025
 21
-67.33188420094484
 31
0.0
  0
LINE
  5
56F1
330
A
100
AcDbEntity
  8
0
  6
Continuous
 62
     7
370
     0
100
AcDbLine
 10
61.23900956876025
 20
-67.33188420094484
 30
0.0
 11
82.70526215275845
 21
-71.71366466098675
 31
0.0
  0
LINE
  5
56F2
330
A
100
AcDbEntity
  8
0
  6
Continuous
 62
     7
370
     0
100
AcDbLine
 10
82.70526215275845
 20
-71.71366466098675
 30
0.0
 11
81.98972039995828
 21
-72.29790205565885
 31
0.0
  0
LINE
  5
56F3
330
A
100
AcDbEntity
  8
0
  6
Continuous
 62
     9
370
     0
100
AcDbLine
 10
78.76978251235823
 20
-72.73608010166293
 30
0.0
 11
78.76978251235732
 21
-101.9479498352716
 31
0.0
  0
LINE
  5
56F4
330
A
100
AcDbEntity
  8
0
  6
Continuous
 62
     9
370
     0
100
AcDbLine
 10
81.98972039995828
 20
-72.29790205565885
 30
0.0
 11
81.98972039995737
 21
-101.5097717892676
 31
0.0
  0
ELLIPSE
  5
56F5
330
A
100
AcDbEntity
  8
0
  6
Continuous
 62
     7
370
     0
100
AcDbEllipse
 10
79.84309514155734
 20
-101.0715937432634
 30
0.0
 11
2.399999999999957
 21
-0.0000000000000694
 31
0.0000000000000002
210
-0.0000000000000001
220
0.0000000000000001
230
1.0
 40
0.4082482904638745
 41
4.248741371383879
 42
5.819537698178821
  0
LINE
  5
56F6
330
A
100
AcDbEntity
  8
0
  6
Continuous
 62
     9
370
     0
100
AcDbLine
 10
61.59678044516022
 20
-69.23065573362947
 30
0.0
 11
61.59678044515931
 21
-98.44252546723817
 31
0.0
  0
LINE
  5
56F7
330
A
100
AcDbEntity
  8
0
  6
Continuous
 62
     7
370
     0
100
AcDbLine
 10
78.76978251235732
 20
-101.9479498352716
 30
0.0
 11
61.59678044515931
 21
-98.44252546723817
 31
0.0
  0
LINE
  5
56F8
330
A
100
AcDbEntity
  8
0
  6
Continuous
 62
     7
370
     0
100
AcDbLine
 10
82.70526215275845
 20
-71.71366466098675
 30
0.0
 11
82.70526215275731
 21
-100.9255343945954
 31
0.0
  0
LINE
  5
56F9
330
A
100
AcDbEntity
  8
0
  6
Continuous
 62
     7
370
     0
100
AcDbLine
 10
82.70526215275731
 20
-100.9255343945954
 30
0.0
 11
81.98972039995737
 21
-101.5097717892676
 31
0.0
  0
ELLIPSE
  5
56FA
330
A
100
AcDbEntity
  8
0
  6
Continuous
 62
     7
370
     0
100
AcDbEllipse
 10
62.67009307436024
 20
-68.35429964162116
 30
0.0
 11
2.399999999999957
 21
-0.0000000000000555
 31
0.0000000000000002
210
-0.0000000000000001
220
0.0000000000000001
230
1.0
 40
0.4082482904638742
 41
2.67794504458901
 42
3.141592653589792
  0
ELLIPSE
  5
56FB
330
A
100
AcDbEntity
  8
0
  6
Continuous
 62
     7
370
     0
100
AcDbEllipse
 10
62.67009307435933
 20
-97.56616937522997
 30
0.0
 11
2.400000000000179
 21
-0.0000000000000694
 31
0.0000000000000002
210
-0.0000000000000001
220
0.0
230
1.0
 40
0.4082482904638745
 41
3.141592653589781
 42
4.248741371383958
  0
ELLIPSE
  5
56FC
330
A
100
AcDbEntity
  8
0
  6
Continuous
 62
     7
370
     0
100
AcDbEllipse
 10
66.10301738013823
 20
-50.43247542600449
 30
0.0
 11
-0.8000000000001339
 21
0.0
 31
0.0
210
0.0
220
0.0000000000000001
230
1.0
 40
0.4082482904638635
 41
3.020610529952323
 42
3.141592653589794
  0
ELLIPSE
  5
56FD
330
A
100
AcDbEntity
  8
0
  6
Continuous
 62
     7
370
     0
100
AcDbEllipse
 10
-12.5180769415017
 20
-46.53026392336849
 30
0.0
 11
-80.00000000000007
 21
0.0
 31
0.0
210
0.0
220
0.0000000000000001
230
1.0
 40
0.4082482904638631
 41
2.775900681007297
 42
3.020610529952314
  0
ELLIPSE
  5
56FE
330
A
100
AcDbEntity
  8
0
  6
Continuous
 62
     7
370
     0
100
AcDbEllipse
 10
67.42175474706846
 20
-59.02681884597985
 30
0.0
 11
5.599999999999827
 21
0.0
 31
0.0
210
0.0
220
0.0000000000000001
230
1.0
 40
0.408248290463863
 41
3.141592653589792
 42
4.24681544074007
  0
ELLIPSE
  5
56FF
330
A
100
AcDbEntity
  8
0
  6
Continuous
 62
     7
370
     0
100
AcDbEllipse
 10
28.99288709503333
 20
-90.25336239198244
 30
0.0
 11
-79.99999999999992
 21
0.0
 31
0.0
210
0.0
220
0.0000000000000001
230
1.0
 40
0.4082482904638633
 41
3.901762882659236
 42
4.246815440740098
  0
ELLIPSE
  5
5700
330
A
100
AcDbEntity
  8
0
  6
Continuous
 62
     7
370
     0
100
AcDbEllipse
 10
86.39061017703239
 20
-67.97429379609306
 30
0.0
 11
-0.7999999999999119
 21
0.0
 31
0.0
210
0.0
220
0.0000000000000001
230
1.0
 40
0.4082482904638633
 41
2.677945044589018
 42
3.141592653589792
  0
LINE
  5
5701
330
A
100
AcDbEntity
  8
0
  6
Continuous
 62
     7
370
     0
100
AcDbLine
 10
86.28297085777422
 20
-68.79247767558147
 30
0.0
 11
87.10615192983324
 21
-68.12035314476108
 31
0.0
  0
LINE
  5
5702
330
A
100
AcDbEntity
  8
0
  6
Continuous
 62
     7
370
     0
100
AcDbLine
 10
66.24780177937509
 20
-64.70281591287616
 30
0.0
 11
86.28297085777422
 21
-68.79247767558147
 31
0.0
  0
ELLIPSE
  5
5703
330
A
100
AcDbEntity
  8
0
  6
Continuous
 62
     7
370
     0
100
AcDbEllipse
 10
65.5322600265763
 20
-64.55675656420814
 30
0.0
 11
0.8000000000001339
 21
0.0
 31
0.0
210
0.0
220
0.0000000000000001
230
1.0
 40
0.4082482904638633
 41
0.0
 42
1.107148717794057
  0
LINE
  5
5704
330
A
100
AcDbEntity
  8
0
  6
Continuous
 62
     7
370
     0
100
AcDbLine
 10
61.59678038617631
 20
-63.38828177486374
 30
0.0
 11
65.89003090297615
 21
-64.26463786687207
 31
0.0
  0
ELLIPSE
  5
5705
330
A
100
AcDbEntity
  8
0
  6
Continuous
 62
     7
370
     0
100
AcDbEllipse
 10
66.60557265577518
 20
-59.29862001215858
 30
0.0
 11
-11.19999999999987
 21
0.0
 31
0.0
210
0.0
220
0.0000000000000001
230
1.0
 40
0.4082482904638631
 41
5.819537698178776
 42
6.283185307179585
  0
ELLIPSE
  5
5706
330
A
100
AcDbEntity
  8
0
  6
Continuous
 62
     7
370
     0
100
AcDbEllipse
 10
55.87244636377739
 20
-57.10772978213785
 30
0.0
 11
0.7999999999999119
 21
0.0
 31
0.0
210
0.0
220
0.0000000000000001
230
1.0
 40
0.4082482904638633
 41
0.0
 42
1.107148717794059
  0
LINE
  5
5707
330
A
100
AcDbEntity
  8
0
  6
Continuous
 62
     7
370
     0
100
AcDbLine
 10
64.81671827377636
 20
-49.80476234873567
 30
0.0
 11
56.23021724017736
 21
-56.81561108480176
 31
0.0
  0
LINE
  5
5708
330
A
100
AcDbEntity
  8
0
  6
Continuous
 62
     7
370
     0
100
AcDbLine
 10
66.4607882565383
 20
-50.14035672866836
 30
0.0
 11
64.81671827377636
 21
-49.80476234873567
 31
0.0
  0
LINE
  5
5709
330
A
100
AcDbEntity
  8
0
  6
Continuous
 62
     7
370
     0
100
AcDbLine
 10
86.28297085777422
 20
-68.79247767558147
 30
0.0
 11
86.28297085777422
 21
-98.00434740919026
 31
0.0
  0
LINE
  5
570A
330
A
100
AcDbEntity
  8
0
  6
Continuous
 62
     9
370
     0
100
AcDbLine
 10
87.10615192983324
 20
-68.12035314476108
 30
0.0
 11
87.10615192983324
 21
-97.33222287836994
 31
0.0
  0
LINE
  5
570B
330
A
100
AcDbEntity
  8
0
  6
Continuous
 62
     7
370
     0
100
AcDbLine
 10
86.28297085777422
 20
-98.00434740919026
 30
0.0
 11
87.10615192983324
 21
-97.33222287836994
 31
0.0
  0
LINE
  5
570C
330
A
100
AcDbEntity
  8
0
  6
Continuous
 62
     7
370
     0
100
AcDbLine
 10
66.24780177937509
 20
-64.70281591287616
 30
0.0
 11
66.24780177937509
 21
-65.62879507883085
 31
0.0
  0
LINE
  5
570D
330
A
100
AcDbEntity
  8
0
  6
Continuous
 62
     7
370
     0
100
AcDbLine
 10
82.70526215275731
 20
-97.27405067788996
 30
0.0
 11
86.28297085777422
 21
-98.00434740919026
 31
0.0
  0
ELLIPSE
  5
570E
330
A
100
AcDbEntity
  8
0
  6
Continuous
 62
     7
370
     0
100
AcDbEllipse
 10
86.39061017703239
 20
-67.97429379609306
 30
0.0
 11
-0.7999999999999119
 21
0.0
 31
0.0
210
0.0
220
0.0000000000000001
230
1.0
 40
0.4082482904638631
 41
3.141592653589792
 42
3.90176288265926
  0
ELLIPSE
  5
570F
330
A
100
AcDbEntity
  8
0
  6
Continuous
 62
     7
370
     0
100
AcDbEllipse
 10
86.39061017703239
 20
-97.18616352970187
 30
0.0
 11
-0.7999999999999119
 21
0.0
 31
0.0
210
0.0
220
0.0000000000000001
230
1.0
 40
0.4082482904638633
 41
2.677945044589018
 42
3.141592653589792
  0
ELLIPSE
  5
5710
330
A
100
AcDbEntity
  8
0
  6
Continuous
 62
     7
370
     0
100
AcDbEllipse
 10
65.5322600265763
 20
-64.55675656420814
 30
0.0
 11
0.8000000000001339
 21
0.0
 31
0.0
210
0.0
220
0.0000000000000001
230
1.0
 40
0.4082482904638633
 41
5.819537698178874
 42
6.283185307179585
  0
LINE
  5
5711
330
A
100
AcDbEntity
  8
0
  6
Continuous
 62
     9
370
     0
100
AcDbLine
 10
65.89003090297615
 20
-64.26463786687207
 30
0.0
 11
65.89003090297615
 21
-65.85053046559725
 31
0.0
  0
LINE
  5
5712
330
A
100
AcDbEntity
  8
0
  6
Continuous
 62
     9
370
     0
100
AcDbLine
 10
61.59678038617631
 20
-63.38828177486374
 30
0.0
 11
61.59678038617631
 21
-67.40491386323885
 31
0.0
  0
ELLIPSE
  5
5713
330
A
100
AcDbEntity
  8
0
  6
Continuous
 62
     7
370
     0
100
AcDbEllipse
 10
66.60557265577518
 20
-59.29862001215858
 30
0.0
 11
-11.19999999999987
 21
0.0
 31
0.0
210
0.0
220
0.0000000000000001
230
1.0
 40
0.4082482904638631
 41
6.283185307179585
 42
7.390334024973687
  0
ELLIPSE
  5
5714
330
A
100
AcDbEntity
  8
0
  6
Continuous
 62
     7
370
     0
100
AcDbEllipse
 10
66.60557265577518
 20
-88.51048974576745
 30
0.0
 11
-11.19999999999987
 21
0.0
 31
0.0
210
0.0
220
0.0000000000000001
230
1.0
 40
0.4082482904638631
 41
0.0000000000000025
 42
0.9695534593759893
  0
ELLIPSE
  5
5715
330
A
100
AcDbEntity
  8
0
  6
Continuous
 62
     7
370
     0
100
AcDbEllipse
 10
67.42175474706846
 20
-59.02681884597985
 30
0.0
 11
5.599999999999827
 21
0.0
 31
0.0
210
0.0
220
0.0000000000000001
230
1.0
 40
0.408248290463863
 41
2.77590068100731
 42
3.141592653589792
  0
LINE
  5
5716
330
A
100
AcDbEntity
  8
0
  6
Continuous
 62
     9
370
     0
100
AcDbLine
 10
62.19204613192824
 20
-58.20928721552866
 30
0.0
 11
62.19204613192824
 21
-59.84435047643106
 31
0.0
  0
LINE
  5
5717
330
A
100
AcDbEntity
  8
0
  6
Continuous
 62
     9
370
     0
100
AcDbLine
 10
66.89716984803339
 20
-50.47189170380883
 30
0.0
 11
66.89716984803339
 21
-61.49208822867797
 31
0.0
  0
ELLIPSE
  5
5718
330
A
100
AcDbEntity
  8
0
  6
Continuous
 62
     7
370
     0
100
AcDbEllipse
 10
55.87244636377739
 20
-57.10772978213785
 30
0.0
 11
0.7999999999999119
 21
0.0
 31
0.0
210
0.0
220
0.0000000000000001
230
1.0
 40
0.4082482904638633
 41
5.819537698178811
 42
6.283185307179585
  0
LINE
  5
5719
330
A
100
AcDbEntity
  8
0
  6
Continuous
 62
     7
370
     0
100
AcDbLine
 10
56.23021724017736
 20
-56.81561108480176
 30
0.0
 11
56.23021724017736
 21
-57.57660568778916
 31
0.0
  0
ELLIPSE
  5
571A
330
A
100
AcDbEntity
  8
0
  6
Continuous
 62
     7
370
     0
100
AcDbEllipse
 10
66.10301738013823
 20
-50.43247542600449
 30
0.0
 11
-0.8000000000001339
 21
0.0
 31
0.0
210
0.0
220
0.0000000000000001
230
1.0
 40
0.4082482904638635
 41
3.141592653589792
 42
4.248741371383851
  0
LINE
  5
571B
330
A
100
AcDbEntity
  8
0
  6
Continuous
 62
     7
370
     0
100
AcDbLine
 10
52.96359198142932
 20
-73.18388958433485
 30
0.0
 11
53.72582110537724
 21
-73.33947895278246
 31
0.0
  0
LINE
  5
571C
330
A
100
AcDbEntity
  8
0
  6
Continuous
 62
     7
370
     0
100
AcDbLine
 10
44.17040357737824
 20
-55.93925499279357
 30
0.0
 11
44.17040357737824
 21
-85.15112472640245
 31
0.0
  0
LINE
  5
571D
330
A
100
AcDbEntity
  8
0
  6
Continuous
 62
     7
370
     0
100
AcDbLine
 10
53.26791201409424
 20
-63.52969933783916
 30
0.0
 11
53.07873759977724
 21
-63.49108427221697
 31
0.0
  0
LINE
  5
571E
330
A
100
AcDbEntity
  8
0
  6
Continuous
 62
     7
370
     0
100
AcDbLine
 10
51.51073759977726
 20
-71.17268410558506
 30
0.0
 11
51.69991201368521
 21
-71.21129917112376
 31
0.0
  0
LINE
  5
571F
330
A
100
AcDbEntity
  8
0
  6
Continuous
 62
     7
370
     0
100
AcDbLine
 10
47.68148708297826
 20
-84.82002662909897
 30
0.0
 11
48.39702883577729
 21
-84.96608597776697
 31
0.0
  0
LINE
  5
5720
330
A
100
AcDbEntity
  8
0
  6
Continuous
 62
     7
370
     0
100
AcDbLine
 10
57.62352986937731
 20
-49.98980109737115
 30
0.0
 11
56.90798811657737
 21
-49.84374174870308
 31
0.0
  0
LINE
  5
5721
330
A
100
AcDbEntity
  8
0
  6
Continuous
 62
     7
370
     0
100
AcDbLine
 10
54.12136285817723
 20
-86.13456076711146
 30
0.0
 11
54.8369046109774
 21
-86.28062011577947
 31
0.0
  0
LINE
  5
5722
330
A
100
AcDbEntity
  8
0
  6
Continuous
 62
     7
370
     0
100
AcDbLine
 10
65.9514146809222
 20
-65.80041082077975
 30
0.0
 11
65.59364380452234
 21
-66.09252951811583
 31
0.0
  0
LINE
  5
5723
330
A
100
AcDbEntity
  8
0
  6
Continuous
 62
     7
370
     0
100
AcDbLine
 10
84.79050357422739
 20
-96.90675250128776
 30
0.0
 11
85.14827445062724
 21
-96.61463380395176
 31
0.0
  0
LINE
  5
5724
330
A
100
AcDbEntity
  8
0
  6
Continuous
 62
     7
370
     0
100
AcDbLine
 10
60.27009307436026
 20
-68.35429964162116
 30
0.0
 11
60.27009307435935
 21
-97.56616937522986
 31
0.0
  0
LINE
  5
5725
330
A
100
AcDbEntity
  8
0
  6
Continuous
 62
     7
370
     0
100
AcDbLine
 10
87.19061017703324
 20
-97.18616352970187
 30
0.0
 11
87.19061017703324
 21
-67.97429379609306
 31
0.0
  0
LINE
  5
5726
330
A
100
AcDbEntity
  8
0
  6
Continuous
 62
     7
370
     0
100
AcDbLine
 10
55.40557265577627
 20
-59.29862001215858
 30
0.0
 11
55.40557265577627
 21
-88.51048974576745
 31
0.0
  0
LINE
  5
5727
330
A
100
AcDbEntity
  8
0
  6
Continuous
 62
     7
370
     0
100
AcDbLine
 10
66.90301738013727
 20
-61.49337276006966
 30
0.0
 11
66.90301738013727
 21
-50.43247542600449
 31
0.0
  0
LINE
  5
5728
330
A
100
AcDbEntity
  8
0
  6
Continuous
 62
     7
370
     0
100
AcDbLine
 10
-42.50000016494425
 20
-74.49999999998865
 30
0.0
 11
-42.50000016494425
 21
-67.49999999998866
 31
0.0
  0
LINE
  5
5729
330
A
100
AcDbEntity
  8
0
  6
Continuous
 62
     7
370
     0
100
AcDbLine
 10
-37.50000016494425
 20
-74.49999999998865
 30
0.0
 11
-37.50000016494425
 21
-67.49999999998866
 31
0.0
  0
LINE
  5
572A
330
A
100
AcDbEntity
  8
0
  6
Continuous
 62
     7
370
     0
100
AcDbLine
 10
-37.50000016494425
 20
-67.49999999998866
 30
0.0
 11
-37.50000016494425
 21
-60.49999999998874
 31
0.0
  0
LINE
  5
572B
330
A
100
AcDbEntity
  8
0
  6
Continuous
 62
     7
370
     0
100
AcDbLine
 10
-42.50000016494425
 20
-67.49999999998866
 30
0.0
 11
-42.50000016494425
 21
-60.49999999998874
 31
0.0
  0
LINE
  5
572C
330
A
100
AcDbEntity
  8
0
  6
Continuous
 62
     9
370
     0
100
AcDbLine
 10
-28.15000016505928
 20
-65.88802647763248
 30
0.0
 11
-28.15000016530144
 21
-62.08715805528985
 31
0.0
  0
LINE
  5
572D
330
A
100
AcDbEntity
  8
0
  6
Continuous
 62
     7
370
     0
100
AcDbLine
 10
-27.90000016527404
 20
-62.52017075716617
 30
0.0
 11
-27.90000016498232
 21
-67.09562122228084
 31
0.0
  0
LINE
  5
572E
330
A
100
AcDbEntity
  8
0
  6
Continuous
 62
     7
370
     0
100
AcDbLine
 10
-45.00000016494675
 20
-52.49999999998866
 30
0.0
 11
-45.00000016494675
 21
-82.49999999998866
 31
0.0
  0
LINE
  5
572F
330
A
100
AcDbEntity
  8
0
  6
Continuous
 62
     7
370
     0
100
AcDbLine
 10
-45.00000016494675
 20
-82.49999999998866
 30
0.0
 11
-47.00000016494676
 21
-82.49999999998866
 31
0.0
  0
ARC
  5
5730
330
A
100
AcDbEntity
  8
0
  6
Continuous
 62
     7
370
     0
100
AcDbCircle
 10
-47.00000016494676
 20
-79.49999999998865
 30
0.0
 40
3.000000000000001
100
AcDbArc
 50
180.0
 51
270.0
  0
ARC
  5
5731
330
A
100
AcDbEntity
  8
0
  6
Continuous
 62
     7
370
     0
100
AcDbCircle
 10
-47.00000016494676
 20
-55.49999999998866
 30
0.0
 40
3.000000000000001
100
AcDbArc
 50
90.0
 51
180.0
  0
LINE
  5
5732
330
A
100
AcDbEntity
  8
0
  6
Continuous
 62
     7
370
     0
100
AcDbLine
 10
-47.00000016494676
 20
-52.49999999998866
 30
0.0
 11
-45.00000016494675
 21
-52.49999999998866
 31
0.0
  0
LINE
  5
5733
330
A
100
AcDbEntity
  8
0
  6
Continuous
 62
     7
370
     0
100
AcDbLine
 10
-50.00000016494675
 20
-79.49999999998865
 30
0.0
 11
-50.00000016494675
 21
-55.49999999998866
 31
0.0
  0
LINE
  5
5734
330
A
100
AcDbEntity
  8
0
  6
Continuous
 62
     7
370
     0
100
AcDbLine
 10
-44.00000016494675
 20
-53.49999999998875
 30
0.0
 11
-45.00000016494675
 21
-53.49999999998875
 31
0.0
  0
LINE
  5
5735
330
A
100
AcDbEntity
  8
0
  6
Continuous
 62
     7
370
     0
100
AcDbLine
 10
-44.00000016494675
 20
-53.49999999998885
 30
0.0
 11
-44.00000016494675
 21
-55.49999999998874
 31
0.0
  0
LINE
  5
5736
330
A
100
AcDbEntity
  8
0
  6
Continuous
 62
     9
370
     0
100
AcDbLine
 10
-44.00000016494675
 20
-55.49999999998874
 30
0.0
 11
-45.00000016494675
 21
-55.49999999998874
 31
0.0
  0
LINE
  5
5737
330
A
100
AcDbEntity
  8
0
  6
Continuous
 62
     7
370
     0
100
AcDbLine
 10
-44.00000016494675
 20
-55.49999999998874
 30
0.0
 11
-44.00000016494675
 21
-79.49999999998857
 31
0.0
  0
LINE
  5
5738
330
A
100
AcDbEntity
  8
0
  6
Continuous
 62
     9
370
     0
100
AcDbLine
 10
-44.00000016494675
 20
-79.49999999998857
 30
0.0
 11
-45.00000016494675
 21
-79.49999999998857
 31
0.0
  0
LINE
  5
5739
330
A
100
AcDbEntity
  8
0
  6
Continuous
 62
     7
370
     0
100
AcDbLine
 10
-44.00000016494675
 20
-81.49999999998856
 30
0.0
 11
-45.00000016494675
 21
-81.49999999998856
 31
0.0
  0
LINE
  5
573A
330
A
100
AcDbEntity
  8
0
  6
Continuous
 62
     7
370
     0
100
AcDbLine
 10
-44.00000016494675
 20
-79.49999999998857
 30
0.0
 11
-44.00000016494675
 21
-81.49999999998845
 31
0.0
  0
LINE
  5
573B
330
A
100
AcDbEntity
  8
0
  6
Continuous
 62
     7
370
     0
100
AcDbLine
 10
-35.00000016494698
 20
-53.49999999998866
 30
0.0
 11
-36.00000016494699
 21
-53.49999999998866
 31
0.0
  0
LINE
  5
573C
330
A
100
AcDbEntity
  8
0
  6
Continuous
 62
     9
370
     0
100
AcDbLine
 10
-35.00000016494698
 20
-55.49999999998866
 30
0.0
 11
-36.00000016494699
 21
-55.49999999998866
 31
0.0
  0
LINE
  5
573D
330
A
100
AcDbEntity
  8
0
  6
Continuous
 62
     7
370
     0
100
AcDbLine
 10
-36.00000016494699
 20
-53.49999999998875
 30
0.0
 11
-36.00000016494699
 21
-55.49999999998866
 31
0.0
  0
LINE
  5
573E
330
A
100
AcDbEntity
  8
0
  6
Continuous
 62
     7
370
     0
100
AcDbLine
 10
-35.00000016494698
 20
-76.49999999998866
 30
0.0
 11
-35.00000016494698
 21
-79.49999999998865
 31
0.0
  0
LINE
  5
573F
330
A
100
AcDbEntity
  8
0
  6
Continuous
 62
     9
370
     0
100
AcDbLine
 10
-35.00000016494698
 20
-79.49999999998865
 30
0.0
 11
-36.00000016494699
 21
-79.49999999998865
 31
0.0
  0
LINE
  5
5740
330
A
100
AcDbEntity
  8
0
  6
Continuous
 62
     7
370
     0
100
AcDbLine
 10
-36.00000016494699
 20
-55.49999999998866
 30
0.0
 11
-36.00000016494699
 21
-79.49999999998865
 31
0.0
  0
LINE
  5
5741
330
A
100
AcDbEntity
  8
0
  6
Continuous
 62
     7
370
     0
100
AcDbLine
 10
-35.00000016494698
 20
-81.49999999998867
 30
0.0
 11
-36.00000016494699
 21
-81.49999999998867
 31
0.0
  0
LINE
  5
5742
330
A
100
AcDbEntity
  8
0
  6
Continuous
 62
     7
370
     0
100
AcDbLine
 10
-36.00000016494699
 20
-79.49999999998865
 30
0.0
 11
-36.00000016494699
 21
-81.49999999998867
 31
0.0
  0
LINE
  5
5743
330
A
100
AcDbEntity
  8
0
  6
Continuous
 62
     7
370
     0
100
AcDbLine
 10
-35.00000016494698
 20
-79.49999999998865
 30
0.0
 11
-35.00000016494698
 21
-81.49999999998867
 31
0.0
  0
LINE
  5
5744
330
A
100
AcDbEntity
  8
0
  6
Continuous
 62
     7
370
     0
100
AcDbLine
 10
-13.99999999998749
 20
-102.4999999999885
 30
0.0
 11
-13.99999999998749
 21
-101.4999999999885
 31
0.0
  0
LINE
  5
5745
330
A
100
AcDbEntity
  8
0
  6
Continuous
 62
     7
370
     0
100
AcDbLine
 10
-11.99999999998715
 20
-101.4999999999885
 30
0.0
 11
-13.99999999998749
 21
-101.4999999999885
 31
0.0
  0
LINE
  5
5746
330
A
100
AcDbEntity
  8
0
  6
Continuous
 62
     9
370
     0
100
AcDbLine
 10
-11.99999999998715
 20
-102.4999999999885
 30
0.0
 11
-11.99999999998715
 21
-101.4999999999885
 31
0.0
  0
LINE
  5
5747
330
A
100
AcDbEntity
  8
0
  6
Continuous
 62
     7
370
     0
100
AcDbLine
 10
12.00000000001284
 20
-101.4999999999885
 30
0.0
 11
-11.99999999998715
 21
-101.4999999999885
 31
0.0
  0
LINE
  5
5748
330
A
100
AcDbEntity
  8
0
  6
Continuous
 62
     7
370
     0
100
AcDbLine
 10
14.00000000001273
 20
-102.4999999999885
 30
0.0
 11
14.00000000001273
 21
-101.4999999999885
 31
0.0
  0
LINE
  5
5749
330
A
100
AcDbEntity
  8
0
  6
Continuous
 62
     9
370
     0
100
AcDbLine
 10
12.00000000001284
 20
-102.4999999999885
 30
0.0
 11
12.00000000001284
 21
-101.4999999999885
 31
0.0
  0
LINE
  5
574A
330
A
100
AcDbEntity
  8
0
  6
Continuous
 62
     7
370
     0
100
AcDbLine
 10
14.00000000001273
 20
-101.4999999999885
 30
0.0
 11
12.00000000001284
 21
-101.4999999999885
 31
0.0
  0
LINE
  5
574B
330
A
100
AcDbEntity
  8
0
  6
Continuous
 62
     7
370
     0
100
AcDbLine
 10
11.99999983505302
 20
-93.49999999998905
 30
0.0
 11
-12.00000016494675
 21
-93.49999999998905
 31
0.0
  0
LINE
  5
574C
330
A
100
AcDbEntity
  8
0
  6
Continuous
 62
     9
370
     0
100
AcDbLine
 10
-12.00000016494675
 20
-93.49999999998905
 30
0.0
 11
-12.00000016494675
 21
-92.49999999998916
 31
0.0
  0
LINE
  5
574D
330
A
100
AcDbEntity
  8
0
  6
Continuous
 62
     7
370
     0
100
AcDbLine
 10
-14.00000016494675
 20
-93.49999999998905
 30
0.0
 11
-14.00000016494675
 21
-92.49999999998916
 31
0.0
  0
LINE
  5
574E
330
A
100
AcDbEntity
  8
0
  6
Continuous
 62
     7
370
     0
100
AcDbLine
 10
-13.00000016494675
 20
-92.49999999998916
 30
0.0
 11
-14.00000016494641
 21
-92.49999999998916
 31
0.0
  0
LINE
  5
574F
330
A
100
AcDbEntity
  8
0
  6
Continuous
 62
     7
370
     0
100
AcDbLine
 10
-12.00000016494675
 20
-93.49999999998905
 30
0.0
 11
-14.00000016494607
 21
-93.49999999998905
 31
0.0
  0
LINE
  5
5750
330
A
100
AcDbEntity
  8
0
  6
Continuous
 62
     7
370
     0
100
AcDbLine
 10
13.99999983505302
 20
-93.49999999998905
 30
0.0
 11
13.99999983505302
 21
-92.49999999998916
 31
0.0
  0
LINE
  5
5751
330
A
100
AcDbEntity
  8
0
  6
Continuous
 62
     7
370
     0
100
AcDbLine
 10
13.99999983505256
 20
-93.49999999998905
 30
0.0
 11
11.99999983505302
 21
-93.49999999998905
 31
0.0
  0
LINE
  5
5752
330
A
100
AcDbEntity
  8
0
  6
Continuous
 62
     9
370
     0
100
AcDbLine
 10
11.99999983505302
 20
-93.49999999998905
 30
0.0
 11
11.99999983505302
 21
-92.49999999998916
 31
0.0
  0
LINE
  5
5753
330
A
100
AcDbEntity
  8
0
  6
Continuous
 62
     7
370
     0
100
AcDbLine
 10
7.0
 20
-99.99999999998877
 30
0.0
 11
5.362382856522117
 21
-99.99999999998877
 31
0.0
  0
LINE
  5
5754
330
A
100
AcDbEntity
  8
0
  6
Continuous
 62
     7
370
     0
100
AcDbLine
 10
7.0
 20
-94.99999999998875
 30
0.0
 11
5.362382856522117
 21
-94.99999999998875
 31
0.0
  0
LINE
  5
5755
330
A
100
AcDbEntity
  8
0
  6
Continuous
 62
     7
370
     0
100
AcDbLine
 10
5.362382856522117
 20
-99.99999999998877
 30
0.0
 11
-7.0
 21
-99.99999999998877
 31
0.0
  0
LINE
  5
5756
330
A
100
AcDbEntity
  8
0
  6
Continuous
 62
     7
370
     0
100
AcDbLine
 10
5.362382856522117
 20
-94.99999999998875
 30
0.0
 11
-7.0
 21
-94.99999999998875
 31
0.0
  0
LINE
  5
5757
330
A
100
AcDbEntity
  8
0
  6
Continuous
 62
     9
370
     0
100
AcDbLine
 10
5.412841944727915
 20
-85.64999999998866
 30
0.0
 11
1.889703764391697
 21
-85.64999999998866
 31
0.0
  0
LINE
  5
5758
330
A
100
AcDbEntity
  8
0
  6
Continuous
 62
     7
370
     0
100
AcDbLine
 10
0.7242097519465461
 20
-85.39999999998867
 30
0.0
 11
4.979829242835876
 21
-85.39999999998867
 31
0.0
  0
LINE
  5
5759
330
A
100
AcDbEntity
  8
0
  6
Continuous
 62
     7
370
     0
100
AcDbLine
 10
-15.00000008251481
 20
-102.4999999999886
 30
0.0
 11
14.99999991748518
 21
-102.4999999999884
 31
0.0
  0
LINE
  5
575A
330
A
100
AcDbEntity
  8
0
  6
Continuous
 62
     7
370
     0
100
AcDbLine
 10
14.99999991748518
 20
-102.4999999999884
 30
0.0
 11
14.99999991748518
 21
-104.4999999999885
 31
0.0
  0
ARC
  5
575B
330
A
100
AcDbEntity
  8
0
  6
Continuous
 62
     7
370
     0
100
AcDbCircle
 10
11.99999991748518
 20
-104.4999999999885
 30
0.0
 40
3.000000000000001
100
AcDbArc
 50
270.0
 51
0.0
  0
ARC
  5
575C
330
A
100
AcDbEntity
  8
0
  6
Continuous
 62
     7
370
     0
100
AcDbCircle
 10
-12.00000008251481
 20
-104.4999999999886
 30
0.0
 40
2.999999999999987
100
AcDbArc
 50
180.0
 51
270.0
  0
LINE
  5
575D
330
A
100
AcDbEntity
  8
0
  6
Continuous
 62
     7
370
     0
100
AcDbLine
 10
-15.00000008251481
 20
-104.4999999999886
 30
0.0
 11
-15.00000008251481
 21
-102.4999999999886
 31
0.0
  0
LINE
  5
575E
330
A
100
AcDbEntity
  8
0
  6
Continuous
 62
     7
370
     0
100
AcDbLine
 10
11.99999991748518
 20
-107.4999999999885
 30
0.0
 11
-12.00000008251481
 21
-107.4999999999886
 31
0.0
  0
ARC
  5
575F
330
A
100
AcDbEntity
  8
0
  6
Continuous
 62
     7
370
     0
100
AcDbCircle
 10
-32.70234251418299
 20
-53.49999999998875
 30
0.0
 40
1.000000000000029
100
AcDbArc
 50
19.6332860961209
 51
90.0
  0
ARC
  5
5760
330
A
100
AcDbEntity
  8
0
  6
Continuous
 62
     7
370
     0
100
AcDbCircle
 10
-19.45965992055369
 20
-76.29938219109035
 30
0.0
 40
7.000000000000017
100
AcDbArc
 50
185.6124445462878
 51
269.8896523024782
  0
ARC
  5
5761
330
A
100
AcDbEntity
  8
0
  6
Continuous
 62
     7
370
     0
100
AcDbCircle
 10
-125.9467213588624
 20
-86.76388152139166
 30
0.0
 40
100.0
100
AcDbArc
 50
5.612444546287859
 51
19.6332860961209
  0
ARC
  5
5762
330
A
100
AcDbEntity
  8
0
  6
Continuous
 62
     7
370
     0
100
AcDbCircle
 10
13.99999983505302
 20
-90.19913895634566
 30
0.0
 40
1.0
100
AcDbArc
 50
0.0
 51
70.11959701425017
  0
LINE
  5
5763
330
A
100
AcDbEntity
  8
0
  6
Continuous
 62
     7
370
     0
100
AcDbLine
 10
14.99999983505302
 20
-92.49999999998866
 30
0.0
 11
14.99999983505302
 21
-90.19913895634566
 31
0.0
  0
LINE
  5
5764
330
A
100
AcDbEntity
  8
0
  6
Continuous
 62
     7
370
     0
100
AcDbLine
 10
-13.00000016494698
 20
-92.49999999998866
 30
0.0
 11
14.99999983505302
 21
-92.49999999998866
 31
0.0
  0
ARC
  5
5765
330
A
100
AcDbEntity
  8
0
  6
Continuous
 62
     7
370
     0
100
AcDbCircle
 10
-14.00000016494698
 20
-92.49999999998866
 30
0.0
 40
1.0
100
AcDbArc
 50
0.0
 51
90.0
  0
LINE
  5
5766
330
A
100
AcDbEntity
  8
0
  6
Continuous
 62
     7
370
     0
100
AcDbLine
 10
-20.00000016494698
 20
-91.49999999998867
 30
0.0
 11
-14.00000016494698
 21
-91.49999999998867
 31
0.0
  0
ARC
  5
5767
330
A
100
AcDbEntity
  8
0
  6
Continuous
 62
     7
370
     0
100
AcDbCircle
 10
-20.00000016494698
 20
-77.49999999998874
 30
0.0
 40
14.00000000000001
100
AcDbArc
 50
180.0
 51
270.0
  0
ARC
  5
5768
330
A
100
AcDbEntity
  8
0
  6
Continuous
 62
     7
370
     0
100
AcDbCircle
 10
-35.00000016494698
 20
-77.49999999998874
 30
0.0
 40
1.0
100
AcDbArc
 50
0.0
 51
90.0
  0
LINE
  5
5769
330
A
100
AcDbEntity
  8
0
  6
Continuous
 62
     7
370
     0
100
AcDbLine
 10
-35.00000016494698
 20
-52.49999999998874
 30
0.0
 11
-35.00000016494698
 21
-76.49999999998875
 31
0.0
  0
LINE
  5
576A
330
A
100
AcDbEntity
  8
0
  6
Continuous
 62
     7
370
     0
100
AcDbLine
 10
-32.70234251418299
 20
-52.49999999998874
 30
0.0
 11
-35.00000016494698
 21
-52.49999999998874
 31
0.0
  0
ARC
  5
576B
330
A
100
AcDbEntity
  8
0
  6
Continuous
 62
     7
370
     0
100
AcDbCircle
 10
-19.66573437204295
 20
-183.2991837484785
 30
0.0
 40
100.0
100
AcDbArc
 50
70.11959701425017
 51
89.88965230247824
  0
LINE
  5
576C
330
A
100
AcDbEntity
  8
0
  6
Continuous
 62
     9
370
     0
100
AcDbLine
 10
-37.50000016451873
 20
-70.00000016494695
 30
0.0
 11
-36.00000016494699
 21
-70.00000016494695
 31
0.0
  0
LINE
  5
576D
330
A
100
AcDbEntity
  8
0
  6
Continuous
 62
     9
370
     0
100
AcDbLine
 10
-36.00000016494699
 20
-65.00000016494695
 30
0.0
 11
-37.50000016451873
 21
-65.00000016494695
 31
0.0
  0
LINE
  5
576E
330
A
100
AcDbEntity
  8
0
  6
Continuous
 62
     9
370
     0
100
AcDbLine
 10
2.499999835053017
 20
-94.99999999998875
 30
0.0
 11
2.499999835053017
 21
-93.49999999998905
 31
0.0
  0
LINE
  5
576F
330
A
100
AcDbEntity
  8
0
  6
Continuous
 62
     9
370
     0
100
AcDbLine
 10
-2.500000164946982
 20
-93.49999999998905
 30
0.0
 11
-2.500000164946982
 21
-94.99999999998875
 31
0.0
  0
LINE
  5
5770
330
A
100
AcDbEntity
  8
0
  6
Continuous
 62
     7
370
     0
100
AcDbLine
 10
-42.50000016494425
 20
-74.49999999998874
 30
0.0
 11
-37.50000016494425
 21
-74.49999999998874
 31
0.0
  0
LINE
  5
5771
330
A
100
AcDbEntity
  8
0
  6
Continuous
 62
     7
370
     0
100
AcDbLine
 10
-37.50000016494425
 20
-60.49999999998866
 30
0.0
 11
-42.50000016494425
 21
-60.49999999998866
 31
0.0
  0
LINE
  5
5772
330
A
100
AcDbEntity
  8
0
  6
Continuous
 62
     7
370
     0
100
AcDbLine
 10
-37.50000016453271
 20
-70.50000016494696
 30
0.0
 11
-36.00000016494699
 21
-70.50000016494696
 31
0.0
  0
LINE
  5
5773
330
A
100
AcDbEntity
  8
0
  6
Continuous
 62
     7
370
     0
100
AcDbLine
 10
-36.00000016494699
 20
-64.50000016494695
 30
0.0
 11
-37.50000016453271
 21
-64.50000016494695
 31
0.0
  0
LINE
  5
5774
330
A
100
AcDbEntity
  8
0
  6
Continuous
 62
     7
370
     0
100
AcDbLine
 10
-28.15000016530144
 20
-62.08715805528985
 30
0.0
 11
-29.19485841916298
 21
-61.48390886124684
 31
0.0
  0
ARC
  5
5775
330
A
100
AcDbEntity
  8
0
  6
Continuous
 62
     7
370
     0
100
AcDbCircle
 10
-28.40000016527426
 20
-62.52017075719809
 30
0.0
 40
0.5000000000000561
100
AcDbArc
 50
0.0000000036542283
 51
60.00000000365541
  0
LINE
  5
5776
330
A
100
AcDbEntity
  8
0
  6
Continuous
 62
     7
370
     0
100
AcDbLine
 10
-42.50000016461899
 20
-62.59999999998877
 30
0.0
 11
-44.00000016494675
 21
-62.59999999998877
 31
0.0
  0
LINE
  5
5777
330
A
100
AcDbEntity
  8
0
  6
Continuous
 62
     7
370
     0
100
AcDbLine
 10
-44.00000016494675
 20
-72.39999999998866
 30
0.0
 11
-42.50000016461899
 21
-72.39999999998866
 31
0.0
  0
LINE
  5
5778
330
A
100
AcDbEntity
  8
0
  6
Continuous
 62
     7
370
     0
100
AcDbLine
 10
7.0
 20
-99.99999999998877
 30
0.0
 11
7.0
 21
-94.99999999998875
 31
0.0
  0
LINE
  5
5779
330
A
100
AcDbEntity
  8
0
  6
Continuous
 62
     7
370
     0
100
AcDbLine
 10
-7.0
 20
-94.99999999998875
 30
0.0
 11
-7.0
 21
-99.99999999998877
 31
0.0
  0
LINE
  5
577A
330
A
100
AcDbEntity
  8
0
  6
Continuous
 62
     7
370
     0
100
AcDbLine
 10
5.987692355303693
 20
-86.64567011785756
 30
0.0
 11
5.412841944727915
 21
-85.64999999998866
 31
0.0
  0
ARC
  5
577B
330
A
100
AcDbEntity
  8
0
  6
Continuous
 62
     7
370
     0
100
AcDbCircle
 10
4.979829242835876
 20
-85.89999999998866
 30
0.0
 40
0.500000000000002
100
AcDbArc
 50
30.00000000000055
 51
90.0
  0
LINE
  5
577C
330
A
100
AcDbEntity
  8
0
  6
Continuous
 62
     7
370
     0
100
AcDbLine
 10
2.999999835053017
 20
-94.99999999998875
 30
0.0
 11
2.999999835053017
 21
-93.49999999998905
 31
0.0
  0
LINE
  5
577D
330
A
100
AcDbEntity
  8
0
  6
Continuous
 62
     7
370
     0
100
AcDbLine
 10
-3.000000164946982
 20
-93.49999999998905
 30
0.0
 11
-3.000000164946982
 21
-94.99999999998875
 31
0.0
  0
LINE
  5
577E
330
A
100
AcDbEntity
  8
0
  6
Continuous
 62
     7
370
     0
100
AcDbLine
 10
-4.900000082515475
 20
-99.99999999998877
 30
0.0
 11
-4.900000082515475
 21
-101.4999999999885
 31
0.0
  0
LINE
  5
577F
330
A
100
AcDbEntity
  8
0
  6
Continuous
 62
     7
370
     0
100
AcDbLine
 10
4.899999917484592
 20
-101.4999999999885
 30
0.0
 11
4.899999917484592
 21
-99.99999999998877
 31
0.0
  0
LINE
  5
5780
330
A
100
AcDbEntity
  8
0
  6
Continuous
 62
     7
370
     0
100
AcDbLine
 10
-42.50000016494425
 20
58.00000000001134
 30
0.0
 11
-42.50000016494425
 21
72.00000000001134
 31
0.0
  0
LINE
  5
5781
330
A
100
AcDbEntity
  8
0
  6
Continuous
 62
     7
370
     0
100
AcDbLine
 10
-37.50000016494425
 20
58.00000000001134
 30
0.0
 11
-37.50000016494425
 21
72.00000000001134
 31
0.0
  0
LINE
  5
5782
330
A
100
AcDbEntity
  8
0
  6
Continuous
 62
     9
370
     0
100
AcDbLine
 10
-28.15000016530144
 20
59.58715805531253
 30
0.0
 11
-28.15000016505928
 21
63.38802648083984
 31
0.0
  0
LINE
  5
5783
330
A
100
AcDbEntity
  8
0
  6
Continuous
 62
     7
370
     0
100
AcDbLine
 10
-27.90000016498232
 20
64.59562122555863
 30
0.0
 11
-27.90000016527404
 21
60.02017075718871
 31
0.0
  0
LINE
  5
5784
330
A
100
AcDbEntity
  8
0
  6
Continuous
 62
     7
370
     0
100
AcDbLine
 10
-47.00000016494676
 20
50.00000000001134
 30
0.0
 11
-45.00000016494675
 21
50.00000000001134
 31
0.0
  0
ARC
  5
5785
330
A
100
AcDbEntity
  8
0
  6
Continuous
 62
     7
370
     0
100
AcDbCircle
 10
-47.00000016494676
 20
53.00000000001134
 30
0.0
 40
3.000000000000001
100
AcDbArc
 50
180.0
 51
270.0
  0
LINE
  5
5786
330
A
100
AcDbEntity
  8
0
  6
Continuous
 62
     7
370
     0
100
AcDbLine
 10
-50.00000016494675
 20
77.00000000001134
 30
0.0
 11
-50.00000016494675
 21
53.00000000001134
 31
0.0
  0
ARC
  5
5787
330
A
100
AcDbEntity
  8
0
  6
Continuous
 62
     7
370
     0
100
AcDbCircle
 10
-47.00000016494676
 20
77.00000000001134
 30
0.0
 40
3.000000000000001
100
AcDbArc
 50
90.0
 51
180.0
  0
LINE
  5
5788
330
A
100
AcDbEntity
  8
0
  6
Continuous
 62
     7
370
     0
100
AcDbLine
 10
-45.00000016494675
 20
80.00000000001135
 30
0.0
 11
-47.00000016494676
 21
80.00000000001135
 31
0.0
  0
LINE
  5
5789
330
A
100
AcDbEntity
  8
0
  6
Continuous
 62
     7
370
     0
100
AcDbLine
 10
-45.00000016494675
 20
50.00000000001134
 30
0.0
 11
-45.00000016494675
 21
80.00000000001135
 31
0.0
  0
LINE
  5
578A
330
A
100
AcDbEntity
  8
0
  6
Continuous
 62
     7
370
     0
100
AcDbLine
 10
-44.00000016494675
 20
79.00000000001123
 30
0.0
 11
-45.00000016494675
 21
79.00000000001123
 31
0.0
  0
LINE
  5
578B
330
A
100
AcDbEntity
  8
0
  6
Continuous
 62
     7
370
     0
100
AcDbLine
 10
-44.00000016494675
 20
79.00000000001123
 30
0.0
 11
-44.00000016494675
 21
77.00000000001122
 31
0.0
  0
LINE
  5
578C
330
A
100
AcDbEntity
  8
0
  6
Continuous
 62
     9
370
     0
100
AcDbLine
 10
-44.00000016494675
 20
77.00000000001122
 30
0.0
 11
-45.00000016494675
 21
77.00000000001122
 31
0.0
  0
LINE
  5
578D
330
A
100
AcDbEntity
  8
0
  6
Continuous
 62
     7
370
     0
100
AcDbLine
 10
-44.00000016494675
 20
77.00000000001122
 30
0.0
 11
-44.00000016494675
 21
53.00000000001134
 31
0.0
  0
LINE
  5
578E
330
A
100
AcDbEntity
  8
0
  6
Continuous
 62
     9
370
     0
100
AcDbLine
 10
-44.00000016494675
 20
53.00000000001134
 30
0.0
 11
-45.00000016494675
 21
53.00000000001134
 31
0.0
  0
LINE
  5
578F
330
A
100
AcDbEntity
  8
0
  6
Continuous
 62
     7
370
     0
100
AcDbLine
 10
-44.00000016494675
 20
51.0000000000114
 30
0.0
 11
-45.00000016494675
 21
51.0000000000114
 31
0.0
  0
LINE
  5
5790
330
A
100
AcDbEntity
  8
0
  6
Continuous
 62
     7
370
     0
100
AcDbLine
 10
-44.00000016494675
 20
53.00000000001134
 30
0.0
 11
-44.00000016494675
 21
51.00000000001151
 31
0.0
  0
LINE
  5
5791
330
A
100
AcDbEntity
  8
0
  6
Continuous
 62
     7
370
     0
100
AcDbLine
 10
-35.00000016494698
 20
51.00000000001134
 30
0.0
 11
-36.00000016494699
 21
51.00000000001134
 31
0.0
  0
LINE
  5
5792
330
A
100
AcDbEntity
  8
0
  6
Continuous
 62
     7
370
     0
100
AcDbLine
 10
-36.00000016494699
 20
53.00000000001134
 30
0.0
 11
-36.00000016494699
 21
51.00000000001134
 31
0.0
  0
LINE
  5
5793
330
A
100
AcDbEntity
  8
0
  6
Continuous
 62
     7
370
     0
100
AcDbLine
 10
-35.00000016494698
 20
77.00000000001134
 30
0.0
 11
-35.00000016494698
 21
74.00000000001134
 31
0.0
  0
LINE
  5
5794
330
A
100
AcDbEntity
  8
0
  6
Continuous
 62
     9
370
     0
100
AcDbLine
 10
-35.00000016494698
 20
53.00000000001134
 30
0.0
 11
-36.00000016494699
 21
53.00000000001134
 31
0.0
  0
LINE
  5
5795
330
A
100
AcDbEntity
  8
0
  6
Continuous
 62
     7
370
     0
100
AcDbLine
 10
-36.00000016494699
 20
77.00000000001134
 30
0.0
 11
-36.00000016494699
 21
53.00000000001134
 31
0.0
  0
LINE
  5
5796
330
A
100
AcDbEntity
  8
0
  6
Continuous
 62
     7
370
     0
100
AcDbLine
 10
-35.00000016494698
 20
79.00000000001134
 30
0.0
 11
-36.00000016494699
 21
79.00000000001134
 31
0.0
  0
LINE
  5
5797
330
A
100
AcDbEntity
  8
0
  6
Continuous
 62
     7
370
     0
100
AcDbLine
 10
-35.00000016494698
 20
79.00000000001134
 30
0.0
 11
-35.00000016494698
 21
77.00000000001134
 31
0.0
  0
LINE
  5
5798
330
A
100
AcDbEntity
  8
0
  6
Continuous
 62
     9
370
     0
100
AcDbLine
 10
-35.00000016494698
 20
77.00000000001134
 30
0.0
 11
-36.00000016494699
 21
77.00000000001134
 31
0.0
  0
LINE
  5
5799
330
A
100
AcDbEntity
  8
0
  6
Continuous
 62
     7
370
     0
100
AcDbLine
 10
-36.00000016494699
 20
79.00000000001134
 30
0.0
 11
-36.00000016494699
 21
77.00000000001134
 31
0.0
  0
LINE
  5
579A
330
A
100
AcDbEntity
  8
0
  6
Continuous
 62
     7
370
     0
100
AcDbLine
 10
14.00000000001273
 20
100.0000000000112
 30
0.0
 11
14.00000000001273
 21
99.00000000001123
 31
0.0
  0
LINE
  5
579B
330
A
100
AcDbEntity
  8
0
  6
Continuous
 62
     7
370
     0
100
AcDbLine
 10
12.00000000001284
 20
99.00000000001123
 30
0.0
 11
14.00000000001273
 21
99.00000000001123
 31
0.0
  0
LINE
  5
579C
330
A
100
AcDbEntity
  8
0
  6
Continuous
 62
     9
370
     0
100
AcDbLine
 10
12.00000000001284
 20
100.0000000000112
 30
0.0
 11
12.00000000001284
 21
99.00000000001123
 31
0.0
  0
LINE
  5
579D
330
A
100
AcDbEntity
  8
0
  6
Continuous
 62
     7
370
     0
100
AcDbLine
 10
-11.99999999998715
 20
99.00000000001123
 30
0.0
 11
12.00000000001284
 21
99.00000000001123
 31
0.0
  0
LINE
  5
579E
330
A
100
AcDbEntity
  8
0
  6
Continuous
 62
     7
370
     0
100
AcDbLine
 10
-13.99999999998749
 20
100.0000000000112
 30
0.0
 11
-13.99999999998749
 21
99.00000000001123
 31
0.0
  0
LINE
  5
579F
330
A
100
AcDbEntity
  8
0
  6
Continuous
 62
     9
370
     0
100
AcDbLine
 10
-11.99999999998715
 20
100.0000000000112
 30
0.0
 11
-11.99999999998715
 21
99.00000000001123
 31
0.0
  0
LINE
  5
57A0
330
A
100
AcDbEntity
  8
0
  6
Continuous
 62
     7
370
     0
100
AcDbLine
 10
-13.99999999998749
 20
99.00000000001123
 30
0.0
 11
-11.99999999998715
 21
99.00000000001123
 31
0.0
  0
LINE
  5
57A1
330
A
100
AcDbEntity
  8
0
  6
Continuous
 62
     7
370
     0
100
AcDbLine
 10
-12.00000016494675
 20
91.00000000001173
 30
0.0
 11
11.99999983505302
 21
91.00000000001173
 31
0.0
  0
LINE
  5
57A2
330
A
100
AcDbEntity
  8
0
  6
Continuous
 62
     9
370
     0
100
AcDbLine
 10
11.99999983505302
 20
91.00000000001173
 30
0.0
 11
11.99999983505302
 21
90.00000000001184
 31
0.0
  0
LINE
  5
57A3
330
A
100
AcDbEntity
  8
0
  6
Continuous
 62
     7
370
     0
100
AcDbLine
 10
13.99999983505302
 20
91.00000000001173
 30
0.0
 11
13.99999983505302
 21
90.00000000001184
 31
0.0
  0
LINE
  5
57A4
330
A
100
AcDbEntity
  8
0
  6
Continuous
 62
     7
370
     0
100
AcDbLine
 10
11.99999983505302
 20
91.00000000001173
 30
0.0
 11
13.99999983505222
 21
91.00000000001173
 31
0.0
  0
LINE
  5
57A5
330
A
100
AcDbEntity
  8
0
  6
Continuous
 62
     7
370
     0
100
AcDbLine
 10
-14.00000016494675
 20
91.00000000001173
 30
0.0
 11
-14.00000016494675
 21
90.00000000001184
 31
0.0
  0
LINE
  5
57A6
330
A
100
AcDbEntity
  8
0
  6
Continuous
 62
     7
370
     0
100
AcDbLine
 10
-14.00000016494641
 20
91.00000000001173
 30
0.0
 11
-12.00000016494675
 21
91.00000000001173
 31
0.0
  0
LINE
  5
57A7
330
A
100
AcDbEntity
  8
0
  6
Continuous
 62
     9
370
     0
100
AcDbLine
 10
-12.00000016494675
 20
91.00000000001173
 30
0.0
 11
-12.00000016494675
 21
90.00000000001184
 31
0.0
  0
LINE
  5
57A8
330
A
100
AcDbEntity
  8
0
  6
Continuous
 62
     7
370
     0
100
AcDbLine
 10
-14.00000016494641
 20
90.00000000001184
 30
0.0
 11
-13.00000016494675
 21
90.00000000001184
 31
0.0
  0
LINE
  5
57A9
330
A
100
AcDbEntity
  8
0
  6
Continuous
 62
     7
370
     0
100
AcDbLine
 10
-7.0
 20
97.50000000001135
 30
0.0
 11
7.0
 21
97.50000000001135
 31
0.0
  0
LINE
  5
57AA
330
A
100
AcDbEntity
  8
0
  6
Continuous
 62
     7
370
     0
100
AcDbLine
 10
-7.0
 20
92.50000000001145
 30
0.0
 11
7.0
 21
92.50000000001145
 31
0.0
  0
LINE
  5
57AB
330
A
100
AcDbEntity
  8
0
  6
Continuous
 62
     9
370
     0
100
AcDbLine
 10
1.889703764391697
 20
83.15000000001132
 30
0.0
 11
5.412841944727915
 21
83.15000000001132
 31
0.0
  0
LINE
  5
57AC
330
A
100
AcDbEntity
  8
0
  6
Continuous
 62
     7
370
     0
100
AcDbLine
 10
4.979829242835876
 20
82.90000000001132
 30
0.0
 11
0.7242097519465461
 21
82.90000000001132
 31
0.0
  0
LINE
  5
57AD
330
A
100
AcDbEntity
  8
0
  6
Continuous
 62
     7
370
     0
100
AcDbLine
 10
-15.00000008251595
 20
102.0000000000113
 30
0.0
 11
-15.00000008251595
 21
100.0000000000113
 31
0.0
  0
ARC
  5
57AE
330
A
100
AcDbEntity
  8
0
  6
Continuous
 62
     7
370
     0
100
AcDbCircle
 10
-12.00000008251595
 20
102.0000000000112
 30
0.0
 40
3.000000000000001
100
AcDbArc
 50
90.0
 51
180.0
  0
LINE
  5
57AF
330
A
100
AcDbEntity
  8
0
  6
Continuous
 62
     7
370
     0
100
AcDbLine
 10
11.99999991748405
 20
105.0000000000111
 30
0.0
 11
-12.00000008251595
 21
105.0000000000113
 31
0.0
  0
ARC
  5
57B0
330
A
100
AcDbEntity
  8
0
  6
Continuous
 62
     7
370
     0
100
AcDbCircle
 10
11.99999991748405
 20
102.0000000000111
 30
0.0
 40
3.000000000000001
100
AcDbArc
 50
0.0
 51
90.0
  0
LINE
  5
57B1
330
A
100
AcDbEntity
  8
0
  6
Continuous
 62
     7
370
     0
100
AcDbLine
 10
14.99999991748405
 20
100.0000000000111
 30
0.0
 11
14.99999991748405
 21
102.0000000000111
 31
0.0
  0
LINE
  5
57B2
330
A
100
AcDbEntity
  8
0
  6
Continuous
 62
     7
370
     0
100
AcDbLine
 10
-15.00000008251595
 20
100.0000000000113
 30
0.0
 11
14.99999991748405
 21
100.0000000000111
 31
0.0
  0
ARC
  5
57B3
330
A
100
AcDbEntity
  8
0
  6
Continuous
 62
     7
370
     0
100
AcDbCircle
 10
-35.00000016494698
 20
75.00000000001145
 30
0.0
 40
1.0
100
AcDbArc
 50
270.0
 51
0.0
  0
ARC
  5
57B4
330
A
100
AcDbEntity
  8
0
  6
Continuous
 62
     7
370
     0
100
AcDbCircle
 10
13.99999983505302
 20
87.69913895636832
 30
0.0
 40
1.0
100
AcDbArc
 50
289.8804029857498
 51
0.0
  0
ARC
  5
57B5
330
A
100
AcDbEntity
  8
0
  6
Continuous
 62
     7
370
     0
100
AcDbCircle
 10
-19.66573437204295
 20
180.7991837485012
 30
0.0
 40
100.0
100
AcDbArc
 50
270.1103476975218
 51
289.8804029857498
  0
ARC
  5
57B6
330
A
100
AcDbEntity
  8
0
  6
Continuous
 62
     7
370
     0
100
AcDbCircle
 10
-19.45965992055369
 20
73.79938219111315
 30
0.0
 40
6.999999999999988
100
AcDbArc
 50
90.11034769752175
 51
174.3875554537121
  0
ARC
  5
57B7
330
A
100
AcDbEntity
  8
0
  6
Continuous
 62
     7
370
     0
100
AcDbCircle
 10
-125.9467213588624
 20
84.26388152141432
 30
0.0
 40
100.0
100
AcDbArc
 50
340.3667139038791
 51
354.3875554537121
  0
ARC
  5
57B8
330
A
100
AcDbEntity
  8
0
  6
Continuous
 62
     7
370
     0
100
AcDbCircle
 10
-32.70234251418299
 20
51.00000000001134
 30
0.0
 40
1.000000000000039
100
AcDbArc
 50
270.0
 51
340.3667139038776
  0
LINE
  5
57B9
330
A
100
AcDbEntity
  8
0
  6
Continuous
 62
     7
370
     0
100
AcDbLine
 10
-32.70234251418299
 20
50.00000000001134
 30
0.0
 11
-35.00000016494698
 21
50.00000000001134
 31
0.0
  0
LINE
  5
57BA
330
A
100
AcDbEntity
  8
0
  6
Continuous
 62
     7
370
     0
100
AcDbLine
 10
14.99999983505302
 20
90.00000000001135
 30
0.0
 11
14.99999983505302
 21
87.69913895636832
 31
0.0
  0
LINE
  5
57BB
330
A
100
AcDbEntity
  8
0
  6
Continuous
 62
     7
370
     0
100
AcDbLine
 10
-13.00000016494698
 20
90.00000000001135
 30
0.0
 11
14.99999983505302
 21
90.00000000001135
 31
0.0
  0
LINE
  5
57BC
330
A
100
AcDbEntity
  8
0
  6
Continuous
 62
     7
370
     0
100
AcDbLine
 10
-35.00000016494698
 20
50.00000000001134
 30
0.0
 11
-35.00000016494698
 21
74.00000000001134
 31
0.0
  0
ARC
  5
57BD
330
A
100
AcDbEntity
  8
0
  6
Continuous
 62
     7
370
     0
100
AcDbCircle
 10
-14.00000016494698
 20
90.00000000001135
 30
0.0
 40
1.0
100
AcDbArc
 50
270.0
 51
0.0
  0
LINE
  5
57BE
330
A
100
AcDbEntity
  8
0
  6
Continuous
 62
     7
370
     0
100
AcDbLine
 10
-20.00000016494698
 20
89.00000000001133
 30
0.0
 11
-14.00000016494698
 21
89.00000000001133
 31
0.0
  0
ARC
  5
57BF
330
A
100
AcDbEntity
  8
0
  6
Continuous
 62
     7
370
     0
100
AcDbCircle
 10
-20.00000016494698
 20
75.00000000001145
 30
0.0
 40
14.00000000000001
100
AcDbArc
 50
90.0
 51
180.0
  0
LINE
  5
57C0
330
A
100
AcDbEntity
  8
0
  6
Continuous
 62
     9
370
     0
100
AcDbLine
 10
-37.50000016537035
 20
62.50000016496952
 30
0.0
 11
-36.00000016494699
 21
62.50000016496952
 31
0.0
  0
LINE
  5
57C1
330
A
100
AcDbEntity
  8
0
  6
Continuous
 62
     9
370
     0
100
AcDbLine
 10
-36.00000016494699
 20
67.50000016496952
 30
0.0
 11
-37.50000016537035
 21
67.50000016496952
 31
0.0
  0
LINE
  5
57C2
330
A
100
AcDbEntity
  8
0
  6
Continuous
 62
     9
370
     0
100
AcDbLine
 10
-2.500000164946982
 20
92.50000000001145
 30
0.0
 11
-2.500000164946982
 21
91.00000000001173
 31
0.0
  0
LINE
  5
57C3
330
A
100
AcDbEntity
  8
0
  6
Continuous
 62
     9
370
     0
100
AcDbLine
 10
2.499999835053017
 20
91.00000000001173
 30
0.0
 11
2.499999835053017
 21
92.50000000001145
 31
0.0
  0
LINE
  5
57C4
330
A
100
AcDbEntity
  8
0
  6
Continuous
 62
     7
370
     0
100
AcDbLine
 10
-42.50000016494425
 20
58.00000000001134
 30
0.0
 11
-37.50000016494425
 21
58.00000000001134
 31
0.0
  0
LINE
  5
57C5
330
A
100
AcDbEntity
  8
0
  6
Continuous
 62
     7
370
     0
100
AcDbLine
 10
-37.50000016494425
 20
72.00000000001134
 30
0.0
 11
-42.50000016494425
 21
72.00000000001134
 31
0.0
  0
LINE
  5
57C6
330
A
100
AcDbEntity
  8
0
  6
Continuous
 62
     7
370
     0
100
AcDbLine
 10
-37.50000016535626
 20
62.00000016496952
 30
0.0
 11
-36.00000016494699
 21
62.00000016496952
 31
0.0
  0
LINE
  5
57C7
330
A
100
AcDbEntity
  8
0
  6
Continuous
 62
     7
370
     0
100
AcDbLine
 10
-36.00000016494699
 20
68.00000016496952
 30
0.0
 11
-37.50000016535626
 21
68.00000016496952
 31
0.0
  0
LINE
  5
57C8
330
A
100
AcDbEntity
  8
0
  6
Continuous
 62
     7
370
     0
100
AcDbLine
 10
-29.19485841916298
 20
58.98390886126955
 30
0.0
 11
-28.15000016530144
 21
59.58715805531253
 31
0.0
  0
ARC
  5
57C9
330
A
100
AcDbEntity
  8
0
  6
Continuous
 62
     7
370
     0
100
AcDbCircle
 10
-28.40000016527426
 20
60.02017075722071
 30
0.0
 40
0.5000000000000667
100
AcDbArc
 50
299.999999996351
 51
359.999999996349
  0
LINE
  5
57CA
330
A
100
AcDbEntity
  8
0
  6
Continuous
 62
     7
370
     0
100
AcDbLine
 10
-42.50000016526985
 20
69.90000000001131
 30
0.0
 11
-44.00000016494675
 21
69.90000000001131
 31
0.0
  0
LINE
  5
57CB
330
A
100
AcDbEntity
  8
0
  6
Continuous
 62
     7
370
     0
100
AcDbLine
 10
-44.00000016494675
 20
60.10000000001136
 30
0.0
 11
-42.50000016526985
 21
60.10000000001136
 31
0.0
  0
LINE
  5
57CC
330
A
100
AcDbEntity
  8
0
  6
Continuous
 62
     7
370
     0
100
AcDbLine
 10
-7.0
 20
97.50000000001135
 30
0.0
 11
-7.0
 21
92.50000000001145
 31
0.0
  0
LINE
  5
57CD
330
A
100
AcDbEntity
  8
0
  6
Continuous
 62
     7
370
     0
100
AcDbLine
 10
7.0
 20
92.50000000001145
 30
0.0
 11
7.0
 21
97.50000000001135
 31
0.0
  0
LINE
  5
57CE
330
A
100
AcDbEntity
  8
0
  6
Continuous
 62
     7
370
     0
100
AcDbLine
 10
5.412841944727915
 20
83.15000000001132
 30
0.0
 11
5.987692355303693
 21
84.14567011788021
 31
0.0
  0
ARC
  5
57CF
330
A
100
AcDbEntity
  8
0
  6
Continuous
 62
     7
370
     0
100
AcDbCircle
 10
4.979829242835876
 20
83.40000000001131
 30
0.0
 40
0.5000000000000006
100
AcDbArc
 50
270.0
 51
329.9999999999995
  0
LINE
  5
57D0
330
A
100
AcDbEntity
  8
0
  6
Continuous
 62
     7
370
     0
100
AcDbLine
 10
-3.000000164946982
 20
92.50000000001145
 30
0.0
 11
-3.000000164946982
 21
91.00000000001173
 31
0.0
  0
LINE
  5
57D1
330
A
100
AcDbEntity
  8
0
  6
Continuous
 62
     7
370
     0
100
AcDbLine
 10
2.999999835053017
 20
91.00000000001173
 30
0.0
 11
2.999999835053017
 21
92.50000000001145
 31
0.0
  0
LINE
  5
57D2
330
A
100
AcDbEntity
  8
0
  6
Continuous
 62
     7
370
     0
100
AcDbLine
 10
4.899999917484592
 20
97.50000000001135
 30
0.0
 11
4.899999917484592
 21
99.00000000001123
 31
0.0
  0
LINE
  5
57D3
330
A
100
AcDbEntity
  8
0
  6
Continuous
 62
     7
370
     0
100
AcDbLine
 10
-4.900000082515475
 20
99.00000000001123
 30
0.0
 11
-4.900000082515475
 21
97.50000000001135
 31
0.0
  0
LINE
  5
57D4
330
A
100
AcDbEntity
  8
0
  6
Continuous
 62
     7
370
     0
100
AcDbLine
 10
37.49999987626529
 20
20.00000000000574
 30
0.0
 11
37.49999987626529
 21
-19.99999999999426
 31
0.0
  0
LINE
  5
57D5
330
A
100
AcDbEntity
  8
0
  6
Continuous
 62
     7
370
     0
100
AcDbLine
 10
40.49999987626529
 20
20.00000000000574
 30
0.0
 11
37.49999987626529
 21
20.00000000000574
 31
0.0
  0
LINE
  5
57D6
330
A
100
AcDbEntity
  8
0
  6
Continuous
 62
     9
370
     0
100
AcDbLine
 10
40.49999987626529
 20
20.00000000000574
 30
0.0
 11
40.49999987626529
 21
-19.99999999999426
 31
0.0
  0
LINE
  5
57D7
330
A
100
AcDbEntity
  8
0
  6
Continuous
 62
     7
370
     0
100
AcDbLine
 10
40.49999987626529
 20
-19.99999999999426
 30
0.0
 11
37.49999987626529
 21
-19.99999999999426
 31
0.0
  0
LINE
  5
57D8
330
A
100
AcDbEntity
  8
0
  6
Continuous
 62
     9
370
     0
100
AcDbLine
 10
64.49999987626529
 20
20.00000000000574
 30
0.0
 11
64.49999987626529
 21
-19.99999999999426
 31
0.0
  0
LINE
  5
57D9
330
A
100
AcDbEntity
  8
0
  6
Continuous
 62
     7
370
     0
100
AcDbLine
 10
67.49999987626529
 20
20.00000000000574
 30
0.0
 11
64.49999987626529
 21
20.00000000000574
 31
0.0
  0
LINE
  5
57DA
330
A
100
AcDbEntity
  8
0
  6
Continuous
 62
     7
370
     0
100
AcDbLine
 10
67.49999987626529
 20
20.00000000000574
 30
0.0
 11
67.49999987626529
 21
-19.99999999999426
 31
0.0
  0
LINE
  5
57DB
330
A
100
AcDbEntity
  8
0
  6
Continuous
 62
     7
370
     0
100
AcDbLine
 10
67.49999987626529
 20
-19.99999999999426
 30
0.0
 11
64.49999987626529
 21
-19.99999999999426
 31
0.0
  0
LINE
  5
57DC
330
A
100
AcDbEntity
  8
0
  6
Continuous
 62
     7
370
     0
100
AcDbLine
 10
64.49999987626529
 20
20.00000000000574
 30
0.0
 11
40.49999987626529
 21
20.00000000000574
 31
0.0
  0
LINE
  5
57DD
330
A
100
AcDbEntity
  8
0
  6
Continuous
 62
     7
370
     0
100
AcDbLine
 10
64.49999987626529
 20
-19.99999999999426
 30
0.0
 11
40.49999987626529
 21
-19.99999999999426
 31
0.0
  0
LINE
  5
57DE
330
A
100
AcDbEntity
  8
0
  6
Continuous
 62
     7
370
     0
100
AcDbLine
 10
87.49999987626528
 20
19.0
 30
0.0
 11
86.49999987626529
 21
19.0
 31
0.0
  0
LINE
  5
57DF
330
A
100
AcDbEntity
  8
0
  6
Continuous
 62
     9
370
     0
100
AcDbLine
 10
87.49999987626528
 20
17.0
 30
0.0
 11
86.49999987626529
 21
17.0
 31
0.0
  0
LINE
  5
57E0
330
A
100
AcDbEntity
  8
0
  6
Continuous
 62
     7
370
     0
100
AcDbLine
 10
86.49999987626529
 20
19.0
 30
0.0
 11
86.49999987626529
 21
17.0
 31
0.0
  0
LINE
  5
57E1
330
A
100
AcDbEntity
  8
0
  6
Continuous
 62
     9
370
     0
100
AcDbLine
 10
87.49999987626528
 20
-17.0
 30
0.0
 11
86.49999987626529
 21
-17.0
 31
0.0
  0
LINE
  5
57E2
330
A
100
AcDbEntity
  8
0
  6
Continuous
 62
     7
370
     0
100
AcDbLine
 10
86.49999987626529
 20
17.0
 30
0.0
 11
86.49999987626529
 21
-17.0
 31
0.0
  0
LINE
  5
57E3
330
A
100
AcDbEntity
  8
0
  6
Continuous
 62
     7
370
     0
100
AcDbLine
 10
87.49999987626528
 20
-19.0
 30
0.0
 11
86.49999987626529
 21
-19.0
 31
0.0
  0
LINE
  5
57E4
330
A
100
AcDbEntity
  8
0
  6
Continuous
 62
     7
370
     0
100
AcDbLine
 10
86.49999987626529
 20
-17.0
 30
0.0
 11
86.49999987626529
 21
-19.0
 31
0.0
  0
LINE
  5
57E5
330
A
100
AcDbEntity
  8
0
  6
Continuous
 62
     7
370
     0
100
AcDbLine
 10
78.49999987626529
 20
19.00000000000423
 30
0.0
 11
77.49999987626529
 21
19.00000000000423
 31
0.0
  0
LINE
  5
57E6
330
A
100
AcDbEntity
  8
0
  6
Continuous
 62
     7
370
     0
100
AcDbLine
 10
78.49999987626529
 20
19.00000000000401
 30
0.0
 11
78.49999987626529
 21
17.00000000000432
 31
0.0
  0
LINE
  5
57E7
330
A
100
AcDbEntity
  8
0
  6
Continuous
 62
     9
370
     0
100
AcDbLine
 10
78.49999987626529
 20
17.00000000000432
 30
0.0
 11
77.49999987626529
 21
17.00000000000432
 31
0.0
  0
LINE
  5
57E8
330
A
100
AcDbEntity
  8
0
  6
Continuous
 62
     7
370
     0
100
AcDbLine
 10
77.49999987626529
 20
19.00000000000401
 30
0.0
 11
77.49999987626529
 21
18.73205080757285
 31
0.0
  0
LINE
  5
57E9
330
A
100
AcDbEntity
  8
0
  6
Continuous
 62
     7
370
     0
100
AcDbLine
 10
77.49999987626529
 20
18.73205080757285
 30
0.0
 11
77.49999987626529
 21
17.00000000000443
 31
0.0
  0
LINE
  5
57EA
330
A
100
AcDbEntity
  8
0
  6
Continuous
 62
     7
370
     0
100
AcDbLine
 10
78.49999987626529
 20
-18.99999999999397
 30
0.0
 11
77.49999987626529
 21
-18.99999999999397
 31
0.0
  0
LINE
  5
57EB
330
A
100
AcDbEntity
  8
0
  6
Continuous
 62
     7
370
     0
100
AcDbLine
 10
77.49999987626529
 20
-16.99999999999409
 30
0.0
 11
77.49999987626529
 21
-18.73205080756236
 31
0.0
  0
LINE
  5
57EC
330
A
100
AcDbEntity
  8
0
  6
Continuous
 62
     7
370
     0
100
AcDbLine
 10
77.49999987626529
 20
-18.73205080756247
 30
0.0
 11
77.49999987626529
 21
-18.99999999999366
 31
0.0
  0
LINE
  5
57ED
330
A
100
AcDbEntity
  8
0
  6
Continuous
 62
     7
370
     0
100
AcDbLine
 10
78.49999987626529
 20
-16.99999999999409
 30
0.0
 11
78.49999987626529
 21
-18.99999999999358
 31
0.0
  0
LINE
  5
57EE
330
A
100
AcDbEntity
  8
0
  6
Continuous
 62
     9
370
     0
100
AcDbLine
 10
78.49999987626529
 20
-16.99999999999409
 30
0.0
 11
77.49999987626529
 21
-16.99999999999409
 31
0.0
  0
LINE
  5
57EF
330
A
100
AcDbEntity
  8
0
  6
Continuous
 62
     7
370
     0
100
AcDbLine
 10
77.49999987626529
 20
17.00000000000432
 30
0.0
 11
77.49999987626529
 21
-16.99999999999409
 31
0.0
  0
LINE
  5
57F0
330
A
100
AcDbEntity
  8
0
  6
Continuous
 62
     7
370
     0
100
AcDbLine
 10
78.49999987626529
 20
17.00000000000432
 30
0.0
 11
78.49999987626529
 21
-16.99999999999409
 31
0.0
  0
LINE
  5
57F1
330
A
100
AcDbEntity
  8
0
  6
Continuous
 62
     7
370
     0
100
AcDbLine
 10
84.99999987626528
 20
7.0
 30
0.0
 11
84.99999987626528
 21
-7.0
 31
0.0
  0
LINE
  5
57F2
330
A
100
AcDbEntity
  8
0
  6
Continuous
 62
     7
370
     0
100
AcDbLine
 10
79.99999987626529
 20
7.0
 30
0.0
 11
79.99999987626529
 21
-7.0
 31
0.0
  0
LINE
  5
57F3
330
A
100
AcDbEntity
  8
0
  6
Continuous
 62
     7
370
     0
100
AcDbLine
 10
89.49999987626529
 20
20.00000000000054
 30
0.0
 11
87.49999987626528
 21
20.00000000000054
 31
0.0
  0
LINE
  5
57F4
330
A
100
AcDbEntity
  8
0
  6
Continuous
 62
     9
370
     0
100
AcDbLine
 10
89.49999987626529
 20
20.00000000000054
 30
0.0
 11
89.49999987626529
 21
-19.99999999999957
 31
0.0
  0
LINE
  5
57F5
330
A
100
AcDbEntity
  8
0
  6
Continuous
 62
     7
370
     0
100
AcDbLine
 10
89.49999987626529
 20
-19.99999999999957
 30
0.0
 11
87.49999987626528
 21
-19.99999999999957
 31
0.0
  0
LINE
  5
57F6
330
A
100
AcDbEntity
  8
0
  6
Continuous
 62
     7
370
     0
100
AcDbLine
 10
87.49999987626528
 20
20.00000000000054
 30
0.0
 11
87.49999987626528
 21
-19.99999999999957
 31
0.0
  0
LINE
  5
57F7
330
A
100
AcDbEntity
  8
0
  6
Continuous
 62
     7
370
     0
100
AcDbLine
 10
92.49999987626528
 20
20.00000000000043
 30
0.0
 11
89.49999987626529
 21
20.00000000000043
 31
0.0
  0
LINE
  5
57F8
330
A
100
AcDbEntity
  8
0
  6
Continuous
 62
     7
370
     0
100
AcDbLine
 10
92.49999987626528
 20
20.00000000000043
 30
0.0
 11
92.49999987626528
 21
-19.99999999999966
 31
0.0
  0
LINE
  5
57F9
330
A
100
AcDbEntity
  8
0
  6
Continuous
 62
     7
370
     0
100
AcDbLine
 10
92.49999987626528
 20
-19.99999999999966
 30
0.0
 11
89.49999987626529
 21
-19.99999999999966
 31
0.0
  0
LINE
  5
57FA
330
A
100
AcDbEntity
  8
0
  6
Continuous
 62
     7
370
     0
100
AcDbLine
 10
76.49999987626529
 20
20.00000000000574
 30
0.0
 11
76.49999987626529
 21
-19.99999999999426
 31
0.0
  0
LINE
  5
57FB
330
A
100
AcDbEntity
  8
0
  6
Continuous
 62
     7
370
     0
100
AcDbLine
 10
67.49999987626529
 20
20.00000000000574
 30
0.0
 11
76.49999987626529
 21
20.00000000000574
 31
0.0
  0
LINE
  5
57FC
330
A
100
AcDbEntity
  8
0
  6
Continuous
 62
     7
370
     0
100
AcDbLine
 10
67.49999987626529
 20
-19.99999999999426
 30
0.0
 11
76.49999987626529
 21
-19.99999999999426
 31
0.0
  0
LINE
  5
57FD
330
A
100
AcDbEntity
  8
0
  6
Continuous
 62
     7
370
     0
100
AcDbLine
 10
77.49999987626529
 20
20.00000000000574
 30
0.0
 11
77.49999987626529
 21
18.73205080757313
 31
0.0
  0
LINE
  5
57FE
330
A
100
AcDbEntity
  8
0
  6
Continuous
 62
     7
370
     0
100
AcDbLine
 10
77.49999987626529
 20
18.73205080757313
 30
0.0
 11
77.49999987626529
 21
17.00000000000432
 31
0.0
  0
LINE
  5
57FF
330
A
100
AcDbEntity
  8
0
  6
Continuous
 62
     7
370
     0
100
AcDbLine
 10
77.49999987626529
 20
-16.99999999999409
 30
0.0
 11
77.49999987626529
 21
-18.73205080756273
 31
0.0
  0
LINE
  5
5800
330
A
100
AcDbEntity
  8
0
  6
Continuous
 62
     7
370
     0
100
AcDbLine
 10
77.49999987626529
 20
-18.73205080756273
 30
0.0
 11
77.49999987626529
 21
-19.99999999999426
 31
0.0
  0
LINE
  5
5801
330
A
100
AcDbEntity
  8
0
  6
Continuous
 62
     7
370
     0
100
AcDbLine
 10
77.49999987626529
 20
20.00000000000574
 30
0.0
 11
76.49999987626529
 21
20.00000000000574
 31
0.0
  0
LINE
  5
5802
330
A
100
AcDbEntity
  8
0
  6
Continuous
 62
     7
370
     0
100
AcDbLine
 10
77.49999987626529
 20
-19.99999999999426
 30
0.0
 11
76.49999987626529
 21
-19.99999999999426
 31
0.0
  0
LINE
  5
5803
330
A
100
AcDbEntity
  8
0
  6
Continuous
 62
     9
370
     0
100
AcDbLine
 10
79.99999987626529
 20
2.500000000005741
 30
0.0
 11
78.49999987626529
 21
2.500000000005741
 31
0.0
  0
LINE
  5
5804
330
A
100
AcDbEntity
  8
0
  6
Continuous
 62
     9
370
     0
100
AcDbLine
 10
78.49999987626529
 20
-2.499999999994258
 30
0.0
 11
79.99999987626529
 21
-2.499999999994258
 31
0.0
  0
LINE
  5
5805
330
A
100
AcDbEntity
  8
0
  6
Continuous
 62
     7
370
     0
100
AcDbLine
 10
84.99999987626528
 20
7.0
 30
0.0
 11
79.99999987626529
 21
7.0
 31
0.0
  0
LINE
  5
5806
330
A
100
AcDbEntity
  8
0
  6
Continuous
 62
     7
370
     0
100
AcDbLine
 10
79.99999987626529
 20
-7.0
 30
0.0
 11
84.99999987626528
 21
-7.0
 31
0.0
  0
LINE
  5
5807
330
A
100
AcDbEntity
  8
0
  6
Continuous
 62
     7
370
     0
100
AcDbLine
 10
79.99999987626529
 20
3.000000000005741
 30
0.0
 11
78.49999987626529
 21
3.000000000005741
 31
0.0
  0
LINE
  5
5808
330
A
100
AcDbEntity
  8
0
  6
Continuous
 62
     7
370
     0
100
AcDbLine
 10
78.49999987626529
 20
-2.999999999994258
 30
0.0
 11
79.99999987626529
 21
-2.999999999994258
 31
0.0
  0
LINE
  5
5809
330
A
100
AcDbEntity
  8
0
  6
Continuous
 62
     7
370
     0
100
AcDbLine
 10
84.99999987626528
 20
-4.899999999999977
 30
0.0
 11
86.49999987626529
 21
-4.899999999999977
 31
0.0
  0
LINE
  5
580A
330
A
100
AcDbEntity
  8
0
  6
Continuous
 62
     7
370
     0
100
AcDbLine
 10
86.49999987626529
 20
4.900000000000005
 30
0.0
 11
84.99999987626528
 21
4.900000000000005
 31
0.0
  0
CIRCLE
  5
580B
330
A
100
AcDbEntity
  8
0
  6
Continuous
 62
     9
370
     0
100
AcDbCircle
 10
-90.00000028869498
 20
-0.0000000000249827
 30
0.0
 40
4.979829407782853
  0
CIRCLE
  5
580C
330
A
100
AcDbEntity
  8
0
  6
Continuous
 62
     9
370
     0
100
AcDbCircle
 10
-90.0000002887109
 20
-0.0000000000414673
 30
0.0
 40
5.412842109674963
  0
LINE
  5
580D
330
A
100
AcDbEntity
  8
0
  6
Continuous
 62
     7
370
     0
100
AcDbLine
 10
-125.0000001237347
 20
-19.0
 30
0.0
 11
-124.0000001237347
 21
-19.0
 31
0.0
  0
LINE
  5
580E
330
A
100
AcDbEntity
  8
0
  6
Continuous
 62
     9
370
     0
100
AcDbLine
 10
-125.0000001237347
 20
-17.0
 30
0.0
 11
-124.0000001237347
 21
-17.0
 31
0.0
  0
LINE
  5
580F
330
A
100
AcDbEntity
  8
0
  6
Continuous
 62
     7
370
     0
100
AcDbLine
 10
-124.0000001237347
 20
-19.0
 30
0.0
 11
-124.0000001237347
 21
-17.0
 31
0.0
  0
LINE
  5
5810
330
A
100
AcDbEntity
  8
0
  6
Continuous
 62
     9
370
     0
100
AcDbLine
 10
-125.0000001237347
 20
17.0
 30
0.0
 11
-124.0000001237347
 21
17.0
 31
0.0
  0
LINE
  5
5811
330
A
100
AcDbEntity
  8
0
  6
Continuous
 62
     7
370
     0
100
AcDbLine
 10
-124.0000001237347
 20
-17.0
 30
0.0
 11
-124.0000001237347
 21
17.0
 31
0.0
  0
LINE
  5
5812
330
A
100
AcDbEntity
  8
0
  6
Continuous
 62
     7
370
     0
100
AcDbLine
 10
-125.0000001237347
 20
19.0
 30
0.0
 11
-124.0000001237347
 21
19.0
 31
0.0
  0
LINE
  5
5813
330
A
100
AcDbEntity
  8
0
  6
Continuous
 62
     7
370
     0
100
AcDbLine
 10
-124.0000001237347
 20
17.0
 30
0.0
 11
-124.0000001237347
 21
19.0
 31
0.0
  0
LINE
  5
5814
330
A
100
AcDbEntity
  8
0
  6
Continuous
 62
     7
370
     0
100
AcDbLine
 10
-116.0000001237353
 20
-18.99999999999397
 30
0.0
 11
-115.000000123735
 21
-18.99999999999397
 31
0.0
  0
LINE
  5
5815
330
A
100
AcDbEntity
  8
0
  6
Continuous
 62
     7
370
     0
100
AcDbLine
 10
-116.0000001237353
 20
-18.99999999999377
 30
0.0
 11
-116.0000001237353
 21
-16.99999999999409
 31
0.0
  0
LINE
  5
5816
330
A
100
AcDbEntity
  8
0
  6
Continuous
 62
     9
370
     0
100
AcDbLine
 10
-116.0000001237353
 20
-16.99999999999409
 30
0.0
 11
-115.000000123735
 21
-16.99999999999409
 31
0.0
  0
LINE
  5
5817
330
A
100
AcDbEntity
  8
0
  6
Continuous
 62
     9
370
     0
100
AcDbLine
 10
-116.0000001237353
 20
17.00000000000432
 30
0.0
 11
-115.000000123735
 21
17.00000000000432
 31
0.0
  0
LINE
  5
5818
330
A
100
AcDbEntity
  8
0
  6
Continuous
 62
     7
370
     0
100
AcDbLine
 10
-116.0000001237353
 20
-16.99999999999409
 30
0.0
 11
-116.0000001237353
 21
17.00000000000432
 31
0.0
  0
LINE
  5
5819
330
A
100
AcDbEntity
  8
0
  6
Continuous
 62
     7
370
     0
100
AcDbLine
 10
-116.0000001237353
 20
19.00000000000423
 30
0.0
 11
-115.000000123735
 21
19.00000000000423
 31
0.0
  0
LINE
  5
581A
330
A
100
AcDbEntity
  8
0
  6
Continuous
 62
     7
370
     0
100
AcDbLine
 10
-116.0000001237353
 20
17.00000000000432
 30
0.0
 11
-116.0000001237353
 21
19.00000000000395
 31
0.0
  0
LINE
  5
581B
330
A
100
AcDbEntity
  8
0
  6
Continuous
 62
     7
370
     0
100
AcDbLine
 10
-122.5000001237347
 20
-7.0
 30
0.0
 11
-122.5000001237347
 21
4.499427752512133
 31
0.0
  0
LINE
  5
581C
330
A
100
AcDbEntity
  8
0
  6
Continuous
 62
     7
370
     0
100
AcDbLine
 10
-117.5000001237347
 20
-7.0
 30
0.0
 11
-117.5000001237347
 21
4.499427752512133
 31
0.0
  0
LINE
  5
581D
330
A
100
AcDbEntity
  8
0
  6
Continuous
 62
     7
370
     0
100
AcDbLine
 10
-122.5000001237347
 20
4.499427752512133
 30
0.0
 11
-122.5000001237347
 21
7.0
 31
0.0
  0
LINE
  5
581E
330
A
100
AcDbEntity
  8
0
  6
Continuous
 62
     7
370
     0
100
AcDbLine
 10
-117.5000001237347
 20
4.499427752512133
 30
0.0
 11
-117.5000001237347
 21
7.0
 31
0.0
  0
LINE
  5
581F
330
A
100
AcDbEntity
  8
0
  6
Continuous
 62
     9
370
     0
100
AcDbLine
 10
-108.1500001237347
 20
-5.412842109669242
 30
0.0
 11
-108.1500001237347
 21
5.412842109680838
 31
0.0
  0
LINE
  5
5820
330
A
100
AcDbEntity
  8
0
  6
Continuous
 62
     7
370
     0
100
AcDbLine
 10
-107.9000001237349
 20
4.979829407788514
 30
0.0
 11
-107.9000001237349
 21
-4.97982940777706
 31
0.0
  0
LINE
  5
5821
330
A
100
AcDbEntity
  8
0
  6
Continuous
 62
     7
370
     0
100
AcDbLine
 10
-130.0000001237346
 20
19.99999999999974
 30
0.0
 11
-130.0000001237346
 21
-20.00000000000026
 31
0.0
  0
LINE
  5
5822
330
A
100
AcDbEntity
  8
0
  6
Continuous
 62
     9
370
     0
100
AcDbLine
 10
-127.0000001237347
 20
19.99999999999966
 30
0.0
 11
-127.0000001237347
 21
-20.00000000000034
 31
0.0
  0
LINE
  5
5823
330
A
100
AcDbEntity
  8
0
  6
Continuous
 62
     7
370
     0
100
AcDbLine
 10
-127.0000001237347
 20
-20.00000000000026
 30
0.0
 11
-130.0000001237346
 21
-20.00000000000026
 31
0.0
  0
LINE
  5
5824
330
A
100
AcDbEntity
  8
0
  6
Continuous
 62
     7
370
     0
100
AcDbLine
 10
-127.0000001237347
 20
19.99999999999974
 30
0.0
 11
-130.0000001237346
 21
19.99999999999974
 31
0.0
  0
LINE
  5
5825
330
A
100
AcDbEntity
  8
0
  6
Continuous
 62
     7
370
     0
100
AcDbLine
 10
-125.0000001237346
 20
19.99999999999966
 30
0.0
 11
-125.0000001237346
 21
-20.00000000000034
 31
0.0
  0
LINE
  5
5826
330
A
100
AcDbEntity
  8
0
  6
Continuous
 62
     7
370
     0
100
AcDbLine
 10
-125.0000001237346
 20
-20.00000000000034
 30
0.0
 11
-127.0000001237347
 21
-20.00000000000034
 31
0.0
  0
LINE
  5
5827
330
A
100
AcDbEntity
  8
0
  6
Continuous
 62
     7
370
     0
100
AcDbLine
 10
-125.0000001237346
 20
19.99999999999966
 30
0.0
 11
-127.0000001237347
 21
19.99999999999966
 31
0.0
  0
LINE
  5
5828
330
A
100
AcDbEntity
  8
0
  6
Continuous
 62
     7
370
     0
100
AcDbLine
 10
-115.0000001237348
 20
20.00000000000574
 30
0.0
 11
-112.6991390800916
 21
20.00000000000574
 31
0.0
  0
LINE
  5
5829
330
A
100
AcDbEntity
  8
0
  6
Continuous
 62
     9
370
     0
100
AcDbLine
 10
-112.6991390800916
 20
20.00000000000574
 30
0.0
 11
-112.6991390800916
 21
-19.99999999999426
 31
0.0
  0
LINE
  5
582A
330
A
100
AcDbEntity
  8
0
  6
Continuous
 62
     7
370
     0
100
AcDbLine
 10
-115.0000001237348
 20
20.00000000000574
 30
0.0
 11
-115.0000001237348
 21
-19.99999999999426
 31
0.0
  0
LINE
  5
582B
330
A
100
AcDbEntity
  8
0
  6
Continuous
 62
     7
370
     0
100
AcDbLine
 10
-115.0000001237348
 20
-19.99999999999426
 30
0.0
 11
-112.6991390800916
 21
-19.99999999999426
 31
0.0
  0
LINE
  5
582C
330
A
100
AcDbEntity
  8
0
  6
Continuous
 62
     9
370
     0
100
AcDbLine
 10
-111.7587345872417
 20
20.00000000000574
 30
0.0
 11
-111.7587345872417
 21
-19.99999999999426
 31
0.0
  0
LINE
  5
582D
330
A
100
AcDbEntity
  8
0
  6
Continuous
 62
     7
370
     0
100
AcDbLine
 10
-112.6991390800916
 20
20.00000000000574
 30
0.0
 11
-111.7587345872417
 21
20.00000000000574
 31
0.0
  0
LINE
  5
582E
330
A
100
AcDbEntity
  8
0
  6
Continuous
 62
     7
370
     0
100
AcDbLine
 10
-112.6991390800916
 20
-19.99999999999426
 30
0.0
 11
-111.7587345872417
 21
-19.99999999999426
 31
0.0
  0
LINE
  5
582F
330
A
100
AcDbEntity
  8
0
  6
Continuous
 62
     9
370
     0
100
AcDbLine
 10
-105.7993693326095
 20
20.00000000000574
 30
0.0
 11
-105.7993693326095
 21
-19.99999999999426
 31
0.0
  0
LINE
  5
583C
330
A
100
AcDbEntity
  8
0
  6
Continuous
 62
     7
370
     0
100
AcDbLine
 10
-111.7587345872417
 20
20.00000000000574
 30
0.0
 11
-105.7993693326095
 21
20.00000000000574
 31
0.0
  0
LINE
  5
583D
330
A
100
AcDbEntity
  8
0
  6
Continuous
 62
     7
370
     0
100
AcDbLine
 10
-111.7587345872417
 20
-19.99999999999426
 30
0.0
 11
-105.7993693326095
 21
-19.99999999999426
 31
0.0
  0
LINE
  5
584A
330
A
100
AcDbEntity
  8
0
  6
Continuous
 62
     9
370
     0
100
AcDbLine
 10
-99.4839757289683
 20
20.00000000000574
 30
0.0
 11
-99.4839757289683
 21
-19.99999999999426
 31
0.0
  0
LINE
  5
584B
330
A
100
AcDbEntity
  8
0
  6
Continuous
 62
     7
370
     0
100
AcDbLine
 10
-99.4839757289683
 20
20.00000000000574
 30
0.0
 11
-105.7993693326095
 21
20.00000000000574
 31
0.0
  0
LINE
  5
584C
330
A
100
AcDbEntity
  8
0
  6
Continuous
 62
     7
370
     0
100
AcDbLine
 10
-99.4839757289683
 20
-19.99999999999426
 30
0.0
 11
-105.7993693326095
 21
-19.99999999999426
 31
0.0
  0
LINE
  5
584D
330
A
100
AcDbEntity
  8
0
  6
Continuous
 62
     9
370
     0
100
AcDbLine
 10
-75.6640013204884
 20
20.00000000000574
 30
0.0
 11
-75.6640013204884
 21
-19.99999999999426
 31
0.0
  0
CIRCLE
  5
584E
330
A
100
AcDbEntity
  8
0
  6
Continuous
 62
     7
370
     0
100
AcDbCircle
 10
-90.00104110470363
 20
-0.000031455050447
 30
0.0
 40
6.199968632334632
  0
LINE
  5
584F
330
A
100
AcDbEntity
  8
0
  6
Continuous
 62
     7
370
     0
100
AcDbLine
 10
-99.4839757289683
 20
20.00000000000574
 30
0.0
 11
-75.6640013204884
 21
20.00000000000574
 31
0.0
  0
LINE
  5
5850
330
A
100
AcDbEntity
  8
0
  6
Continuous
 62
     7
370
     0
100
AcDbLine
 10
-99.4839757289683
 20
-19.99999999999426
 30
0.0
 11
-75.6640013204884
 21
-19.99999999999426
 31
0.0
  0
LINE
  5
5851
330
A
100
AcDbEntity
  8
0
  6
Continuous
 62
     7
370
     0
100
AcDbLine
 10
-75.00000012373471
 20
20.00000000000574
 30
0.0
 11
-75.00000012373471
 21
-19.99999999999426
 31
0.0
  0
LINE
  5
5852
330
A
100
AcDbEntity
  8
0
  6
Continuous
 62
     7
370
     0
100
AcDbLine
 10
-75.6640013204884
 20
20.00000000000574
 30
0.0
 11
-75.00000012373471
 21
20.00000000000574
 31
0.0
  0
LINE
  5
5853
330
A
100
AcDbEntity
  8
0
  6
Continuous
 62
     7
370
     0
100
AcDbLine
 10
-75.6640013204884
 20
-19.99999999999426
 30
0.0
 11
-75.00000012373471
 21
-19.99999999999426
 31
0.0
  0
LINE
  5
5854
330
A
100
AcDbEntity
  8
0
  6
Continuous
 62
     9
370
     0
100
AcDbLine
 10
-117.5000001237347
 20
-2.499999999994258
 30
0.0
 11
-116.0000001237353
 21
-2.499999999994258
 31
0.0
  0
LINE
  5
5855
330
A
100
AcDbEntity
  8
0
  6
Continuous
 62
     9
370
     0
100
AcDbLine
 10
-116.0000001237353
 20
2.500000000005741
 30
0.0
 11
-117.5000001237347
 21
2.500000000005741
 31
0.0
  0
LINE
  5
5856
330
A
100
AcDbEntity
  8
0
  6
Continuous
 62
     7
370
     0
100
AcDbLine
 10
-122.5000001237347
 20
-7.0
 30
0.0
 11
-117.5000001237347
 21
-7.0
 31
0.0
  0
LINE
  5
5857
330
A
100
AcDbEntity
  8
0
  6
Continuous
 62
     7
370
     0
100
AcDbLine
 10
-117.5000001237347
 20
7.0
 30
0.0
 11
-122.5000001237347
 21
7.0
 31
0.0
  0
LINE
  5
5858
330
A
100
AcDbEntity
  8
0
  6
Continuous
 62
     7
370
     0
100
AcDbLine
 10
-108.3553671989309
 20
-5.531410845816481
 30
0.0
 11
-108.1500001237347
 21
-5.412842109669242
 31
0.0
  0
LINE
  5
5859
330
A
100
AcDbEntity
  8
0
  6
Continuous
 62
     7
370
     0
100
AcDbLine
 10
-108.1500001237347
 20
5.412842109680838
 30
0.0
 11
-108.3550193636234
 21
5.531210023019639
 31
0.0
  0
ARC
  5
585A
330
A
100
AcDbEntity
  8
0
  6
Continuous
 62
     7
370
     0
100
AcDbCircle
 10
-108.4000001237347
 20
4.979829407788514
 30
0.0
 40
0.4999999999999451
100
AcDbArc
 50
0.0
 51
60.00000000000028
  0
ARC
  5
585B
330
A
100
AcDbEntity
  8
0
  6
Continuous
 62
     7
370
     0
100
AcDbCircle
 10
-108.4000001237347
 20
-4.97982940777706
 30
0.0
 40
0.499999999999988
100
AcDbArc
 50
299.9999999999989
 51
359.9999999999968
  0
LINE
  5
585C
330
A
100
AcDbEntity
  8
0
  6
Continuous
 62
     7
370
     0
100
AcDbLine
 10
-117.5000001237347
 20
-2.999999999994258
 30
0.0
 11
-116.0000001237353
 21
-2.999999999994258
 31
0.0
  0
LINE
  5
585D
330
A
100
AcDbEntity
  8
0
  6
Continuous
 62
     7
370
     0
100
AcDbLine
 10
-116.0000001237353
 20
3.000000000005741
 30
0.0
 11
-117.5000001237347
 21
3.000000000005741
 31
0.0
  0
LINE
  5
585E
330
A
100
AcDbEntity
  8
0
  6
Continuous
 62
     7
370
     0
100
AcDbLine
 10
-122.5000001237347
 20
4.900000000000005
 30
0.0
 11
-124.0000001237347
 21
4.900000000000005
 31
0.0
  0
LINE
  5
585F
330
A
100
AcDbEntity
  8
0
  6
Continuous
 62
     7
370
     0
100
AcDbLine
 10
-124.0000001237347
 20
-4.899999999999977
 30
0.0
 11
-122.5000001237347
 21
-4.899999999999977
 31
0.0
  0
LINE
  5
5860
330
A
100
AcDbEntity
  8
0
  6
Continuous
 62
     7
370
     0
100
AcDbLine
 10
-42.50000016540036
 20
-6.999999999995054
 30
0.0
 11
-42.5000001644886
 21
7.000000000004945
 31
0.0
  0
LINE
  5
5861
330
A
100
AcDbEntity
  8
0
  6
Continuous
 62
     7
370
     0
100
AcDbLine
 10
-37.50000016540037
 20
-7.000000000320653
 30
0.0
 11
-37.5000001644886
 21
6.999999999679431
 31
0.0
  0
LINE
  5
5862
330
A
100
AcDbEntity
  8
0
  6
Continuous
 62
     7
370
     0
100
AcDbLine
 10
-50.00000016494675
 20
20.00000000000574
 30
0.0
 11
-50.00000016494675
 21
-19.99999999999426
 31
0.0
  0
LINE
  5
5863
330
A
100
AcDbEntity
  8
0
  6
Continuous
 62
     7
370
     0
100
AcDbLine
 10
-47.00000016494676
 20
20.00000000000574
 30
0.0
 11
-50.00000016494675
 21
20.00000000000574
 31
0.0
  0
LINE
  5
5864
330
A
100
AcDbEntity
  8
0
  6
Continuous
 62
     9
370
     0
100
AcDbLine
 10
-47.00000016494676
 20
20.00000000000574
 30
0.0
 11
-47.00000016494676
 21
-19.99999999999426
 31
0.0
  0
LINE
  5
5865
330
A
100
AcDbEntity
  8
0
  6
Continuous
 62
     7
370
     0
100
AcDbLine
 10
-47.00000016494676
 20
-19.99999999999426
 30
0.0
 11
-50.00000016494675
 21
-19.99999999999426
 31
0.0
  0
LINE
  5
5866
330
A
100
AcDbEntity
  8
0
  6
Continuous
 62
     7
370
     0
100
AcDbLine
 10
-45.00000016494675
 20
20.00000000000574
 30
0.0
 11
-47.00000016494676
 21
20.00000000000574
 31
0.0
  0
LINE
  5
5867
330
A
100
AcDbEntity
  8
0
  6
Continuous
 62
     7
370
     0
100
AcDbLine
 10
-45.00000016494675
 20
20.00000000000574
 30
0.0
 11
-45.00000016494675
 21
-19.99999999999426
 31
0.0
  0
LINE
  5
5868
330
A
100
AcDbEntity
  8
0
  6
Continuous
 62
     7
370
     0
100
AcDbLine
 10
-45.00000016494675
 20
-19.99999999999426
 30
0.0
 11
-47.00000016494676
 21
-19.99999999999426
 31
0.0
  0
LINE
  5
5869
330
A
100
AcDbEntity
  8
0
  6
Continuous
 62
     7
370
     0
100
AcDbLine
 10
-44.00000016494675
 20
19.00000000000554
 30
0.0
 11
-45.00000016494675
 21
19.00000000000554
 31
0.0
  0
LINE
  5
586A
330
A
100
AcDbEntity
  8
0
  6
Continuous
 62
     9
370
     0
100
AcDbLine
 10
-44.00000016494675
 20
17.00000000000554
 30
0.0
 11
-45.00000016494675
 21
17.00000000000554
 31
0.0
  0
LINE
  5
586B
330
A
100
AcDbEntity
  8
0
  6
Continuous
 62
     7
370
     0
100
AcDbLine
 10
-44.00000016494675
 20
19.00000000000554
 30
0.0
 11
-44.00000016494675
 21
17.00000000000554
 31
0.0
  0
LINE
  5
586C
330
A
100
AcDbEntity
  8
0
  6
Continuous
 62
     9
370
     0
100
AcDbLine
 10
-44.00000016494675
 20
-16.99999999999414
 30
0.0
 11
-45.00000016494675
 21
-16.99999999999414
 31
0.0
  0
LINE
  5
586D
330
A
100
AcDbEntity
  8
0
  6
Continuous
 62
     7
370
     0
100
AcDbLine
 10
-44.00000016494675
 20
17.00000000000554
 30
0.0
 11
-44.00000016494675
 21
-16.99999999999414
 31
0.0
  0
LINE
  5
586E
330
A
100
AcDbEntity
  8
0
  6
Continuous
 62
     7
370
     0
100
AcDbLine
 10
-44.00000016494675
 20
-18.99999999999414
 30
0.0
 11
-45.00000016494675
 21
-18.99999999999414
 31
0.0
  0
LINE
  5
586F
330
A
100
AcDbEntity
  8
0
  6
Continuous
 62
     7
370
     0
100
AcDbLine
 10
-44.00000016494675
 20
-16.99999999999414
 30
0.0
 11
-44.00000016494675
 21
-18.99999999999409
 31
0.0
  0
LINE
  5
5870
330
A
100
AcDbEntity
  8
0
  6
Continuous
 62
     7
370
     0
100
AcDbLine
 10
-35.00000016494698
 20
19.00000000000574
 30
0.0
 11
-36.00000016494699
 21
19.00000000000574
 31
0.0
  0
LINE
  5
5871
330
A
100
AcDbEntity
  8
0
  6
Continuous
 62
     9
370
     0
100
AcDbLine
 10
-35.00000016494698
 20
17.00000000000574
 30
0.0
 11
-36.00000016494699
 21
17.00000000000574
 31
0.0
  0
LINE
  5
5872
330
A
100
AcDbEntity
  8
0
  6
Continuous
 62
     7
370
     0
100
AcDbLine
 10
-36.00000016494699
 20
19.00000000000574
 30
0.0
 11
-36.00000016494699
 21
17.00000000000574
 31
0.0
  0
LINE
  5
5873
330
A
100
AcDbEntity
  8
0
  6
Continuous
 62
     7
370
     0
100
AcDbLine
 10
-35.00000016494698
 20
19.00000000000574
 30
0.0
 11
-35.00000016494698
 21
17.00000000000574
 31
0.0
  0
LINE
  5
5874
330
A
100
AcDbEntity
  8
0
  6
Continuous
 62
     7
370
     0
100
AcDbLine
 10
-35.00000016494698
 20
-18.99999999999426
 30
0.0
 11
-36.00000016494699
 21
-18.99999999999426
 31
0.0
  0
LINE
  5
5875
330
A
100
AcDbEntity
  8
0
  6
Continuous
 62
     7
370
     0
100
AcDbLine
 10
-36.00000016494699
 20
-16.99999999999426
 30
0.0
 11
-36.00000016494699
 21
-18.99999999999426
 31
0.0
  0
LINE
  5
5876
330
A
100
AcDbEntity
  8
0
  6
Continuous
 62
     7
370
     0
100
AcDbLine
 10
-35.00000016494698
 20
-16.99999999999426
 30
0.0
 11
-35.00000016494698
 21
-18.99999999999426
 31
0.0
  0
LINE
  5
5877
330
A
100
AcDbEntity
  8
0
  6
Continuous
 62
     9
370
     0
100
AcDbLine
 10
-35.00000016494698
 20
-16.99999999999426
 30
0.0
 11
-36.00000016494699
 21
-16.99999999999426
 31
0.0
  0
LINE
  5
5878
330
A
100
AcDbEntity
  8
0
  6
Continuous
 62
     7
370
     0
100
AcDbLine
 10
-36.00000016494699
 20
17.00000000000574
 30
0.0
 11
-36.00000016494699
 21
-16.99999999999426
 31
0.0
  0
LINE
  5
5879
330
A
100
AcDbEntity
  8
0
  6
Continuous
 62
     7
370
     0
100
AcDbLine
 10
-35.00000016494698
 20
17.00000000000574
 30
0.0
 11
-35.00000016494698
 21
-16.99999999999426
 31
0.0
  0
LINE
  5
587A
330
A
100
AcDbEntity
  8
0
  6
Continuous
 62
     7
370
     0
100
AcDbLine
 10
-15.00000008251481
 20
20.00000000000054
 30
0.0
 11
-15.00000008251595
 21
-19.99999999999957
 31
0.0
  0
LINE
  5
587B
330
A
100
AcDbEntity
  8
0
  6
Continuous
 62
     7
370
     0
100
AcDbLine
 10
-12.00000008251481
 20
20.00000000000043
 30
0.0
 11
-15.00000008251481
 21
20.00000000000054
 31
0.0
  0
LINE
  5
587C
330
A
100
AcDbEntity
  8
0
  6
Continuous
 62
     9
370
     0
100
AcDbLine
 10
-12.00000008251481
 20
20.00000000000043
 30
0.0
 11
-12.00000008251595
 21
-19.99999999999966
 31
0.0
  0
LINE
  5
587D
330
A
100
AcDbEntity
  8
0
  6
Continuous
 62
     7
370
     0
100
AcDbLine
 10
-12.00000008251595
 20
-19.99999999999966
 30
0.0
 11
-15.00000008251595
 21
-19.99999999999957
 31
0.0
  0
LINE
  5
587E
330
A
100
AcDbEntity
  8
0
  6
Continuous
 62
     9
370
     0
100
AcDbLine
 10
11.99999991748518
 20
19.99999999999974
 30
0.0
 11
11.99999991748405
 21
-20.00000000000026
 31
0.0
  0
LINE
  5
587F
330
A
100
AcDbEntity
  8
0
  6
Continuous
 62
     7
370
     0
100
AcDbLine
 10
11.99999991748518
 20
19.99999999999974
 30
0.0
 11
-12.00000008251481
 21
20.00000000000043
 31
0.0
  0
LINE
  5
5880
330
A
100
AcDbEntity
  8
0
  6
Continuous
 62
     7
370
     0
100
AcDbLine
 10
11.99999991748405
 20
-20.00000000000026
 30
0.0
 11
-12.00000008251595
 21
-19.99999999999966
 31
0.0
  0
LINE
  5
5881
330
A
100
AcDbEntity
  8
0
  6
Continuous
 62
     7
370
     0
100
AcDbLine
 10
14.99999991748518
 20
19.99999999999966
 30
0.0
 11
14.99999991748405
 21
-20.00000000000034
 31
0.0
  0
LINE
  5
5882
330
A
100
AcDbEntity
  8
0
  6
Continuous
 62
     7
370
     0
100
AcDbLine
 10
14.99999991748518
 20
19.99999999999966
 30
0.0
 11
11.99999991748518
 21
19.99999999999974
 31
0.0
  0
LINE
  5
5883
330
A
100
AcDbEntity
  8
0
  6
Continuous
 62
     7
370
     0
100
AcDbLine
 10
14.99999991748405
 20
-20.00000000000034
 30
0.0
 11
11.99999991748405
 21
-20.00000000000026
 31
0.0
  0
LINE
  5
5884
330
A
100
AcDbEntity
  8
0
  6
Continuous
 62
     9
370
     0
100
AcDbLine
 10
-20.00000016494698
 20
20.00000000000574
 30
0.0
 11
-20.00000016494698
 21
-19.99999999999426
 31
0.0
  0
LINE
  5
5885
330
A
100
AcDbEntity
  8
0
  6
Continuous
 62
     7
370
     0
100
AcDbLine
 10
-20.00000016494698
 20
20.00000000000574
 30
0.0
 11
-15.00000008251481
 21
20.00000000000574
 31
0.0
  0
LINE
  5
5886
330
A
100
AcDbEntity
  8
0
  6
Continuous
 62
     7
370
     0
100
AcDbLine
 10
-20.00000016494698
 20
-19.99999999999426
 30
0.0
 11
-15.00000008251595
 21
-19.99999999999426
 31
0.0
  0
LINE
  5
5887
330
A
100
AcDbEntity
  8
0
  6
Continuous
 62
     7
370
     0
100
AcDbLine
 10
-34.00000016494698
 20
20.00000000000574
 30
0.0
 11
-34.00000016494698
 21
-19.99999999999426
 31
0.0
  0
LINE
  5
5888
330
A
100
AcDbEntity
  8
0
  6
Continuous
 62
     7
370
     0
100
AcDbLine
 10
-34.00000016494698
 20
20.00000000000574
 30
0.0
 11
-20.00000016494698
 21
20.00000000000574
 31
0.0
  0
LINE
  5
5889
330
A
100
AcDbEntity
  8
0
  6
Continuous
 62
     7
370
     0
100
AcDbLine
 10
-34.00000016494698
 20
-19.99999999999426
 30
0.0
 11
-20.00000016494698
 21
-19.99999999999426
 31
0.0
  0
LINE
  5
588A
330
A
100
AcDbEntity
  8
0
  6
Continuous
 62
     7
370
     0
100
AcDbLine
 10
-35.00000016494698
 20
20.00000000000574
 30
0.0
 11
-35.00000016494698
 21
19.00000000000574
 31
0.0
  0
LINE
  5
588B
330
A
100
AcDbEntity
  8
0
  6
Continuous
 62
     7
370
     0
100
AcDbLine
 10
-35.00000016494698
 20
-18.99999999999426
 30
0.0
 11
-35.00000016494698
 21
-19.99999999999426
 31
0.0
  0
LINE
  5
588C
330
A
100
AcDbEntity
  8
0
  6
Continuous
 62
     7
370
     0
100
AcDbLine
 10
-34.00000016494698
 20
20.00000000000574
 30
0.0
 11
-35.00000016494698
 21
20.00000000000574
 31
0.0
  0
LINE
  5
588D
330
A
100
AcDbEntity
  8
0
  6
Continuous
 62
     7
370
     0
100
AcDbLine
 10
-34.00000016494698
 20
-19.99999999999426
 30
0.0
 11
-35.00000016494698
 21
-19.99999999999426
 31
0.0
  0
LINE
  5
588E
330
A
100
AcDbEntity
  8
0
  6
Continuous
 62
     9
370
     0
100
AcDbLine
 10
-37.50000016510706
 20
-2.500000000024868
 30
0.0
 11
-36.00000016494699
 21
-2.500000000024868
 31
0.0
  0
LINE
  5
588F
330
A
100
AcDbEntity
  8
0
  6
Continuous
 62
     9
370
     0
100
AcDbLine
 10
-36.00000016494699
 20
2.499999999975131
 30
0.0
 11
-37.50000016478145
 21
2.499999999975131
 31
0.0
  0
LINE
  5
5890
330
A
100
AcDbEntity
  8
0
  6
Continuous
 62
     7
370
     0
100
AcDbLine
 10
-42.50000016540036
 20
-6.999999999995054
 30
0.0
 11
-37.50000016540037
 21
-7.000000000320653
 31
0.0
  0
LINE
  5
5891
330
A
100
AcDbEntity
  8
0
  6
Continuous
 62
     7
370
     0
100
AcDbLine
 10
-37.5000001644886
 20
6.999999999679431
 30
0.0
 11
-42.5000001644886
 21
7.000000000004945
 31
0.0
  0
LINE
  5
5892
330
A
100
AcDbEntity
  8
0
  6
Continuous
 62
     7
370
     0
100
AcDbLine
 10
-37.50000016513968
 20
-3.000000000024868
 30
0.0
 11
-36.00000016494699
 21
-3.000000000024982
 31
0.0
  0
LINE
  5
5893
330
A
100
AcDbEntity
  8
0
  6
Continuous
 62
     7
370
     0
100
AcDbLine
 10
-36.00000016494699
 20
2.999999999975131
 30
0.0
 11
-37.50000016474917
 21
2.999999999975131
 31
0.0
  0
LINE
  5
5894
330
A
100
AcDbEntity
  8
0
  6
Continuous
 62
     7
370
     0
100
AcDbLine
 10
-42.50000016462536
 20
4.900000000005718
 30
0.0
 11
-44.00000016494675
 21
4.900000000005718
 31
0.0
  0
LINE
  5
5895
330
A
100
AcDbEntity
  8
0
  6
Continuous
 62
     7
370
     0
100
AcDbLine
 10
-44.00000016494675
 20
-4.899999999994264
 30
0.0
 11
-42.50000016526349
 21
-4.899999999994264
 31
0.0
  0
TEXT
  5
6277
330
A
100
AcDbEntity
  8
0
  6
Continuous
 62
     7
370
     0
100
AcDbText
 10
-15.48134722953273
 20
55.00732064422803
 30
0.0
 40
10.0
  1
4415
100
AcDbText
  0
LINE
  5
6279
330
A
100
AcDbEntity
  8
0
  6
Continuous
 62
     7
370
     0
100
AcDbLine
 10
-107.7519587138871
 20
6.199999999990751
 30
0.0
 11
-107.6245019265922
 21
6.166176285578359
 31
0.0
  0
LINE
  5
627A
330
A
100
AcDbEntity
  8
0
  6
Continuous
 62
     7
370
     0
100
AcDbLine
 10
-107.6245019265922
 20
6.166176285578359
 30
0.0
 11
-107.521770311434
 21
6.085739740634153
 31
0.0
  0
LINE
  5
627B
330
A
100
AcDbEntity
  8
0
  6
Continuous
 62
     7
370
     0
100
AcDbLine
 10
-107.521770311434
 20
6.085739740634153
 30
0.0
 11
-107.4254307689292
 21
5.961060459688155
 31
0.0
  0
ARC
  5
627C
330
A
100
AcDbEntity
  8
0
  6
Continuous
 62
     7
370
     0
100
AcDbCircle
 10
-130.6009903988193
 20
-0.0969527222344766
 30
0.0
 40
23.95424989163608
100
AcDbArc
 50
353.3275317857615
 51
14.64914476814561
  0
ARC
  5
627D
330
A
100
AcDbEntity
  8
0
  6
Continuous
 62
     7
370
     0
100
AcDbCircle
 10
-116.0464767504795
 20
-2.694640477870365
 30
0.0
 40
9.239349626102423
100
AcDbArc
 50
340.0182198125587
 51
358.8487170816494
  0
LINE
  5
627E
330
A
100
AcDbEntity
  8
0
  6
Continuous
 62
     7
370
     0
100
AcDbLine
 10
-107.3633236446014
 20
-5.851923115397852
 30
0.0
 11
-107.4545254671239
 21
-6.004153628450836
 31
0.0
  0
LINE
  5
627F
330
A
100
AcDbEntity
  8
0
  6
Continuous
 62
     7
370
     0
100
AcDbLine
 10
-107.4545254671239
 20
-6.004153628450836
 30
0.0
 11
-107.5621668030952
 21
-6.123416998844874
 31
0.0
  0
LINE
  5
6280
330
A
100
AcDbEntity
  8
0
  6
Continuous
 62
     7
370
     0
100
AcDbLine
 10
-107.5621668030952
 20
-6.123416998844874
 30
0.0
 11
-107.6874604251969
 21
-6.191459204787747
 31
0.0
  0
LINE
  5
6281
330
A
100
AcDbEntity
  8
0
  6
Continuous
 62
     7
370
     0
100
AcDbLine
 10
-107.6874604251969
 20
-6.191459204787747
 30
0.0
 11
-107.7519559761956
 21
-6.199999999994275
 31
0.0
  0
LINE
  5
6282
330
A
100
AcDbEntity
  8
0
  6
Continuous
 62
     7
370
     0
100
AcDbLine
 10
-107.7519559761956
 20
-6.199999999994275
 30
0.0
 11
-107.8589062842732
 21
-6.17762076511255
 31
0.0
  0
LINE
  5
6283
330
A
100
AcDbEntity
  8
0
  6
Continuous
 62
     7
370
     0
100
AcDbLine
 10
-107.8589062842732
 20
-6.17762076511255
 30
0.0
 11
-107.967901928435
 21
-6.110861837167163
 31
0.0
  0
LINE
  5
6284
330
A
100
AcDbEntity
  8
0
  6
Continuous
 62
     7
370
     0
100
AcDbLine
 10
-107.967901928435
 20
-6.110861837167163
 30
0.0
 11
-108.0813337834921
 21
-5.996250200673728
 31
0.0
  0
ARC
  5
6285
330
A
100
AcDbEntity
  8
0
  6
Continuous
 62
     7
370
     0
100
AcDbCircle
 10
-92.83076513266905
 20
0.1158071435963563
 30
0.0
 40
16.42976229752314
100
AcDbArc
 50
169.1776053672793
 51
201.8397133756756
  0
ARC
  5
6286
330
A
100
AcDbEntity
  8
0
  6
Continuous
 62
     7
370
     0
100
AcDbCircle
 10
-101.2673670075875
 20
2.357929607985738
 30
0.0
 40
7.746922573270595
100
AcDbArc
 50
152.9838836673605
 51
173.754222281453
  0
LINE
  5
6287
330
A
100
AcDbEntity
  8
0
  6
Continuous
 62
     7
370
     0
100
AcDbLine
 10
-108.1689360089237
 20
5.876900292155738
 30
0.0
 11
-108.0579067351933
 21
6.023635494635243
 31
0.0
  0
LINE
  5
6288
330
A
100
AcDbEntity
  8
0
  6
Continuous
 62
     7
370
     0
100
AcDbLine
 10
-108.0579067351933
 20
6.023635494635243
 30
0.0
 11
-107.9457259434006
 21
6.12791808149916
 31
0.0
  0
LINE
  5
6289
330
A
100
AcDbEntity
  8
0
  6
Continuous
 62
     7
370
     0
100
AcDbLine
 10
-107.9457259434006
 20
6.12791808149916
 30
0.0
 11
-107.8360504457222
 21
6.186094112640006
 31
0.0
  0
LINE
  5
628A
330
A
100
AcDbEntity
  8
0
  6
Continuous
 62
     7
370
     0
100
AcDbLine
 10
-107.8360504457222
 20
6.186094112640006
 30
0.0
 11
-107.7519587138871
 21
6.199999999990751
 31
0.0
  0
CIRCLE
  5
637A
330
A
100
AcDbEntity
  8
0
  6
CENTER
 62
     1
100
AcDbCircle
 10
0.0
 20
0.0
 30
0.0
 40
7.0
  0
CIRCLE
  5
637C
330
A
100
AcDbEntity
  8
0
  6
CENTER
 62
     1
100
AcDbCircle
 10
-90.00104110470363
 20
-0.0000000000414673
 30
0.0
 40
7.0
  0
ENDSEC
  0
SECTION
  2
OBJECTS
  0
DICTIONARY
  5
19
330
0
100
AcDbDictionary
281
     1
  3
ACAD_COLOR
350
3176
  3
ACAD_GROUP
350
1A
  3
ACAD_LAYOUT
350
1E
  3
ACAD_MATERIAL
350
314C
  3
ACAD_MLEADERSTYLE
350
319B
  3
ACAD_MLINESTYLE
350
1B
  3
ACAD_PLOTSETTINGS
350
22
  3
ACAD_PLOTSTYLENAME
350
1F
  3
ACAD_SCALELIST
350
3179
  3
ACAD_TABLESTYLE
350
3177
  3
ACAD_VISUALSTYLE
350
3165
  3
ACAD_WIPEOUT_VARS
350
23
  3
ACDB_RECOMPOSE_DATA
350
630A
  3
AcDbVariableDictionary
350
630B
  3
ASE_INDEX_DICTIONARY
350
5E44
  3
DWGPROPS
350
6385
  0
DICTIONARY
  5
5E41
330
14
100
AcDbDictionary
280
     1
281
     1
  3
ADSK_XREC_LAYER_RECONCILED
360
5E42
  0
DICTIONARY
  5
31A7
330
A
100
AcDbDictionary
280
     1
281
     1
  3
ACAD_SORTENTS
360
31A8
  0
DICTIONARY
  5
3176
102
{ACAD_REACTORS
330
19
102
}
330
19
100
AcDbDictionary
281
     1
  0
DICTIONARY
  5
1A
102
{ACAD_REACTORS
330
19
102
}
330
19
100
AcDbDictionary
281
     1
  0
DICTIONARY
  5
1E
102
{ACAD_REACTORS
330
19
102
}
330
19
100
AcDbDictionary
281
     1
  3
Layout1
350
21
  3
Model
350
20
  0
DICTIONARY
  5
314C
102
{ACAD_REACTORS
330
19
102
}
330
19
100
AcDbDictionary
281
     1
  3
ByBlock
350
3155
  3
ByLayer
350
314D
  3
Global
350
315D
  0
DICTIONARY
  5
319B
102
{ACAD_REACTORS
330
19
102
}
330
19
100
AcDbDictionary
281
     1
  3
Standard
350
319C
  0
DICTIONARY
  5
1B
102
{ACAD_REACTORS
330
19
102
}
330
19
100
AcDbDictionary
281
     1
  3
Standard
350
1C
  0
DICTIONARY
  5
22
102
{ACAD_REACTORS
330
19
102
}
330
19
100
AcDbDictionary
281
     1
  0
ACDBDICTIONARYWDFLT
  5
1F
102
{ACAD_REACTORS
330
19
102
}
330
19
100
AcDbDictionary
281
     1
  3
Normal
350
1D
100
AcDbDictionaryWithDefault
340
1D
  0
DICTIONARY
  5
3179
102
{ACAD_REACTORS
330
19
102
}
330
19
100
AcDbDictionary
281
     1
  3
A0
350
317A
  3
A1
350
317B
  3
A2
350
317C
  3
A3
350
317D
  3
A4
350
317E
  3
A5
350
317F
  3
A6
350
3180
  3
A7
350
3181
  3
A8
350
3182
  3
A9
350
3183
  3
B0
350
3184
  3
B1
350
3185
  3
B2
350
3186
  3
B3
350
3187
  3
B4
350
3188
  3
B5
350
3189
  3
B6
350
318A
  3
B7
350
318B
  3
B8
350
318C
  3
B9
350
318D
  3
C0
350
318E
  3
C1
350
318F
  3
C2
350
3190
  3
C3
350
3191
  3
C4
350
3192
  3
C5
350
3193
  3
C6
350
3194
  3
C7
350
3195
  3
C8
350
3196
  3
C9
350
3197
  3
D0
350
3198
  3
D1
350
3199
  3
D2
350
319A
  0
DICTIONARY
  5
3177
102
{ACAD_REACTORS
330
19
102
}
330
19
100
AcDbDictionary
281
     1
  3
Standard
350
3178
  0
DICTIONARY
  5
3165
102
{ACAD_REACTORS
330
19
102
}
330
19
100
AcDbDictionary
281
     1
  3
2dWireframe
350
316B
  3
3D Hidden
350
316D
  3
3dWireframe
350
316C
  3
Basic
350
316A
  3
Brighten
350
3171
  3
ColorChange
350
3175
  3
Conceptual
350
316E
  3
Dim
350
3170
  3
Facepattern
350
3174
  3
Flat
350
3166
  3
FlatWithEdges
350
3167
  3
Gouraud
350
3168
  3
GouraudWithEdges
350
3169
  3
Linepattern
350
3173
  3
Realistic
350
316F
  3
Thicken
350
3172
  0
WIPEOUTVARIABLES
  5
23
330
19
100
AcDbWipeoutVariables
 70
     1
  0
XRECORD
  5
630A
102
{ACAD_REACTORS
330
19
102
}
330
19
100
AcDbXrecord
280
     1
 90
        1
330
3178
  0
DICTIONARY
  5
630B
102
{ACAD_REACTORS
330
19
102
}
330
19
100
AcDbDictionary
281
     1
  3
CANNOSCALE
350
630F
  3
CMLEADERSTYLE
350
630D
  3
CTABLESTYLE
350
630C
  3
DIMASSOC
350
6318
  3
INDEXCTL
350
6317
  3
LIGHTINGUNITS
350
6310
  3
MSLTSCALE
350
630E
  3
SORTENTS
350
6316
  0
DICTIONARY
  5
5E44
102
{ACAD_REACTORS
330
19
102
}
330
19
100
AcDbDictionary
281
     1
  3
ASEBlockHierarchyIndexRecord
350
5E46
1001
DCO15
1040
1685075681.336
  0
XRECORD
  5
6385
102
{ACAD_REACTORS
330
19
102
}
330
19
100
AcDbXrecord
280
     1
  1
DWGPROPS COOKIE
  2

  3

  4

  6

  7

  8
renzo.ceresoli
  9

300
=
301
=
302
=
303
=
304
=
305
=
306
=
307
=
308
=
309
=
 40
0.0021505092592593
 41
2455303.727916667
 42
2455306.415545891
  1

 90
        0
  0
XRECORD
  5
5E42
102
{ACAD_REACTORS
330
5E41
102
}
330
5E41
100
AcDbXrecord
280
     1
290
     1
  0
SORTENTSTABLE
  5
31A8
102
{ACAD_REACTORS
330
31A7
102
}
330
31A7
100
AcDbSortentsTable
330
A
331
5716
  5
38A4
331
5729
  5
3797
331
56C5
  5
3818
331
56E0
  5
3863
331
56FB
  5
3889
331
575D
  5
37CB
331
5778
  5
37E6
331
5793
  5
3755
331
5742
  5
37B0
331
57B0
  5
3772
331
57CB
  5
378D
331
57E6
  5
371D
331
5801
  5
3738
331
5873
  5
36A7
331
588E
  5
36C2
331
582D
  5
36EE
331
5858
  5
3703
331
57FF
  5
3736
331
6B1
  5
36CA
331
5714
  5
38A2
331
56C3
  5
3816
331
56DE
  5
3861
331
56F9
  5
3887
331
5776
  5
37E4
331
5791
  5
3753
331
5740
  5
37AE
331
575B
  5
37C9
331
57C9
  5
378B
331
57E4
  5
371B
331
57AE
  5
3770
331
588C
  5
36C0
331
582B
  5
36EC
331
5856
  5
3701
331
57FD
  5
3734
331
5871
  5
36A5
331
5712
  5
38A0
331
56C1
  5
3814
331
56DC
  5
385F
331
56F7
  5
3885
331
56AE
  5
37FA
331
5774
  5
37E2
331
578F
  5
3751
331
573E
  5
37AC
331
5759
  5
37C7
331
57C7
  5
3789
331
57E2
  5
3719
331
57AC
  5
376E
331
588A
  5
36BE
331
5816
  5
36D7
331
5829
  5
36EA
331
5854
  5
36FF
331
57FB
  5
3732
331
586F
  5
36A3
331
5710
  5
389E
331
56BF
  5
3812
331
56DA
  5
385D
331
56F5
  5
3883
331
56AC
  5
37F8
331
5772
  5
37E0
331
578D
  5
374F
331
573C
  5
37AA
331
5757
  5
37C5
331
570E
  5
389C
331
57C5
  5
3787
331
57E0
  5
3717
331
57AA
  5
376C
331
5888
  5
36BC
331
5827
  5
36E8
331
5852
  5
36FD
331
586D
  5
36A1
331
57DE
  5
3715
331
57F9
  5
3730
331
5814
  5
36D5
331
5886
  5
36BA
331
88E
  5
38C4
331
56BD
  5
3810
331
56D8
  5
385B
331
56F3
  5
3881
331
56AA
  5
37F1
331
5770
  5
37DE
331
578B
  5
374D
331
5727
  5
38B5
331
573A
  5
37A8
331
5755
  5
37C3
331
570C
  5
389A
331
57C3
  5
3785
331
57A8
  5
376A
331
5825
  5
36E6
331
5850
  5
36FB
331
586B
  5
369F
331
57DC
  5
3713
331
57F7
  5
372E
331
5812
  5
36D3
331
5884
  5
36B8
331
88C
  5
38C2
331
56BB
  5
3807
331
56D6
  5
3859
331
56F1
  5
387F
331
56A8
  5
37EF
331
576E
  5
37DC
331
5789
  5
374B
331
5725
  5
38B3
331
5738
  5
37A6
331
5753
  5
37C1
331
56EF
  5
387D
331
570A
  5
3898
331
5787
  5
3749
331
57C1
  5
3783
331
57A6
  5
3768
331
5823
  5
36E4
331
584E
  5
36F9
331
5869
  5
369D
331
57DA
  5
3711
331
57F5
  5
372C
331
5810
  5
36D1
331
57BF
  5
3781
331
5867
  5
369B
331
5882
  5
36B6
331
88A
  5
38C0
331
56D4
  5
3857
331
56B9
  5
3805
331
5723
  5
38B1
331
5736
  5
37A4
331
5751
  5
37BF
331
56ED
  5
3876
331
5708
  5
3896
331
576C
  5
37DA
331
5785
  5
3747
331
57A4
  5
3766
331
5821
  5
36E2
331
584C
  5
36F7
331
57D8
  5
370F
331
57F3
  5
372A
331
580E
  5
36CF
331
57BD
  5
377F
331
5865
  5
3699
331
5880
  5
36B4
331
888
  5
38BE
331
56D2
  5
3855
331
56B7
  5
3803
331
5721
  5
38AF
331
5734
  5
37A2
331
574F
  5
37BD
331
56EB
  5
386E
331
5706
  5
3894
331
576A
  5
37D8
331
5783
  5
3745
331
579E
  5
3760
331
57A2
  5
3764
331
581F
  5
36E0
331
584A
  5
36F5
331
57D6
  5
370D
331
57F1
  5
3728
331
580C
  5
36CD
331
57BB
  5
377D
331
5863
  5
3697
331
587E
  5
36B2
331
886
  5
38BC
331
56D0
  5
3853
331
56B5
  5
3801
331
5732
  5
37A0
331
574D
  5
37BB
331
5768
  5
37D6
331
56CE
  5
3851
331
56E9
  5
386C
331
5704
  5
3892
331
571F
  5
38AD
331
5781
  5
3743
331
579C
  5
375E
331
5766
  5
37D4
331
57A0
  5
3762
331
57D4
  5
370B
331
57EF
  5
3726
331
580A
  5
3741
331
57B9
  5
377B
331
581D
  5
36DE
331
5861
  5
3695
331
587C
  5
36B0
331
884
  5
38BA
331
56B3
  5
37FF
331
5730
  5
379E
331
574B
  5
37B9
331
56CC
  5
384F
331
56E7
  5
386A
331
5702
  5
3890
331
571D
  5
38AB
331
577F
  5
37ED
331
579A
  5
375C
331
5764
  5
37D2
331
57D2
  5
3794
331
57ED
  5
3724
331
5808
  5
373F
331
57B7
  5
3779
331
581B
  5
36DC
331
5895
  5
36C9
331
583C
  5
36F2
331
585F
  5
370A
331
587A
  5
36AE
331
882
  5
38B8
331
56B1
  5
37FD
331
572E
  5
379C
331
5749
  5
37B7
331
56E5
  5
3868
331
5700
  5
388E
331
571B
  5
38A9
331
56CA
  5
381D
331
5798
  5
375A
331
5747
  5
37B5
331
5762
  5
37D0
331
577D
  5
37EB
331
57EB
  5
3722
331
5806
  5
373D
331
5819
  5
36DA
331
57B5
  5
3777
331
57D0
  5
3792
331
585D
  5
3708
331
5878
  5
36AC
331
5893
  5
36C7
331
880
  5
38B6
331
572C
  5
379A
331
56E3
  5
3866
331
56FE
  5
388C
331
5719
  5
38A7
331
56C8
  5
381B
331
5796
  5
3758
331
5745
  5
37B3
331
5760
  5
37CE
331
577B
  5
37E9
331
57E9
  5
3720
331
5804
  5
373B
331
57B3
  5
3775
331
57CE
  5
3790
331
585B
  5
3706
331
5876
  5
36AA
331
5891
  5
36C5
331
572A
  5
3798
331
56E1
  5
3864
331
56FC
  5
388A
331
5717
  5
38A5
331
56C6
  5
3819
331
5794
  5
3756
331
5743
  5
37B1
331
575E
  5
37CC
331
5779
  5
37E7
331
57E7
  5
371E
331
5802
  5
3739
331
57B1
  5
3773
331
57CC
  5
378E
331
5859
  5
3704
331
5874
  5
36A8
331
588F
  5
36C3
331
582E
  5
36EF
331
6B2
  5
36CB
331
56DF
  5
3862
331
56FA
  5
3888
331
5715
  5
38A3
331
56C4
  5
3817
331
5728
  5
3796
331
5792
  5
3754
331
5741
  5
37AF
331
575C
  5
37CA
331
5777
  5
37E5
331
57E5
  5
371C
331
5800
  5
3737
331
57AF
  5
3771
331
57CA
  5
378C
331
5857
  5
3702
331
5872
  5
36A6
331
588D
  5
36C1
331
57FE
  5
3735
331
582C
  5
36ED
331
56DD
  5
3860
331
56F8
  5
3886
331
5713
  5
38A1
331
56AF
  5
37FB
331
56C2
  5
3815
331
5790
  5
3752
331
573F
  5
37AD
331
575A
  5
37C8
331
5775
  5
37E3
331
57E3
  5
371A
331
57AD
  5
376F
331
57C8
  5
378A
331
5855
  5
3700
331
5870
  5
36A4
331
588B
  5
36BF
331
57FC
  5
3733
331
5817
  5
36D8
331
582A
  5
36EB
331
56F6
  5
3884
331
5711
  5
389F
331
56AD
  5
37F9
331
56C0
  5
3813
331
56DB
  5
385E
331
573D
  5
37AB
331
5758
  5
37C6
331
570F
  5
389D
331
5773
  5
37E1
331
578E
  5
3750
331
57AB
  5
376D
331
57C6
  5
3788
331
57E1
  5
3718
331
5853
  5
36FE
331
586E
  5
36A2
331
5889
  5
36BD
331
57FA
  5
3731
331
5815
  5
36D6
331
5828
  5
36E9
331
57DF
  5
3716
331
5887
  5
36BB
331
56F4
  5
3882
331
56AB
  5
37F7
331
56BE
  5
3811
331
56D9
  5
385C
331
573B
  5
37A9
331
5756
  5
37C4
331
5771
  5
37DF
331
570D
  5
389B
331
578C
  5
374E
331
57A9
  5
376B
331
57C4
  5
3786
331
5851
  5
36FC
331
586C
  5
36A0
331
57F8
  5
372F
331
5813
  5
36D4
331
5826
  5
36E7
331
57DD
  5
3714
331
5885
  5
36B9
331
88D
  5
38C3
331
56F2
  5
3880
331
56A9
  5
37F0
331
56BC
  5
3808
331
56D7
  5
385A
331
5754
  5
37C2
331
576F
  5
37DD
331
578A
  5
374C
331
570B
  5
3899
331
5726
  5
38B4
331
5739
  5
37A7
331
57A7
  5
3769
331
57C2
  5
3784
331
586A
  5
369E
331
57F6
  5
372D
331
5811
  5
36D2
331
5824
  5
36E5
331
57DB
  5
3712
331
584F
  5
36FA
331
5883
  5
36B7
331
88B
  5
38C1
331
56F0
  5
387E
331
56A7
  5
37EE
331
56BA
  5
3806
331
56D5
  5
3858
331
5752
  5
37C0
331
576D
  5
37DB
331
5788
  5
374A
331
56EE
  5
387C
331
5709
  5
3897
331
5724
  5
38B2
331
5737
  5
37A5
331
5786
  5
3748
331
57A5
  5
3767
331
57C0
  5
3782
331
5868
  5
369C
331
57F4
  5
372B
331
580F
  5
36D0
331
5822
  5
36E3
331
57BE
  5
3780
331
57D9
  5
3710
331
584D
  5
36F8
331
5866
  5
369A
331
5881
  5
36B5
331
889
  5
38BF
331
56B8
  5
3804
331
56D3
  5
3856
331
5750
  5
37BE
331
576B
  5
37D9
331
5707
  5
3895
331
5722
  5
38B0
331
5735
  5
37A3
331
56EC
  5
386F
331
5784
  5
3746
331
579F
  5
3761
331
57A3
  5
3765
331
580D
  5
36CE
331
5820
  5
36E1
331
584B
  5
36F6
331
57BC
  5
377E
331
57D7
  5
370E
331
57F2
  5
3729
331
5864
  5
3698
331
587F
  5
36B3
331
887
  5
38BD
331
56B6
  5
3802
331
56D1
  5
3854
331
574E
  5
37BC
331
5769
  5
37D7
331
5705
  5
3893
331
5720
  5
38AE
331
5733
  5
37A1
331
56CF
  5
3852
331
56EA
  5
386D
331
5767
  5
37D5
331
5782
  5
3744
331
579D
  5
375F
331
57A1
  5
3763
331
580B
  5
36CC
331
581E
  5
36DF
331
57BA
  5
377C
331
57D5
  5
370C
331
57F0
  5
3727
331
5862
  5
3696
331
587D
  5
36B1
331
885
  5
38BB
331
56B4
  5
3800
331
574C
  5
37BA
331
5703
  5
3891
331
571E
  5
38AC
331
5731
  5
379F
331
56CD
  5
3850
331
56E8
  5
386B
331
5765
  5
37D3
331
5780
  5
3742
331
579B
  5
375D
331
5809
  5
3740
331
581C
  5
36DD
331
57B8
  5
377A
331
57D3
  5
3795
331
57EE
  5
3725
331
587B
  5
36AF
331
583D
  5
36F3
331
5860
  5
3694
331
883
  5
38B9
331
56B2
  5
37FE
331
5701
  5
388F
331
571C
  5
38AA
331
572F
  5
379D
331
56CB
  5
3835
331
56E6
  5
3869
331
574A
  5
37B8
331
5763
  5
37D1
331
577E
  5
37EC
331
5799
  5
375B
331
5807
  5
373E
331
581A
  5
36DB
331
57B6
  5
3778
331
57D1
  5
3793
331
57EC
  5
3723
331
5879
  5
36AD
331
5894
  5
36C8
331
585E
  5
3709
331
881
  5
38B7
331
56B0
  5
37FC
331
56FF
  5
388D
331
571A
  5
38A8
331
572D
  5
379B
331
56C9
  5
381C
331
56E4
  5
3867
331
5748
  5
37B6
331
5761
  5
37CF
331
577C
  5
37EA
331
5797
  5
3759
331
5746
  5
37B4
331
5805
  5
373C
331
5818
  5
36D9
331
57B4
  5
3776
331
57CF
  5
3791
331
57EA
  5
3721
331
5877
  5
36AB
331
5892
  5
36C6
331
585C
  5
3707
331
5718
  5
38A6
331
572B
  5
3799
331
56C7
  5
381A
331
56E2
  5
3865
331
56FD
  5
388B
331
575F
  5
37CD
331
577A
  5
37E8
331
5795
  5
3757
331
5744
  5
37B2
331
57B2
  5
3774
331
57CD
  5
378F
331
57E8
  5
371F
331
5803
  5
373A
331
5875
  5
36A9
331
5890
  5
36C4
331
582F
  5
36F0
331
585A
  5
3705
  0
LAYOUT
  5
21
102
{ACAD_XDICTIONARY
360
6388
102
}
102
{ACAD_REACTORS
330
1E
102
}
330
1E
100
AcDbPlotSettings
  1

  2

  4

  6

 40
0.0
 41
0.0
 42
0.0
 43
0.0
 44
0.0
 45
0.0
 46
0.0
 47
0.0
 48
0.0
 49
0.0
140
0.0
141
0.0
142
1.0
143
1.0
 70
     0
 72
     0
 73
     0
 74
     0
  7

 75
     0
147
1.0
148
0.0
149
0.0
100
AcDbLayout
  1
Layout1
 70
     0
 71
     1
 10
0.0
 20
0.0
 11
12.0
 21
9.0
 12
0.0
 22
0.0
 32
0.0
 14
1.000000000000000E+20
 24
1.000000000000000E+20
 34
1.000000000000000E+20
 15
-1.000000000000000E+20
 25
-1.000000000000000E+20
 35
-1.000000000000000E+20
146
0.0
 13
0.0
 23
0.0
 33
0.0
 16
1.0
 26
0.0
 36
0.0
 17
0.0
 27
1.0
 37
0.0
 76
     0
330
B
  0
LAYOUT
  5
20
102
{ACAD_XDICTIONARY
360
6386
102
}
102
{ACAD_REACTORS
330
1E
102
}
330
1E
100
AcDbPlotSettings
  1

  2

  4

  6

 40
0.0
 41
0.0
 42
0.0
 43
0.0
 44
0.0
 45
0.0
 46
0.0
 47
0.0
 48
0.0
 49
0.0
140
0.0
141
0.0
142
1.0
143
1.0
 70
  1024
 72
     0
 73
     0
 74
     0
  7

 75
     0
147
1.0
148
0.0
149
0.0
100
AcDbLayout
  1
Model
 70
     0
 71
     0
 10
0.0
 20
0.0
 11
0.0
 21
0.0
 12
0.0
 22
0.0
 32
0.0
 14
0.0
 24
0.0
 34
0.0
 15
0.0
 25
0.0
 35
0.0
146
0.0
 13
0.0
 23
0.0
 33
0.0
 16
0.0
 26
0.0
 36
0.0
 17
0.0
 27
0.0
 37
0.0
 76
     0
330
A
331
15
  0
MATERIAL
  5
3155
102
{ACAD_XDICTIONARY
360
3156
102
}
102
{ACAD_REACTORS
330
314C
102
}
330
314C
100
AcDbMaterial
  1
ByBlock
 72
     0
 43
0.0208333333333333
 43
0.0
 43
0.0
 43
0.0
 43
0.0
 43
0.0208333333333333
 43
0.0
 43
0.0
 43
0.0
 43
0.0
 43
1.0
 43
0.0
 43
0.0
 43
0.0
 43
0.0
 43
1.0
 77
     0
 47
0.0208333333333333
 47
0.0
 47
0.0
 47
0.0
 47
0.0
 47
0.0208333333333333
 47
0.0
 47
0.0
 47
0.0
 47
0.0
 47
1.0
 47
0.0
 47
0.0
 47
0.0
 47
0.0
 47
1.0
171
     0
 49
0.0208333333333333
 49
0.0
 49
0.0
 49
0.0
 49
0.0
 49
0.0208333333333333
 49
0.0
 49
0.0
 49
0.0
 49
0.0
 49
1.0
 49
0.0
 49
0.0
 49
0.0
 49
0.0
 49
1.0
175
     0
142
0.0208333333333333
142
0.0
142
0.0
142
0.0
142
0.0
142
0.0208333333333333
142
0.0
142
0.0
142
0.0
142
0.0
142
1.0
142
0.0
142
0.0
142
0.0
142
0.0
142
1.0
179
     0
144
0.0208333333333333
144
0.0
144
0.0
144
0.0
144
0.0
144
0.0208333333333333
144
0.0
144
0.0
144
0.0
144
0.0
144
1.0
144
0.0
144
0.0
144
0.0
144
0.0
144
1.0
147
0.0208333333333333
147
0.0
147
0.0
147
0.0
147
0.0
147
0.0208333333333333
147
0.0
147
0.0
147
0.0
147
0.0
147
1.0
147
0.0
147
0.0
147
0.0
147
0.0
147
1.0
  0
MATERIAL
  5
314D
102
{ACAD_XDICTIONARY
360
314E
102
}
102
{ACAD_REACTORS
330
314C
102
}
330
314C
100
AcDbMaterial
  1
ByLayer
 72
     0
 43
0.0208333333333333
 43
0.0
 43
0.0
 43
0.0
 43
0.0
 43
0.0208333333333333
 43
0.0
 43
0.0
 43
0.0
 43
0.0
 43
1.0
 43
0.0
 43
0.0
 43
0.0
 43
0.0
 43
1.0
 77
     0
 47
0.0208333333333333
 47
0.0
 47
0.0
 47
0.0
 47
0.0
 47
0.0208333333333333
 47
0.0
 47
0.0
 47
0.0
 47
0.0
 47
1.0
 47
0.0
 47
0.0
 47
0.0
 47
0.0
 47
1.0
171
     0
 49
0.0208333333333333
 49
0.0
 49
0.0
 49
0.0
 49
0.0
 49
0.0208333333333333
 49
0.0
 49
0.0
 49
0.0
 49
0.0
 49
1.0
 49
0.0
 49
0.0
 49
0.0
 49
0.0
 49
1.0
175
     0
142
0.0208333333333333
142
0.0
142
0.0
142
0.0
142
0.0
142
0.0208333333333333
142
0.0
142
0.0
142
0.0
142
0.0
142
1.0
142
0.0
142
0.0
142
0.0
142
0.0
142
1.0
179
     0
144
0.0208333333333333
144
0.0
144
0.0
144
0.0
144
0.0
144
0.0208333333333333
144
0.0
144
0.0
144
0.0
144
0.0
144
1.0
144
0.0
144
0.0
144
0.0
144
0.0
144
1.0
147
0.0208333333333333
147
0.0
147
0.0
147
0.0
147
0.0
147
0.0208333333333333
147
0.0
147
0.0
147
0.0
147
0.0
147
1.0
147
0.0
147
0.0
147
0.0
147
0.0
147
1.0
  0
MATERIAL
  5
315D
102
{ACAD_XDICTIONARY
360
315E
102
}
102
{ACAD_REACTORS
330
314C
102
}
330
314C
100
AcDbMaterial
  1
Global
 72
     0
 43
0.0208333333333333
 43
0.0
 43
0.0
 43
0.0
 43
0.0
 43
0.0208333333333333
 43
0.0
 43
0.0
 43
0.0
 43
0.0
 43
1.0
 43
0.0
 43
0.0
 43
0.0
 43
0.0
 43
1.0
 77
     0
 47
0.0208333333333333
 47
0.0
 47
0.0
 47
0.0
 47
0.0
 47
0.0208333333333333
 47
0.0
 47
0.0
 47
0.0
 47
0.0
 47
1.0
 47
0.0
 47
0.0
 47
0.0
 47
0.0
 47
1.0
171
     0
 49
0.0208333333333333
 49
0.0
 49
0.0
 49
0.0
 49
0.0
 49
0.0208333333333333
 49
0.0
 49
0.0
 49
0.0
 49
0.0
 49
1.0
 49
0.0
 49
0.0
 49
0.0
 49
0.0
 49
1.0
175
     0
142
0.0208333333333333
142
0.0
142
0.0
142
0.0
142
0.0
142
0.0208333333333333
142
0.0
142
0.0
142
0.0
142
0.0
142
1.0
142
0.0
142
0.0
142
0.0
142
0.0
142
1.0
179
     0
144
0.0208333333333333
144
0.0
144
0.0
144
0.0
144
0.0
144
0.0208333333333333
144
0.0
144
0.0
144
0.0
144
0.0
144
1.0
144
0.0
144
0.0
144
0.0
144
0.0
144
1.0
147
0.0208333333333333
147
0.0
147
0.0
147
0.0
147
0.0
147
0.0208333333333333
147
0.0
147
0.0
147
0.0
147
0.0
147
1.0
147
0.0
147
0.0
147
0.0
147
0.0
147
1.0
  0
MLEADERSTYLE
  5
319C
102
{ACAD_REACTORS
330
319B
102
}
330
319B
100
AcDbMLeaderStyle
170
     2
171
     1
172
     0
 90
        2
 40
0.0
 41
0.0
173
     1
 91
-1056964608
340
11
 92
       -2
290
     1
 42
2.0
291
     1
 43
0.36
  3
Standard
 44
4.0
300

342
17
174
     1
178
     6
175
     1
176
     0
 93
-1056964608
 45
4.0
292
     0
297
     0
 46
4.0
 94
-1056964608
 47
1.0
 49
1.0
140
1.0
293
     1
141
0.0
294
     1
177
     0
142
1.0
295
     0
296
     0
143
0.125
1001
ACAD_MLEADERVER
1070
     2
  0
MLINESTYLE
  5
1C
102
{ACAD_REACTORS
330
1B
102
}
330
1B
100
AcDbMlineStyle
  2
STANDARD
 70
     0
  3

 62
     0
 51
90.0
 52
90.0
 71
     2
 49
0.5
 62
   256
  6
BYLAYER
 49
-0.5
 62
   256
  6
BYLAYER
  0
ACDBPLACEHOLDER
  5
1D
102
{ACAD_REACTORS
330
1F
102
}
330
1F
  0
SCALE
  5
317A
102
{ACAD_REACTORS
330
3179
102
}
330
3179
100
AcDbScale
 70
     0
300
1:1
140
1.0
141
1.0
290
     1
  0
SCALE
  5
317B
102
{ACAD_REACTORS
330
3179
102
}
330
3179
100
AcDbScale
 70
     0
300
1:2
140
1.0
141
2.0
290
     0
  0
SCALE
  5
317C
102
{ACAD_REACTORS
330
3179
102
}
330
3179
100
AcDbScale
 70
     0
300
1:4
140
1.0
141
4.0
290
     0
  0
SCALE
  5
317D
102
{ACAD_REACTORS
330
3179
102
}
330
3179
100
AcDbScale
 70
     0
300
1:5
140
1.0
141
5.0
290
     0
  0
SCALE
  5
317E
102
{ACAD_REACTORS
330
3179
102
}
330
3179
100
AcDbScale
 70
     0
300
1:8
140
1.0
141
8.0
290
     0
  0
SCALE
  5
317F
102
{ACAD_REACTORS
330
3179
102
}
330
3179
100
AcDbScale
 70
     0
300
1:10
140
1.0
141
10.0
290
     0
  0
SCALE
  5
3180
102
{ACAD_REACTORS
330
3179
102
}
330
3179
100
AcDbScale
 70
     0
300
1:16
140
1.0
141
16.0
290
     0
  0
SCALE
  5
3181
102
{ACAD_REACTORS
330
3179
102
}
330
3179
100
AcDbScale
 70
     0
300
1:20
140
1.0
141
20.0
290
     0
  0
SCALE
  5
3182
102
{ACAD_REACTORS
330
3179
102
}
330
3179
100
AcDbScale
 70
     0
300
1:30
140
1.0
141
30.0
290
     0
  0
SCALE
  5
3183
102
{ACAD_REACTORS
330
3179
102
}
330
3179
100
AcDbScale
 70
     0
300
1:40
140
1.0
141
40.0
290
     0
  0
SCALE
  5
3184
102
{ACAD_REACTORS
330
3179
102
}
330
3179
100
AcDbScale
 70
     0
300
1:50
140
1.0
141
50.0
290
     0
  0
SCALE
  5
3185
102
{ACAD_REACTORS
330
3179
102
}
330
3179
100
AcDbScale
 70
     0
300
1:100
140
1.0
141
100.0
290
     0
  0
SCALE
  5
3186
102
{ACAD_REACTORS
330
3179
102
}
330
3179
100
AcDbScale
 70
     0
300
2:1
140
2.0
141
1.0
290
     0
  0
SCALE
  5
3187
102
{ACAD_REACTORS
330
3179
102
}
330
3179
100
AcDbScale
 70
     0
300
4:1
140
4.0
141
1.0
290
     0
  0
SCALE
  5
3188
102
{ACAD_REACTORS
330
3179
102
}
330
3179
100
AcDbScale
 70
     0
300
8:1
140
8.0
141
1.0
290
     0
  0
SCALE
  5
3189
102
{ACAD_REACTORS
330
3179
102
}
330
3179
100
AcDbScale
 70
     0
300
10:1
140
10.0
141
1.0
290
     0
  0
SCALE
  5
318A
102
{ACAD_REACTORS
330
3179
102
}
330
3179
100
AcDbScale
 70
     0
300
100:1
140
100.0
141
1.0
290
     0
  0
SCALE
  5
318B
102
{ACAD_REACTORS
330
3179
102
}
330
3179
100
AcDbScale
 70
     0
300
1/128" = 1'-0"
140
0.0078125
141
12.0
290
     0
  0
SCALE
  5
318C
102
{ACAD_REACTORS
330
3179
102
}
330
3179
100
AcDbScale
 70
     0
300
1/64" = 1'-0"
140
0.015625
141
12.0
290
     0
  0
SCALE
  5
318D
102
{ACAD_REACTORS
330
3179
102
}
330
3179
100
AcDbScale
 70
     0
300
1/32" = 1'-0"
140
0.03125
141
12.0
290
     0
  0
SCALE
  5
318E
102
{ACAD_REACTORS
330
3179
102
}
330
3179
100
AcDbScale
 70
     0
300
1/16" = 1'-0"
140
0.0625
141
12.0
290
     0
  0
SCALE
  5
318F
102
{ACAD_REACTORS
330
3179
102
}
330
3179
100
AcDbScale
 70
     0
300
3/32" = 1'-0"
140
0.09375
141
12.0
290
     0
  0
SCALE
  5
3190
102
{ACAD_REACTORS
330
3179
102
}
330
3179
100
AcDbScale
 70
     0
300
1/8" = 1'-0"
140
0.125
141
12.0
290
     0
  0
SCALE
  5
3191
102
{ACAD_REACTORS
330
3179
102
}
330
3179
100
AcDbScale
 70
     0
300
3/16" = 1'-0"
140
0.1875
141
12.0
290
     0
  0
SCALE
  5
3192
102
{ACAD_REACTORS
330
3179
102
}
330
3179
100
AcDbScale
 70
     0
300
1/4" = 1'-0"
140
0.25
141
12.0
290
     0
  0
SCALE
  5
3193
102
{ACAD_REACTORS
330
3179
102
}
330
3179
100
AcDbScale
 70
     0
300
3/8" = 1'-0"
140
0.375
141
12.0
290
     0
  0
SCALE
  5
3194
102
{ACAD_REACTORS
330
3179
102
}
330
3179
100
AcDbScale
 70
     0
300
1/2" = 1'-0"
140
0.5
141
12.0
290
     0
  0
SCALE
  5
3195
102
{ACAD_REACTORS
330
3179
102
}
330
3179
100
AcDbScale
 70
     0
300
3/4" = 1'-0"
140
0.75
141
12.0
290
     0
  0
SCALE
  5
3196
102
{ACAD_REACTORS
330
3179
102
}
330
3179
100
AcDbScale
 70
     0
300
1" = 1'-0"
140
1.0
141
12.0
290
     0
  0
SCALE
  5
3197
102
{ACAD_REACTORS
330
3179
102
}
330
3179
100
AcDbScale
 70
     0
300
1-1/2" = 1'-0"
140
1.5
141
12.0
290
     0
  0
SCALE
  5
3198
102
{ACAD_REACTORS
330
3179
102
}
330
3179
100
AcDbScale
 70
     0
300
3" = 1'-0"
140
3.0
141
12.0
290
     0
  0
SCALE
  5
3199
102
{ACAD_REACTORS
330
3179
102
}
330
3179
100
AcDbScale
 70
     0
300
6" = 1'-0"
140
6.0
141
12.0
290
     0
  0
SCALE
  5
319A
102
{ACAD_REACTORS
330
3179
102
}
330
3179
100
AcDbScale
 70
     0
300
1'-0" = 1'-0"
140
12.0
141
12.0
290
     0
  0
TABLESTYLE
  5
3178
102
{ACAD_XDICTIONARY
360
6308
102
}
102
{ACAD_REACTORS
330
3177
102
}
330
3177
100
AcDbTableStyle
  3
Standard
 70
     0
 71
     0
 40
1.5
 41
1.5
280
     0
281
     0
  7
Standard
140
4.5
170
     2
 62
     0
 63
     7
283
     0
274
    -2
284
     1
 64
     0
275
    -2
285
     1
 65
     0
276
    -2
286
     1
 66
     0
277
    -2
287
     1
 67
     0
278
    -2
288
     1
 68
     0
279
    -2
289
     1
 69
     0
  7
Standard
140
6.0
170
     5
 62
     0
 63
     7
283
     0
274
    -2
284
     1
 64
     0
275
    -2
285
     1
 65
     0
276
    -2
286
     1
 66
     0
277
    -2
287
     1
 67
     0
278
    -2
288
     1
 68
     0
279
    -2
289
     1
 69
     0
  7
Standard
140
4.5
170
     5
 62
     0
 63
     7
283
     0
274
    -2
284
     1
 64
     0
275
    -2
285
     1
 65
     0
276
    -2
286
     1
 66
     0
277
    -2
287
     1
 67
     0
278
    -2
288
     1
 68
     0
279
    -2
289
     1
 69
     0
  0
VISUALSTYLE
  5
316B
102
{ACAD_REACTORS
330
3165
102
}
330
3165
100
AcDbVisualStyle
  2
2dWireframe
 70
     4
 71
     0
 72
     2
 73
     0
 90
        0
 40
-0.6
 41
-30.0
 62
     5
 63
     7
 74
     1
 91
        4
 64
     7
 65
   257
 75
     1
175
     1
 42
1.0
 92
        0
 66
   257
 43
1.0
 76
     1
 77
     6
 78
     2
 67
     7
 79
     5
170
     0
171
     0
290
     0
174
     0
 93
        1
 44
0.0
173
     0
291
     0
 45
0.0
1001
ACAD
1000
AcDbSavedByObjectVersion
1070
     0
1000
AcDbSavedByObjectVersion
1070
     0
  0
VISUALSTYLE
  5
316D
102
{ACAD_REACTORS
330
3165
102
}
330
3165
100
AcDbVisualStyle
  2
3D Hidden
 70
     6
 71
     1
 72
     2
 73
     2
 90
        0
 40
-0.6
 41
-30.0
 62
     5
 63
     7
 74
     2
 91
        2
 64
     7
 65
   257
 75
     2
175
     1
 42
40.0
 92
        0
 66
   257
 43
1.0
 76
     1
 77
     6
 78
     2
 67
     7
 79
     3
170
     0
171
     0
290
     0
174
     0
 93
        1
 44
0.0
173
     0
291
     0
 45
0.0
1001
ACAD
1000
AcDbSavedByObjectVersion
1070
     0
1000
AcDbSavedByObjectVersion
1070
     0
  0
VISUALSTYLE
  5
316C
102
{ACAD_REACTORS
330
3165
102
}
330
3165
100
AcDbVisualStyle
  2
3dWireframe
 70
     5
 71
     0
 72
     2
 73
     0
 90
        0
 40
-0.6
 41
-30.0
 62
     5
 63
     7
 74
     1
 91
        4
 64
     7
 65
   257
 75
     1
175
     1
 42
1.0
 92
        0
 66
   257
 43
1.0
 76
     1
 77
     6
 78
     2
 67
     7
 79
     5
170
     0
171
     0
290
     0
174
     0
 93
        1
 44
0.0
173
     0
291
     0
 45
0.0
1001
ACAD
1000
AcDbSavedByObjectVersion
1070
     0
1000
AcDbSavedByObjectVersion
1070
     0
  0
VISUALSTYLE
  5
316A
102
{ACAD_REACTORS
330
3165
102
}
330
3165
100
AcDbVisualStyle
  2
Basic
 70
     7
 71
     1
 72
     0
 73
     1
 90
        0
 40
-0.6
 41
-30.0
 62
     5
 63
     7
 74
     0
 91
        4
 64
     7
 65
   257
 75
     1
175
     1
 42
1.0
 92
        8
 66
     7
 43
1.0
 76
     1
 77
     6
 78
     2
 67
     7
 79
     5
170
     0
171
     0
290
     0
174
     0
 93
        1
 44
0.0
173
     0
291
     1
 45
0.0
1001
ACAD
1000
AcDbSavedByObjectVersion
1070
     0
1000
AcDbSavedByObjectVersion
1070
     0
  0
VISUALSTYLE
  5
3171
102
{ACAD_REACTORS
330
3165
102
}
330
3165
100
AcDbVisualStyle
  2
Brighten
 70
    12
 71
     2
 72
     2
 73
     0
 90
        0
 40
-0.6
 41
-30.0
 62
     5
 63
     7
 74
     1
 91
        4
 64
     7
 65
   257
 75
     1
175
     1
 42
1.0
 92
        8
 66
     7
 43
1.0
 76
     1
 77
     6
 78
     2
 67
     7
 79
     5
170
     0
171
     0
290
     0
174
     0
 93
        1
 44
50.0
173
     0
291
     1
 45
0.0
1001
ACAD
1000
AcDbSavedByObjectVersion
1070
     0
1000
AcDbSavedByObjectVersion
1070
     0
  0
VISUALSTYLE
  5
3175
102
{ACAD_REACTORS
330
3165
102
}
330
3165
100
AcDbVisualStyle
  2
ColorChange
 70
    16
 71
     2
 72
     2
 73
     3
 90
        0
 40
-0.6
 41
-30.0
 62
     5
 63
     8
 74
     1
 91
        4
 64
     7
 65
   257
 75
     1
175
     1
 42
1.0
 92
        8
 66
     8
 43
1.0
 76
     1
 77
     6
 78
     2
 67
     7
 79
     5
170
     0
171
     0
290
     0
174
     0
 93
        1
 44
0.0
173
     0
291
     1
 45
0.0
1001
ACAD
1000
AcDbSavedByObjectVersion
1070
     0
1000
AcDbSavedByObjectVersion
1070
     0
  0
VISUALSTYLE
  5
316E
102
{ACAD_REACTORS
330
3165
102
}
330
3165
100
AcDbVisualStyle
  2
Conceptual
 70
     9
 71
     3
 72
     2
 73
     0
 90
        0
 40
-0.6
 41
-30.0
 62
     5
 63
     7
 74
     2
 91
        2
 64
     7
 65
   257
 75
     1
175
     1
 42
40.0
 92
        8
 66
     7
 43
1.0
 76
     1
 77
     6
 78
     2
 67
     7
 79
     3
170
     0
171
     0
290
     0
174
     0
 93
        1
 44
0.0
173
     0
291
     0
 45
0.0
1001
ACAD
1000
AcDbSavedByObjectVersion
1070
     0
1000
AcDbSavedByObjectVersion
1070
     0
  0
VISUALSTYLE
  5
3170
102
{ACAD_REACTORS
330
3165
102
}
330
3165
100
AcDbVisualStyle
  2
Dim
 70
    11
 71
     2
 72
     2
 73
     0
 90
        0
 40
-0.6
 41
-30.0
 62
     5
 63
     7
 74
     1
 91
        4
 64
     7
 65
   257
 75
     1
175
     1
 42
1.0
 92
        8
 66
     7
 43
1.0
 76
     1
 77
     6
 78
     2
 67
     7
 79
     5
170
     0
171
     0
290
     0
174
     0
 93
        1
 44
-50.0
173
     0
291
     1
 45
0.0
1001
ACAD
1000
AcDbSavedByObjectVersion
1070
     0
1000
AcDbSavedByObjectVersion
1070
     0
  0
VISUALSTYLE
  5
3174
102
{ACAD_REACTORS
330
3165
102
}
330
3165
100
AcDbVisualStyle
  2
Facepattern
 70
    15
 71
     2
 72
     2
 73
     0
 90
        0
 40
-0.6
 41
-30.0
 62
     5
 63
     7
 74
     1
 91
        4
 64
     7
 65
   257
 75
     1
175
     1
 42
1.0
 92
        8
 66
     7
 43
1.0
 76
     1
 77
     6
 78
     2
 67
     7
 79
     5
170
     0
171
     0
290
     0
174
     0
 93
        1
 44
0.0
173
     0
291
     1
 45
0.0
1001
ACAD
1000
AcDbSavedByObjectVersion
1070
     0
1000
AcDbSavedByObjectVersion
1070
     0
  0
VISUALSTYLE
  5
3166
102
{ACAD_REACTORS
330
3165
102
}
330
3165
100
AcDbVisualStyle
  2
Flat
 70
     0
 71
     2
 72
     1
 73
     1
 90
        2
 40
-0.6
 41
30.0
 62
     5
 63
     7
 74
     0
 91
        4
 64
     7
 65
   257
 75
     1
175
     1
 42
1.0
 92
        8
 66
     7
 43
1.0
 76
     1
 77
     6
 78
     2
 67
     7
 79
     5
170
     0
171
     0
290
     0
174
     0
 93
       13
 44
0.0
173
     0
291
     1
 45
0.0
1001
ACAD
1000
AcDbSavedByObjectVersion
1070
     0
1000
AcDbSavedByObjectVersion
1070
     0
  0
VISUALSTYLE
  5
3167
102
{ACAD_REACTORS
330
3165
102
}
330
3165
100
AcDbVisualStyle
  2
FlatWithEdges
 70
     1
 71
     2
 72
     1
 73
     1
 90
        2
 40
-0.6
 41
30.0
 62
     5
 63
     7
 74
     1
 91
        4
 64
     7
 65
   257
 75
     1
175
     1
 42
1.0
 92
        0
 66
   257
 43
1.0
 76
     1
 77
     6
 78
     2
 67
     7
 79
     5
170
     0
171
     0
290
     0
174
     0
 93
       13
 44
0.0
173
     0
291
     1
 45
0.0
1001
ACAD
1000
AcDbSavedByObjectVersion
1070
     0
1000
AcDbSavedByObjectVersion
1070
     0
  0
VISUALSTYLE
  5
3168
102
{ACAD_REACTORS
330
3165
102
}
330
3165
100
AcDbVisualStyle
  2
Gouraud
 70
     2
 71
     2
 72
     2
 73
     1
 90
        2
 40
-0.6
 41
30.0
 62
     5
 63
     7
 74
     0
 91
        4
 64
     7
 65
   257
 75
     1
175
     1
 42
1.0
 92
        0
 66
     7
 43
1.0
 76
     1
 77
     6
 78
     2
 67
     7
 79
     5
170
     0
171
     0
290
     0
174
     0
 93
       13
 44
0.0
173
     0
291
     1
 45
0.0
1001
ACAD
1000
AcDbSavedByObjectVersion
1070
     0
1000
AcDbSavedByObjectVersion
1070
     0
  0
VISUALSTYLE
  5
3169
102
{ACAD_REACTORS
330
3165
102
}
330
3165
100
AcDbVisualStyle
  2
GouraudWithEdges
 70
     3
 71
     2
 72
     2
 73
     1
 90
        2
 40
-0.6
 41
30.0
 62
     5
 63
     7
 74
     1
 91
        4
 64
     7
 65
   257
 75
     1
175
     1
 42
1.0
 92
        0
 66
   257
 43
1.0
 76
     1
 77
     6
 78
     2
 67
     7
 79
     5
170
     0
171
     0
290
     0
174
     0
 93
       13
 44
0.0
173
     0
291
     1
 45
0.0
1001
ACAD
1000
AcDbSavedByObjectVersion
1070
     0
1000
AcDbSavedByObjectVersion
1070
     0
  0
VISUALSTYLE
  5
3173
102
{ACAD_REACTORS
330
3165
102
}
330
3165
100
AcDbVisualStyle
  2
Linepattern
 70
    14
 71
     2
 72
     2
 73
     0
 90
        0
 40
-0.6
 41
-30.0
 62
     5
 63
     7
 74
     1
 91
        4
 64
     7
 65
   257
 75
     7
175
     7
 42
1.0
 92
        8
 66
     7
 43
1.0
 76
     1
 77
     6
 78
     2
 67
     7
 79
     5
170
     0
171
     0
290
     0
174
     0
 93
        1
 44
0.0
173
     0
291
     1
 45
0.0
1001
ACAD
1000
AcDbSavedByObjectVersion
1070
     0
1000
AcDbSavedByObjectVersion
1070
     0
  0
VISUALSTYLE
  5
316F
102
{ACAD_REACTORS
330
3165
102
}
330
3165
100
AcDbVisualStyle
  2
Realistic
 70
     8
 71
     2
 72
     2
 73
     0
 90
        0
 40
-0.6
 41
-30.0
 62
     5
 63
     7
 74
     1
 91
        0
 64
     7
 65
   257
 75
     1
175
     1
 42
1.0
 92
        8
 66
     8
 43
1.0
 76
     1
 77
     6
 78
     2
 67
     7
 79
     5
170
     0
171
     0
290
     0
174
     0
 93
       13
 44
0.0
173
     0
291
     0
 45
0.0
1001
ACAD
1000
AcDbSavedByObjectVersion
1070
     0
1000
AcDbSavedByObjectVersion
1070
     0
  0
VISUALSTYLE
  5
3172
102
{ACAD_REACTORS
330
3165
102
}
330
3165
100
AcDbVisualStyle
  2
Thicken
 70
    13
 71
     2
 72
     2
 73
     0
 90
        0
 40
-0.6
 41
-30.0
 62
     5
 63
     7
 74
     1
 91
        4
 64
     7
 65
   257
 75
     1
175
     1
 42
1.0
 92
       12
 66
     7
 43
1.0
 76
     1
 77
     6
 78
     2
 67
     7
 79
     5
170
     0
171
     0
290
     0
174
     0
 93
        1
 44
0.0
173
     0
291
     1
 45
0.0
1001
ACAD
1000
AcDbSavedByObjectVersion
1070
     0
1000
AcDbSavedByObjectVersion
1070
     0
  0
DICTIONARYVAR
  5
630F
102
{ACAD_REACTORS
330
630B
102
}
330
630B
100
DictionaryVariables
280
     0
  1
1:1
  0
DICTIONARYVAR
  5
630D
102
{ACAD_REACTORS
330
630B
102
}
330
630B
100
DictionaryVariables
280
     0
  1
STANDARD
  0
DICTIONARYVAR
  5
630C
102
{ACAD_REACTORS
330
630B
102
}
330
630B
100
DictionaryVariables
280
     0
  1
STANDARD
  0
DICTIONARYVAR
  5
6318
102
{ACAD_REACTORS
330
630B
102
}
330
630B
100
DictionaryVariables
280
     0
  1
1
  0
DICTIONARYVAR
  5
6317
102
{ACAD_REACTORS
330
630B
102
}
330
630B
100
DictionaryVariables
280
     0
  1
0
  0
DICTIONARYVAR
  5
6310
102
{ACAD_REACTORS
330
630B
102
}
330
630B
100
DictionaryVariables
280
     0
  1
0
  0
DICTIONARYVAR
  5
630E
102
{ACAD_REACTORS
330
630B
102
}
330
630B
100
DictionaryVariables
280
     0
  1
0
  0
DICTIONARYVAR
  5
6316
102
{ACAD_REACTORS
330
630B
102
}
330
630B
100
DictionaryVariables
280
     0
  1
127
  0
XRECORD
  5
5E46
102
{ACAD_REACTORS
330
5E44
102
}
330
5E44
100
AcDbXrecord
280
     1
  0
DICTIONARY
  5
6388
330
21
100
AcDbDictionary
280
     1
281
     1
  3
ACAD_XREC_ROUNDTRIP
360
6389
  0
DICTIONARY
  5
6386
330
20
100
AcDbDictionary
280
     1
281
     1
  3
ACAD_XREC_ROUNDTRIP
360
6387
  0
DICTIONARY
  5
3156
330
3155
100
AcDbDictionary
280
     1
281
     1
  3
ACAD_XREC_ROUNDTRIP
360
6320
  3
BUMPTILE
360
3158
  3
DIFFUSETILE
360
3157
  3
OPACITYTILE
360
315B
  3
REFLECTIONTILE
360
315A
  3
REFRACTIONTILE
360
315C
  3
SPECULARTILE
360
3159
  0
DICTIONARY
  5
314E
330
314D
100
AcDbDictionary
280
     1
281
     1
  3
ACAD_XREC_ROUNDTRIP
360
631F
  3
BUMPTILE
360
3150
  3
DIFFUSETILE
360
314F
  3
OPACITYTILE
360
3153
  3
REFLECTIONTILE
360
3152
  3
REFRACTIONTILE
360
3154
  3
SPECULARTILE
360
3151
  0
DICTIONARY
  5
315E
330
315D
100
AcDbDictionary
280
     1
281
     1
  3
ACAD_XREC_ROUNDTRIP
360
6321
  3
BUMPTILE
360
3160
  3
DIFFUSETILE
360
315F
  3
OPACITYTILE
360
3163
  3
REFLECTIONTILE
360
3162
  3
REFRACTIONTILE
360
3164
  3
SPECULARTILE
360
3161
  0
DICTIONARY
  5
6308
330
3178
100
AcDbDictionary
280
     1
281
     1
  3
ACAD_ROUNDTRIP_2008_TABLESTYLE_CELLSTYLEMAP
360
6384
  3
ACAD_XREC_ROUNDTRIP
360
638A
  0
XRECORD
  5
6389
102
{ACAD_REACTORS
330
6388
102
}
330
6388
100
AcDbXrecord
280
     1
102
SHADEPLOT
 70
     0
102
SHADEPLOTRESLEVEL
 70
     2
102
SHADEPLOTCUSTOMDPI
 70
   300
  0
XRECORD
  5
6387
102
{ACAD_REACTORS
330
6386
102
}
330
6386
100
AcDbXrecord
280
     1
102
SHADEPLOT
 70
     0
102
SHADEPLOTRESLEVEL
 70
     2
102
SHADEPLOTCUSTOMDPI
 70
   300
  0
XRECORD
  5
6320
102
{ACAD_REACTORS
330
3156
102
}
330
3156
100
AcDbXrecord
280
     1
102
MATERIAL
148
0.0
149
0.0
149
0.0
 93
        0
 94
      127
282
     0
 72
     0
 77
     0
171
     0
175
     0
179
     0
273
     0
  0
XRECORD
  5
3158
102
{ACAD_REACTORS
330
3156
102
}
330
3156
100
AcDbXrecord
280
     1
270
     1
271
     1
  0
XRECORD
  5
3157
102
{ACAD_REACTORS
330
3156
102
}
330
3156
100
AcDbXrecord
280
     1
270
     1
271
     1
  0
XRECORD
  5
315B
102
{ACAD_REACTORS
330
3156
102
}
330
3156
100
AcDbXrecord
280
     1
270
     1
271
     1
  0
XRECORD
  5
315A
102
{ACAD_REACTORS
330
3156
102
}
330
3156
100
AcDbXrecord
280
     1
270
     1
271
     1
  0
XRECORD
  5
315C
102
{ACAD_REACTORS
330
3156
102
}
330
3156
100
AcDbXrecord
280
     1
270
     1
271
     1
  0
XRECORD
  5
3159
102
{ACAD_REACTORS
330
3156
102
}
330
3156
100
AcDbXrecord
280
     1
270
     1
271
     1
  0
XRECORD
  5
631F
102
{ACAD_REACTORS
330
314E
102
}
330
314E
100
AcDbXrecord
280
     1
102
MATERIAL
148
0.0
149
0.0
149
0.0
 93
        0
 94
      127
282
     0
 72
     0
 77
     0
171
     0
175
     0
179
     0
273
     0
  0
XRECORD
  5
3150
102
{ACAD_REACTORS
330
314E
102
}
330
314E
100
AcDbXrecord
280
     1
270
     1
271
     1
  0
XRECORD
  5
314F
102
{ACAD_REACTORS
330
314E
102
}
330
314E
100
AcDbXrecord
280
     1
270
     1
271
     1
  0
XRECORD
  5
3153
102
{ACAD_REACTORS
330
314E
102
}
330
314E
100
AcDbXrecord
280
     1
270
     1
271
     1
  0
XRECORD
  5
3152
102
{ACAD_REACTORS
330
314E
102
}
330
314E
100
AcDbXrecord
280
     1
270
     1
271
     1
  0
XRECORD
  5
3154
102
{ACAD_REACTORS
330
314E
102
}
330
314E
100
AcDbXrecord
280
     1
270
     1
271
     1
  0
XRECORD
  5
3151
102
{ACAD_REACTORS
330
314E
102
}
330
314E
100
AcDbXrecord
280
     1
270
     1
271
     1
  0
XRECORD
  5
6321
102
{ACAD_REACTORS
330
315E
102
}
330
315E
100
AcDbXrecord
280
     1
102
MATERIAL
148
0.0
149
0.0
149
0.0
 93
        0
 94
      127
282
     0
 72
     0
 77
     0
171
     0
175
     0
179
     0
273
     0
  0
XRECORD
  5
3160
102
{ACAD_REACTORS
330
315E
102
}
330
315E
100
AcDbXrecord
280
     1
270
     1
271
     1
  0
XRECORD
  5
315F
102
{ACAD_REACTORS
330
315E
102
}
330
315E
100
AcDbXrecord
280
     1
270
     1
271
     1
  0
XRECORD
  5
3163
102
{ACAD_REACTORS
330
315E
102
}
330
315E
100
AcDbXrecord
280
     1
270
     1
271
     1
  0
XRECORD
  5
3162
102
{ACAD_REACTORS
330
315E
102
}
330
315E
100
AcDbXrecord
280
     1
270
     1
271
     1
  0
XRECORD
  5
3164
102
{ACAD_REACTORS
330
315E
102
}
330
315E
100
AcDbXrecord
280
     1
270
     1
271
     1
  0
XRECORD
  5
3161
102
{ACAD_REACTORS
330
315E
102
}
330
315E
100
AcDbXrecord
280
     1
270
     1
271
     1
  0
CELLSTYLEMAP
  5
6384
102
{ACAD_REACTORS
330
6308
102
}
330
6308
100
AcDbCellStyleMap
 90
        3
300
CELLSTYLE
  1
TABLEFORMAT_BEGIN
 90
        5
170
     1
 91
        0
 92
    32768
 62
   257
 93
        1
300
CONTENTFORMAT
  1
CONTENTFORMAT_BEGIN
 90
        0
 91
        0
 92
      512
 93
        0
300

 40
0.0
140
1.0
 94
        5
 62
     0
340
17
144
6.0
309
CONTENTFORMAT_END
171
     1
301
MARGIN
  1
CELLMARGIN_BEGIN
 40
1.5
 40
1.5
 40
1.5
 40
1.5
 40
0.18
 40
0.18
309
CELLMARGIN_END
 94
        6
 95
        1
302
GRIDFORMAT
  1
GRIDFORMAT_BEGIN
 90
        0
 91
        1
 62
     0
 92
       -2
340
0
 93
        0
 40
1.125
309
GRIDFORMAT_END
 95
        2
302
GRIDFORMAT
  1
GRIDFORMAT_BEGIN
 90
        0
 91
        1
 62
     0
 92
       -2
340
0
 93
        0
 40
1.125
309
GRIDFORMAT_END
 95
        4
302
GRIDFORMAT
  1
GRIDFORMAT_BEGIN
 90
        0
 91
        1
 62
     0
 92
       -2
340
0
 93
        0
 40
1.125
309
GRIDFORMAT_END
 95
        8
302
GRIDFORMAT
  1
GRIDFORMAT_BEGIN
 90
        0
 91
        1
 62
     0
 92
       -2
340
0
 93
        0
 40
1.125
309
GRIDFORMAT_END
 95
       16
302
GRIDFORMAT
  1
GRIDFORMAT_BEGIN
 90
        0
 91
        1
 62
     0
 92
       -2
340
0
 93
        0
 40
1.125
309
GRIDFORMAT_END
 95
       32
302
GRIDFORMAT
  1
GRIDFORMAT_BEGIN
 90
        0
 91
        1
 62
     0
 92
       -2
340
0
 93
        0
 40
1.125
309
GRIDFORMAT_END
309
TABLEFORMAT_END
  1
CELLSTYLE_BEGIN
 90
        1
 91
        1
300
_TITLE
309
CELLSTYLE_END
300
CELLSTYLE
  1
TABLEFORMAT_BEGIN
 90
        5
170
     1
 91
        0
 92
        0
 62
   257
 93
        1
300
CONTENTFORMAT
  1
CONTENTFORMAT_BEGIN
 90
        0
 91
        0
 92
      512
 93
        0
300

 40
0.0
140
1.0
 94
        5
 62
     0
340
17
144
4.5
309
CONTENTFORMAT_END
171
     1
301
MARGIN
  1
CELLMARGIN_BEGIN
 40
1.5
 40
1.5
 40
1.5
 40
1.5
 40
0.18
 40
0.18
309
CELLMARGIN_END
 94
        6
 95
        1
302
GRIDFORMAT
  1
GRIDFORMAT_BEGIN
 90
        0
 91
        1
 62
     0
 92
       -2
340
0
 93
        0
 40
1.125
309
GRIDFORMAT_END
 95
        2
302
GRIDFORMAT
  1
GRIDFORMAT_BEGIN
 90
        0
 91
        1
 62
     0
 92
       -2
340
0
 93
        0
 40
1.125
309
GRIDFORMAT_END
 95
        4
302
GRIDFORMAT
  1
GRIDFORMAT_BEGIN
 90
        0
 91
        1
 62
     0
 92
       -2
340
0
 93
        0
 40
1.125
309
GRIDFORMAT_END
 95
        8
302
GRIDFORMAT
  1
GRIDFORMAT_BEGIN
 90
        0
 91
        1
 62
     0
 92
       -2
340
0
 93
        0
 40
1.125
309
GRIDFORMAT_END
 95
       16
302
GRIDFORMAT
  1
GRIDFORMAT_BEGIN
 90
        0
 91
        1
 62
     0
 92
       -2
340
0
 93
        0
 40
1.125
309
GRIDFORMAT_END
 95
       32
302
GRIDFORMAT
  1
GRIDFORMAT_BEGIN
 90
        0
 91
        1
 62
     0
 92
       -2
340
0
 93
        0
 40
1.125
309
GRIDFORMAT_END
309
TABLEFORMAT_END
  1
CELLSTYLE_BEGIN
 90
        2
 91
        1
300
_HEADER
309
CELLSTYLE_END
300
CELLSTYLE
  1
TABLEFORMAT_BEGIN
 90
        5
170
     1
 91
        0
 92
        0
 62
   257
 93
        1
300
CONTENTFORMAT
  1
CONTENTFORMAT_BEGIN
 90
        0
 91
        0
 92
      512
 93
        0
300

 40
0.0
140
1.0
 94
        2
 62
     0
340
17
144
4.5
309
CONTENTFORMAT_END
171
     1
301
MARGIN
  1
CELLMARGIN_BEGIN
 40
1.5
 40
1.5
 40
1.5
 40
1.5
 40
0.18
 40
0.18
309
CELLMARGIN_END
 94
        6
 95
        1
302
GRIDFORMAT
  1
GRIDFORMAT_BEGIN
 90
        0
 91
        1
 62
     0
 92
       -2
340
0
 93
        0
 40
1.125
309
GRIDFORMAT_END
 95
        2
302
GRIDFORMAT
  1
GRIDFORMAT_BEGIN
 90
        0
 91
        1
 62
     0
 92
       -2
340
0
 93
        0
 40
1.125
309
GRIDFORMAT_END
 95
        4
302
GRIDFORMAT
  1
GRIDFORMAT_BEGIN
 90
        0
 91
        1
 62
     0
 92
       -2
340
0
 93
        0
 40
1.125
309
GRIDFORMAT_END
 95
        8
302
GRIDFORMAT
  1
GRIDFORMAT_BEGIN
 90
        0
 91
        1
 62
     0
 92
       -2
340
0
 93
        0
 40
1.125
309
GRIDFORMAT_END
 95
       16
302
GRIDFORMAT
  1
GRIDFORMAT_BEGIN
 90
        0
 91
        1
 62
     0
 92
       -2
340
0
 93
        0
 40
1.125
309
GRIDFORMAT_END
 95
       32
302
GRIDFORMAT
  1
GRIDFORMAT_BEGIN
 90
        0
 91
        1
 62
     0
 92
       -2
340
0
 93
        0
 40
1.125
309
GRIDFORMAT_END
309
TABLEFORMAT_END
  1
CELLSTYLE_BEGIN
 90
        3
 91
        2
300
_DATA
309
CELLSTYLE_END
  0
XRECORD
  5
638A
102
{ACAD_REACTORS
330
6308
102
}
330
6308
100
AcDbXrecord
280
     1
102
ACAD_ROUNDTRIP_PRE2007_TABLESTYLE
 90
      512
 91
        0
  1

 92
      512
 93
        0
  2

 94
      512
 95
        0
  3

  0
ENDSEC
  0
EOF
