  0
SECTION
  2
HEADER
  9
$ACADVER
  1
AC1015
  9
$ACADMAINTVER
 70
    20
  9
$DWGCODEPAGE
  3
ANSI_1252
  9
$INSBASE
 10
0.0
 20
0.0
 30
0.0
  9
$EXTMIN
 10
-117.6183095972228
 20
-102.5719451158329
 30
-0.0000000000000158
  9
$EXTMAX
 10
95.14565994041822
 20
107.5273336973942
 30
0.0000000000000147
  9
$LIMMIN
 10
-66.34999999999982
 20
-2008.85
  9
$LIMMAX
 10
3734.350000000001
 20
346.85
  9
$ORTHOMODE
 70
     0
  9
$REGENMODE
 70
     1
  9
$FILLMODE
 70
     1
  9
$QTEXTMODE
 70
     0
  9
$MIRRTEXT
 70
     1
  9
$LTSCALE
 40
10.0
  9
$ATTMODE
 70
     1
  9
$TEXTSIZE
 40
0.0
  9
$TRACEWID
 40
0.05
  9
$TEXTSTYLE
  7
Standard
  9
$CLAYER
  8
0
  9
$CELTYPE
  6
Continuous
  9
$CECOLOR
 62
   256
  9
$CELTSCALE
 40
1.0
  9
$DISPSILH
 70
     0
  9
$DIMSCALE
 40
1.0
  9
$DIMASZ
 40
1.25
  9
$DIMEXO
 40
0.0
  9
$DIMDLI
 40
0.38
  9
$DIMRND
 40
0.0
  9
$DIMDLE
 40
0.0
  9
$DIMEXE
 40
0.75
  9
$DIMTP
 40
0.0
  9
$DIMTM
 40
0.0
  9
$DIMTXT
 40
2.5
  9
$DIMCEN
 40
0.09
  9
$DIMTSZ
 40
0.0
  9
$DIMTOL
 70
     0
  9
$DIMLIM
 70
     0
  9
$DIMTIH
 70
     0
  9
$DIMTOH
 70
     0
  9
$DIMSE1
 70
     0
  9
$DIMSE2
 70
     0
  9
$DIMTAD
 70
     1
  9
$DIMZIN
 70
     0
  9
$DIMBLK
  1

  9
$DIMASO
 70
     1
  9
$DIMSHO
 70
     1
  9
$DIMPOST
  1

  9
$DIMAPOST
  1

  9
$DIMALT
 70
     0
  9
$DIMALTD
 70
     2
  9
$DIMALTF
 40
25.4
  9
$DIMLFAC
 40
1.0
  9
$DIMTOFL
 70
     0
  9
$DIMTVP
 40
0.0
  9
$DIMTIX
 70
     0
  9
$DIMSOXD
 70
     0
  9
$DIMSAH
 70
     0
  9
$DIMBLK1
  1

  9
$DIMBLK2
  1

  9
$DIMSTYLE
  2
Standard
  9
$DIMCLRD
 70
     7
  9
$DIMCLRE
 70
     7
  9
$DIMCLRT
 70
     7
  9
$DIMTFAC
 40
0.8
  9
$DIMGAP
 40
1.25
  9
$DIMJUST
 70
     0
  9
$DIMSD1
 70
     0
  9
$DIMSD2
 70
     0
  9
$DIMTOLJ
 70
     1
  9
$DIMTZIN
 70
     0
  9
$DIMALTZ
 70
     0
  9
$DIMALTTZ
 70
     0
  9
$DIMUPT
 70
     0
  9
$DIMDEC
 70
     2
  9
$DIMTDEC
 70
     4
  9
$DIMALTU
 70
     2
  9
$DIMALTTD
 70
     2
  9
$DIMTXSTY
  7
Standard
  9
$DIMAUNIT
 70
     0
  9
$DIMADEC
 70
     0
  9
$DIMALTRND
 40
0.0
  9
$DIMAZIN
 70
     0
  9
$DIMDSEP
 70
     0
  9
$DIMATFIT
 70
     3
  9
$DIMFRAC
 70
     0
  9
$DIMLDRBLK
  1

  9
$DIMLUNIT
 70
     2
  9
$DIMLWD
 70
     0
  9
$DIMLWE
 70
     0
  9
$DIMTMOVE
 70
     0
  9
$LUNITS
 70
     2
  9
$LUPREC
 70
     4
  9
$SKETCHINC
 40
0.1
  9
$FILLETRAD
 40
0.0
  9
$AUNITS
 70
     0
  9
$AUPREC
 70
     0
  9
$MENU
  1
acad
  9
$ELEVATION
 40
0.0
  9
$PELEVATION
 40
0.0
  9
$THICKNESS
 40
0.0
  9
$LIMCHECK
 70
     0
  9
$CHAMFERA
 40
0.0
  9
$CHAMFERB
 40
0.0
  9
$CHAMFERC
 40
0.0
  9
$CHAMFERD
 40
0.0
  9
$SKPOLY
 70
     0
  9
$TDCREATE
 40
2455303.727916667
  9
$TDUCREATE
 40
2455303.644583334
  9
$TDUPDATE
 40
2455306.414154005
  9
$TDUUPDATE
 40
2455306.330820671
  9
$TDINDWG
 40
0.0075687037
  9
$TDUSRTIMER
 40
0.0075687037
  9
$USRTIMER
 70
     1
  9
$ANGBASE
 50
0.0
  9
$ANGDIR
 70
     0
  9
$PDMODE
 70
     0
  9
$PDSIZE
 40
0.0
  9
$PLINEWID
 40
0.0
  9
$SPLFRAME
 70
     0
  9
$SPLINETYPE
 70
     6
  9
$SPLINESEGS
 70
     8
  9
$HANDSEED
  5
63BF
  9
$SURFTAB1
 70
     6
  9
$SURFTAB2
 70
     6
  9
$SURFTYPE
 70
     6
  9
$SURFU
 70
     6
  9
$SURFV
 70
     6
  9
$UCSBASE
  2

  9
$UCSNAME
  2

  9
$UCSORG
 10
0.0
 20
0.0
 30
0.0
  9
$UCSXDIR
 10
1.0
 20
0.0
 30
0.0
  9
$UCSYDIR
 10
0.0
 20
1.0
 30
0.0
  9
$UCSORTHOREF
  2

  9
$UCSORTHOVIEW
 70
     0
  9
$UCSORGTOP
 10
0.0
 20
0.0
 30
0.0
  9
$UCSORGBOTTOM
 10
0.0
 20
0.0
 30
0.0
  9
$UCSORGLEFT
 10
0.0
 20
0.0
 30
0.0
  9
$UCSORGRIGHT
 10
0.0
 20
0.0
 30
0.0
  9
$UCSORGFRONT
 10
0.0
 20
0.0
 30
0.0
  9
$UCSORGBACK
 10
0.0
 20
0.0
 30
0.0
  9
$PUCSBASE
  2

  9
$PUCSNAME
  2

  9
$PUCSORG
 10
0.0
 20
0.0
 30
0.0
  9
$PUCSXDIR
 10
1.0
 20
0.0
 30
0.0
  9
$PUCSYDIR
 10
0.0
 20
1.0
 30
0.0
  9
$PUCSORTHOREF
  2

  9
$PUCSORTHOVIEW
 70
     0
  9
$PUCSORGTOP
 10
0.0
 20
0.0
 30
0.0
  9
$PUCSORGBOTTOM
 10
0.0
 20
0.0
 30
0.0
  9
$PUCSORGLEFT
 10
0.0
 20
0.0
 30
0.0
  9
$PUCSORGRIGHT
 10
0.0
 20
0.0
 30
0.0
  9
$PUCSORGFRONT
 10
0.0
 20
0.0
 30
0.0
  9
$PUCSORGBACK
 10
0.0
 20
0.0
 30
0.0
  9
$USERI1
 70
     0
  9
$USERI2
 70
     0
  9
$USERI3
 70
     0
  9
$USERI4
 70
     0
  9
$USERI5
 70
     0
  9
$USERR1
 40
0.0
  9
$USERR2
 40
0.0
  9
$USERR3
 40
0.0
  9
$USERR4
 40
0.0
  9
$USERR5
 40
0.0
  9
$WORLDVIEW
 70
     1
  9
$SHADEDGE
 70
     3
  9
$SHADEDIF
 70
    70
  9
$TILEMODE
 70
     1
  9
$MAXACTVP
 70
    16
  9
$PINSBASE
 10
0.0
 20
0.0
 30
0.0
  9
$PLIMCHECK
 70
     0
  9
$PEXTMIN
 10
1.000000000000000E+20
 20
1.000000000000000E+20
 30
1.000000000000000E+20
  9
$PEXTMAX
 10
-1.000000000000000E+20
 20
-1.000000000000000E+20
 30
-1.000000000000000E+20
  9
$PLIMMIN
 10
0.0
 20
0.0
  9
$PLIMMAX
 10
12.0
 20
9.0
  9
$UNITMODE
 70
     0
  9
$VISRETAIN
 70
     0
  9
$PLINEGEN
 70
     1
  9
$PSLTSCALE
 70
     0
  9
$TREEDEPTH
 70
  3020
  9
$CMLSTYLE
  2
Standard
  9
$CMLJUST
 70
     0
  9
$CMLSCALE
 40
1.0
  9
$PROXYGRAPHICS
 70
     0
  9
$MEASUREMENT
 70
     1
  9
$CELWEIGHT
370
     0
  9
$ENDCAPS
280
     0
  9
$JOINSTYLE
280
     0
  9
$LWDISPLAY
290
     0
  9
$INSUNITS
 70
     0
  9
$HYPERLINKBASE
  1

  9
$STYLESHEET
  1

  9
$XEDIT
290
     1
  9
$CEPSNTYPE
380
     0
  9
$PSTYLEMODE
290
     1
  9
$FINGERPRINTGUID
  2

  9
$VERSIONGUID
  2
{1C7F5579-297E-4589-B36A-BF9EC2BEC980}
  9
$EXTNAMES
290
     1
  9
$PSVPSCALE
 40
0.0
  9
$OLESTARTUP
290
     0
  0
ENDSEC
  0
SECTION
  2
CLASSES
  0
CLASS
  1
IMAGE
  2
AcDbRasterImage
  3
ISM
 90
    34943
280
     0
281
     1
  0
CLASS
  1
DICTIONARYVAR
  2
AcDbDictionaryVar
  3
ObjectDBX Classes
 90
        0
280
     0
281
     0
  0
CLASS
  1
RASTERVARIABLES
  2
AcDbRasterVariables
  3
ISM
 90
    32768
280
     0
281
     0
  0
CLASS
  1
IMAGEDEF
  2
AcDbRasterImageDef
  3
ISM
 90
    32768
280
     0
281
     0
  0
CLASS
  1
IMAGEDEF_REACTOR
  2
AcDbRasterImageDefReactor
  3
ISM
 90
    32769
280
     0
281
     0
  0
CLASS
  1
IDBUFFER
  2
AcDbIdBuffer
  3
ObjectDBX Classes
 90
    32768
280
     0
281
     0
  0
CLASS
  1
SPATIAL_FILTER
  2
AcDbSpatialFilter
  3
ObjectDBX Classes
 90
    32768
280
     0
281
     0
  0
CLASS
  1
SORTENTSTABLE
  2
AcDbSortentsTable
  3
ObjectDBX Classes
 90
        0
280
     0
281
     0
  0
CLASS
  1
LAYER_INDEX
  2
AcDbLayerIndex
  3
ObjectDBX Classes
 90
    32768
280
     0
281
     0
  0
CLASS
  1
SPATIAL_INDEX
  2
AcDbSpatialIndex
  3
ObjectDBX Classes
 90
    32768
280
     0
281
     0
  0
CLASS
  1
OBJECT_PTR
  2
CAseDLPNTableRecord
  3
ASE-LPNTableRecord
 90
    32769
280
     0
281
     0
  0
CLASS
  1
LAYOUT
  2
AcDbLayout
  3
ObjectDBX Classes
 90
        0
280
     0
281
     0
  0
CLASS
  1
PLOTSETTINGS
  2
AcDbPlotSettings
  3
ObjectDBX Classes
 90
    32768
280
     0
281
     0
  0
CLASS
  1
ACDBDICTIONARYWDFLT
  2
AcDbDictionaryWithDefault
  3
ObjectDBX Classes
 90
        0
280
     0
281
     0
  0
CLASS
  1
ACDBPLACEHOLDER
  2
AcDbPlaceHolder
  3
ObjectDBX Classes
 90
        0
280
     0
281
     0
  0
CLASS
  1
VBA_PROJECT
  2
AcDbVbaProject
  3
acad
 90
    32768
280
     0
281
     0
  0
CLASS
  1
WIPEOUT
  2
AcDbWipeout
  3
"WipeOut|Product Desc: Object Enabler for WipeOut entity                        |Company: Autodesk, Inc.                        |WEB Address: www.autodesk.com"
 90
    34943
280
     0
281
     1
  0
CLASS
  1
WIPEOUTVARIABLES
  2
AcDbWipeoutVariables
  3
"WipeOut|Product Desc:     WipeOut Dbx Application|Company:          Autodesk, Inc.|WEB Address:      www.autodesk.com"
 90
        0
280
     0
281
     0
  0
CLASS
  1
RTEXT
  2
RText
  3
RText|AutoCAD Express Tool|expresstools@autodesk.com
 90
    35839
280
     0
281
     1
  0
CLASS
  1
ARCALIGNEDTEXT
  2
AcDbArcAlignedText
  3
ATEXT|AutoCAD Express Tool|expresstools@autodesk.com
 90
    32768
280
     0
281
     1
  0
CLASS
  1
MATERIAL
  2
AcDbMaterial
  3
ObjectDBX Classes
 90
     1153
280
     0
281
     0
  0
CLASS
  1
VISUALSTYLE
  2
AcDbVisualStyle
  3
ObjectDBX Classes
 90
     4095
280
     0
281
     0
  0
CLASS
  1
TABLESTYLE
  2
AcDbTableStyle
  3
ObjectDBX Classes
 90
     4095
280
     0
281
     0
  0
CLASS
  1
SCALE
  2
AcDbScale
  3
ObjectDBX Classes
 90
     1153
280
     0
281
     0
  0
CLASS
  1
MLEADERSTYLE
  2
AcDbMLeaderStyle
  3
ACDB_MLEADERSTYLE_CLASS
 90
     4095
280
     0
281
     0
  0
CLASS
  1
CELLSTYLEMAP
  2
AcDbCellStyleMap
  3
ObjectDBX Classes
 90
     1152
280
     0
281
     0
  0
ENDSEC
  0
SECTION
  2
TABLES
  0
TABLE
  2
VPORT
  5
7
330
0
100
AcDbSymbolTable
 70
     1
  0
VPORT
  5
15
330
7
100
AcDbSymbolTableRecord
100
AcDbViewportTableRecord
  2
*ACTIVE
 70
     0
 10
0.0
 20
0.0
 11
1.0
 21
1.0
 12
-10.09915315221084
 22
-2.01817954846183
 13
0.0
 23
0.0
 14
1.0
 24
1.0
 15
0.0
 25
0.0
 16
0.0
 26
0.0
 36
1.0
 17
0.0
 27
0.0
 37
0.0
 40
237.7089179945465
 41
1.611330698287219
 42
50.0
 43
0.0
 44
0.0
 50
0.0
 51
0.0
 71
     0
 72
   100
 73
     1
 74
     1
 75
     0
 76
     0
 77
     0
 78
     0
281
     0
 65
     0
110
0.0
120
0.0
130
0.0
111
1.0
121
0.0
131
0.0
112
0.0
122
1.0
132
0.0
 79
     0
146
0.0
  0
ENDTAB
  0
TABLE
  2
LTYPE
  5
4
330
0
100
AcDbSymbolTable
 70
     2
  0
LTYPE
  5
11
330
4
100
AcDbSymbolTableRecord
100
AcDbLinetypeTableRecord
  2
ByBlock
 70
     0
  3

 72
    65
 73
     0
 40
0.0
  0
LTYPE
  5
12
330
4
100
AcDbSymbolTableRecord
100
AcDbLinetypeTableRecord
  2
ByLayer
 70
     0
  3

 72
    65
 73
     0
 40
0.0
  0
LTYPE
  5
13
330
4
100
AcDbSymbolTableRecord
100
AcDbLinetypeTableRecord
  2
Continuous
 70
     0
  3
Solid line
 72
    65
 73
     0
 40
0.0
  0
LTYPE
  5
1E4
330
4
100
AcDbSymbolTableRecord
100
AcDbLinetypeTableRecord
  2
CENTER
 70
     0
  3
____ _ ____ _ ____ _ ____ _ ____ _ ____ _ ____
 72
    65
 73
     4
 40
2.0
 49
1.25
 74
     0
 49
-0.25
 74
     0
 49
0.25
 74
     0
 49
-0.25
 74
     0
  0
ENDTAB
  0
TABLE
  2
LAYER
  5
2
330
0
100
AcDbSymbolTable
 70
     1
  0
LAYER
  5
14
102
{ACAD_XDICTIONARY
360
5E41
102
}
330
2
100
AcDbSymbolTableRecord
100
AcDbLayerTableRecord
  2
0
 70
     0
 62
     7
  6
Continuous
370
    -3
390
1D
  0
ENDTAB
  0
TABLE
  2
STYLE
  5
3
330
0
100
AcDbSymbolTable
 70
     1
  0
STYLE
  5
17
330
3
100
AcDbSymbolTableRecord
100
AcDbTextStyleTableRecord
  2
Standard
 70
     0
 40
0.0
 41
1.0
 50
0.0
 71
     0
 42
0.0
  3
I011000D.TTF
  4

1001
ACAD
1000
IsonormD
1071
        0
  0
ENDTAB
  0
TABLE
  2
VIEW
  5
5
330
0
100
AcDbSymbolTable
 70
     0
  0
ENDTAB
  0
TABLE
  2
UCS
  5
6
330
0
100
AcDbSymbolTable
 70
     0
  0
ENDTAB
  0
TABLE
  2
APPID
  5
8
330
0
100
AcDbSymbolTable
 70
     5
  0
APPID
  5
16
330
8
100
AcDbSymbolTableRecord
100
AcDbRegAppTableRecord
  2
ACAD
 70
     0
  0
APPID
  5
26
330
8
100
AcDbSymbolTableRecord
100
AcDbRegAppTableRecord
  2
TopSolid'Draft
 70
     0
  0
APPID
  5
319D
330
8
100
AcDbSymbolTableRecord
100
AcDbRegAppTableRecord
  2
ACAD_MLEADERVER
 70
     0
  0
APPID
  5
5E45
330
8
100
AcDbSymbolTableRecord
100
AcDbRegAppTableRecord
  2
DCO15
 70
     0
  0
APPID
  5
637C
330
8
100
AcDbSymbolTableRecord
100
AcDbRegAppTableRecord
  2
ACAD_EXEMPT_FROM_CAD_STANDARDS
 70
     0
  0
ENDTAB
  0
TABLE
  2
DIMSTYLE
  5
9
330
0
100
AcDbSymbolTable
 70
     1
100
AcDbDimStyleTable
 71
     1
340
18
  0
DIMSTYLE
105
18
330
9
100
AcDbSymbolTableRecord
100
AcDbDimStyleTableRecord
  2
Standard
 70
     0
 41
1.25
 42
0.0
 44
0.75
 73
     0
 74
     0
 77
     1
140
2.5
146
0.8
147
1.25
176
     7
177
     7
178
     7
271
     2
340
17
  0
ENDTAB
  0
TABLE
  2
BLOCK_RECORD
  5
1
330
0
100
AcDbSymbolTable
 70
     0
  0
BLOCK_RECORD
  5
A
102
{ACAD_XDICTIONARY
360
31A7
102
}
330
1
100
AcDbSymbolTableRecord
100
AcDbBlockTableRecord
  2
*MODEL_SPACE
340
20
  0
BLOCK_RECORD
  5
B
330
1
100
AcDbSymbolTableRecord
100
AcDbBlockTableRecord
  2
*PAPER_SPACE
340
21
  0
ENDTAB
  0
ENDSEC
  0
SECTION
  2
BLOCKS
  0
BLOCK
  5
D
330
A
100
AcDbEntity
  8
0
100
AcDbBlockBegin
  2
*MODEL_SPACE
 70
     0
 10
0.0
 20
0.0
 30
0.0
  3
*MODEL_SPACE
  1

  0
ENDBLK
  5
E
330
A
100
AcDbEntity
  8
0
100
AcDbBlockEnd
  0
BLOCK
  5
F
330
B
100
AcDbEntity
 67
     1
  8
0
100
AcDbBlockBegin
  2
*PAPER_SPACE
 70
     0
 10
0.0
 20
0.0
 30
0.0
  3
*PAPER_SPACE
  1

  0
ENDBLK
  5
10
330
B
100
AcDbEntity
 67
     1
  8
0
100
AcDbBlockEnd
  0
ENDSEC
  0
SECTION
  2
ENTITIES
  0
LINE
  5
662
330
A
100
AcDbEntity
  8
0
  6
CENTER
 62
     1
100
AcDbLine
 10
-9.0
 20
0.0
 30
0.0
 11
8.999999999999886
 21
0.0
 31
0.0
  0
LINE
  5
663
330
A
100
AcDbEntity
  8
0
  6
CENTER
 62
     1
100
AcDbLine
 10
0.0
 20
-9.0
 30
0.0
 11
0.0
 21
9.000000000000113
 31
0.0
  0
LINE
  5
664
330
A
100
AcDbEntity
  8
0
  6
CENTER
 62
     1
100
AcDbLine
 10
-0.0000000009071073
 20
83.64999999999183
 30
0.0
 11
-0.0000000009071073
 21
89.09999999999184
 31
0.0
  0
LINE
  5
665
330
A
100
AcDbEntity
  8
0
  6
CENTER
 62
     1
100
AcDbLine
 10
-0.0000000004524736
 20
104.5000000000026
 30
0.0
 11
-0.0000000004524736
 21
91.40000000000302
 31
0.0
  0
LINE
  5
666
330
A
100
AcDbEntity
  8
0
  6
CENTER
 62
     1
100
AcDbLine
 10
50.34999999932143
 20
0.0000000000038085
 30
0.0
 11
59.64999999932093
 21
0.0000000000038085
 31
0.0
  0
LINE
  5
667
330
A
100
AcDbEntity
  8
0
  6
CENTER
 62
     1
100
AcDbLine
 10
54.99999999932139
 20
-4.649999999996111
 30
0.0
 11
54.99999999932139
 21
4.650000000003813
 31
0.0
  0
LINE
  5
668
330
A
100
AcDbEntity
  8
0
  6
CENTER
 62
     1
100
AcDbLine
 10
91.99999999932016
 20
0.0000000000030127
 30
0.0
 11
78.89999999932047
 21
0.0000000000030127
 31
0.0
  0
LINE
  5
669
330
A
100
AcDbEntity
  8
0
  6
CENTER
 62
     1
100
AcDbLine
 10
-0.0000000009071073
 20
-78.64999999998537
 30
0.0
 11
-0.0000000009071073
 21
-84.09999999998538
 31
0.0
  0
LINE
  5
66A
330
A
100
AcDbEntity
  8
0
  6
CENTER
 62
     1
100
AcDbLine
 10
-0.0000000004524736
 20
-99.4999999999962
 30
0.0
 11
-0.0000000004524736
 21
-86.39999999999657
 31
0.0
  0
LINE
  5
66B
330
A
100
AcDbEntity
  8
0
  6
CENTER
 62
     1
100
AcDbLine
 10
-93.65000000066787
 20
0.0000000000038085
 30
0.0
 11
-99.10000000066816
 21
0.0000000000038085
 31
0.0
  0
LINE
  5
66C
330
A
100
AcDbEntity
  8
0
  6
CENTER
 62
     1
100
AcDbLine
 10
-84.50078262995578
 20
-0.0000246369230865
 30
0.0
 11
-70.50083177349427
 21
-0.0000246369230865
 31
0.0
  0
LINE
  5
66D
330
A
100
AcDbEntity
  8
0
  6
CENTER
 62
     1
100
AcDbLine
 10
-77.50080720172514
 20
-7.000000065153868
 30
0.0
 11
-77.50080720172514
 21
6.999950791307611
 31
0.0
  0
LINE
  5
66E
330
A
100
AcDbEntity
  8
0
  6
CENTER
 62
     1
100
AcDbLine
 10
-82.15000000067993
 20
0.0000000000038085
 30
0.0
 11
-72.85000000067987
 21
0.0000000000038085
 31
0.0
  0
LINE
  5
66F
330
A
100
AcDbEntity
  8
0
  6
CENTER
 62
     1
100
AcDbLine
 10
-77.50000000067995
 20
-4.649999999996111
 30
0.0
 11
-77.50000000067995
 21
4.650000000003813
 31
0.0
  0
LINE
  5
670
330
A
100
AcDbEntity
  8
0
  6
CENTER
 62
     1
100
AcDbLine
 10
-114.5000000006787
 20
0.0000000000030127
 30
0.0
 11
-101.4000000006791
 21
0.0000000000030127
 31
0.0
  0
LINE
  5
589A
330
A
100
AcDbEntity
  8
0
  6
Continuous
 62
     9
370
     0
100
AcDbLine
 10
84.84309523495459
 20
-67.5339821452516
 30
0.0
 11
85.20086611135434
 21
-67.24186344791546
 31
0.0
  0
ELLIPSE
  5
589B
330
A
100
AcDbEntity
  8
0
  6
Continuous
 62
     7
370
     0
100
AcDbEllipse
 10
83.41201172935461
 20
-67.24186344791546
 30
0.0
 11
1.011928851253893
 21
-1.239354670786366
 31
0.0000000000000001
210
0.0
220
0.0
230
1.0
 40
0.8164965809277262
 41
0.7853981633974425
 42
2.356194490192335
  0
LINE
  5
589C
330
A
100
AcDbEntity
  8
0
  6
Continuous
 62
     9
370
     0
100
AcDbLine
 10
83.41201172935461
 20
-65.7812699612351
 30
0.0
 11
83.76978260575461
 21
-65.48915126389897
 31
0.0
  0
ELLIPSE
  5
589D
330
A
100
AcDbEntity
  8
0
  6
Continuous
 62
     7
370
     0
100
AcDbEllipse
 10
83.76978260575461
 20
-66.94974475057938
 30
0.0
 11
1.011928851253893
 21
-1.239354670786366
 31
0.0000000000000001
210
0.0
220
0.0
230
1.0
 40
0.8164965809277262
 41
0.7853981633974359
 42
2.356194490192335
  0
LINE
  5
589E
330
A
100
AcDbEntity
  8
0
  6
Continuous
 62
     7
370
     0
100
AcDbLine
 10
83.41201172935461
 20
-65.7812699612351
 30
0.0
 11
66.23900966215626
 21
-62.27584559320198
 31
0.0
  0
LINE
  5
589F
330
A
100
AcDbEntity
  8
0
  6
Continuous
 62
     7
370
     0
100
AcDbLine
 10
84.84309523495459
 20
-92.36407141881908
 30
0.0
 11
84.84309523495459
 21
-67.5339821452516
 31
0.0
  0
ELLIPSE
  5
58A0
330
A
100
AcDbEntity
  8
0
  6
Continuous
 62
     7
370
     0
100
AcDbEllipse
 10
83.41201172935461
 20
-92.071952721483
 30
0.0
 11
1.011928851253895
 21
-1.239354670786382
 31
0.0000000000000001
210
0.0
220
0.0
230
1.0
 40
0.8164965809277264
 41
5.497787143782127
 42
6.283185307179584
  0
LINE
  5
58A1
330
A
100
AcDbEntity
  8
0
  6
Continuous
 62
     7
370
     0
100
AcDbLine
 10
82.33869910048211
 20
-93.3134571852282
 30
0.0
 11
83.41201172935461
 21
-93.53254620816349
 31
0.0
  0
LINE
  5
58A2
330
A
100
AcDbEntity
  8
0
  6
Continuous
 62
     7
370
     0
100
AcDbLine
 10
64.80792615655627
 20
-63.44432038254637
 30
0.0
 11
64.80792615655627
 21
-64.53976549755447
 31
0.0
  0
ELLIPSE
  5
58A3
330
A
100
AcDbEntity
  8
0
  6
Continuous
 62
     7
370
     0
100
AcDbEllipse
 10
66.23900966215626
 20
-63.73643907988238
 30
0.0
 11
1.011928851253895
 21
-1.239354670786313
 31
0.0000000000000001
210
0.0
220
0.0
230
1.0
 40
0.8164965809277259
 41
2.356194490192389
 42
3.141592653589835
  0
LINE
  5
58A4
330
A
100
AcDbEntity
  8
0
  6
Continuous
 62
     9
370
     0
100
AcDbLine
 10
66.23900966215626
 20
-62.27584559320198
 30
0.0
 11
66.59678053855635
 21
-61.98372689586587
 31
0.0
  0
LINE
  5
58A5
330
A
100
AcDbEntity
  8
0
  6
Continuous
 62
     7
370
     0
100
AcDbLine
 10
83.76978260575461
 20
-65.48915126389897
 30
0.0
 11
66.59678053855635
 21
-61.98372689586587
 31
0.0
  0
LINE
  5
58A6
330
A
100
AcDbEntity
  8
0
  6
Continuous
 62
     9
370
     0
100
AcDbLine
 10
84.84309523495459
 20
-92.36407141881908
 30
0.0
 11
85.20086611135434
 21
-92.071952721483
 31
0.0
  0
LINE
  5
58A7
330
A
100
AcDbEntity
  8
0
  6
Continuous
 62
     7
370
     0
100
AcDbLine
 10
85.20086611135434
 20
-92.071952721483
 30
0.0
 11
85.20086611135434
 21
-67.24186344791546
 31
0.0
  0
ELLIPSE
  5
58A8
330
A
100
AcDbEntity
  8
0
  6
Continuous
 62
     7
370
     0
100
AcDbEllipse
 10
66.23900966215626
 20
-63.73643907988238
 30
0.0
 11
1.011928851253895
 21
-1.239354670786313
 31
0.0
210
0.0
220
0.0
230
1.0
 40
0.8164965809277264
 41
3.141592653589835
 42
3.926990816987288
  0
ELLIPSE
  5
58A9
330
A
100
AcDbEntity
  8
0
  6
Continuous
 62
     7
370
     0
100
AcDbEllipse
 10
66.59678053855635
 20
-63.44432038254637
 30
0.0
 11
1.011928851253893
 21
-1.239354670786366
 31
0.0000000000000001
210
0.0
220
0.0
230
1.0
 40
0.8164965809277262
 41
2.356194490192335
 42
2.879793265789053
  0
ELLIPSE
  5
58AA
330
A
100
AcDbEntity
  8
0
  6
Continuous
 62
     7
370
     0
100
AcDbEllipse
 10
66.59678053855635
 20
-63.44432038254637
 30
0.0
 11
1.011928851253893
 21
-1.239354670786366
 31
0.0000000000000001
210
0.0
220
0.0
230
1.0
 40
0.8164965809277262
 41
2.879793265789053
 42
3.141592653589727
  0
ELLIPSE
  5
58AB
330
A
100
AcDbEntity
  8
0
  6
Continuous
 62
     7
370
     0
100
AcDbEllipse
 10
83.41201172935461
 20
-92.071952721483
 30
0.0
 11
1.011928851253895
 21
-1.239354670786382
 31
0.0000000000000001
210
0.0000000000000001
220
0.0000000000000001
230
1.0
 40
0.8164965809277255
 41
6.283185307179584
 42
7.068583470577037
  0
ELLIPSE
  5
58AC
330
A
100
AcDbEntity
  8
0
  6
Continuous
 62
     7
370
     0
100
AcDbEllipse
 10
83.76978260575461
 20
-91.77983402414687
 30
0.0
 11
1.011928851253895
 21
-1.239354670786382
 31
0.0000000000000001
210
0.0000000000000001
220
0.0000000000000001
230
1.0
 40
0.8164965809277255
 41
6.283185307179584
 42
7.068583470577022
  0
LINE
  5
58AD
330
A
100
AcDbEntity
  8
0
  6
Continuous
 62
     9
370
     0
100
AcDbLine
 10
78.40321946008294
 20
-69.14063498066521
 30
0.0
 11
78.40321946008248
 21
-98.352504714274
 31
0.0
  0
ELLIPSE
  5
58AE
330
A
100
AcDbEntity
  8
0
  6
Continuous
 62
     7
370
     0
100
AcDbEllipse
 10
79.47653208928295
 20
-68.264278888657
 30
0.0
 11
2.400000000000068
 21
-0.0000000000000555
 31
0.0000000000000002
210
-0.0000000000000001
220
0.0000000000000001
230
1.0
 40
0.4082482904638745
 41
4.248741371383883
 42
5.819537698178802
  0
LINE
  5
58AF
330
A
100
AcDbEntity
  8
0
  6
Continuous
 62
     9
370
     0
100
AcDbLine
 10
81.62315734768288
 20
-68.70245693466121
 30
0.0
 11
81.62315734768197
 21
-97.91432666826988
 31
0.0
  0
ELLIPSE
  5
58B0
330
A
100
AcDbEntity
  8
0
  6
Continuous
 62
     7
370
     0
100
AcDbEllipse
 10
79.47653208928226
 20
-97.47614862226569
 30
0.0
 11
2.399999999999957
 21
-0.0000000000000694
 31
0.0000000000000002
210
-0.0000000000000001
220
0.0
230
1.0
 40
0.4082482904638745
 41
4.248741371383879
 42
5.819537698178802
  0
LINE
  5
58B1
330
A
100
AcDbEntity
  8
0
  6
Continuous
 62
     7
370
     0
100
AcDbLine
 10
78.40321946008294
 20
-69.14063498066521
 30
0.0
 11
61.23021739288482
 21
-65.63521061263168
 31
0.0
  0
ELLIPSE
  5
58B2
330
A
100
AcDbEntity
  8
0
  6
Continuous
 62
     7
370
     0
100
AcDbEllipse
 10
62.3035300220846
 20
-64.75885452062346
 30
0.0
 11
2.399999999999957
 21
-0.0000000000000555
 31
0.0000000000000002
210
-0.0000000000000001
220
0.0
230
1.0
 40
0.4082482904638745
 41
3.14159265358977
 42
4.248741371383876
  0
LINE
  5
58B3
330
A
100
AcDbEntity
  8
0
  6
Continuous
 62
     7
370
     0
100
AcDbLine
 10
60.15690476368479
 20
-64.32067647461929
 30
0.0
 11
60.87244651648496
 21
-63.7364390799471
 31
0.0
  0
LINE
  5
58B4
330
A
100
AcDbEntity
  8
0
  6
Continuous
 62
     7
370
     0
100
AcDbLine
 10
60.87244651648496
 20
-63.7364390799471
 30
0.0
 11
82.33869910048261
 21
-68.11821953998896
 31
0.0
  0
LINE
  5
58B5
330
A
100
AcDbEntity
  8
0
  6
Continuous
 62
     7
370
     0
100
AcDbLine
 10
82.33869910048261
 20
-68.11821953998896
 30
0.0
 11
81.62315734768288
 21
-68.70245693466121
 31
0.0
  0
LINE
  5
58B6
330
A
100
AcDbEntity
  8
0
  6
Continuous
 62
     9
370
     0
100
AcDbLine
 10
61.23021739288482
 20
-65.63521061263168
 30
0.0
 11
61.23021739288379
 21
-94.84708034624036
 31
0.0
  0
LINE
  5
58B7
330
A
100
AcDbEntity
  8
0
  6
Continuous
 62
     7
370
     0
100
AcDbLine
 10
78.40321946008248
 20
-98.352504714274
 30
0.0
 11
61.23021739288379
 21
-94.84708034624036
 31
0.0
  0
LINE
  5
58B8
330
A
100
AcDbEntity
  8
0
  6
Continuous
 62
     7
370
     0
100
AcDbLine
 10
82.33869910048261
 20
-68.11821953998896
 30
0.0
 11
82.33869910048179
 21
-97.33008927359769
 31
0.0
  0
LINE
  5
58B9
330
A
100
AcDbEntity
  8
0
  6
Continuous
 62
     7
370
     0
100
AcDbLine
 10
82.33869910048179
 20
-97.33008927359769
 30
0.0
 11
81.62315734768197
 21
-97.91432666826988
 31
0.0
  0
ELLIPSE
  5
58BA
330
A
100
AcDbEntity
  8
0
  6
Continuous
 62
     7
370
     0
100
AcDbEllipse
 10
62.3035300220846
 20
-64.75885452062346
 30
0.0
 11
2.399999999999957
 21
-0.0000000000000555
 31
-0.0000000000000001
210
0.0
220
0.0000000000000001
230
1.0
 40
0.4082482904638742
 41
2.677945044588989
 42
3.141592653589781
  0
ELLIPSE
  5
58BB
330
A
100
AcDbEntity
  8
0
  6
Continuous
 62
     7
370
     0
100
AcDbEllipse
 10
62.30353002208381
 20
-93.97072425423219
 30
0.0
 11
2.399999999999957
 21
-0.0000000000000694
 31
0.0000000000000002
210
-0.0000000000000001
220
0.0
230
1.0
 40
0.4082482904638745
 41
3.141592653589786
 42
4.248741371383845
  0
LINE
  5
58BC
330
A
100
AcDbEntity
  8
0
  6
Continuous
 62
     7
370
     0
100
AcDbLine
 10
85.91640786415643
 20
-65.19703256656109
 30
0.0
 11
85.91640786415643
 21
-94.40890230017
 31
0.0
  0
LINE
  5
58BD
330
A
100
AcDbEntity
  8
0
  6
Continuous
 62
     7
370
     0
100
AcDbLine
 10
85.91640786415643
 20
-65.19703256656109
 30
0.0
 11
86.73958893621501
 21
-64.52490803574068
 31
0.0
  0
LINE
  5
58BE
330
A
100
AcDbEntity
  8
0
  6
Continuous
 62
     9
370
     0
100
AcDbLine
 10
86.73958893621501
 20
-64.52490803574068
 30
0.0
 11
86.73958893621501
 21
-93.73677776934959
 31
0.0
  0
LINE
  5
58BF
330
A
100
AcDbEntity
  8
0
  6
Continuous
 62
     7
370
     0
100
AcDbLine
 10
85.91640786415643
 20
-94.40890230017
 30
0.0
 11
86.73958893621501
 21
-93.73677776934959
 31
0.0
  0
LINE
  5
58C0
330
A
100
AcDbEntity
  8
0
  6
Continuous
 62
     7
370
     0
100
AcDbLine
 10
65.88123878575834
 20
-61.10737080385579
 30
0.0
 11
65.88123878575834
 21
-62.03334996981019
 31
0.0
  0
LINE
  5
58C1
330
A
100
AcDbEntity
  8
0
  6
Continuous
 62
     7
370
     0
100
AcDbLine
 10
65.88123878575834
 20
-61.10737080385579
 30
0.0
 11
85.91640786415643
 21
-65.19703256656109
 31
0.0
  0
LINE
  5
58C2
330
A
100
AcDbEntity
  8
0
  6
Continuous
 62
     7
370
     0
100
AcDbLine
 10
82.33869910048179
 20
-93.67860555689622
 30
0.0
 11
85.91640786415643
 21
-94.40890230017
 31
0.0
  0
ELLIPSE
  5
58C3
330
A
100
AcDbEntity
  8
0
  6
Continuous
 62
     7
370
     0
100
AcDbEllipse
 10
65.73645438652011
 20
-46.83703031698408
 30
0.0
 11
-0.8000000000000229
 21
0.0
 31
0.0
210
0.0
220
0.0000000000000001
230
1.0
 40
0.4082482904638635
 41
3.020610529952306
 42
3.141592653589794
  0
ELLIPSE
  5
58C4
330
A
100
AcDbEntity
  8
0
  6
Continuous
 62
     7
370
     0
100
AcDbEllipse
 10
-12.88463993511959
 20
-42.93481881434809
 30
0.0
 11
-80.00000000000007
 21
0.0
 31
0.0
210
0.0
220
0.0000000000000001
230
1.0
 40
0.4082482904638631
 41
2.775900681007297
 42
3.020610529952316
  0
ELLIPSE
  5
58C5
330
A
100
AcDbEntity
  8
0
  6
Continuous
 62
     7
370
     0
100
AcDbEllipse
 10
67.05519175345057
 20
-55.43137373695969
 30
0.0
 11
5.600000000000046
 21
0.0
 31
0.0
210
0.0
220
0.0000000000000001
230
1.0
 40
0.4082482904638631
 41
3.141592653589792
 42
4.246815440740106
  0
ELLIPSE
  5
58C6
330
A
100
AcDbEntity
  8
0
  6
Continuous
 62
     7
370
     0
100
AcDbEllipse
 10
28.62632410141532
 20
-86.65791728296209
 30
0.0
 11
-80.00000000000007
 21
0.0
 31
0.0
210
0.0
220
0.0000000000000001
230
1.0
 40
0.4082482904638631
 41
3.901762882659236
 42
4.246815440740098
  0
ELLIPSE
  5
58C7
330
A
100
AcDbEntity
  8
0
  6
Continuous
 62
     7
370
     0
100
AcDbEllipse
 10
86.02404718341515
 20
-64.37884868707269
 30
0.0
 11
-0.8000000000000229
 21
0.0
 31
0.0
210
0.0
220
0.0000000000000001
230
1.0
 40
0.4082482904638633
 41
2.677945044588954
 42
3.141592653589794
  0
ELLIPSE
  5
58C8
330
A
100
AcDbEntity
  8
0
  6
Continuous
 62
     7
370
     0
100
AcDbEllipse
 10
65.16569703295829
 20
-60.96131145518778
 30
0.0
 11
0.8000000000000229
 21
0.0
 31
0.0
210
0.0
220
0.0000000000000001
230
1.0
 40
0.4082482904638633
 41
0.0
 42
1.107148717794105
  0
LINE
  5
58C9
330
A
100
AcDbEntity
  8
0
  6
Continuous
 62
     7
370
     0
100
AcDbLine
 10
61.23021739255865
 20
-59.79283666584347
 30
0.0
 11
65.52346790935826
 21
-60.66919275785167
 31
0.0
  0
ELLIPSE
  5
58CA
330
A
100
AcDbEntity
  8
0
  6
Continuous
 62
     7
370
     0
100
AcDbEllipse
 10
66.23900966215831
 20
-55.70317490313828
 30
0.0
 11
-11.2000000000001
 21
0.0
 31
0.0
210
0.0
220
0.0000000000000001
230
1.0
 40
0.4082482904638631
 41
5.81953769817878
 42
6.28318530717958
  0
ELLIPSE
  5
58CB
330
A
100
AcDbEntity
  8
0
  6
Continuous
 62
     7
370
     0
100
AcDbEllipse
 10
55.50588337015891
 20
-53.51228467311748
 30
0.0
 11
0.8000000000000229
 21
0.0
 31
0.0
210
0.0
220
0.0000000000000001
230
1.0
 40
0.4082482904638633
 41
0.0
 42
1.107148717794057
  0
LINE
  5
58CC
330
A
100
AcDbEntity
  8
0
  6
Continuous
 62
     7
370
     0
100
AcDbLine
 10
64.45015528015836
 20
-46.20931723971529
 30
0.0
 11
55.86365424655912
 21
-53.22016597578147
 31
0.0
  0
LINE
  5
58CD
330
A
100
AcDbEntity
  8
0
  6
Continuous
 62
     7
370
     0
100
AcDbLine
 10
66.09422526291985
 20
-46.5449116196481
 30
0.0
 11
64.45015528015836
 21
-46.20931723971529
 31
0.0
  0
ELLIPSE
  5
58CE
330
A
100
AcDbEntity
  8
0
  6
Continuous
 62
     7
370
     0
100
AcDbEllipse
 10
86.02404718341515
 20
-64.37884868707269
 30
0.0
 11
-0.8000000000000229
 21
0.0
 31
0.0
210
0.0
220
0.0000000000000001
230
1.0
 40
0.4082482904638631
 41
3.141592653589792
 42
3.90176288265931
  0
ELLIPSE
  5
58CF
330
A
100
AcDbEntity
  8
0
  6
Continuous
 62
     7
370
     0
100
AcDbEllipse
 10
86.02404718341515
 20
-93.59071842068159
 30
0.0
 11
-0.8000000000000229
 21
0.0
 31
0.0
210
0.0
220
0.0000000000000001
230
1.0
 40
0.4082482904638633
 41
2.677945044588954
 42
3.141592653589794
  0
ELLIPSE
  5
58D0
330
A
100
AcDbEntity
  8
0
  6
Continuous
 62
     7
370
     0
100
AcDbEllipse
 10
65.16569703295829
 20
-60.96131145518778
 30
0.0
 11
0.8000000000000229
 21
0.0
 31
0.0
210
0.0
220
0.0000000000000001
230
1.0
 40
0.4082482904638633
 41
5.819537698178874
 42
6.283185307179584
  0
LINE
  5
58D1
330
A
100
AcDbEntity
  8
0
  6
Continuous
 62
     9
370
     0
100
AcDbLine
 10
65.52346790935826
 20
-60.66919275785167
 30
0.0
 11
65.52346790935826
 21
-62.25508535657578
 31
0.0
  0
LINE
  5
58D2
330
A
100
AcDbEntity
  8
0
  6
Continuous
 62
     9
370
     0
100
AcDbLine
 10
61.23021739255865
 20
-59.79283666584347
 30
0.0
 11
61.23021739255865
 21
-63.80946875421461
 31
0.0
  0
ELLIPSE
  5
58D3
330
A
100
AcDbEntity
  8
0
  6
Continuous
 62
     7
370
     0
100
AcDbEllipse
 10
66.23900966215831
 20
-55.70317490313828
 30
0.0
 11
-11.2000000000001
 21
0.0
 31
0.0
210
0.0
220
0.0000000000000001
230
1.0
 40
0.4082482904638633
 41
6.283185307179584
 42
7.390334024973667
  0
ELLIPSE
  5
58D4
330
A
100
AcDbEntity
  8
0
  6
Continuous
 62
     7
370
     0
100
AcDbEllipse
 10
66.23900966215831
 20
-84.91504463674706
 30
0.0
 11
-11.2000000000001
 21
0.0
 31
0.0
210
0.0
220
0.0000000000000001
230
1.0
 40
0.4082482904638633
 41
6.283185307179584
 42
7.252738760204525
  0
ELLIPSE
  5
58D5
330
A
100
AcDbEntity
  8
0
  6
Continuous
 62
     7
370
     0
100
AcDbEllipse
 10
67.05519175345057
 20
-55.43137373695969
 30
0.0
 11
5.600000000000046
 21
0.0
 31
0.0
210
0.0
220
0.0000000000000001
230
1.0
 40
0.4082482904638633
 41
2.775900681007287
 42
3.141592653589792
  0
LINE
  5
58D6
330
A
100
AcDbEntity
  8
0
  6
Continuous
 62
     9
370
     0
100
AcDbLine
 10
61.82548313831034
 20
-54.61384210650829
 30
0.0
 11
61.82548313831034
 21
-56.24890536741087
 31
0.0
  0
LINE
  5
58D7
330
A
100
AcDbEntity
  8
0
  6
Continuous
 62
     9
370
     0
100
AcDbLine
 10
66.53060685441563
 20
-46.87644659478847
 30
0.0
 11
66.53060685441563
 21
-57.89664311965747
 31
0.0
  0
ELLIPSE
  5
58D8
330
A
100
AcDbEntity
  8
0
  6
Continuous
 62
     7
370
     0
100
AcDbEllipse
 10
55.50588337015891
 20
-53.51228467311748
 30
0.0
 11
0.8000000000000229
 21
0.0
 31
0.0
210
0.0
220
0.0000000000000001
230
1.0
 40
0.408248290463863
 41
5.819537698178811
 42
6.283185307179584
  0
LINE
  5
58D9
330
A
100
AcDbEntity
  8
0
  6
Continuous
 62
     7
370
     0
100
AcDbLine
 10
55.86365424655912
 20
-53.22016597578147
 30
0.0
 11
55.86365424655912
 21
-53.9811605787688
 31
0.0
  0
ELLIPSE
  5
58DA
330
A
100
AcDbEntity
  8
0
  6
Continuous
 62
     7
370
     0
100
AcDbEllipse
 10
65.73645438652011
 20
-46.83703031698408
 30
0.0
 11
-0.8000000000000229
 21
0.0
 31
0.0
210
0.0
220
0.0000000000000001
230
1.0
 40
0.4082482904638635
 41
3.141592653589792
 42
4.248741371383976
  0
LINE
  5
58DB
330
A
100
AcDbEntity
  8
0
  6
Continuous
 62
     7
370
     0
100
AcDbLine
 10
65.58485168730237
 20
-62.20496571175996
 30
0.0
 11
65.22708081090229
 21
-62.49708440909596
 31
0.0
  0
LINE
  5
58DC
330
A
100
AcDbEntity
  8
0
  6
Continuous
 62
     7
370
     0
100
AcDbLine
 10
84.42394058060825
 20
-93.31130739226937
 30
0.0
 11
84.78171145700832
 21
-93.01918869493327
 31
0.0
  0
LINE
  5
58DD
330
A
100
AcDbEntity
  8
0
  6
Continuous
 62
     7
370
     0
100
AcDbLine
 10
59.90353002208474
 20
-64.7588545206234
 30
0.0
 11
59.90353002208383
 21
-93.97072425423209
 31
0.0
  0
LINE
  5
58DE
330
A
100
AcDbEntity
  8
0
  6
Continuous
 62
     7
370
     0
100
AcDbLine
 10
86.82404718341501
 20
-93.59071842068159
 30
0.0
 11
86.82404718341501
 21
-64.37884868707269
 31
0.0
  0
LINE
  5
58DF
330
A
100
AcDbEntity
  8
0
  6
Continuous
 62
     7
370
     0
100
AcDbLine
 10
55.03900966215814
 20
-55.70317490313828
 30
0.0
 11
55.03900966215814
 21
-84.91504463674706
 31
0.0
  0
LINE
  5
58E0
330
A
100
AcDbEntity
  8
0
  6
Continuous
 62
     7
370
     0
100
AcDbLine
 10
66.53645438652006
 20
-57.89792765104929
 30
0.0
 11
66.53645438652006
 21
-46.83703031698408
 31
0.0
  0
LINE
  5
58E1
330
A
100
AcDbEntity
  8
0
  6
Continuous
 62
     9
370
     0
100
AcDbLine
 10
-112.5000000006788
 20
17.00000000000301
 30
0.0
 11
-111.5000000006787
 21
17.00000000000301
 31
0.0
  0
LINE
  5
58E2
330
A
100
AcDbEntity
  8
0
  6
Continuous
 62
     7
370
     0
100
AcDbLine
 10
-112.5000000006788
 20
19.00000000000301
 30
0.0
 11
-111.5000000006787
 21
19.00000000000301
 31
0.0
  0
LINE
  5
58E3
330
A
100
AcDbEntity
  8
0
  6
Continuous
 62
     7
370
     0
100
AcDbLine
 10
-111.5000000006787
 20
17.00000000000301
 30
0.0
 11
-111.5000000006787
 21
19.00000000000301
 31
0.0
  0
LINE
  5
58E4
330
A
100
AcDbEntity
  8
0
  6
Continuous
 62
     9
370
     0
100
AcDbLine
 10
-112.5000000006788
 20
-16.99999999999699
 30
0.0
 11
-111.5000000006787
 21
-16.99999999999699
 31
0.0
  0
LINE
  5
58E5
330
A
100
AcDbEntity
  8
0
  6
Continuous
 62
     7
370
     0
100
AcDbLine
 10
-111.5000000006787
 20
-16.99999999999699
 30
0.0
 11
-111.5000000006787
 21
17.00000000000301
 31
0.0
  0
LINE
  5
58E6
330
A
100
AcDbEntity
  8
0
  6
Continuous
 62
     7
370
     0
100
AcDbLine
 10
-112.5000000006788
 20
-18.99999999999699
 30
0.0
 11
-111.5000000006787
 21
-18.99999999999699
 31
0.0
  0
LINE
  5
58E7
330
A
100
AcDbEntity
  8
0
  6
Continuous
 62
     7
370
     0
100
AcDbLine
 10
-111.5000000006787
 20
-18.99999999999699
 30
0.0
 11
-111.5000000006787
 21
-16.99999999999699
 31
0.0
  0
LINE
  5
58E8
330
A
100
AcDbEntity
  8
0
  6
Continuous
 62
     9
370
     0
100
AcDbLine
 10
-103.5000000006862
 20
-16.99999999999599
 30
0.0
 11
-102.5000000006862
 21
-16.99999999999599
 31
0.0
  0
LINE
  5
58E9
330
A
100
AcDbEntity
  8
0
  6
Continuous
 62
     7
370
     0
100
AcDbLine
 10
-103.5000000006862
 20
-16.99999999999599
 30
0.0
 11
-103.5000000006862
 21
17.000000000004
 31
0.0
  0
LINE
  5
58EA
330
A
100
AcDbEntity
  8
0
  6
Continuous
 62
     7
370
     0
100
AcDbLine
 10
-103.5000000006862
 20
-18.99999999999599
 30
0.0
 11
-102.5000000006862
 21
-18.99999999999599
 31
0.0
  0
LINE
  5
58EB
330
A
100
AcDbEntity
  8
0
  6
Continuous
 62
     7
370
     0
100
AcDbLine
 10
-103.5000000006862
 20
-18.99999999999599
 30
0.0
 11
-103.5000000006862
 21
-16.99999999999599
 31
0.0
  0
LINE
  5
58EC
330
A
100
AcDbEntity
  8
0
  6
Continuous
 62
     9
370
     0
100
AcDbLine
 10
-103.5000000006862
 20
17.000000000004
 30
0.0
 11
-102.5000000006862
 21
17.000000000004
 31
0.0
  0
LINE
  5
58ED
330
A
100
AcDbEntity
  8
0
  6
Continuous
 62
     7
370
     0
100
AcDbLine
 10
-103.5000000006862
 20
17.000000000004
 30
0.0
 11
-103.5000000006862
 21
19.00000000000401
 31
0.0
  0
LINE
  5
58EE
330
A
100
AcDbEntity
  8
0
  6
Continuous
 62
     7
370
     0
100
AcDbLine
 10
-103.5000000006862
 20
19.00000000000401
 30
0.0
 11
-102.5000000006862
 21
19.00000000000401
 31
0.0
  0
LINE
  5
58EF
330
A
100
AcDbEntity
  8
0
  6
Continuous
 62
     7
370
     0
100
AcDbLine
 10
-110.0000000006787
 20
-6.999999999999886
 30
0.0
 11
-110.0000000006787
 21
4.499427752512103
 31
0.0
  0
LINE
  5
58F0
330
A
100
AcDbEntity
  8
0
  6
Continuous
 62
     7
370
     0
100
AcDbLine
 10
-105.0000000006786
 20
-6.999999999999886
 30
0.0
 11
-105.0000000006786
 21
4.499427752512103
 31
0.0
  0
LINE
  5
58F1
330
A
100
AcDbEntity
  8
0
  6
Continuous
 62
     7
370
     0
100
AcDbLine
 10
-110.0000000006787
 20
4.499427752512103
 30
0.0
 11
-110.0000000006787
 21
7.000000000000111
 31
0.0
  0
LINE
  5
58F2
330
A
100
AcDbEntity
  8
0
  6
Continuous
 62
     7
370
     0
100
AcDbLine
 10
-105.0000000006786
 20
4.499427752512103
 30
0.0
 11
-105.0000000006786
 21
7.000000000000111
 31
0.0
  0
LINE
  5
58F3
330
A
100
AcDbEntity
  8
0
  6
Continuous
 62
     9
370
     0
100
AcDbLine
 10
-95.65000000066822
 20
-5.412842109671203
 30
0.0
 11
-95.65000000066822
 21
5.41284210967882
 31
0.0
  0
LINE
  5
58F4
330
A
100
AcDbEntity
  8
0
  6
Continuous
 62
     7
370
     0
100
AcDbLine
 10
-95.40000000066799
 20
4.97982940778661
 30
0.0
 11
-95.40000000066799
 21
-4.979829407778963
 31
0.0
  0
LINE
  5
58F5
330
A
100
AcDbEntity
  8
0
  6
Continuous
 62
     7
370
     0
100
AcDbLine
 10
-117.5000000006788
 20
20.00000000000273
 30
0.0
 11
-117.5000000006788
 21
-19.99999999999738
 31
0.0
  0
LINE
  5
58F6
330
A
100
AcDbEntity
  8
0
  6
Continuous
 62
     7
370
     0
100
AcDbLine
 10
-114.5000000006787
 20
20.00000000000273
 30
0.0
 11
-117.5000000006788
 21
20.00000000000273
 31
0.0
  0
LINE
  5
58F7
330
A
100
AcDbEntity
  8
0
  6
Continuous
 62
     9
370
     0
100
AcDbLine
 10
-114.5000000006787
 20
20.00000000000262
 30
0.0
 11
-114.5000000006787
 21
-19.99999999999738
 31
0.0
  0
LINE
  5
58F8
330
A
100
AcDbEntity
  8
0
  6
Continuous
 62
     7
370
     0
100
AcDbLine
 10
-114.5000000006787
 20
-19.99999999999738
 30
0.0
 11
-117.5000000006788
 21
-19.99999999999738
 31
0.0
  0
LINE
  5
58F9
330
A
100
AcDbEntity
  8
0
  6
Continuous
 62
     7
370
     0
100
AcDbLine
 10
-112.5000000006786
 20
20.00000000000262
 30
0.0
 11
-112.5000000006786
 21
-19.99999999999738
 31
0.0
  0
LINE
  5
58FA
330
A
100
AcDbEntity
  8
0
  6
Continuous
 62
     7
370
     0
100
AcDbLine
 10
-112.5000000006786
 20
-19.99999999999738
 30
0.0
 11
-114.5000000006787
 21
-19.99999999999738
 31
0.0
  0
LINE
  5
58FB
330
A
100
AcDbEntity
  8
0
  6
Continuous
 62
     7
370
     0
100
AcDbLine
 10
-112.5000000006786
 20
20.00000000000262
 30
0.0
 11
-114.5000000006787
 21
20.00000000000262
 31
0.0
  0
LINE
  5
58FC
330
A
100
AcDbEntity
  8
0
  6
Continuous
 62
     9
370
     0
100
AcDbLine
 10
-100.199138957037
 20
20.00000000000381
 30
0.0
 11
-100.199138957037
 21
-19.99999999999619
 31
0.0
  0
LINE
  5
58FD
330
A
100
AcDbEntity
  8
0
  6
Continuous
 62
     7
370
     0
100
AcDbLine
 10
-100.199138957037
 20
20.00000000000381
 30
0.0
 11
-99.25873446418698
 21
20.00000000000381
 31
0.0
  0
LINE
  5
58FE
330
A
100
AcDbEntity
  8
0
  6
Continuous
 62
     9
370
     0
100
AcDbLine
 10
-99.25873446418698
 20
20.00000000000381
 30
0.0
 11
-99.25873446418698
 21
-19.99999999999619
 31
0.0
  0
LINE
  5
58FF
330
A
100
AcDbEntity
  8
0
  6
Continuous
 62
     7
370
     0
100
AcDbLine
 10
-100.199138957037
 20
-19.99999999999619
 30
0.0
 11
-99.25873446418698
 21
-19.99999999999619
 31
0.0
  0
LINE
  5
5900
330
A
100
AcDbEntity
  8
0
  6
Continuous
 62
     7
370
     0
100
AcDbLine
 10
-102.5000000006799
 20
20.00000000000381
 30
0.0
 11
-102.5000000006799
 21
-19.99999999999619
 31
0.0
  0
LINE
  5
5901
330
A
100
AcDbEntity
  8
0
  6
Continuous
 62
     7
370
     0
100
AcDbLine
 10
-102.5000000006799
 20
20.00000000000381
 30
0.0
 11
-100.199138957037
 21
20.00000000000381
 31
0.0
  0
LINE
  5
5902
330
A
100
AcDbEntity
  8
0
  6
Continuous
 62
     7
370
     0
100
AcDbLine
 10
-102.5000000006799
 20
-19.99999999999619
 30
0.0
 11
-100.199138957037
 21
-19.99999999999619
 31
0.0
  0
LINE
  5
5903
330
A
100
AcDbEntity
  8
0
  6
Continuous
 62
     9
370
     0
100
AcDbLine
 10
-93.29936920955471
 20
20.00000000000381
 30
0.0
 11
-93.29936920955471
 21
-19.99999999999619
 31
0.0
  0
LINE
  5
5910
330
A
100
AcDbEntity
  8
0
  6
Continuous
 62
     7
370
     0
100
AcDbLine
 10
-99.25873446418698
 20
20.00000000000381
 30
0.0
 11
-93.29936920955471
 21
20.00000000000381
 31
0.0
  0
LINE
  5
5911
330
A
100
AcDbEntity
  8
0
  6
Continuous
 62
     7
370
     0
100
AcDbLine
 10
-99.25873446418698
 20
-19.99999999999619
 30
0.0
 11
-93.29936920955471
 21
-19.99999999999619
 31
0.0
  0
LINE
  5
591E
330
A
100
AcDbEntity
  8
0
  6
Continuous
 62
     9
370
     0
100
AcDbLine
 10
-86.98397560591365
 20
20.00000000000381
 30
0.0
 11
-86.98397560591365
 21
-19.99999999999619
 31
0.0
  0
LINE
  5
591F
330
A
100
AcDbEntity
  8
0
  6
Continuous
 62
     7
370
     0
100
AcDbLine
 10
-86.98397560591365
 20
20.00000000000381
 30
0.0
 11
-93.29936920955471
 21
20.00000000000381
 31
0.0
  0
LINE
  5
5920
330
A
100
AcDbEntity
  8
0
  6
Continuous
 62
     7
370
     0
100
AcDbLine
 10
-86.98397560591365
 20
-19.99999999999619
 30
0.0
 11
-93.29936920955471
 21
-19.99999999999619
 31
0.0
  0
LINE
  5
5921
330
A
100
AcDbEntity
  8
0
  6
Continuous
 62
     9
370
     0
100
AcDbLine
 10
-63.16400119743367
 20
20.00000000000381
 30
0.0
 11
-63.16400119743367
 21
-19.99999999999619
 31
0.0
  0
CIRCLE
  5
5922
330
A
100
AcDbEntity
  8
0
  6
Continuous
 62
     7
370
     0
100
AcDbCircle
 10
-77.50080720172514
 20
-0.0000246369230865
 30
0.0
 40
4.999975428230706
  0
LINE
  5
5923
330
A
100
AcDbEntity
  8
0
  6
Continuous
 62
     7
370
     0
100
AcDbLine
 10
-86.98397560591365
 20
20.00000000000381
 30
0.0
 11
-63.16400119743355
 21
20.00000000000381
 31
0.0
  0
LINE
  5
5924
330
A
100
AcDbEntity
  8
0
  6
Continuous
 62
     7
370
     0
100
AcDbLine
 10
-86.98397560591365
 20
-19.99999999999619
 30
0.0
 11
-63.16400119743355
 21
-19.99999999999619
 31
0.0
  0
CIRCLE
  5
5925
330
A
100
AcDbEntity
  8
0
  6
Continuous
 62
     7
370
     0
100
AcDbCircle
 10
-77.50000000067995
 20
0.0000000000038085
 30
0.0
 40
2.64999999999993
  0
LINE
  5
5926
330
A
100
AcDbEntity
  8
0
  6
Continuous
 62
     7
370
     0
100
AcDbLine
 10
-62.50000000067996
 20
20.00000000000381
 30
0.0
 11
-62.50000000067996
 21
-19.99999999999619
 31
0.0
  0
LINE
  5
5927
330
A
100
AcDbEntity
  8
0
  6
Continuous
 62
     7
370
     0
100
AcDbLine
 10
-63.16400119743367
 20
20.00000000000381
 30
0.0
 11
-62.50000000067996
 21
20.00000000000381
 31
0.0
  0
LINE
  5
5928
330
A
100
AcDbEntity
  8
0
  6
Continuous
 62
     7
370
     0
100
AcDbLine
 10
-63.16400119743367
 20
-19.99999999999619
 30
0.0
 11
-62.50000000067996
 21
-19.99999999999619
 31
0.0
  0
LINE
  5
5929
330
A
100
AcDbEntity
  8
0
  6
Continuous
 62
     9
370
     0
100
AcDbLine
 10
-105.0000000006786
 20
-2.499999999996191
 30
0.0
 11
-103.5000000006862
 21
-2.499999999996191
 31
0.0
  0
LINE
  5
592A
330
A
100
AcDbEntity
  8
0
  6
Continuous
 62
     9
370
     0
100
AcDbLine
 10
-103.5000000006862
 20
2.500000000003808
 30
0.0
 11
-105.0000000006786
 21
2.500000000003808
 31
0.0
  0
LINE
  5
592B
330
A
100
AcDbEntity
  8
0
  6
Continuous
 62
     7
370
     0
100
AcDbLine
 10
-110.0000000006787
 20
-6.999999999999886
 30
0.0
 11
-105.0000000006786
 21
-6.999999999999886
 31
0.0
  0
LINE
  5
592C
330
A
100
AcDbEntity
  8
0
  6
Continuous
 62
     7
370
     0
100
AcDbLine
 10
-105.0000000006786
 20
7.000000000000111
 30
0.0
 11
-110.0000000006787
 21
7.000000000000111
 31
0.0
  0
LINE
  5
592D
330
A
100
AcDbEntity
  8
0
  6
Continuous
 62
     7
370
     0
100
AcDbLine
 10
-95.85536707587344
 20
-5.531410845823898
 30
0.0
 11
-95.65000000066822
 21
-5.412842109671203
 31
0.0
  0
LINE
  5
592E
330
A
100
AcDbEntity
  8
0
  6
Continuous
 62
     7
370
     0
100
AcDbLine
 10
-95.65000000066822
 20
5.41284210967882
 30
0.0
 11
-95.8550192405662
 21
5.531210023023105
 31
0.0
  0
ARC
  5
592F
330
A
100
AcDbEntity
  8
0
  6
Continuous
 62
     7
370
     0
100
AcDbCircle
 10
-95.90000000066787
 20
4.97982940778661
 30
0.0
 40
0.4999999999999451
100
AcDbArc
 50
0.0
 51
60.00000000000028
  0
ARC
  5
5930
330
A
100
AcDbEntity
  8
0
  6
Continuous
 62
     7
370
     0
100
AcDbCircle
 10
-95.90000000066787
 20
-4.979829407778963
 30
0.0
 40
0.499999999999988
100
AcDbArc
 50
299.9999999999989
 51
359.9999999999968
  0
LINE
  5
5931
330
A
100
AcDbEntity
  8
0
  6
Continuous
 62
     7
370
     0
100
AcDbLine
 10
-105.0000000006732
 20
-2.999999999997214
 30
0.0
 11
-103.5000000006862
 21
-2.999999999997214
 31
0.0
  0
LINE
  5
5932
330
A
100
AcDbEntity
  8
0
  6
Continuous
 62
     7
370
     0
100
AcDbLine
 10
-103.5000000006862
 20
3.000000000004802
 30
0.0
 11
-105.0000000006732
 21
3.000000000004802
 31
0.0
  0
LINE
  5
5933
330
A
100
AcDbEntity
  8
0
  6
Continuous
 62
     7
370
     0
100
AcDbLine
 10
-110.0000000006787
 20
4.900000000003018
 30
0.0
 11
-111.5000000006787
 21
4.900000000003018
 31
0.0
  0
LINE
  5
5934
330
A
100
AcDbEntity
  8
0
  6
Continuous
 62
     7
370
     0
100
AcDbLine
 10
-111.5000000006787
 20
-4.899999999996992
 30
0.0
 11
-110.0000000006787
 21
-4.899999999996992
 31
0.0
  0
LINE
  5
5935
330
A
100
AcDbEntity
  8
0
  6
Continuous
 62
     7
370
     0
100
AcDbLine
 10
89.99999999932017
 20
19.00000000000301
 30
0.0
 11
88.99999999932017
 21
19.00000000000301
 31
0.0
  0
LINE
  5
5936
330
A
100
AcDbEntity
  8
0
  6
Continuous
 62
     9
370
     0
100
AcDbLine
 10
89.99999999932017
 20
17.00000000000301
 30
0.0
 11
88.99999999932017
 21
17.00000000000301
 31
0.0
  0
LINE
  5
5937
330
A
100
AcDbEntity
  8
0
  6
Continuous
 62
     7
370
     0
100
AcDbLine
 10
88.99999999932017
 20
19.00000000000301
 30
0.0
 11
88.99999999932017
 21
17.00000000000301
 31
0.0
  0
LINE
  5
5938
330
A
100
AcDbEntity
  8
0
  6
Continuous
 62
     9
370
     0
100
AcDbLine
 10
89.99999999932017
 20
-16.99999999999699
 30
0.0
 11
88.99999999932017
 21
-16.99999999999699
 31
0.0
  0
LINE
  5
5939
330
A
100
AcDbEntity
  8
0
  6
Continuous
 62
     7
370
     0
100
AcDbLine
 10
89.99999999932017
 20
-18.99999999999699
 30
0.0
 11
88.99999999932017
 21
-18.99999999999699
 31
0.0
  0
LINE
  5
593A
330
A
100
AcDbEntity
  8
0
  6
Continuous
 62
     7
370
     0
100
AcDbLine
 10
88.99999999932017
 20
-16.99999999999699
 30
0.0
 11
88.99999999932017
 21
-18.99999999999699
 31
0.0
  0
LINE
  5
593B
330
A
100
AcDbEntity
  8
0
  6
Continuous
 62
     7
370
     0
100
AcDbLine
 10
88.99999999932017
 20
17.00000000000301
 30
0.0
 11
88.99999999932017
 21
-16.99999999999699
 31
0.0
  0
LINE
  5
593C
330
A
100
AcDbEntity
  8
0
  6
Continuous
 62
     7
370
     0
100
AcDbLine
 10
80.99999999932776
 20
19.00000000000401
 30
0.0
 11
79.99999999932765
 21
19.00000000000401
 31
0.0
  0
LINE
  5
593D
330
A
100
AcDbEntity
  8
0
  6
Continuous
 62
     9
370
     0
100
AcDbLine
 10
80.99999999932776
 20
17.000000000004
 30
0.0
 11
79.99999999932765
 21
17.000000000004
 31
0.0
  0
LINE
  5
593E
330
A
100
AcDbEntity
  8
0
  6
Continuous
 62
     7
370
     0
100
AcDbLine
 10
79.99999999932765
 20
19.00000000000401
 30
0.0
 11
79.99999999932765
 21
18.73205080757259
 31
0.0
  0
LINE
  5
593F
330
A
100
AcDbEntity
  8
0
  6
Continuous
 62
     7
370
     0
100
AcDbLine
 10
79.99999999932765
 20
18.73205080757259
 30
0.0
 11
79.99999999932765
 21
17.000000000004
 31
0.0
  0
LINE
  5
5940
330
A
100
AcDbEntity
  8
0
  6
Continuous
 62
     7
370
     0
100
AcDbLine
 10
80.99999999932776
 20
19.00000000000401
 30
0.0
 11
80.99999999932776
 21
17.000000000004
 31
0.0
  0
LINE
  5
5941
330
A
100
AcDbEntity
  8
0
  6
Continuous
 62
     9
370
     0
100
AcDbLine
 10
80.99999999932776
 20
-16.99999999999599
 30
0.0
 11
79.99999999932765
 21
-16.99999999999599
 31
0.0
  0
LINE
  5
5942
330
A
100
AcDbEntity
  8
0
  6
Continuous
 62
     7
370
     0
100
AcDbLine
 10
80.99999999932776
 20
-18.99999999999599
 30
0.0
 11
79.99999999932765
 21
-18.99999999999599
 31
0.0
  0
LINE
  5
5943
330
A
100
AcDbEntity
  8
0
  6
Continuous
 62
     7
370
     0
100
AcDbLine
 10
79.99999999932765
 20
-16.99999999999599
 30
0.0
 11
79.99999999932765
 21
-18.7320508075646
 31
0.0
  0
LINE
  5
5944
330
A
100
AcDbEntity
  8
0
  6
Continuous
 62
     7
370
     0
100
AcDbLine
 10
79.99999999932765
 20
-18.7320508075646
 30
0.0
 11
79.99999999932765
 21
-18.99999999999599
 31
0.0
  0
LINE
  5
5945
330
A
100
AcDbEntity
  8
0
  6
Continuous
 62
     7
370
     0
100
AcDbLine
 10
80.99999999932776
 20
-16.99999999999599
 30
0.0
 11
80.99999999932776
 21
-18.99999999999599
 31
0.0
  0
LINE
  5
5946
330
A
100
AcDbEntity
  8
0
  6
Continuous
 62
     7
370
     0
100
AcDbLine
 10
79.99999999932765
 20
17.000000000004
 30
0.0
 11
79.99999999932765
 21
-16.99999999999599
 31
0.0
  0
LINE
  5
5947
330
A
100
AcDbEntity
  8
0
  6
Continuous
 62
     7
370
     0
100
AcDbLine
 10
80.99999999932776
 20
17.000000000004
 30
0.0
 11
80.99999999932776
 21
-16.99999999999599
 31
0.0
  0
LINE
  5
5948
330
A
100
AcDbEntity
  8
0
  6
Continuous
 62
     7
370
     0
100
AcDbLine
 10
87.49999999931983
 20
7.000000000000111
 30
0.0
 11
87.49999999931983
 21
-6.999999999999886
 31
0.0
  0
LINE
  5
5949
330
A
100
AcDbEntity
  8
0
  6
Continuous
 62
     7
370
     0
100
AcDbLine
 10
82.49999999931981
 20
7.000000000000111
 30
0.0
 11
82.49999999931981
 21
-6.999999999999886
 31
0.0
  0
LINE
  5
594A
330
A
100
AcDbEntity
  8
0
  6
Continuous
 62
     7
370
     0
100
AcDbLine
 10
91.99999999932025
 20
20.00000000000341
 30
0.0
 11
89.99999999932025
 21
20.00000000000341
 31
0.0
  0
LINE
  5
594B
330
A
100
AcDbEntity
  8
0
  6
Continuous
 62
     9
370
     0
100
AcDbLine
 10
91.99999999932025
 20
20.00000000000341
 30
0.0
 11
91.99999999932025
 21
-19.99999999999659
 31
0.0
  0
LINE
  5
594C
330
A
100
AcDbEntity
  8
0
  6
Continuous
 62
     7
370
     0
100
AcDbLine
 10
91.99999999932025
 20
-19.99999999999659
 30
0.0
 11
89.99999999932025
 21
-19.99999999999659
 31
0.0
  0
LINE
  5
594D
330
A
100
AcDbEntity
  8
0
  6
Continuous
 62
     7
370
     0
100
AcDbLine
 10
89.99999999932025
 20
20.00000000000341
 30
0.0
 11
89.99999999932025
 21
-19.99999999999659
 31
0.0
  0
LINE
  5
594E
330
A
100
AcDbEntity
  8
0
  6
Continuous
 62
     7
370
     0
100
AcDbLine
 10
94.99999999932017
 20
20.0000000000033
 30
0.0
 11
91.99999999932025
 21
20.0000000000033
 31
0.0
  0
LINE
  5
594F
330
A
100
AcDbEntity
  8
0
  6
Continuous
 62
     7
370
     0
100
AcDbLine
 10
94.99999999932017
 20
20.0000000000033
 30
0.0
 11
94.99999999932017
 21
-19.99999999999679
 31
0.0
  0
LINE
  5
5950
330
A
100
AcDbEntity
  8
0
  6
Continuous
 62
     7
370
     0
100
AcDbLine
 10
94.99999999932017
 20
-19.99999999999679
 30
0.0
 11
91.99999999932025
 21
-19.99999999999679
 31
0.0
  0
LINE
  5
5951
330
A
100
AcDbEntity
  8
0
  6
Continuous
 62
     7
370
     0
100
AcDbLine
 10
63.99999999932139
 20
20.00000000000381
 30
0.0
 11
63.99999999932139
 21
-19.99999999999619
 31
0.0
  0
LINE
  5
5952
330
A
100
AcDbEntity
  8
0
  6
Continuous
 62
     7
370
     0
100
AcDbLine
 10
64.99999999932119
 20
20.00000000000381
 30
0.0
 11
63.99999999932139
 21
20.00000000000381
 31
0.0
  0
LINE
  5
5953
330
A
100
AcDbEntity
  8
0
  6
Continuous
 62
     9
370
     0
100
AcDbLine
 10
64.99999999932119
 20
20.00000000000381
 30
0.0
 11
64.99999999932119
 21
-19.99999999999619
 31
0.0
  0
LINE
  5
5954
330
A
100
AcDbEntity
  8
0
  6
Continuous
 62
     7
370
     0
100
AcDbLine
 10
64.99999999932119
 20
-19.99999999999619
 30
0.0
 11
63.99999999932139
 21
-19.99999999999619
 31
0.0
  0
LINE
  5
5955
330
A
100
AcDbEntity
  8
0
  6
Continuous
 62
     7
370
     0
100
AcDbLine
 10
39.99999999932118
 20
20.00000000000381
 30
0.0
 11
39.99999999932118
 21
-19.99999999999619
 31
0.0
  0
LINE
  5
5956
330
A
100
AcDbEntity
  8
0
  6
Continuous
 62
     7
370
     0
100
AcDbLine
 10
39.99999999932118
 20
20.00000000000381
 30
0.0
 11
63.99999999932139
 21
20.00000000000381
 31
0.0
  0
LINE
  5
5957
330
A
100
AcDbEntity
  8
0
  6
Continuous
 62
     7
370
     0
100
AcDbLine
 10
39.99999999932118
 20
-19.99999999999619
 30
0.0
 11
63.99999999932139
 21
-19.99999999999619
 31
0.0
  0
CIRCLE
  5
5958
330
A
100
AcDbEntity
  8
0
  6
Continuous
 62
     7
370
     0
100
AcDbCircle
 10
54.99999999932139
 20
0.0000000000038085
 30
0.0
 40
2.64999999999993
  0
LINE
  5
5959
330
A
100
AcDbEntity
  8
0
  6
Continuous
 62
     7
370
     0
100
AcDbLine
 10
78.99999999932106
 20
20.00000000000381
 30
0.0
 11
78.99999999932106
 21
-19.99999999999619
 31
0.0
  0
LINE
  5
595A
330
A
100
AcDbEntity
  8
0
  6
Continuous
 62
     7
370
     0
100
AcDbLine
 10
64.99999999932119
 20
20.00000000000381
 30
0.0
 11
78.99999999932106
 21
20.00000000000381
 31
0.0
  0
LINE
  5
595B
330
A
100
AcDbEntity
  8
0
  6
Continuous
 62
     7
370
     0
100
AcDbLine
 10
64.99999999932119
 20
-19.99999999999619
 30
0.0
 11
78.99999999932106
 21
-19.99999999999619
 31
0.0
  0
LINE
  5
595C
330
A
100
AcDbEntity
  8
0
  6
Continuous
 62
     7
370
     0
100
AcDbLine
 10
79.9999999993214
 20
20.00000000000381
 30
0.0
 11
79.99999999932765
 21
18.73205080757259
 31
0.0
  0
LINE
  5
595D
330
A
100
AcDbEntity
  8
0
  6
Continuous
 62
     7
370
     0
100
AcDbLine
 10
79.99999999932765
 20
18.73205080757259
 30
0.0
 11
79.9999999993214
 21
17.000000000004
 31
0.0
  0
LINE
  5
595E
330
A
100
AcDbEntity
  8
0
  6
Continuous
 62
     7
370
     0
100
AcDbLine
 10
79.9999999993214
 20
-16.99999999999599
 30
0.0
 11
79.99999999932765
 21
-18.7320508075646
 31
0.0
  0
LINE
  5
595F
330
A
100
AcDbEntity
  8
0
  6
Continuous
 62
     7
370
     0
100
AcDbLine
 10
79.99999999932765
 20
-18.7320508075646
 30
0.0
 11
79.9999999993214
 21
-19.99999999999619
 31
0.0
  0
LINE
  5
5960
330
A
100
AcDbEntity
  8
0
  6
Continuous
 62
     7
370
     0
100
AcDbLine
 10
79.9999999993214
 20
20.00000000000381
 30
0.0
 11
78.99999999932106
 21
20.00000000000381
 31
0.0
  0
LINE
  5
5961
330
A
100
AcDbEntity
  8
0
  6
Continuous
 62
     7
370
     0
100
AcDbLine
 10
79.9999999993214
 20
-19.99999999999619
 30
0.0
 11
78.99999999932106
 21
-19.99999999999619
 31
0.0
  0
LINE
  5
5962
330
A
100
AcDbEntity
  8
0
  6
Continuous
 62
     9
370
     0
100
AcDbLine
 10
82.49999999931981
 20
2.500000000003808
 30
0.0
 11
80.99999999932776
 21
2.500000000003808
 31
0.0
  0
LINE
  5
5963
330
A
100
AcDbEntity
  8
0
  6
Continuous
 62
     9
370
     0
100
AcDbLine
 10
80.99999999932776
 20
-2.499999999996191
 30
0.0
 11
82.49999999931981
 21
-2.499999999996191
 31
0.0
  0
LINE
  5
5964
330
A
100
AcDbEntity
  8
0
  6
Continuous
 62
     7
370
     0
100
AcDbLine
 10
87.49999999931983
 20
7.000000000000111
 30
0.0
 11
82.49999999931981
 21
7.000000000000111
 31
0.0
  0
LINE
  5
5965
330
A
100
AcDbEntity
  8
0
  6
Continuous
 62
     7
370
     0
100
AcDbLine
 10
82.49999999931981
 20
-6.999999999999886
 30
0.0
 11
87.49999999931983
 21
-6.999999999999886
 31
0.0
  0
LINE
  5
5966
330
A
100
AcDbEntity
  8
0
  6
Continuous
 62
     7
370
     0
100
AcDbLine
 10
82.49999999931469
 20
3.000000000004802
 30
0.0
 11
80.99999999932776
 21
3.000000000004802
 31
0.0
  0
LINE
  5
5967
330
A
100
AcDbEntity
  8
0
  6
Continuous
 62
     7
370
     0
100
AcDbLine
 10
80.99999999932776
 20
-2.999999999997214
 30
0.0
 11
82.49999999931469
 21
-2.999999999997214
 31
0.0
  0
LINE
  5
5968
330
A
100
AcDbEntity
  8
0
  6
Continuous
 62
     7
370
     0
100
AcDbLine
 10
87.49999999931983
 20
-4.899999999996992
 30
0.0
 11
88.99999999932017
 21
-4.899999999996992
 31
0.0
  0
LINE
  5
5969
330
A
100
AcDbEntity
  8
0
  6
Continuous
 62
     7
370
     0
100
AcDbLine
 10
88.99999999932017
 20
4.900000000003018
 30
0.0
 11
87.49999999931983
 21
4.900000000003018
 31
0.0
  0
LINE
  5
596A
330
A
100
AcDbEntity
  8
0
  6
Continuous
 62
     9
370
     0
100
AcDbLine
 10
-12.00000000000489
 20
102.5000000000025
 30
0.0
 11
-12.00000000000489
 21
101.5000000000025
 31
0.0
  0
LINE
  5
596B
330
A
100
AcDbEntity
  8
0
  6
Continuous
 62
     9
370
     0
100
AcDbLine
 10
11.99999999999522
 20
102.5000000000025
 30
0.0
 11
11.99999999999522
 21
101.5000000000025
 31
0.0
  0
LINE
  5
596C
330
A
100
AcDbEntity
  8
0
  6
Continuous
 62
     7
370
     0
100
AcDbLine
 10
-12.00000000000489
 20
101.5000000000025
 30
0.0
 11
11.99999999999522
 21
101.5000000000025
 31
0.0
  0
LINE
  5
596D
330
A
100
AcDbEntity
  8
0
  6
Continuous
 62
     7
370
     0
100
AcDbLine
 10
13.99999999999522
 20
102.5000000000025
 30
0.0
 11
13.99999999999522
 21
101.5000000000025
 31
0.0
  0
LINE
  5
596E
330
A
100
AcDbEntity
  8
0
  6
Continuous
 62
     7
370
     0
100
AcDbLine
 10
11.99999999999522
 20
101.5000000000025
 30
0.0
 11
13.99999999999522
 21
101.5000000000025
 31
0.0
  0
LINE
  5
596F
330
A
100
AcDbEntity
  8
0
  6
Continuous
 62
     7
370
     0
100
AcDbLine
 10
-14.00000000000477
 20
102.5000000000025
 30
0.0
 11
-14.00000000000477
 21
101.5000000000025
 31
0.0
  0
LINE
  5
5970
330
A
100
AcDbEntity
  8
0
  6
Continuous
 62
     7
370
     0
100
AcDbLine
 10
-14.00000000000477
 20
101.5000000000025
 30
0.0
 11
-12.00000000000489
 21
101.5000000000025
 31
0.0
  0
LINE
  5
5971
330
A
100
AcDbEntity
  8
0
  6
Continuous
 62
     7
370
     0
100
AcDbLine
 10
-14.00000000090665
 20
93.50000000001005
 30
0.0
 11
-14.00000000090665
 21
92.50000000001005
 31
0.0
  0
LINE
  5
5972
330
A
100
AcDbEntity
  8
0
  6
Continuous
 62
     7
370
     0
100
AcDbLine
 10
-14.00000000090665
 20
93.50000000001005
 30
0.0
 11
-12.00000000090631
 21
93.50000000001005
 31
0.0
  0
LINE
  5
5973
330
A
100
AcDbEntity
  8
0
  6
Continuous
 62
     7
370
     0
100
AcDbLine
 10
-14.00000000090665
 20
92.50000000001005
 30
0.0
 11
-13.00000000090711
 21
92.50000000001005
 31
0.0
  0
LINE
  5
5974
330
A
100
AcDbEntity
  8
0
  6
Continuous
 62
     9
370
     0
100
AcDbLine
 10
-12.00000000090631
 20
93.50000000001005
 30
0.0
 11
-12.00000000090631
 21
92.50000000001005
 31
0.0
  0
LINE
  5
5975
330
A
100
AcDbEntity
  8
0
  6
Continuous
 62
     7
370
     0
100
AcDbLine
 10
-12.00000000090631
 20
93.50000000001005
 30
0.0
 11
11.99999999909334
 21
93.50000000001005
 31
0.0
  0
LINE
  5
5976
330
A
100
AcDbEntity
  8
0
  6
Continuous
 62
     9
370
     0
100
AcDbLine
 10
11.99999999909334
 20
93.50000000001005
 30
0.0
 11
11.99999999909334
 21
92.50000000001005
 31
0.0
  0
LINE
  5
5977
330
A
100
AcDbEntity
  8
0
  6
Continuous
 62
     7
370
     0
100
AcDbLine
 10
11.99999999909334
 20
93.50000000001005
 30
0.0
 11
13.99999999909335
 21
93.50000000001005
 31
0.0
  0
LINE
  5
5978
330
A
100
AcDbEntity
  8
0
  6
Continuous
 62
     7
370
     0
100
AcDbLine
 10
13.99999999909335
 20
93.50000000001005
 30
0.0
 11
13.99999999909335
 21
92.50000000001005
 31
0.0
  0
LINE
  5
5979
330
A
100
AcDbEntity
  8
0
  6
Continuous
 62
     7
370
     0
100
AcDbLine
 10
-7.000000000000111
 20
100.0000000000023
 30
0.0
 11
7.0
 21
100.0000000000023
 31
0.0
  0
LINE
  5
597A
330
A
100
AcDbEntity
  8
0
  6
Continuous
 62
     7
370
     0
100
AcDbLine
 10
-7.000000000000111
 20
95.00000000000239
 30
0.0
 11
7.0
 21
95.00000000000239
 31
0.0
  0
LINE
  5
597B
330
A
100
AcDbEntity
  8
0
  6
Continuous
 62
     9
370
     0
100
AcDbLine
 10
1.889703928377343
 20
85.6499999999918
 30
0.0
 11
5.41284210876813
 21
85.6499999999918
 31
0.0
  0
LINE
  5
597C
330
A
100
AcDbEntity
  8
0
  6
Continuous
 62
     7
370
     0
100
AcDbLine
 10
4.979829406875865
 20
85.39999999999171
 30
0.0
 11
0.7242099159292366
 21
85.39999999999171
 31
0.0
  0
LINE
  5
597D
330
A
100
AcDbEntity
  8
0
  6
Continuous
 62
     7
370
     0
100
AcDbLine
 10
-15.00000000045304
 20
104.5000000000026
 30
0.0
 11
-15.00000000045304
 21
102.5000000000026
 31
0.0
  0
ARC
  5
597E
330
A
100
AcDbEntity
  8
0
  6
Continuous
 62
     7
370
     0
100
AcDbCircle
 10
-12.00000000045281
 20
104.5000000000026
 30
0.0
 40
3.000000000000001
100
AcDbArc
 50
90.0
 51
180.0
  0
LINE
  5
597F
330
A
100
AcDbEntity
  8
0
  6
Continuous
 62
     7
370
     0
100
AcDbLine
 10
11.99999999954718
 20
107.5000000000024
 30
0.0
 11
-12.00000000045281
 21
107.5000000000026
 31
0.0
  0
ARC
  5
5980
330
A
100
AcDbEntity
  8
0
  6
Continuous
 62
     7
370
     0
100
AcDbCircle
 10
11.99999999954718
 20
104.5000000000025
 30
0.0
 40
3.000000000000001
100
AcDbArc
 50
0.0
 51
90.0
  0
LINE
  5
5981
330
A
100
AcDbEntity
  8
0
  6
Continuous
 62
     7
370
     0
100
AcDbLine
 10
14.99999999954695
 20
102.5000000000025
 30
0.0
 11
14.99999999954695
 21
104.5000000000025
 31
0.0
  0
LINE
  5
5982
330
A
100
AcDbEntity
  8
0
  6
Continuous
 62
     7
370
     0
100
AcDbLine
 10
-15.00000000045304
 20
102.5000000000026
 30
0.0
 11
14.99999999954695
 21
102.5000000000025
 31
0.0
  0
LINE
  5
5983
330
A
100
AcDbEntity
  8
0
  6
Continuous
 62
     7
370
     0
100
AcDbLine
 10
-35.00000000090688
 20
52.50000000000373
 30
0.0
 11
-35.00000000090688
 21
76.5000000000036
 31
0.0
  0
ARC
  5
5984
330
A
100
AcDbEntity
  8
0
  6
Continuous
 62
     7
370
     0
100
AcDbCircle
 10
-35.00000000090688
 20
77.50000000000373
 30
0.0
 40
1.0
100
AcDbArc
 50
270.0
 51
0.0
  0
ARC
  5
5985
330
A
100
AcDbEntity
  8
0
  6
Continuous
 62
     7
370
     0
100
AcDbCircle
 10
-20.00000000090711
 20
77.50000000000373
 30
0.0
 40
13.9999999999999
100
AcDbArc
 50
90.0
 51
180.0
  0
LINE
  5
5986
330
A
100
AcDbEntity
  8
0
  6
Continuous
 62
     7
370
     0
100
AcDbLine
 10
-20.00000000090711
 20
91.50000000000373
 30
0.0
 11
-14.00000000090711
 21
91.50000000000373
 31
0.0
  0
ARC
  5
5987
330
A
100
AcDbEntity
  8
0
  6
Continuous
 62
     7
370
     0
100
AcDbCircle
 10
13.99999999909289
 20
90.19913895636058
 30
0.0
 40
1.0
100
AcDbArc
 50
289.8804029857498
 51
0.0
  0
ARC
  5
5988
330
A
100
AcDbEntity
  8
0
  6
Continuous
 62
     7
370
     0
100
AcDbCircle
 10
-19.66573420800296
 20
183.2991837484935
 30
0.0
 40
100.0
100
AcDbArc
 50
270.1103476975218
 51
289.8804029857498
  0
ARC
  5
5989
330
A
100
AcDbEntity
  8
0
  6
Continuous
 62
     7
370
     0
100
AcDbCircle
 10
-19.4596597565137
 20
76.29938219110535
 30
0.0
 40
7.000000000000045
100
AcDbArc
 50
90.11034769752177
 51
174.3875554537121
  0
ARC
  5
598A
330
A
100
AcDbEntity
  8
0
  6
Continuous
 62
     7
370
     0
100
AcDbCircle
 10
-125.9467211948225
 20
86.76388152140672
 30
0.0
 40
100.0000000000001
100
AcDbArc
 50
340.3667139038792
 51
354.3875554537121
  0
ARC
  5
598B
330
A
100
AcDbEntity
  8
0
  6
Continuous
 62
     7
370
     0
100
AcDbCircle
 10
-32.702342350143
 20
53.50000000000371
 30
0.0
 40
1.000000000000039
100
AcDbArc
 50
270.0
 51
340.3667139038777
  0
LINE
  5
598C
330
A
100
AcDbEntity
  8
0
  6
Continuous
 62
     7
370
     0
100
AcDbLine
 10
-32.702342350143
 20
52.50000000000373
 30
0.0
 11
-35.00000000090688
 21
52.50000000000373
 31
0.0
  0
LINE
  5
598D
330
A
100
AcDbEntity
  8
0
  6
Continuous
 62
     7
370
     0
100
AcDbLine
 10
14.99999999909312
 20
92.50000000000373
 30
0.0
 11
14.99999999909312
 21
90.19913895636058
 31
0.0
  0
LINE
  5
598E
330
A
100
AcDbEntity
  8
0
  6
Continuous
 62
     7
370
     0
100
AcDbLine
 10
-13.00000000090711
 20
92.50000000000373
 30
0.0
 11
14.99999999909312
 21
92.50000000000373
 31
0.0
  0
ARC
  5
598F
330
A
100
AcDbEntity
  8
0
  6
Continuous
 62
     7
370
     0
100
AcDbCircle
 10
-14.00000000090711
 20
92.50000000000373
 30
0.0
 40
1.0
100
AcDbArc
 50
270.0
 51
0.0
  0
LINE
  5
5990
330
A
100
AcDbEntity
  8
0
  6
Continuous
 62
     9
370
     0
100
AcDbLine
 10
-2.500000000906084
 20
95.00000000000239
 30
0.0
 11
-2.500000000906084
 21
93.50000000001005
 31
0.0
  0
LINE
  5
5991
330
A
100
AcDbEntity
  8
0
  6
Continuous
 62
     9
370
     0
100
AcDbLine
 10
2.499999999093915
 20
93.50000000001005
 30
0.0
 11
2.499999999093915
 21
95.00000000000239
 31
0.0
  0
LINE
  5
5992
330
A
100
AcDbEntity
  8
0
  6
Continuous
 62
     7
370
     0
100
AcDbLine
 10
-7.000000000000111
 20
100.0000000000023
 30
0.0
 11
-7.000000000000111
 21
95.00000000000239
 31
0.0
  0
LINE
  5
5993
330
A
100
AcDbEntity
  8
0
  6
Continuous
 62
     7
370
     0
100
AcDbLine
 10
7.0
 20
95.00000000000239
 30
0.0
 11
7.0
 21
100.0000000000023
 31
0.0
  0
LINE
  5
5994
330
A
100
AcDbEntity
  8
0
  6
Continuous
 62
     7
370
     0
100
AcDbLine
 10
5.41284210876813
 20
85.6499999999918
 30
0.0
 11
5.98769251935198
 21
86.64567011787474
 31
0.0
  0
ARC
  5
5995
330
A
100
AcDbEntity
  8
0
  6
Continuous
 62
     7
370
     0
100
AcDbCircle
 10
4.979829406875865
 20
85.89999999999182
 30
0.0
 40
0.5000000000000006
100
AcDbArc
 50
270.0
 51
329.9999999999995
  0
LINE
  5
5996
330
A
100
AcDbEntity
  8
0
  6
Continuous
 62
     7
370
     0
100
AcDbLine
 10
-3.000000000906538
 20
94.99999999999706
 30
0.0
 11
-3.000000000906538
 21
93.50000000001005
 31
0.0
  0
LINE
  5
5997
330
A
100
AcDbEntity
  8
0
  6
Continuous
 62
     7
370
     0
100
AcDbLine
 10
2.999999999094142
 20
93.50000000001005
 30
0.0
 11
2.999999999094142
 21
94.99999999999706
 31
0.0
  0
LINE
  5
5998
330
A
100
AcDbEntity
  8
0
  6
Continuous
 62
     7
370
     0
100
AcDbLine
 10
4.899999999547617
 20
100.0000000000023
 30
0.0
 11
4.899999999547617
 21
101.5000000000025
 31
0.0
  0
LINE
  5
5999
330
A
100
AcDbEntity
  8
0
  6
Continuous
 62
     7
370
     0
100
AcDbLine
 10
-4.900000000452222
 20
101.5000000000025
 30
0.0
 11
-4.900000000452222
 21
100.0000000000023
 31
0.0
  0
LINE
  5
599A
330
A
100
AcDbEntity
  8
0
  6
Continuous
 62
     9
370
     0
100
AcDbLine
 10
11.99999999999522
 20
-97.49999999999621
 30
0.0
 11
11.99999999999522
 21
-96.49999999999621
 31
0.0
  0
LINE
  5
599B
330
A
100
AcDbEntity
  8
0
  6
Continuous
 62
     9
370
     0
100
AcDbLine
 10
-12.00000000000489
 20
-97.49999999999621
 30
0.0
 11
-12.00000000000489
 21
-96.49999999999621
 31
0.0
  0
LINE
  5
599C
330
A
100
AcDbEntity
  8
0
  6
Continuous
 62
     7
370
     0
100
AcDbLine
 10
11.99999999999522
 20
-96.49999999999621
 30
0.0
 11
-12.00000000000489
 21
-96.49999999999621
 31
0.0
  0
LINE
  5
599D
330
A
100
AcDbEntity
  8
0
  6
Continuous
 62
     7
370
     0
100
AcDbLine
 10
-14.00000000000477
 20
-97.49999999999621
 30
0.0
 11
-14.00000000000477
 21
-96.49999999999621
 31
0.0
  0
LINE
  5
599E
330
A
100
AcDbEntity
  8
0
  6
Continuous
 62
     7
370
     0
100
AcDbLine
 10
-12.00000000000489
 20
-96.49999999999621
 30
0.0
 11
-14.00000000000477
 21
-96.49999999999621
 31
0.0
  0
LINE
  5
599F
330
A
100
AcDbEntity
  8
0
  6
Continuous
 62
     7
370
     0
100
AcDbLine
 10
13.99999999999522
 20
-97.49999999999621
 30
0.0
 11
13.99999999999522
 21
-96.49999999999621
 31
0.0
  0
LINE
  5
59A0
330
A
100
AcDbEntity
  8
0
  6
Continuous
 62
     7
370
     0
100
AcDbLine
 10
13.99999999999522
 20
-96.49999999999621
 30
0.0
 11
11.99999999999522
 21
-96.49999999999621
 31
0.0
  0
LINE
  5
59A1
330
A
100
AcDbEntity
  8
0
  6
Continuous
 62
     7
370
     0
100
AcDbLine
 10
-14.00000000090665
 20
-88.50000000000369
 30
0.0
 11
-14.00000000090665
 21
-87.50000000000367
 31
0.0
  0
LINE
  5
59A2
330
A
100
AcDbEntity
  8
0
  6
Continuous
 62
     7
370
     0
100
AcDbLine
 10
-13.00000000090711
 20
-87.50000000000367
 30
0.0
 11
-14.00000000090665
 21
-87.50000000000367
 31
0.0
  0
LINE
  5
59A3
330
A
100
AcDbEntity
  8
0
  6
Continuous
 62
     7
370
     0
100
AcDbLine
 10
-12.00000000090631
 20
-88.50000000000369
 30
0.0
 11
-14.00000000090665
 21
-88.50000000000369
 31
0.0
  0
LINE
  5
59A4
330
A
100
AcDbEntity
  8
0
  6
Continuous
 62
     9
370
     0
100
AcDbLine
 10
11.99999999909334
 20
-88.50000000000369
 30
0.0
 11
11.99999999909334
 21
-87.50000000000367
 31
0.0
  0
LINE
  5
59A5
330
A
100
AcDbEntity
  8
0
  6
Continuous
 62
     9
370
     0
100
AcDbLine
 10
-12.00000000090631
 20
-88.50000000000369
 30
0.0
 11
-12.00000000090631
 21
-87.50000000000367
 31
0.0
  0
LINE
  5
59A6
330
A
100
AcDbEntity
  8
0
  6
Continuous
 62
     7
370
     0
100
AcDbLine
 10
11.99999999909334
 20
-88.50000000000369
 30
0.0
 11
-12.00000000090631
 21
-88.50000000000369
 31
0.0
  0
LINE
  5
59A7
330
A
100
AcDbEntity
  8
0
  6
Continuous
 62
     7
370
     0
100
AcDbLine
 10
13.99999999909335
 20
-88.50000000000369
 30
0.0
 11
13.99999999909335
 21
-87.50000000000367
 31
0.0
  0
LINE
  5
59A8
330
A
100
AcDbEntity
  8
0
  6
Continuous
 62
     7
370
     0
100
AcDbLine
 10
13.99999999909335
 20
-88.50000000000369
 30
0.0
 11
11.99999999909334
 21
-88.50000000000369
 31
0.0
  0
LINE
  5
59A9
330
A
100
AcDbEntity
  8
0
  6
Continuous
 62
     7
370
     0
100
AcDbLine
 10
7.0
 20
-94.99999999999587
 30
0.0
 11
5.362382856522232
 21
-94.99999999999587
 31
0.0
  0
LINE
  5
59AA
330
A
100
AcDbEntity
  8
0
  6
Continuous
 62
     7
370
     0
100
AcDbLine
 10
7.0
 20
-89.99999999999587
 30
0.0
 11
5.362382856522232
 21
-89.99999999999587
 31
0.0
  0
LINE
  5
59AB
330
A
100
AcDbEntity
  8
0
  6
Continuous
 62
     7
370
     0
100
AcDbLine
 10
5.362382856522232
 20
-94.99999999999587
 30
0.0
 11
-7.000000000000111
 21
-94.99999999999587
 31
0.0
  0
LINE
  5
59AC
330
A
100
AcDbEntity
  8
0
  6
Continuous
 62
     7
370
     0
100
AcDbLine
 10
5.362382856522232
 20
-89.99999999999587
 30
0.0
 11
-7.000000000000111
 21
-89.99999999999587
 31
0.0
  0
LINE
  5
59AD
330
A
100
AcDbEntity
  8
0
  6
Continuous
 62
     9
370
     0
100
AcDbLine
 10
5.41284210876813
 20
-80.64999999998537
 30
0.0
 11
1.889703928377343
 21
-80.64999999998537
 31
0.0
  0
LINE
  5
59AE
330
A
100
AcDbEntity
  8
0
  6
Continuous
 62
     7
370
     0
100
AcDbLine
 10
0.7242099159292366
 20
-80.39999999998537
 30
0.0
 11
4.979829406875865
 21
-80.39999999998537
 31
0.0
  0
ARC
  5
59AF
330
A
100
AcDbEntity
  8
0
  6
Continuous
 62
     7
370
     0
100
AcDbCircle
 10
11.99999999954832
 20
-99.49999999999608
 30
0.0
 40
3.000000000000001
100
AcDbArc
 50
270.0
 51
0.0
  0
LINE
  5
59B0
330
A
100
AcDbEntity
  8
0
  6
Continuous
 62
     7
370
     0
100
AcDbLine
 10
11.99999999954832
 20
-102.4999999999961
 30
0.0
 11
-12.00000000045168
 21
-102.4999999999963
 31
0.0
  0
ARC
  5
59B1
330
A
100
AcDbEntity
  8
0
  6
Continuous
 62
     7
370
     0
100
AcDbCircle
 10
-12.00000000045202
 20
-99.49999999999628
 30
0.0
 40
3.000000000000001
100
AcDbArc
 50
180.0
 51
270.0
  0
LINE
  5
59B2
330
A
100
AcDbEntity
  8
0
  6
Continuous
 62
     7
370
     0
100
AcDbLine
 10
14.99999999954832
 20
-97.49999999999609
 30
0.0
 11
14.99999999954832
 21
-99.49999999999608
 31
0.0
  0
LINE
  5
59B3
330
A
100
AcDbEntity
  8
0
  6
Continuous
 62
     7
370
     0
100
AcDbLine
 10
-15.00000000045168
 20
-99.49999999999628
 30
0.0
 11
-15.00000000045168
 21
-97.4999999999963
 31
0.0
  0
LINE
  5
59B4
330
A
100
AcDbEntity
  8
0
  6
Continuous
 62
     7
370
     0
100
AcDbLine
 10
-15.00000000045168
 20
-97.4999999999963
 30
0.0
 11
14.99999999954832
 21
-97.49999999999609
 31
0.0
  0
ARC
  5
59B5
330
A
100
AcDbEntity
  8
0
  6
Continuous
 62
     7
370
     0
100
AcDbCircle
 10
-125.9467211948225
 20
-81.76388152140029
 30
0.0
 40
100.0000000000001
100
AcDbArc
 50
5.612444546287858
 51
19.6332860961209
  0
ARC
  5
59B6
330
A
100
AcDbEntity
  8
0
  6
Continuous
 62
     7
370
     0
100
AcDbCircle
 10
-32.702342350143
 20
-48.49999999999727
 30
0.0
 40
1.000000000000029
100
AcDbArc
 50
19.6332860961209
 51
90.0
  0
LINE
  5
59B7
330
A
100
AcDbEntity
  8
0
  6
Continuous
 62
     7
370
     0
100
AcDbLine
 10
-13.00000000090711
 20
-87.49999999999728
 30
0.0
 11
14.99999999909312
 21
-87.49999999999728
 31
0.0
  0
ARC
  5
59B8
330
A
100
AcDbEntity
  8
0
  6
Continuous
 62
     7
370
     0
100
AcDbCircle
 10
-14.00000000090711
 20
-87.49999999999728
 30
0.0
 40
1.0
100
AcDbArc
 50
0.0
 51
90.0
  0
LINE
  5
59B9
330
A
100
AcDbEntity
  8
0
  6
Continuous
 62
     7
370
     0
100
AcDbLine
 10
-20.00000000090711
 20
-86.49999999999726
 30
0.0
 11
-14.00000000090711
 21
-86.49999999999726
 31
0.0
  0
ARC
  5
59BA
330
A
100
AcDbEntity
  8
0
  6
Continuous
 62
     7
370
     0
100
AcDbCircle
 10
-20.00000000090711
 20
-72.49999999999726
 30
0.0
 40
13.9999999999999
100
AcDbArc
 50
180.0
 51
270.0
  0
ARC
  5
59BB
330
A
100
AcDbEntity
  8
0
  6
Continuous
 62
     7
370
     0
100
AcDbCircle
 10
-35.00000000090688
 20
-72.49999999999726
 30
0.0
 40
1.0
100
AcDbArc
 50
0.0
 51
90.0
  0
LINE
  5
59BC
330
A
100
AcDbEntity
  8
0
  6
Continuous
 62
     7
370
     0
100
AcDbLine
 10
-35.00000000090688
 20
-47.49999999999727
 30
0.0
 11
-35.00000000090688
 21
-71.49999999999725
 31
0.0
  0
LINE
  5
59BD
330
A
100
AcDbEntity
  8
0
  6
Continuous
 62
     7
370
     0
100
AcDbLine
 10
-32.702342350143
 20
-47.49999999999727
 30
0.0
 11
-35.00000000090688
 21
-47.49999999999727
 31
0.0
  0
ARC
  5
59BE
330
A
100
AcDbEntity
  8
0
  6
Continuous
 62
     7
370
     0
100
AcDbCircle
 10
-19.4596597565137
 20
-71.299382191099
 30
0.0
 40
7.000000000000017
100
AcDbArc
 50
185.6124445462878
 51
269.8896523024782
  0
ARC
  5
59BF
330
A
100
AcDbEntity
  8
0
  6
Continuous
 62
     7
370
     0
100
AcDbCircle
 10
-19.66573420800296
 20
-178.299183748487
 30
0.0
 40
100.0
100
AcDbArc
 50
70.11959701425017
 51
89.88965230247824
  0
ARC
  5
59C0
330
A
100
AcDbEntity
  8
0
  6
Continuous
 62
     7
370
     0
100
AcDbCircle
 10
13.99999999909289
 20
-85.19913895635429
 30
0.0
 40
1.0
100
AcDbArc
 50
0.0
 51
70.11959701425017
  0
LINE
  5
59C1
330
A
100
AcDbEntity
  8
0
  6
Continuous
 62
     7
370
     0
100
AcDbLine
 10
14.99999999909312
 20
-87.49999999999728
 30
0.0
 11
14.99999999909312
 21
-85.19913895635429
 31
0.0
  0
LINE
  5
59C2
330
A
100
AcDbEntity
  8
0
  6
Continuous
 62
     9
370
     0
100
AcDbLine
 10
2.499999999093915
 20
-89.99999999999587
 30
0.0
 11
2.499999999093915
 21
-88.50000000000369
 31
0.0
  0
LINE
  5
59C3
330
A
100
AcDbEntity
  8
0
  6
Continuous
 62
     9
370
     0
100
AcDbLine
 10
-2.500000000906084
 20
-88.50000000000369
 30
0.0
 11
-2.500000000906084
 21
-89.99999999999587
 31
0.0
  0
LINE
  5
59C4
330
A
100
AcDbEntity
  8
0
  6
Continuous
 62
     7
370
     0
100
AcDbLine
 10
7.0
 20
-94.99999999999587
 30
0.0
 11
7.0
 21
-89.99999999999587
 31
0.0
  0
LINE
  5
59C5
330
A
100
AcDbEntity
  8
0
  6
Continuous
 62
     7
370
     0
100
AcDbLine
 10
-7.000000000000111
 20
-89.99999999999587
 30
0.0
 11
-7.000000000000111
 21
-94.99999999999587
 31
0.0
  0
LINE
  5
59C6
330
A
100
AcDbEntity
  8
0
  6
Continuous
 62
     7
370
     0
100
AcDbLine
 10
5.98769251935198
 20
-81.64567011786827
 30
0.0
 11
5.41284210876813
 21
-80.64999999998537
 31
0.0
  0
ARC
  5
59C7
330
A
100
AcDbEntity
  8
0
  6
Continuous
 62
     7
370
     0
100
AcDbCircle
 10
4.979829406875865
 20
-80.89999999998537
 30
0.0
 40
0.500000000000002
100
AcDbArc
 50
30.00000000000055
 51
90.0
  0
LINE
  5
59C8
330
A
100
AcDbEntity
  8
0
  6
Continuous
 62
     7
370
     0
100
AcDbLine
 10
2.999999999094142
 20
-89.99999999999079
 30
0.0
 11
2.999999999094142
 21
-88.50000000000369
 31
0.0
  0
LINE
  5
59C9
330
A
100
AcDbEntity
  8
0
  6
Continuous
 62
     7
370
     0
100
AcDbLine
 10
-3.000000000906538
 20
-88.50000000000369
 30
0.0
 11
-3.000000000906538
 21
-89.99999999999079
 31
0.0
  0
LINE
  5
59CA
330
A
100
AcDbEntity
  8
0
  6
Continuous
 62
     7
370
     0
100
AcDbLine
 10
-4.900000000452222
 20
-94.99999999999587
 30
0.0
 11
-4.900000000452222
 21
-96.49999999999621
 31
0.0
  0
LINE
  5
59CB
330
A
100
AcDbEntity
  8
0
  6
Continuous
 62
     7
370
     0
100
AcDbLine
 10
4.899999999547617
 20
-96.49999999999621
 30
0.0
 11
4.899999999547617
 21
-94.99999999999587
 31
0.0
  0
LINE
  5
59CC
330
A
100
AcDbEntity
  8
0
  6
Continuous
 62
     7
370
     0
100
AcDbLine
 10
-15.00000000045168
 20
20.00000000000341
 30
0.0
 11
-15.00000000045304
 21
-19.99999999999659
 31
0.0
  0
LINE
  5
59CD
330
A
100
AcDbEntity
  8
0
  6
Continuous
 62
     9
370
     0
100
AcDbLine
 10
-12.00000000045168
 20
20.0000000000033
 30
0.0
 11
-12.00000000045281
 21
-19.99999999999679
 31
0.0
  0
LINE
  5
59CE
330
A
100
AcDbEntity
  8
0
  6
Continuous
 62
     7
370
     0
100
AcDbLine
 10
-12.00000000045168
 20
20.0000000000033
 30
0.0
 11
-15.00000000045168
 21
20.00000000000341
 31
0.0
  0
LINE
  5
59CF
330
A
100
AcDbEntity
  8
0
  6
Continuous
 62
     7
370
     0
100
AcDbLine
 10
-12.00000000045281
 20
-19.99999999999679
 30
0.0
 11
-15.00000000045304
 21
-19.99999999999659
 31
0.0
  0
LINE
  5
59D0
330
A
100
AcDbEntity
  8
0
  6
Continuous
 62
     9
370
     0
100
AcDbLine
 10
11.99999999954832
 20
20.00000000000273
 30
0.0
 11
11.99999999954718
 21
-19.99999999999738
 31
0.0
  0
LINE
  5
59D1
330
A
100
AcDbEntity
  8
0
  6
Continuous
 62
     7
370
     0
100
AcDbLine
 10
11.99999999954832
 20
20.00000000000273
 30
0.0
 11
-12.00000000045168
 21
20.0000000000033
 31
0.0
  0
LINE
  5
59D2
330
A
100
AcDbEntity
  8
0
  6
Continuous
 62
     7
370
     0
100
AcDbLine
 10
11.99999999954718
 20
-19.99999999999738
 30
0.0
 11
-12.00000000045281
 21
-19.99999999999679
 31
0.0
  0
LINE
  5
59D3
330
A
100
AcDbEntity
  8
0
  6
Continuous
 62
     7
370
     0
100
AcDbLine
 10
14.99999999954832
 20
20.00000000000262
 30
0.0
 11
14.99999999954695
 21
-19.99999999999738
 31
0.0
  0
LINE
  5
59D4
330
A
100
AcDbEntity
  8
0
  6
Continuous
 62
     7
370
     0
100
AcDbLine
 10
14.99999999954832
 20
20.00000000000262
 30
0.0
 11
11.99999999954832
 21
20.00000000000273
 31
0.0
  0
LINE
  5
59D5
330
A
100
AcDbEntity
  8
0
  6
Continuous
 62
     7
370
     0
100
AcDbLine
 10
14.99999999954695
 20
-19.99999999999738
 30
0.0
 11
11.99999999954718
 21
-19.99999999999738
 31
0.0
  0
LINE
  5
59D6
330
A
100
AcDbEntity
  8
0
  6
Continuous
 62
     9
370
     0
100
AcDbLine
 10
-20.00000000090711
 20
20.00000000000381
 30
0.0
 11
-20.00000000090711
 21
-19.99999999999619
 31
0.0
  0
LINE
  5
59D7
330
A
100
AcDbEntity
  8
0
  6
Continuous
 62
     7
370
     0
100
AcDbLine
 10
-20.00000000090711
 20
-19.99999999999619
 30
0.0
 11
-15.00000000045304
 21
-19.99999999999636
 31
0.0
  0
LINE
  5
59D8
330
A
100
AcDbEntity
  8
0
  6
Continuous
 62
     7
370
     0
100
AcDbLine
 10
-20.00000000090711
 20
20.00000000000381
 30
0.0
 11
-15.00000000045168
 21
20.00000000000364
 31
0.0
  0
LINE
  5
59D9
330
A
100
AcDbEntity
  8
0
  6
Continuous
 62
     7
370
     0
100
AcDbLine
 10
-34.00000000090688
 20
20.00000000000381
 30
0.0
 11
-34.00000000090688
 21
-19.99999999999619
 31
0.0
  0
LINE
  5
59DA
330
A
100
AcDbEntity
  8
0
  6
Continuous
 62
     7
370
     0
100
AcDbLine
 10
-34.00000000090688
 20
-19.99999999999619
 30
0.0
 11
-20.00000000090711
 21
-19.99999999999619
 31
0.0
  0
LINE
  5
59DB
330
A
100
AcDbEntity
  8
0
  6
Continuous
 62
     7
370
     0
100
AcDbLine
 10
-34.00000000090688
 20
20.00000000000381
 30
0.0
 11
-20.00000000090711
 21
20.00000000000381
 31
0.0
  0
LINE
  5
59DC
330
A
100
AcDbEntity
  8
0
  6
Continuous
 62
     7
370
     0
100
AcDbLine
 10
-35.00000000090688
 20
20.00000000000381
 30
0.0
 11
-35.00000000090688
 21
-19.99999999999619
 31
0.0
  0
LINE
  5
59DD
330
A
100
AcDbEntity
  8
0
  6
Continuous
 62
     7
370
     0
100
AcDbLine
 10
-34.00000000090688
 20
-19.99999999999619
 30
0.0
 11
-35.00000000090688
 21
-19.99999999999619
 31
0.0
  0
LINE
  5
59DE
330
A
100
AcDbEntity
  8
0
  6
Continuous
 62
     7
370
     0
100
AcDbLine
 10
-34.00000000090688
 20
20.00000000000381
 30
0.0
 11
-35.00000000090688
 21
20.00000000000381
 31
0.0
  0
TEXT
  5
6278
330
A
100
AcDbEntity
  8
0
  6
Continuous
 62
     7
370
     0
100
AcDbText
 10
-16.01980864493907
 20
57.50732064421979
 30
0.0
 40
10.0
  1
4414
100
AcDbText
  0
LINE
  5
628B
330
A
100
AcDbEntity
  8
0
  6
Continuous
 62
     7
370
     0
100
AcDbLine
 10
-95.25195859083272
 20
6.199999999988789
 30
0.0
 11
-95.12450180353731
 21
6.166176285576397
 31
0.0
  0
LINE
  5
628C
330
A
100
AcDbEntity
  8
0
  6
Continuous
 62
     7
370
     0
100
AcDbLine
 10
-95.12450180353731
 20
6.166176285576397
 30
0.0
 11
-95.02177018837915
 21
6.085739740632218
 31
0.0
  0
LINE
  5
628D
330
A
100
AcDbEntity
  8
0
  6
Continuous
 62
     7
370
     0
100
AcDbLine
 10
-95.02177018837915
 20
6.085739740632218
 30
0.0
 11
-94.92543064587428
 21
5.961060459686137
 31
0.0
  0
ARC
  5
628E
330
A
100
AcDbEntity
  8
0
  6
Continuous
 62
     7
370
     0
100
AcDbCircle
 10
-118.1009902757621
 20
-0.096952722235983
 30
0.0
 40
23.95424989163342
100
AcDbArc
 50
353.3275317857599
 51
14.64914476814561
  0
ARC
  5
628F
330
A
100
AcDbEntity
  8
0
  6
Continuous
 62
     7
370
     0
100
AcDbCircle
 10
-103.5464766274252
 20
-2.694640477872296
 30
0.0
 40
9.239349626102882
100
AcDbArc
 50
340.0182198125602
 51
358.8487170816494
  0
LINE
  5
6290
330
A
100
AcDbEntity
  8
0
  6
Continuous
 62
     7
370
     0
100
AcDbLine
 10
-94.86332352154636
 20
-5.851923115399896
 30
0.0
 11
-94.95452534406913
 21
-6.004153628452852
 31
0.0
  0
LINE
  5
6291
330
A
100
AcDbEntity
  8
0
  6
Continuous
 62
     7
370
     0
100
AcDbLine
 10
-94.95452534406913
 20
-6.004153628452852
 30
0.0
 11
-95.06216668004027
 21
-6.123416998846777
 31
0.0
  0
LINE
  5
6292
330
A
100
AcDbEntity
  8
0
  6
Continuous
 62
     7
370
     0
100
AcDbLine
 10
-95.06216668004027
 20
-6.123416998846777
 30
0.0
 11
-95.18746030214195
 21
-6.191459204789621
 31
0.0
  0
LINE
  5
6293
330
A
100
AcDbEntity
  8
0
  6
Continuous
 62
     7
370
     0
100
AcDbLine
 10
-95.18746030214195
 20
-6.191459204789621
 30
0.0
 11
-95.25195585314078
 21
-6.199999999996179
 31
0.0
  0
LINE
  5
6294
330
A
100
AcDbEntity
  8
0
  6
Continuous
 62
     7
370
     0
100
AcDbLine
 10
-95.25195585314078
 20
-6.199999999996179
 30
0.0
 11
-95.35890616121823
 21
-6.177620765114482
 31
0.0
  0
LINE
  5
6295
330
A
100
AcDbEntity
  8
0
  6
Continuous
 62
     7
370
     0
100
AcDbLine
 10
-95.35890616121823
 20
-6.177620765114482
 30
0.0
 11
-95.46790180538016
 21
-6.110861837169096
 31
0.0
  0
LINE
  5
6296
330
A
100
AcDbEntity
  8
0
  6
Continuous
 62
     7
370
     0
100
AcDbLine
 10
-95.46790180538016
 20
-6.110861837169096
 30
0.0
 11
-95.58133366043717
 21
-5.996250200675602
 31
0.0
  0
ARC
  5
6297
330
A
100
AcDbEntity
  8
0
  6
Continuous
 62
     7
370
     0
100
AcDbCircle
 10
-80.33076500961568
 20
0.1158071435946226
 30
0.0
 40
16.42976229752164
100
AcDbArc
 50
169.1776053672793
 51
201.8397133756786
  0
ARC
  5
6298
330
A
100
AcDbEntity
  8
0
  6
Continuous
 62
     7
370
     0
100
AcDbCircle
 10
-88.76736688453261
 20
2.35792960798352
 30
0.0
 40
7.746922573270852
100
AcDbArc
 50
152.9838836673591
 51
173.7542222814514
  0
LINE
  5
6299
330
A
100
AcDbEntity
  8
0
  6
Continuous
 62
     7
370
     0
100
AcDbLine
 10
-95.66893588586879
 20
5.876900292153719
 30
0.0
 11
-95.55790661213825
 21
6.023635494633225
 31
0.0
  0
LINE
  5
629A
330
A
100
AcDbEntity
  8
0
  6
Continuous
 62
     7
370
     0
100
AcDbLine
 10
-95.55790661213825
 20
6.023635494633225
 30
0.0
 11
-95.44572582034573
 21
6.127918081497199
 31
0.0
  0
LINE
  5
629B
330
A
100
AcDbEntity
  8
0
  6
Continuous
 62
     7
370
     0
100
AcDbLine
 10
-95.44572582034573
 20
6.127918081497199
 30
0.0
 11
-95.33605032266734
 21
6.186094112638016
 31
0.0
  0
LINE
  5
629C
330
A
100
AcDbEntity
  8
0
  6
Continuous
 62
     7
370
     0
100
AcDbLine
 10
-95.33605032266734
 20
6.186094112638016
 30
0.0
 11
-95.25195859083272
 21
6.199999999988789
 31
0.0
  0
CIRCLE
  5
6379
330
A
100
AcDbEntity
  8
0
  6
CENTER
 62
     1
100
AcDbCircle
 10
0.0
 20
0.0
 30
0.0
 40
7.0
  0
ENDSEC
  0
SECTION
  2
OBJECTS
  0
DICTIONARY
  5
19
330
0
100
AcDbDictionary
281
     1
  3
ACAD_COLOR
350
3176
  3
ACAD_GROUP
350
1A
  3
ACAD_LAYOUT
350
1E
  3
ACAD_MATERIAL
350
314C
  3
ACAD_MLEADERSTYLE
350
319B
  3
ACAD_MLINESTYLE
350
1B
  3
ACAD_PLOTSETTINGS
350
22
  3
ACAD_PLOTSTYLENAME
350
1F
  3
ACAD_SCALELIST
350
3179
  3
ACAD_TABLESTYLE
350
3177
  3
ACAD_VISUALSTYLE
350
3165
  3
ACAD_WIPEOUT_VARS
350
23
  3
ACDB_RECOMPOSE_DATA
350
630A
  3
AcDbVariableDictionary
350
630B
  3
ASE_INDEX_DICTIONARY
350
5E44
  3
DWGPROPS
350
63B9
  0
DICTIONARY
  5
5E41
330
14
100
AcDbDictionary
280
     1
281
     1
  3
ADSK_XREC_LAYER_RECONCILED
360
5E42
  0
DICTIONARY
  5
31A7
330
A
100
AcDbDictionary
280
     1
281
     1
  3
ACAD_SORTENTS
360
31A8
  0
DICTIONARY
  5
3176
102
{ACAD_REACTORS
330
19
102
}
330
19
100
AcDbDictionary
281
     1
  0
DICTIONARY
  5
1A
102
{ACAD_REACTORS
330
19
102
}
330
19
100
AcDbDictionary
281
     1
  0
DICTIONARY
  5
1E
102
{ACAD_REACTORS
330
19
102
}
330
19
100
AcDbDictionary
281
     1
  3
Layout1
350
21
  3
Model
350
20
  0
DICTIONARY
  5
314C
102
{ACAD_REACTORS
330
19
102
}
330
19
100
AcDbDictionary
281
     1
  3
ByBlock
350
3155
  3
ByLayer
350
314D
  3
Global
350
315D
  0
DICTIONARY
  5
319B
102
{ACAD_REACTORS
330
19
102
}
330
19
100
AcDbDictionary
281
     1
  3
Standard
350
319C
  0
DICTIONARY
  5
1B
102
{ACAD_REACTORS
330
19
102
}
330
19
100
AcDbDictionary
281
     1
  3
Standard
350
1C
  0
DICTIONARY
  5
22
102
{ACAD_REACTORS
330
19
102
}
330
19
100
AcDbDictionary
281
     1
  0
ACDBDICTIONARYWDFLT
  5
1F
102
{ACAD_REACTORS
330
19
102
}
330
19
100
AcDbDictionary
281
     1
  3
Normal
350
1D
100
AcDbDictionaryWithDefault
340
1D
  0
DICTIONARY
  5
3179
102
{ACAD_REACTORS
330
19
102
}
330
19
100
AcDbDictionary
281
     1
  3
A0
350
317A
  3
A1
350
317B
  3
A2
350
317C
  3
A3
350
317D
  3
A4
350
317E
  3
A5
350
317F
  3
A6
350
3180
  3
A7
350
3181
  3
A8
350
3182
  3
A9
350
3183
  3
B0
350
3184
  3
B1
350
3185
  3
B2
350
3186
  3
B3
350
3187
  3
B4
350
3188
  3
B5
350
3189
  3
B6
350
318A
  3
B7
350
318B
  3
B8
350
318C
  3
B9
350
318D
  3
C0
350
318E
  3
C1
350
318F
  3
C2
350
3190
  3
C3
350
3191
  3
C4
350
3192
  3
C5
350
3193
  3
C6
350
3194
  3
C7
350
3195
  3
C8
350
3196
  3
C9
350
3197
  3
D0
350
3198
  3
D1
350
3199
  3
D2
350
319A
  0
DICTIONARY
  5
3177
102
{ACAD_REACTORS
330
19
102
}
330
19
100
AcDbDictionary
281
     1
  3
Standard
350
3178
  0
DICTIONARY
  5
3165
102
{ACAD_REACTORS
330
19
102
}
330
19
100
AcDbDictionary
281
     1
  3
2dWireframe
350
316B
  3
3D Hidden
350
316D
  3
3dWireframe
350
316C
  3
Basic
350
316A
  3
Brighten
350
3171
  3
ColorChange
350
3175
  3
Conceptual
350
316E
  3
Dim
350
3170
  3
Facepattern
350
3174
  3
Flat
350
3166
  3
FlatWithEdges
350
3167
  3
Gouraud
350
3168
  3
GouraudWithEdges
350
3169
  3
Linepattern
350
3173
  3
Realistic
350
316F
  3
Thicken
350
3172
  0
WIPEOUTVARIABLES
  5
23
330
19
100
AcDbWipeoutVariables
 70
     1
  0
XRECORD
  5
630A
102
{ACAD_REACTORS
330
19
102
}
330
19
100
AcDbXrecord
280
     1
 90
        1
330
3178
  0
DICTIONARY
  5
630B
102
{ACAD_REACTORS
330
19
102
}
330
19
100
AcDbDictionary
281
     1
  3
CANNOSCALE
350
630F
  3
CMLEADERSTYLE
350
630D
  3
CTABLESTYLE
350
630C
  3
DIMASSOC
350
6318
  3
INDEXCTL
350
6317
  3
LIGHTINGUNITS
350
6310
  3
MSLTSCALE
350
630E
  3
SORTENTS
350
6316
  0
DICTIONARY
  5
5E44
102
{ACAD_REACTORS
330
19
102
}
330
19
100
AcDbDictionary
281
     1
  3
ASEBlockHierarchyIndexRecord
350
5E46
1001
DCO15
1040
1685075681.336
  0
XRECORD
  5
63B9
102
{ACAD_REACTORS
330
19
102
}
330
19
100
AcDbXrecord
280
     1
  1
DWGPROPS COOKIE
  2

  3

  4

  6

  7

  8
renzo.ceresoli
  9

300
=
301
=
302
=
303
=
304
=
305
=
306
=
307
=
308
=
309
=
 40
0.0075685185185185
 41
2455303.727916667
 42
2455306.414154005
  1

 90
        0
  0
XRECORD
  5
5E42
102
{ACAD_REACTORS
330
5E41
102
}
330
5E41
100
AcDbXrecord
280
     1
290
     1
  0
SORTENTSTABLE
  5
31A8
102
{ACAD_REACTORS
330
31A7
102
}
330
31A7
100
AcDbSortentsTable
330
A
331
58A9
  5
3606
331
58E8
  5
35C0
331
592F
  5
35F1
331
596E
  5
3558
331
58B1
  5
360E
331
58F0
  5
35C8
331
59A5
  5
352D
331
59AD
  5
3535
331
58F8
  5
35D0
331
5937
  5
3586
331
662
  5
365C
331
58B9
  5
3616
331
5976
  5
3560
331
597E
  5
3568
331
59B5
  5
353D
331
5900
  5
35D8
331
593F
  5
358E
331
66A
  5
367D
331
58C1
  5
361E
331
5986
  5
3570
331
59BD
  5
3545
331
5947
  5
3596
331
58C9
  5
3626
331
5910
  5
35DD
331
594F
  5
359E
331
589A
  5
35F7
331
58D1
  5
362E
331
598E
  5
3578
331
59C5
  5
354D
331
59CD
  5
3510
331
5920
  5
35E2
331
5957
  5
35A6
331
58A2
  5
35FF
331
58D9
  5
363E
331
5996
  5
3580
331
59D5
  5
3518
331
595F
  5
35AE
331
58E1
  5
35B9
331
599E
  5
3526
331
59DD
  5
3520
331
5967
  5
35B6
331
58E9
  5
35C1
331
5928
  5
35EA
331
58AA
  5
3607
331
596F
  5
3559
331
59A6
  5
352E
331
58B2
  5
360F
331
58F1
  5
35C9
331
5930
  5
35F2
331
5977
  5
3561
331
59AE
  5
3536
331
58BA
  5
3617
331
58F9
  5
35D1
331
663
  5
365D
331
5938
  5
3587
331
5940
  5
358F
331
597F
  5
3569
331
66B
  5
367E
331
58C2
  5
361F
331
5901
  5
35D9
331
59B6
  5
353E
331
59BE
  5
3546
331
5987
  5
3571
331
5911
  5
35DE
331
5948
  5
3597
331
58CA
  5
3627
331
598F
  5
3579
331
59C6
  5
354E
331
5950
  5
359F
331
589B
  5
35F8
331
58D2
  5
362F
331
5997
  5
3581
331
59CE
  5
3511
331
58DA
  5
363F
331
5921
  5
35E3
331
58A3
  5
3600
331
5958
  5
35A7
331
5960
  5
35AF
331
58E2
  5
35BA
331
599F
  5
3527
331
59D6
  5
3519
331
59DE
  5
3521
331
5929
  5
35EB
331
5968
  5
35B7
331
58AB
  5
3608
331
58EA
  5
35C2
331
5931
  5
35F3
331
5970
  5
355A
331
58B3
  5
3610
331
58F2
  5
35CA
331
59A7
  5
352F
331
59AF
  5
3537
331
58FA
  5
35D2
331
5939
  5
3588
331
664
  5
3677
331
58BB
  5
3618
331
5978
  5
3562
331
5980
  5
356A
331
59B7
  5
353F
331
58C3
  5
3620
331
5902
  5
35DA
331
66C
  5
3685
331
5941
  5
3590
331
59BF
  5
3547
331
5988
  5
3572
331
58CB
  5
3628
331
5949
  5
3598
331
5951
  5
35A0
331
589C
  5
35F9
331
58D3
  5
3630
331
5990
  5
357A
331
59C7
  5
354F
331
59CF
  5
3512
331
5922
  5
35E4
331
5959
  5
35A8
331
58A4
  5
3601
331
58DB
  5
3640
331
5998
  5
3582
331
59D7
  5
351A
331
5961
  5
35B0
331
58E3
  5
35BB
331
59A0
  5
3528
331
58EB
  5
35C3
331
592A
  5
35EC
331
58AC
  5
3609
331
5969
  5
35B8
331
5971
  5
355B
331
59A8
  5
3530
331
58B4
  5
3611
331
58F3
  5
35CB
331
5932
  5
35F4
331
593A
  5
3589
331
5979
  5
3563
331
58BC
  5
3619
331
58FB
  5
35D3
331
59B0
  5
3538
331
665
  5
3678
331
5942
  5
3591
331
5981
  5
356B
331
66D
  5
368C
331
58C4
  5
3621
331
5903
  5
35DB
331
59B8
  5
3540
331
59C0
  5
3548
331
594A
  5
3599
331
58CC
  5
3629
331
5989
  5
3573
331
5991
  5
357B
331
59C8
  5
3550
331
58D4
  5
3631
331
589D
  5
35FA
331
5952
  5
35A1
331
5999
  5
3583
331
59D0
  5
3513
331
58DC
  5
3657
331
5923
  5
35E5
331
58A5
  5
3602
331
595A
  5
35A9
331
5962
  5
35B1
331
58E4
  5
35BC
331
59D8
  5
351B
331
592B
  5
35ED
331
596A
  5
3554
331
58AD
  5
360A
331
58EC
  5
35C4
331
59A1
  5
3529
331
59A9
  5
3531
331
5933
  5
35F5
331
5972
  5
355C
331
58B5
  5
3612
331
58F4
  5
35CC
331
59B1
  5
3539
331
58FC
  5
35D4
331
593B
  5
358A
331
666
  5
3679
331
58BD
  5
361A
331
597A
  5
3564
331
5982
  5
356C
331
59B9
  5
3541
331
58C5
  5
3622
331
66E
  5
368D
331
5943
  5
3592
331
594B
  5
359A
331
58CD
  5
362A
331
598A
  5
3574
331
59C1
  5
3549
331
5953
  5
35A2
331
589E
  5
35FB
331
58D5
  5
3632
331
5992
  5
357C
331
59C9
  5
3551
331
59D1
  5
3514
331
5924
  5
35E6
331
595B
  5
35AA
331
58A6
  5
3603
331
58DD
  5
3658
331
599A
  5
3522
331
59D9
  5
351C
331
58E5
  5
35BD
331
5963
  5
35B2
331
59A2
  5
352A
331
58ED
  5
35C5
331
592C
  5
35EE
331
58AE
  5
360B
331
596B
  5
3555
331
5973
  5
355D
331
59AA
  5
3532
331
58B6
  5
3613
331
58F5
  5
35CD
331
5934
  5
35F6
331
593C
  5
358B
331
597B
  5
3565
331
667
  5
367A
331
58BE
  5
361B
331
58FD
  5
35D5
331
59B2
  5
353A
331
59BA
  5
3542
331
5944
  5
3593
331
66F
  5
368E
331
58C6
  5
3623
331
5983
  5
356D
331
59C2
  5
354A
331
594C
  5
359B
331
58CE
  5
362B
331
598B
  5
3575
331
5993
  5
357D
331
59CA
  5
3552
331
58D6
  5
363B
331
589F
  5
35FC
331
5954
  5
35A3
331
595C
  5
35AB
331
599B
  5
3523
331
58DE
  5
3659
331
5925
  5
35E7
331
59D2
  5
3515
331
58A7
  5
3604
331
5964
  5
35B3
331
58E6
  5
35BE
331
59DA
  5
351D
331
592D
  5
35EF
331
596C
  5
3556
331
58AF
  5
360C
331
58EE
  5
35C6
331
59A3
  5
352B
331
59AB
  5
3533
331
58F6
  5
35CE
331
5935
  5
3584
331
58B7
  5
3614
331
5974
  5
355E
331
59B3
  5
353B
331
58FE
  5
35D6
331
593D
  5
358C
331
668
  5
367B
331
58BF
  5
361C
331
597C
  5
3566
331
5984
  5
356E
331
59BB
  5
3543
331
58C7
  5
3624
331
5945
  5
3594
331
670
  5
368F
331
594D
  5
359C
331
58CF
  5
362C
331
598C
  5
3576
331
59C3
  5
354B
331
59CB
  5
3553
331
5955
  5
35A4
331
5994
  5
357E
331
58A0
  5
35FD
331
58D7
  5
363C
331
591E
  5
35E0
331
59D3
  5
3516
331
5926
  5
35E8
331
595D
  5
35AC
331
58DF
  5
365A
331
599C
  5
3524
331
59DB
  5
351E
331
58E7
  5
35BF
331
5965
  5
35B4
331
58A8
  5
3605
331
596D
  5
3557
331
59A4
  5
352C
331
58EF
  5
35C7
331
592E
  5
35F0
331
58B0
  5
360D
331
5975
  5
355F
331
59AC
  5
3534
331
58B8
  5
3615
331
58F7
  5
35CF
331
5936
  5
3585
331
593E
  5
358D
331
597D
  5
3567
331
669
  5
367C
331
58C0
  5
361D
331
58FF
  5
35D7
331
59B4
  5
353C
331
59BC
  5
3544
331
5946
  5
3595
331
5985
  5
356F
331
58C8
  5
3625
331
59C4
  5
354C
331
594E
  5
359D
331
58D0
  5
362D
331
598D
  5
3577
331
5995
  5
357F
331
59CC
  5
350F
331
58D8
  5
363D
331
591F
  5
35E1
331
58A1
  5
35FE
331
5956
  5
35A5
331
595E
  5
35AD
331
599D
  5
3525
331
58E0
  5
365B
331
5927
  5
35E9
331
59D4
  5
3517
331
59DC
  5
351F
331
5966
  5
35B5
  0
LAYOUT
  5
21
102
{ACAD_XDICTIONARY
360
63BC
102
}
102
{ACAD_REACTORS
330
1E
102
}
330
1E
100
AcDbPlotSettings
  1

  2

  4

  6

 40
0.0
 41
0.0
 42
0.0
 43
0.0
 44
0.0
 45
0.0
 46
0.0
 47
0.0
 48
0.0
 49
0.0
140
0.0
141
0.0
142
1.0
143
1.0
 70
     0
 72
     0
 73
     0
 74
     0
  7

 75
     0
147
1.0
148
0.0
149
0.0
100
AcDbLayout
  1
Layout1
 70
     0
 71
     1
 10
0.0
 20
0.0
 11
12.0
 21
9.0
 12
0.0
 22
0.0
 32
0.0
 14
1.000000000000000E+20
 24
1.000000000000000E+20
 34
1.000000000000000E+20
 15
-1.000000000000000E+20
 25
-1.000000000000000E+20
 35
-1.000000000000000E+20
146
0.0
 13
0.0
 23
0.0
 33
0.0
 16
1.0
 26
0.0
 36
0.0
 17
0.0
 27
1.0
 37
0.0
 76
     0
330
B
  0
LAYOUT
  5
20
102
{ACAD_XDICTIONARY
360
63BA
102
}
102
{ACAD_REACTORS
330
1E
102
}
330
1E
100
AcDbPlotSettings
  1

  2

  4

  6

 40
0.0
 41
0.0
 42
0.0
 43
0.0
 44
0.0
 45
0.0
 46
0.0
 47
0.0
 48
0.0
 49
0.0
140
0.0
141
0.0
142
1.0
143
1.0
 70
  1024
 72
     0
 73
     0
 74
     0
  7

 75
     0
147
1.0
148
0.0
149
0.0
100
AcDbLayout
  1
Model
 70
     0
 71
     0
 10
0.0
 20
0.0
 11
0.0
 21
0.0
 12
0.0
 22
0.0
 32
0.0
 14
0.0
 24
0.0
 34
0.0
 15
0.0
 25
0.0
 35
0.0
146
0.0
 13
0.0
 23
0.0
 33
0.0
 16
0.0
 26
0.0
 36
0.0
 17
0.0
 27
0.0
 37
0.0
 76
     0
330
A
331
15
  0
MATERIAL
  5
3155
102
{ACAD_XDICTIONARY
360
3156
102
}
102
{ACAD_REACTORS
330
314C
102
}
330
314C
100
AcDbMaterial
  1
ByBlock
 72
     0
 43
0.0208333333333333
 43
0.0
 43
0.0
 43
0.0
 43
0.0
 43
0.0208333333333333
 43
0.0
 43
0.0
 43
0.0
 43
0.0
 43
1.0
 43
0.0
 43
0.0
 43
0.0
 43
0.0
 43
1.0
 77
     0
 47
0.0208333333333333
 47
0.0
 47
0.0
 47
0.0
 47
0.0
 47
0.0208333333333333
 47
0.0
 47
0.0
 47
0.0
 47
0.0
 47
1.0
 47
0.0
 47
0.0
 47
0.0
 47
0.0
 47
1.0
171
     0
 49
0.0208333333333333
 49
0.0
 49
0.0
 49
0.0
 49
0.0
 49
0.0208333333333333
 49
0.0
 49
0.0
 49
0.0
 49
0.0
 49
1.0
 49
0.0
 49
0.0
 49
0.0
 49
0.0
 49
1.0
175
     0
142
0.0208333333333333
142
0.0
142
0.0
142
0.0
142
0.0
142
0.0208333333333333
142
0.0
142
0.0
142
0.0
142
0.0
142
1.0
142
0.0
142
0.0
142
0.0
142
0.0
142
1.0
179
     0
144
0.0208333333333333
144
0.0
144
0.0
144
0.0
144
0.0
144
0.0208333333333333
144
0.0
144
0.0
144
0.0
144
0.0
144
1.0
144
0.0
144
0.0
144
0.0
144
0.0
144
1.0
147
0.0208333333333333
147
0.0
147
0.0
147
0.0
147
0.0
147
0.0208333333333333
147
0.0
147
0.0
147
0.0
147
0.0
147
1.0
147
0.0
147
0.0
147
0.0
147
0.0
147
1.0
  0
MATERIAL
  5
314D
102
{ACAD_XDICTIONARY
360
314E
102
}
102
{ACAD_REACTORS
330
314C
102
}
330
314C
100
AcDbMaterial
  1
ByLayer
 72
     0
 43
0.0208333333333333
 43
0.0
 43
0.0
 43
0.0
 43
0.0
 43
0.0208333333333333
 43
0.0
 43
0.0
 43
0.0
 43
0.0
 43
1.0
 43
0.0
 43
0.0
 43
0.0
 43
0.0
 43
1.0
 77
     0
 47
0.0208333333333333
 47
0.0
 47
0.0
 47
0.0
 47
0.0
 47
0.0208333333333333
 47
0.0
 47
0.0
 47
0.0
 47
0.0
 47
1.0
 47
0.0
 47
0.0
 47
0.0
 47
0.0
 47
1.0
171
     0
 49
0.0208333333333333
 49
0.0
 49
0.0
 49
0.0
 49
0.0
 49
0.0208333333333333
 49
0.0
 49
0.0
 49
0.0
 49
0.0
 49
1.0
 49
0.0
 49
0.0
 49
0.0
 49
0.0
 49
1.0
175
     0
142
0.0208333333333333
142
0.0
142
0.0
142
0.0
142
0.0
142
0.0208333333333333
142
0.0
142
0.0
142
0.0
142
0.0
142
1.0
142
0.0
142
0.0
142
0.0
142
0.0
142
1.0
179
     0
144
0.0208333333333333
144
0.0
144
0.0
144
0.0
144
0.0
144
0.0208333333333333
144
0.0
144
0.0
144
0.0
144
0.0
144
1.0
144
0.0
144
0.0
144
0.0
144
0.0
144
1.0
147
0.0208333333333333
147
0.0
147
0.0
147
0.0
147
0.0
147
0.0208333333333333
147
0.0
147
0.0
147
0.0
147
0.0
147
1.0
147
0.0
147
0.0
147
0.0
147
0.0
147
1.0
  0
MATERIAL
  5
315D
102
{ACAD_XDICTIONARY
360
315E
102
}
102
{ACAD_REACTORS
330
314C
102
}
330
314C
100
AcDbMaterial
  1
Global
 72
     0
 43
0.0208333333333333
 43
0.0
 43
0.0
 43
0.0
 43
0.0
 43
0.0208333333333333
 43
0.0
 43
0.0
 43
0.0
 43
0.0
 43
1.0
 43
0.0
 43
0.0
 43
0.0
 43
0.0
 43
1.0
 77
     0
 47
0.0208333333333333
 47
0.0
 47
0.0
 47
0.0
 47
0.0
 47
0.0208333333333333
 47
0.0
 47
0.0
 47
0.0
 47
0.0
 47
1.0
 47
0.0
 47
0.0
 47
0.0
 47
0.0
 47
1.0
171
     0
 49
0.0208333333333333
 49
0.0
 49
0.0
 49
0.0
 49
0.0
 49
0.0208333333333333
 49
0.0
 49
0.0
 49
0.0
 49
0.0
 49
1.0
 49
0.0
 49
0.0
 49
0.0
 49
0.0
 49
1.0
175
     0
142
0.0208333333333333
142
0.0
142
0.0
142
0.0
142
0.0
142
0.0208333333333333
142
0.0
142
0.0
142
0.0
142
0.0
142
1.0
142
0.0
142
0.0
142
0.0
142
0.0
142
1.0
179
     0
144
0.0208333333333333
144
0.0
144
0.0
144
0.0
144
0.0
144
0.0208333333333333
144
0.0
144
0.0
144
0.0
144
0.0
144
1.0
144
0.0
144
0.0
144
0.0
144
0.0
144
1.0
147
0.0208333333333333
147
0.0
147
0.0
147
0.0
147
0.0
147
0.0208333333333333
147
0.0
147
0.0
147
0.0
147
0.0
147
1.0
147
0.0
147
0.0
147
0.0
147
0.0
147
1.0
  0
MLEADERSTYLE
  5
319C
102
{ACAD_REACTORS
330
319B
102
}
330
319B
100
AcDbMLeaderStyle
170
     2
171
     1
172
     0
 90
        2
 40
0.0
 41
0.0
173
     1
 91
-1056964608
340
11
 92
       -2
290
     1
 42
2.0
291
     1
 43
0.36
  3
Standard
 44
4.0
300

342
17
174
     1
178
     6
175
     1
176
     0
 93
-1056964608
 45
4.0
292
     0
297
     0
 46
4.0
 94
-1056964608
 47
1.0
 49
1.0
140
1.0
293
     1
141
0.0
294
     1
177
     0
142
1.0
295
     0
296
     0
143
0.125
1001
ACAD_MLEADERVER
1070
     2
  0
MLINESTYLE
  5
1C
102
{ACAD_REACTORS
330
1B
102
}
330
1B
100
AcDbMlineStyle
  2
STANDARD
 70
     0
  3

 62
     0
 51
90.0
 52
90.0
 71
     2
 49
0.5
 62
   256
  6
BYLAYER
 49
-0.5
 62
   256
  6
BYLAYER
  0
ACDBPLACEHOLDER
  5
1D
102
{ACAD_REACTORS
330
1F
102
}
330
1F
  0
SCALE
  5
317A
102
{ACAD_REACTORS
330
3179
102
}
330
3179
100
AcDbScale
 70
     0
300
1:1
140
1.0
141
1.0
290
     1
  0
SCALE
  5
317B
102
{ACAD_REACTORS
330
3179
102
}
330
3179
100
AcDbScale
 70
     0
300
1:2
140
1.0
141
2.0
290
     0
  0
SCALE
  5
317C
102
{ACAD_REACTORS
330
3179
102
}
330
3179
100
AcDbScale
 70
     0
300
1:4
140
1.0
141
4.0
290
     0
  0
SCALE
  5
317D
102
{ACAD_REACTORS
330
3179
102
}
330
3179
100
AcDbScale
 70
     0
300
1:5
140
1.0
141
5.0
290
     0
  0
SCALE
  5
317E
102
{ACAD_REACTORS
330
3179
102
}
330
3179
100
AcDbScale
 70
     0
300
1:8
140
1.0
141
8.0
290
     0
  0
SCALE
  5
317F
102
{ACAD_REACTORS
330
3179
102
}
330
3179
100
AcDbScale
 70
     0
300
1:10
140
1.0
141
10.0
290
     0
  0
SCALE
  5
3180
102
{ACAD_REACTORS
330
3179
102
}
330
3179
100
AcDbScale
 70
     0
300
1:16
140
1.0
141
16.0
290
     0
  0
SCALE
  5
3181
102
{ACAD_REACTORS
330
3179
102
}
330
3179
100
AcDbScale
 70
     0
300
1:20
140
1.0
141
20.0
290
     0
  0
SCALE
  5
3182
102
{ACAD_REACTORS
330
3179
102
}
330
3179
100
AcDbScale
 70
     0
300
1:30
140
1.0
141
30.0
290
     0
  0
SCALE
  5
3183
102
{ACAD_REACTORS
330
3179
102
}
330
3179
100
AcDbScale
 70
     0
300
1:40
140
1.0
141
40.0
290
     0
  0
SCALE
  5
3184
102
{ACAD_REACTORS
330
3179
102
}
330
3179
100
AcDbScale
 70
     0
300
1:50
140
1.0
141
50.0
290
     0
  0
SCALE
  5
3185
102
{ACAD_REACTORS
330
3179
102
}
330
3179
100
AcDbScale
 70
     0
300
1:100
140
1.0
141
100.0
290
     0
  0
SCALE
  5
3186
102
{ACAD_REACTORS
330
3179
102
}
330
3179
100
AcDbScale
 70
     0
300
2:1
140
2.0
141
1.0
290
     0
  0
SCALE
  5
3187
102
{ACAD_REACTORS
330
3179
102
}
330
3179
100
AcDbScale
 70
     0
300
4:1
140
4.0
141
1.0
290
     0
  0
SCALE
  5
3188
102
{ACAD_REACTORS
330
3179
102
}
330
3179
100
AcDbScale
 70
     0
300
8:1
140
8.0
141
1.0
290
     0
  0
SCALE
  5
3189
102
{ACAD_REACTORS
330
3179
102
}
330
3179
100
AcDbScale
 70
     0
300
10:1
140
10.0
141
1.0
290
     0
  0
SCALE
  5
318A
102
{ACAD_REACTORS
330
3179
102
}
330
3179
100
AcDbScale
 70
     0
300
100:1
140
100.0
141
1.0
290
     0
  0
SCALE
  5
318B
102
{ACAD_REACTORS
330
3179
102
}
330
3179
100
AcDbScale
 70
     0
300
1/128" = 1'-0"
140
0.0078125
141
12.0
290
     0
  0
SCALE
  5
318C
102
{ACAD_REACTORS
330
3179
102
}
330
3179
100
AcDbScale
 70
     0
300
1/64" = 1'-0"
140
0.015625
141
12.0
290
     0
  0
SCALE
  5
318D
102
{ACAD_REACTORS
330
3179
102
}
330
3179
100
AcDbScale
 70
     0
300
1/32" = 1'-0"
140
0.03125
141
12.0
290
     0
  0
SCALE
  5
318E
102
{ACAD_REACTORS
330
3179
102
}
330
3179
100
AcDbScale
 70
     0
300
1/16" = 1'-0"
140
0.0625
141
12.0
290
     0
  0
SCALE
  5
318F
102
{ACAD_REACTORS
330
3179
102
}
330
3179
100
AcDbScale
 70
     0
300
3/32" = 1'-0"
140
0.09375
141
12.0
290
     0
  0
SCALE
  5
3190
102
{ACAD_REACTORS
330
3179
102
}
330
3179
100
AcDbScale
 70
     0
300
1/8" = 1'-0"
140
0.125
141
12.0
290
     0
  0
SCALE
  5
3191
102
{ACAD_REACTORS
330
3179
102
}
330
3179
100
AcDbScale
 70
     0
300
3/16" = 1'-0"
140
0.1875
141
12.0
290
     0
  0
SCALE
  5
3192
102
{ACAD_REACTORS
330
3179
102
}
330
3179
100
AcDbScale
 70
     0
300
1/4" = 1'-0"
140
0.25
141
12.0
290
     0
  0
SCALE
  5
3193
102
{ACAD_REACTORS
330
3179
102
}
330
3179
100
AcDbScale
 70
     0
300
3/8" = 1'-0"
140
0.375
141
12.0
290
     0
  0
SCALE
  5
3194
102
{ACAD_REACTORS
330
3179
102
}
330
3179
100
AcDbScale
 70
     0
300
1/2" = 1'-0"
140
0.5
141
12.0
290
     0
  0
SCALE
  5
3195
102
{ACAD_REACTORS
330
3179
102
}
330
3179
100
AcDbScale
 70
     0
300
3/4" = 1'-0"
140
0.75
141
12.0
290
     0
  0
SCALE
  5
3196
102
{ACAD_REACTORS
330
3179
102
}
330
3179
100
AcDbScale
 70
     0
300
1" = 1'-0"
140
1.0
141
12.0
290
     0
  0
SCALE
  5
3197
102
{ACAD_REACTORS
330
3179
102
}
330
3179
100
AcDbScale
 70
     0
300
1-1/2" = 1'-0"
140
1.5
141
12.0
290
     0
  0
SCALE
  5
3198
102
{ACAD_REACTORS
330
3179
102
}
330
3179
100
AcDbScale
 70
     0
300
3" = 1'-0"
140
3.0
141
12.0
290
     0
  0
SCALE
  5
3199
102
{ACAD_REACTORS
330
3179
102
}
330
3179
100
AcDbScale
 70
     0
300
6" = 1'-0"
140
6.0
141
12.0
290
     0
  0
SCALE
  5
319A
102
{ACAD_REACTORS
330
3179
102
}
330
3179
100
AcDbScale
 70
     0
300
1'-0" = 1'-0"
140
12.0
141
12.0
290
     0
  0
TABLESTYLE
  5
3178
102
{ACAD_XDICTIONARY
360
6308
102
}
102
{ACAD_REACTORS
330
3177
102
}
330
3177
100
AcDbTableStyle
  3
Standard
 70
     0
 71
     0
 40
1.5
 41
1.5
280
     0
281
     0
  7
Standard
140
4.5
170
     2
 62
     0
 63
     7
283
     0
274
    -2
284
     1
 64
     0
275
    -2
285
     1
 65
     0
276
    -2
286
     1
 66
     0
277
    -2
287
     1
 67
     0
278
    -2
288
     1
 68
     0
279
    -2
289
     1
 69
     0
  7
Standard
140
6.0
170
     5
 62
     0
 63
     7
283
     0
274
    -2
284
     1
 64
     0
275
    -2
285
     1
 65
     0
276
    -2
286
     1
 66
     0
277
    -2
287
     1
 67
     0
278
    -2
288
     1
 68
     0
279
    -2
289
     1
 69
     0
  7
Standard
140
4.5
170
     5
 62
     0
 63
     7
283
     0
274
    -2
284
     1
 64
     0
275
    -2
285
     1
 65
     0
276
    -2
286
     1
 66
     0
277
    -2
287
     1
 67
     0
278
    -2
288
     1
 68
     0
279
    -2
289
     1
 69
     0
  0
VISUALSTYLE
  5
316B
102
{ACAD_REACTORS
330
3165
102
}
330
3165
100
AcDbVisualStyle
  2
2dWireframe
 70
     4
 71
     0
 72
     2
 73
     0
 90
        0
 40
-0.6
 41
-30.0
 62
     5
 63
     7
 74
     1
 91
        4
 64
     7
 65
   257
 75
     1
175
     1
 42
1.0
 92
        0
 66
   257
 43
1.0
 76
     1
 77
     6
 78
     2
 67
     7
 79
     5
170
     0
171
     0
290
     0
174
     0
 93
        1
 44
0.0
173
     0
291
     0
 45
0.0
1001
ACAD
1000
AcDbSavedByObjectVersion
1070
     0
1000
AcDbSavedByObjectVersion
1070
     0
1000
AcDbSavedByObjectVersion
1070
     0
1000
AcDbSavedByObjectVersion
1070
     0
  0
VISUALSTYLE
  5
316D
102
{ACAD_REACTORS
330
3165
102
}
330
3165
100
AcDbVisualStyle
  2
3D Hidden
 70
     6
 71
     1
 72
     2
 73
     2
 90
        0
 40
-0.6
 41
-30.0
 62
     5
 63
     7
 74
     2
 91
        2
 64
     7
 65
   257
 75
     2
175
     1
 42
40.0
 92
        0
 66
   257
 43
1.0
 76
     1
 77
     6
 78
     2
 67
     7
 79
     3
170
     0
171
     0
290
     0
174
     0
 93
        1
 44
0.0
173
     0
291
     0
 45
0.0
1001
ACAD
1000
AcDbSavedByObjectVersion
1070
     0
1000
AcDbSavedByObjectVersion
1070
     0
1000
AcDbSavedByObjectVersion
1070
     0
1000
AcDbSavedByObjectVersion
1070
     0
  0
VISUALSTYLE
  5
316C
102
{ACAD_REACTORS
330
3165
102
}
330
3165
100
AcDbVisualStyle
  2
3dWireframe
 70
     5
 71
     0
 72
     2
 73
     0
 90
        0
 40
-0.6
 41
-30.0
 62
     5
 63
     7
 74
     1
 91
        4
 64
     7
 65
   257
 75
     1
175
     1
 42
1.0
 92
        0
 66
   257
 43
1.0
 76
     1
 77
     6
 78
     2
 67
     7
 79
     5
170
     0
171
     0
290
     0
174
     0
 93
        1
 44
0.0
173
     0
291
     0
 45
0.0
1001
ACAD
1000
AcDbSavedByObjectVersion
1070
     0
1000
AcDbSavedByObjectVersion
1070
     0
1000
AcDbSavedByObjectVersion
1070
     0
1000
AcDbSavedByObjectVersion
1070
     0
  0
VISUALSTYLE
  5
316A
102
{ACAD_REACTORS
330
3165
102
}
330
3165
100
AcDbVisualStyle
  2
Basic
 70
     7
 71
     1
 72
     0
 73
     1
 90
        0
 40
-0.6
 41
-30.0
 62
     5
 63
     7
 74
     0
 91
        4
 64
     7
 65
   257
 75
     1
175
     1
 42
1.0
 92
        8
 66
     7
 43
1.0
 76
     1
 77
     6
 78
     2
 67
     7
 79
     5
170
     0
171
     0
290
     0
174
     0
 93
        1
 44
0.0
173
     0
291
     1
 45
0.0
1001
ACAD
1000
AcDbSavedByObjectVersion
1070
     0
1000
AcDbSavedByObjectVersion
1070
     0
1000
AcDbSavedByObjectVersion
1070
     0
1000
AcDbSavedByObjectVersion
1070
     0
  0
VISUALSTYLE
  5
3171
102
{ACAD_REACTORS
330
3165
102
}
330
3165
100
AcDbVisualStyle
  2
Brighten
 70
    12
 71
     2
 72
     2
 73
     0
 90
        0
 40
-0.6
 41
-30.0
 62
     5
 63
     7
 74
     1
 91
        4
 64
     7
 65
   257
 75
     1
175
     1
 42
1.0
 92
        8
 66
     7
 43
1.0
 76
     1
 77
     6
 78
     2
 67
     7
 79
     5
170
     0
171
     0
290
     0
174
     0
 93
        1
 44
50.0
173
     0
291
     1
 45
0.0
1001
ACAD
1000
AcDbSavedByObjectVersion
1070
     0
1000
AcDbSavedByObjectVersion
1070
     0
1000
AcDbSavedByObjectVersion
1070
     0
1000
AcDbSavedByObjectVersion
1070
     0
  0
VISUALSTYLE
  5
3175
102
{ACAD_REACTORS
330
3165
102
}
330
3165
100
AcDbVisualStyle
  2
ColorChange
 70
    16
 71
     2
 72
     2
 73
     3
 90
        0
 40
-0.6
 41
-30.0
 62
     5
 63
     8
 74
     1
 91
        4
 64
     7
 65
   257
 75
     1
175
     1
 42
1.0
 92
        8
 66
     8
 43
1.0
 76
     1
 77
     6
 78
     2
 67
     7
 79
     5
170
     0
171
     0
290
     0
174
     0
 93
        1
 44
0.0
173
     0
291
     1
 45
0.0
1001
ACAD
1000
AcDbSavedByObjectVersion
1070
     0
1000
AcDbSavedByObjectVersion
1070
     0
1000
AcDbSavedByObjectVersion
1070
     0
1000
AcDbSavedByObjectVersion
1070
     0
  0
VISUALSTYLE
  5
316E
102
{ACAD_REACTORS
330
3165
102
}
330
3165
100
AcDbVisualStyle
  2
Conceptual
 70
     9
 71
     3
 72
     2
 73
     0
 90
        0
 40
-0.6
 41
-30.0
 62
     5
 63
     7
 74
     2
 91
        2
 64
     7
 65
   257
 75
     1
175
     1
 42
40.0
 92
        8
 66
     7
 43
1.0
 76
     1
 77
     6
 78
     2
 67
     7
 79
     3
170
     0
171
     0
290
     0
174
     0
 93
        1
 44
0.0
173
     0
291
     0
 45
0.0
1001
ACAD
1000
AcDbSavedByObjectVersion
1070
     0
1000
AcDbSavedByObjectVersion
1070
     0
1000
AcDbSavedByObjectVersion
1070
     0
1000
AcDbSavedByObjectVersion
1070
     0
  0
VISUALSTYLE
  5
3170
102
{ACAD_REACTORS
330
3165
102
}
330
3165
100
AcDbVisualStyle
  2
Dim
 70
    11
 71
     2
 72
     2
 73
     0
 90
        0
 40
-0.6
 41
-30.0
 62
     5
 63
     7
 74
     1
 91
        4
 64
     7
 65
   257
 75
     1
175
     1
 42
1.0
 92
        8
 66
     7
 43
1.0
 76
     1
 77
     6
 78
     2
 67
     7
 79
     5
170
     0
171
     0
290
     0
174
     0
 93
        1
 44
-50.0
173
     0
291
     1
 45
0.0
1001
ACAD
1000
AcDbSavedByObjectVersion
1070
     0
1000
AcDbSavedByObjectVersion
1070
     0
1000
AcDbSavedByObjectVersion
1070
     0
1000
AcDbSavedByObjectVersion
1070
     0
  0
VISUALSTYLE
  5
3174
102
{ACAD_REACTORS
330
3165
102
}
330
3165
100
AcDbVisualStyle
  2
Facepattern
 70
    15
 71
     2
 72
     2
 73
     0
 90
        0
 40
-0.6
 41
-30.0
 62
     5
 63
     7
 74
     1
 91
        4
 64
     7
 65
   257
 75
     1
175
     1
 42
1.0
 92
        8
 66
     7
 43
1.0
 76
     1
 77
     6
 78
     2
 67
     7
 79
     5
170
     0
171
     0
290
     0
174
     0
 93
        1
 44
0.0
173
     0
291
     1
 45
0.0
1001
ACAD
1000
AcDbSavedByObjectVersion
1070
     0
1000
AcDbSavedByObjectVersion
1070
     0
1000
AcDbSavedByObjectVersion
1070
     0
1000
AcDbSavedByObjectVersion
1070
     0
  0
VISUALSTYLE
  5
3166
102
{ACAD_REACTORS
330
3165
102
}
330
3165
100
AcDbVisualStyle
  2
Flat
 70
     0
 71
     2
 72
     1
 73
     1
 90
        2
 40
-0.6
 41
30.0
 62
     5
 63
     7
 74
     0
 91
        4
 64
     7
 65
   257
 75
     1
175
     1
 42
1.0
 92
        8
 66
     7
 43
1.0
 76
     1
 77
     6
 78
     2
 67
     7
 79
     5
170
     0
171
     0
290
     0
174
     0
 93
       13
 44
0.0
173
     0
291
     1
 45
0.0
1001
ACAD
1000
AcDbSavedByObjectVersion
1070
     0
1000
AcDbSavedByObjectVersion
1070
     0
1000
AcDbSavedByObjectVersion
1070
     0
1000
AcDbSavedByObjectVersion
1070
     0
  0
VISUALSTYLE
  5
3167
102
{ACAD_REACTORS
330
3165
102
}
330
3165
100
AcDbVisualStyle
  2
FlatWithEdges
 70
     1
 71
     2
 72
     1
 73
     1
 90
        2
 40
-0.6
 41
30.0
 62
     5
 63
     7
 74
     1
 91
        4
 64
     7
 65
   257
 75
     1
175
     1
 42
1.0
 92
        0
 66
   257
 43
1.0
 76
     1
 77
     6
 78
     2
 67
     7
 79
     5
170
     0
171
     0
290
     0
174
     0
 93
       13
 44
0.0
173
     0
291
     1
 45
0.0
1001
ACAD
1000
AcDbSavedByObjectVersion
1070
     0
1000
AcDbSavedByObjectVersion
1070
     0
1000
AcDbSavedByObjectVersion
1070
     0
1000
AcDbSavedByObjectVersion
1070
     0
  0
VISUALSTYLE
  5
3168
102
{ACAD_REACTORS
330
3165
102
}
330
3165
100
AcDbVisualStyle
  2
Gouraud
 70
     2
 71
     2
 72
     2
 73
     1
 90
        2
 40
-0.6
 41
30.0
 62
     5
 63
     7
 74
     0
 91
        4
 64
     7
 65
   257
 75
     1
175
     1
 42
1.0
 92
        0
 66
     7
 43
1.0
 76
     1
 77
     6
 78
     2
 67
     7
 79
     5
170
     0
171
     0
290
     0
174
     0
 93
       13
 44
0.0
173
     0
291
     1
 45
0.0
1001
ACAD
1000
AcDbSavedByObjectVersion
1070
     0
1000
AcDbSavedByObjectVersion
1070
     0
1000
AcDbSavedByObjectVersion
1070
     0
1000
AcDbSavedByObjectVersion
1070
     0
  0
VISUALSTYLE
  5
3169
102
{ACAD_REACTORS
330
3165
102
}
330
3165
100
AcDbVisualStyle
  2
GouraudWithEdges
 70
     3
 71
     2
 72
     2
 73
     1
 90
        2
 40
-0.6
 41
30.0
 62
     5
 63
     7
 74
     1
 91
        4
 64
     7
 65
   257
 75
     1
175
     1
 42
1.0
 92
        0
 66
   257
 43
1.0
 76
     1
 77
     6
 78
     2
 67
     7
 79
     5
170
     0
171
     0
290
     0
174
     0
 93
       13
 44
0.0
173
     0
291
     1
 45
0.0
1001
ACAD
1000
AcDbSavedByObjectVersion
1070
     0
1000
AcDbSavedByObjectVersion
1070
     0
1000
AcDbSavedByObjectVersion
1070
     0
1000
AcDbSavedByObjectVersion
1070
     0
  0
VISUALSTYLE
  5
3173
102
{ACAD_REACTORS
330
3165
102
}
330
3165
100
AcDbVisualStyle
  2
Linepattern
 70
    14
 71
     2
 72
     2
 73
     0
 90
        0
 40
-0.6
 41
-30.0
 62
     5
 63
     7
 74
     1
 91
        4
 64
     7
 65
   257
 75
     7
175
     7
 42
1.0
 92
        8
 66
     7
 43
1.0
 76
     1
 77
     6
 78
     2
 67
     7
 79
     5
170
     0
171
     0
290
     0
174
     0
 93
        1
 44
0.0
173
     0
291
     1
 45
0.0
1001
ACAD
1000
AcDbSavedByObjectVersion
1070
     0
1000
AcDbSavedByObjectVersion
1070
     0
1000
AcDbSavedByObjectVersion
1070
     0
1000
AcDbSavedByObjectVersion
1070
     0
  0
VISUALSTYLE
  5
316F
102
{ACAD_REACTORS
330
3165
102
}
330
3165
100
AcDbVisualStyle
  2
Realistic
 70
     8
 71
     2
 72
     2
 73
     0
 90
        0
 40
-0.6
 41
-30.0
 62
     5
 63
     7
 74
     1
 91
        0
 64
     7
 65
   257
 75
     1
175
     1
 42
1.0
 92
        8
 66
     8
 43
1.0
 76
     1
 77
     6
 78
     2
 67
     7
 79
     5
170
     0
171
     0
290
     0
174
     0
 93
       13
 44
0.0
173
     0
291
     0
 45
0.0
1001
ACAD
1000
AcDbSavedByObjectVersion
1070
     0
1000
AcDbSavedByObjectVersion
1070
     0
1000
AcDbSavedByObjectVersion
1070
     0
1000
AcDbSavedByObjectVersion
1070
     0
  0
VISUALSTYLE
  5
3172
102
{ACAD_REACTORS
330
3165
102
}
330
3165
100
AcDbVisualStyle
  2
Thicken
 70
    13
 71
     2
 72
     2
 73
     0
 90
        0
 40
-0.6
 41
-30.0
 62
     5
 63
     7
 74
     1
 91
        4
 64
     7
 65
   257
 75
     1
175
     1
 42
1.0
 92
       12
 66
     7
 43
1.0
 76
     1
 77
     6
 78
     2
 67
     7
 79
     5
170
     0
171
     0
290
     0
174
     0
 93
        1
 44
0.0
173
     0
291
     1
 45
0.0
1001
ACAD
1000
AcDbSavedByObjectVersion
1070
     0
1000
AcDbSavedByObjectVersion
1070
     0
1000
AcDbSavedByObjectVersion
1070
     0
1000
AcDbSavedByObjectVersion
1070
     0
  0
DICTIONARYVAR
  5
630F
102
{ACAD_REACTORS
330
630B
102
}
330
630B
100
DictionaryVariables
280
     0
  1
1:1
  0
DICTIONARYVAR
  5
630D
102
{ACAD_REACTORS
330
630B
102
}
330
630B
100
DictionaryVariables
280
     0
  1
STANDARD
  0
DICTIONARYVAR
  5
630C
102
{ACAD_REACTORS
330
630B
102
}
330
630B
100
DictionaryVariables
280
     0
  1
STANDARD
  0
DICTIONARYVAR
  5
6318
102
{ACAD_REACTORS
330
630B
102
}
330
630B
100
DictionaryVariables
280
     0
  1
1
  0
DICTIONARYVAR
  5
6317
102
{ACAD_REACTORS
330
630B
102
}
330
630B
100
DictionaryVariables
280
     0
  1
0
  0
DICTIONARYVAR
  5
6310
102
{ACAD_REACTORS
330
630B
102
}
330
630B
100
DictionaryVariables
280
     0
  1
0
  0
DICTIONARYVAR
  5
630E
102
{ACAD_REACTORS
330
630B
102
}
330
630B
100
DictionaryVariables
280
     0
  1
0
  0
DICTIONARYVAR
  5
6316
102
{ACAD_REACTORS
330
630B
102
}
330
630B
100
DictionaryVariables
280
     0
  1
127
  0
XRECORD
  5
5E46
102
{ACAD_REACTORS
330
5E44
102
}
330
5E44
100
AcDbXrecord
280
     1
  0
DICTIONARY
  5
63BC
330
21
100
AcDbDictionary
280
     1
281
     1
  3
ACAD_XREC_ROUNDTRIP
360
63BD
  0
DICTIONARY
  5
63BA
330
20
100
AcDbDictionary
280
     1
281
     1
  3
ACAD_XREC_ROUNDTRIP
360
63BB
  0
DICTIONARY
  5
3156
330
3155
100
AcDbDictionary
280
     1
281
     1
  3
ACAD_XREC_ROUNDTRIP
360
6320
  3
BUMPTILE
360
3158
  3
DIFFUSETILE
360
3157
  3
OPACITYTILE
360
315B
  3
REFLECTIONTILE
360
315A
  3
REFRACTIONTILE
360
315C
  3
SPECULARTILE
360
3159
  0
DICTIONARY
  5
314E
330
314D
100
AcDbDictionary
280
     1
281
     1
  3
ACAD_XREC_ROUNDTRIP
360
631F
  3
BUMPTILE
360
3150
  3
DIFFUSETILE
360
314F
  3
OPACITYTILE
360
3153
  3
REFLECTIONTILE
360
3152
  3
REFRACTIONTILE
360
3154
  3
SPECULARTILE
360
3151
  0
DICTIONARY
  5
315E
330
315D
100
AcDbDictionary
280
     1
281
     1
  3
ACAD_XREC_ROUNDTRIP
360
6321
  3
BUMPTILE
360
3160
  3
DIFFUSETILE
360
315F
  3
OPACITYTILE
360
3163
  3
REFLECTIONTILE
360
3162
  3
REFRACTIONTILE
360
3164
  3
SPECULARTILE
360
3161
  0
DICTIONARY
  5
6308
330
3178
100
AcDbDictionary
280
     1
281
     1
  3
ACAD_ROUNDTRIP_2008_TABLESTYLE_CELLSTYLEMAP
360
63B8
  3
ACAD_XREC_ROUNDTRIP
360
63BE
  0
XRECORD
  5
63BD
102
{ACAD_REACTORS
330
63BC
102
}
330
63BC
100
AcDbXrecord
280
     1
102
SHADEPLOT
 70
     0
102
SHADEPLOTRESLEVEL
 70
     2
102
SHADEPLOTCUSTOMDPI
 70
   300
  0
XRECORD
  5
63BB
102
{ACAD_REACTORS
330
63BA
102
}
330
63BA
100
AcDbXrecord
280
     1
102
SHADEPLOT
 70
     0
102
SHADEPLOTRESLEVEL
 70
     2
102
SHADEPLOTCUSTOMDPI
 70
   300
  0
XRECORD
  5
6320
102
{ACAD_REACTORS
330
3156
102
}
330
3156
100
AcDbXrecord
280
     1
102
MATERIAL
148
0.0
149
0.0
149
0.0
 93
        0
 94
      127
282
     0
 72
     0
 77
     0
171
     0
175
     0
179
     0
273
     0
  0
XRECORD
  5
3158
102
{ACAD_REACTORS
330
3156
102
}
330
3156
100
AcDbXrecord
280
     1
270
     1
271
     1
  0
XRECORD
  5
3157
102
{ACAD_REACTORS
330
3156
102
}
330
3156
100
AcDbXrecord
280
     1
270
     1
271
     1
  0
XRECORD
  5
315B
102
{ACAD_REACTORS
330
3156
102
}
330
3156
100
AcDbXrecord
280
     1
270
     1
271
     1
  0
XRECORD
  5
315A
102
{ACAD_REACTORS
330
3156
102
}
330
3156
100
AcDbXrecord
280
     1
270
     1
271
     1
  0
XRECORD
  5
315C
102
{ACAD_REACTORS
330
3156
102
}
330
3156
100
AcDbXrecord
280
     1
270
     1
271
     1
  0
XRECORD
  5
3159
102
{ACAD_REACTORS
330
3156
102
}
330
3156
100
AcDbXrecord
280
     1
270
     1
271
     1
  0
XRECORD
  5
631F
102
{ACAD_REACTORS
330
314E
102
}
330
314E
100
AcDbXrecord
280
     1
102
MATERIAL
148
0.0
149
0.0
149
0.0
 93
        0
 94
      127
282
     0
 72
     0
 77
     0
171
     0
175
     0
179
     0
273
     0
  0
XRECORD
  5
3150
102
{ACAD_REACTORS
330
314E
102
}
330
314E
100
AcDbXrecord
280
     1
270
     1
271
     1
  0
XRECORD
  5
314F
102
{ACAD_REACTORS
330
314E
102
}
330
314E
100
AcDbXrecord
280
     1
270
     1
271
     1
  0
XRECORD
  5
3153
102
{ACAD_REACTORS
330
314E
102
}
330
314E
100
AcDbXrecord
280
     1
270
     1
271
     1
  0
XRECORD
  5
3152
102
{ACAD_REACTORS
330
314E
102
}
330
314E
100
AcDbXrecord
280
     1
270
     1
271
     1
  0
XRECORD
  5
3154
102
{ACAD_REACTORS
330
314E
102
}
330
314E
100
AcDbXrecord
280
     1
270
     1
271
     1
  0
XRECORD
  5
3151
102
{ACAD_REACTORS
330
314E
102
}
330
314E
100
AcDbXrecord
280
     1
270
     1
271
     1
  0
XRECORD
  5
6321
102
{ACAD_REACTORS
330
315E
102
}
330
315E
100
AcDbXrecord
280
     1
102
MATERIAL
148
0.0
149
0.0
149
0.0
 93
        0
 94
      127
282
     0
 72
     0
 77
     0
171
     0
175
     0
179
     0
273
     0
  0
XRECORD
  5
3160
102
{ACAD_REACTORS
330
315E
102
}
330
315E
100
AcDbXrecord
280
     1
270
     1
271
     1
  0
XRECORD
  5
315F
102
{ACAD_REACTORS
330
315E
102
}
330
315E
100
AcDbXrecord
280
     1
270
     1
271
     1
  0
XRECORD
  5
3163
102
{ACAD_REACTORS
330
315E
102
}
330
315E
100
AcDbXrecord
280
     1
270
     1
271
     1
  0
XRECORD
  5
3162
102
{ACAD_REACTORS
330
315E
102
}
330
315E
100
AcDbXrecord
280
     1
270
     1
271
     1
  0
XRECORD
  5
3164
102
{ACAD_REACTORS
330
315E
102
}
330
315E
100
AcDbXrecord
280
     1
270
     1
271
     1
  0
XRECORD
  5
3161
102
{ACAD_REACTORS
330
315E
102
}
330
315E
100
AcDbXrecord
280
     1
270
     1
271
     1
  0
CELLSTYLEMAP
  5
63B8
102
{ACAD_REACTORS
330
6308
102
}
330
6308
100
AcDbCellStyleMap
 90
        3
300
CELLSTYLE
  1
TABLEFORMAT_BEGIN
 90
        5
170
     1
 91
        0
 92
    32768
 62
   257
 93
        1
300
CONTENTFORMAT
  1
CONTENTFORMAT_BEGIN
 90
        0
 91
        0
 92
      512
 93
        0
300

 40
0.0
140
1.0
 94
        5
 62
     0
340
17
144
6.0
309
CONTENTFORMAT_END
171
     1
301
MARGIN
  1
CELLMARGIN_BEGIN
 40
1.5
 40
1.5
 40
1.5
 40
1.5
 40
0.18
 40
0.18
309
CELLMARGIN_END
 94
        6
 95
        1
302
GRIDFORMAT
  1
GRIDFORMAT_BEGIN
 90
        0
 91
        1
 62
     0
 92
       -2
340
0
 93
        0
 40
1.125
309
GRIDFORMAT_END
 95
        2
302
GRIDFORMAT
  1
GRIDFORMAT_BEGIN
 90
        0
 91
        1
 62
     0
 92
       -2
340
0
 93
        0
 40
1.125
309
GRIDFORMAT_END
 95
        4
302
GRIDFORMAT
  1
GRIDFORMAT_BEGIN
 90
        0
 91
        1
 62
     0
 92
       -2
340
0
 93
        0
 40
1.125
309
GRIDFORMAT_END
 95
        8
302
GRIDFORMAT
  1
GRIDFORMAT_BEGIN
 90
        0
 91
        1
 62
     0
 92
       -2
340
0
 93
        0
 40
1.125
309
GRIDFORMAT_END
 95
       16
302
GRIDFORMAT
  1
GRIDFORMAT_BEGIN
 90
        0
 91
        1
 62
     0
 92
       -2
340
0
 93
        0
 40
1.125
309
GRIDFORMAT_END
 95
       32
302
GRIDFORMAT
  1
GRIDFORMAT_BEGIN
 90
        0
 91
        1
 62
     0
 92
       -2
340
0
 93
        0
 40
1.125
309
GRIDFORMAT_END
309
TABLEFORMAT_END
  1
CELLSTYLE_BEGIN
 90
        1
 91
        1
300
_TITLE
309
CELLSTYLE_END
300
CELLSTYLE
  1
TABLEFORMAT_BEGIN
 90
        5
170
     1
 91
        0
 92
        0
 62
   257
 93
        1
300
CONTENTFORMAT
  1
CONTENTFORMAT_BEGIN
 90
        0
 91
        0
 92
      512
 93
        0
300

 40
0.0
140
1.0
 94
        5
 62
     0
340
17
144
4.5
309
CONTENTFORMAT_END
171
     1
301
MARGIN
  1
CELLMARGIN_BEGIN
 40
1.5
 40
1.5
 40
1.5
 40
1.5
 40
0.18
 40
0.18
309
CELLMARGIN_END
 94
        6
 95
        1
302
GRIDFORMAT
  1
GRIDFORMAT_BEGIN
 90
        0
 91
        1
 62
     0
 92
       -2
340
0
 93
        0
 40
1.125
309
GRIDFORMAT_END
 95
        2
302
GRIDFORMAT
  1
GRIDFORMAT_BEGIN
 90
        0
 91
        1
 62
     0
 92
       -2
340
0
 93
        0
 40
1.125
309
GRIDFORMAT_END
 95
        4
302
GRIDFORMAT
  1
GRIDFORMAT_BEGIN
 90
        0
 91
        1
 62
     0
 92
       -2
340
0
 93
        0
 40
1.125
309
GRIDFORMAT_END
 95
        8
302
GRIDFORMAT
  1
GRIDFORMAT_BEGIN
 90
        0
 91
        1
 62
     0
 92
       -2
340
0
 93
        0
 40
1.125
309
GRIDFORMAT_END
 95
       16
302
GRIDFORMAT
  1
GRIDFORMAT_BEGIN
 90
        0
 91
        1
 62
     0
 92
       -2
340
0
 93
        0
 40
1.125
309
GRIDFORMAT_END
 95
       32
302
GRIDFORMAT
  1
GRIDFORMAT_BEGIN
 90
        0
 91
        1
 62
     0
 92
       -2
340
0
 93
        0
 40
1.125
309
GRIDFORMAT_END
309
TABLEFORMAT_END
  1
CELLSTYLE_BEGIN
 90
        2
 91
        1
300
_HEADER
309
CELLSTYLE_END
300
CELLSTYLE
  1
TABLEFORMAT_BEGIN
 90
        5
170
     1
 91
        0
 92
        0
 62
   257
 93
        1
300
CONTENTFORMAT
  1
CONTENTFORMAT_BEGIN
 90
        0
 91
        0
 92
      512
 93
        0
300

 40
0.0
140
1.0
 94
        2
 62
     0
340
17
144
4.5
309
CONTENTFORMAT_END
171
     1
301
MARGIN
  1
CELLMARGIN_BEGIN
 40
1.5
 40
1.5
 40
1.5
 40
1.5
 40
0.18
 40
0.18
309
CELLMARGIN_END
 94
        6
 95
        1
302
GRIDFORMAT
  1
GRIDFORMAT_BEGIN
 90
        0
 91
        1
 62
     0
 92
       -2
340
0
 93
        0
 40
1.125
309
GRIDFORMAT_END
 95
        2
302
GRIDFORMAT
  1
GRIDFORMAT_BEGIN
 90
        0
 91
        1
 62
     0
 92
       -2
340
0
 93
        0
 40
1.125
309
GRIDFORMAT_END
 95
        4
302
GRIDFORMAT
  1
GRIDFORMAT_BEGIN
 90
        0
 91
        1
 62
     0
 92
       -2
340
0
 93
        0
 40
1.125
309
GRIDFORMAT_END
 95
        8
302
GRIDFORMAT
  1
GRIDFORMAT_BEGIN
 90
        0
 91
        1
 62
     0
 92
       -2
340
0
 93
        0
 40
1.125
309
GRIDFORMAT_END
 95
       16
302
GRIDFORMAT
  1
GRIDFORMAT_BEGIN
 90
        0
 91
        1
 62
     0
 92
       -2
340
0
 93
        0
 40
1.125
309
GRIDFORMAT_END
 95
       32
302
GRIDFORMAT
  1
GRIDFORMAT_BEGIN
 90
        0
 91
        1
 62
     0
 92
       -2
340
0
 93
        0
 40
1.125
309
GRIDFORMAT_END
309
TABLEFORMAT_END
  1
CELLSTYLE_BEGIN
 90
        3
 91
        2
300
_DATA
309
CELLSTYLE_END
  0
XRECORD
  5
63BE
102
{ACAD_REACTORS
330
6308
102
}
330
6308
100
AcDbXrecord
280
     1
102
ACAD_ROUNDTRIP_PRE2007_TABLESTYLE
 90
      512
 91
        0
  1

 92
      512
 93
        0
  2

 94
      512
 95
        0
  3

  0
ENDSEC
  0
EOF
