  0
SECTION
  2
HEADER
  9
$ACADVER
  1
AC1015
  9
$ACADMAINTVER
 70
    20
  9
$DWGCODEPAGE
  3
ANSI_1252
  9
$INSBASE
 10
0.0
 20
0.0
 30
0.0
  9
$EXTMIN
 10
-125.0399997640506
 20
-163.1394882161285
 30
-0.0000000000000158
  9
$EXTMAX
 10
102.586758466482
 20
97.46269745520841
 30
0.0000000000000147
  9
$LIMMIN
 10
-66.34999999999982
 20
-2008.85
  9
$LIMMAX
 10
3734.350000000001
 20
346.85
  9
$ORTHOMODE
 70
     0
  9
$REGENMODE
 70
     1
  9
$FILLMODE
 70
     1
  9
$QTEXTMODE
 70
     0
  9
$MIRRTEXT
 70
     1
  9
$LTSCALE
 40
10.0
  9
$ATTMODE
 70
     1
  9
$TEXTSIZE
 40
0.0
  9
$TRACEWID
 40
0.05
  9
$TEXTSTYLE
  7
Standard
  9
$CLAYER
  8
0
  9
$CELTYPE
  6
Continuous
  9
$CECOLOR
 62
   256
  9
$CELTSCALE
 40
1.0
  9
$DISPSILH
 70
     0
  9
$DIMSCALE
 40
1.0
  9
$DIMASZ
 40
1.25
  9
$DIMEXO
 40
0.0
  9
$DIMDLI
 40
0.38
  9
$DIMRND
 40
0.0
  9
$DIMDLE
 40
0.0
  9
$DIMEXE
 40
0.75
  9
$DIMTP
 40
0.0
  9
$DIMTM
 40
0.0
  9
$DIMTXT
 40
2.5
  9
$DIMCEN
 40
0.09
  9
$DIMTSZ
 40
0.0
  9
$DIMTOL
 70
     0
  9
$DIMLIM
 70
     0
  9
$DIMTIH
 70
     0
  9
$DIMTOH
 70
     0
  9
$DIMSE1
 70
     0
  9
$DIMSE2
 70
     0
  9
$DIMTAD
 70
     1
  9
$DIMZIN
 70
     0
  9
$DIMBLK
  1

  9
$DIMASO
 70
     1
  9
$DIMSHO
 70
     1
  9
$DIMPOST
  1

  9
$DIMAPOST
  1

  9
$DIMALT
 70
     0
  9
$DIMALTD
 70
     2
  9
$DIMALTF
 40
25.4
  9
$DIMLFAC
 40
1.0
  9
$DIMTOFL
 70
     0
  9
$DIMTVP
 40
0.0
  9
$DIMTIX
 70
     0
  9
$DIMSOXD
 70
     0
  9
$DIMSAH
 70
     0
  9
$DIMBLK1
  1

  9
$DIMBLK2
  1

  9
$DIMSTYLE
  2
Standard
  9
$DIMCLRD
 70
     7
  9
$DIMCLRE
 70
     7
  9
$DIMCLRT
 70
     7
  9
$DIMTFAC
 40
0.8
  9
$DIMGAP
 40
1.25
  9
$DIMJUST
 70
     0
  9
$DIMSD1
 70
     0
  9
$DIMSD2
 70
     0
  9
$DIMTOLJ
 70
     1
  9
$DIMTZIN
 70
     0
  9
$DIMALTZ
 70
     0
  9
$DIMALTTZ
 70
     0
  9
$DIMUPT
 70
     0
  9
$DIMDEC
 70
     2
  9
$DIMTDEC
 70
     4
  9
$DIMALTU
 70
     2
  9
$DIMALTTD
 70
     2
  9
$DIMTXSTY
  7
Standard
  9
$DIMAUNIT
 70
     0
  9
$DIMADEC
 70
     0
  9
$DIMALTRND
 40
0.0
  9
$DIMAZIN
 70
     0
  9
$DIMDSEP
 70
     0
  9
$DIMATFIT
 70
     3
  9
$DIMFRAC
 70
     0
  9
$DIMLDRBLK
  1

  9
$DIMLUNIT
 70
     2
  9
$DIMLWD
 70
     0
  9
$DIMLWE
 70
     0
  9
$DIMTMOVE
 70
     0
  9
$LUNITS
 70
     2
  9
$LUPREC
 70
     4
  9
$SKETCHINC
 40
0.1
  9
$FILLETRAD
 40
0.0
  9
$AUNITS
 70
     0
  9
$AUPREC
 70
     0
  9
$MENU
  1
acad
  9
$ELEVATION
 40
0.0
  9
$PELEVATION
 40
0.0
  9
$THICKNESS
 40
0.0
  9
$LIMCHECK
 70
     0
  9
$CHAMFERA
 40
0.0
  9
$CHAMFERB
 40
0.0
  9
$CHAMFERC
 40
0.0
  9
$CHAMFERD
 40
0.0
  9
$SKPOLY
 70
     0
  9
$TDCREATE
 40
2455303.727916667
  9
$TDUCREATE
 40
2455303.644583334
  9
$TDUPDATE
 40
2455306.431187917
  9
$TDUUPDATE
 40
2455306.347854584
  9
$TDINDWG
 40
0.0288028472
  9
$TDUSRTIMER
 40
0.0288023148
  9
$USRTIMER
 70
     1
  9
$ANGBASE
 50
0.0
  9
$ANGDIR
 70
     0
  9
$PDMODE
 70
     0
  9
$PDSIZE
 40
0.0
  9
$PLINEWID
 40
0.0
  9
$SPLFRAME
 70
     0
  9
$SPLINETYPE
 70
     6
  9
$SPLINESEGS
 70
     8
  9
$HANDSEED
  5
6400
  9
$SURFTAB1
 70
     6
  9
$SURFTAB2
 70
     6
  9
$SURFTYPE
 70
     6
  9
$SURFU
 70
     6
  9
$SURFV
 70
     6
  9
$UCSBASE
  2

  9
$UCSNAME
  2

  9
$UCSORG
 10
0.0
 20
0.0
 30
0.0
  9
$UCSXDIR
 10
1.0
 20
0.0
 30
0.0
  9
$UCSYDIR
 10
0.0
 20
1.0
 30
0.0
  9
$UCSORTHOREF
  2

  9
$UCSORTHOVIEW
 70
     0
  9
$UCSORGTOP
 10
0.0
 20
0.0
 30
0.0
  9
$UCSORGBOTTOM
 10
0.0
 20
0.0
 30
0.0
  9
$UCSORGLEFT
 10
0.0
 20
0.0
 30
0.0
  9
$UCSORGRIGHT
 10
0.0
 20
0.0
 30
0.0
  9
$UCSORGFRONT
 10
0.0
 20
0.0
 30
0.0
  9
$UCSORGBACK
 10
0.0
 20
0.0
 30
0.0
  9
$PUCSBASE
  2

  9
$PUCSNAME
  2

  9
$PUCSORG
 10
0.0
 20
0.0
 30
0.0
  9
$PUCSXDIR
 10
1.0
 20
0.0
 30
0.0
  9
$PUCSYDIR
 10
0.0
 20
1.0
 30
0.0
  9
$PUCSORTHOREF
  2

  9
$PUCSORTHOVIEW
 70
     0
  9
$PUCSORGTOP
 10
0.0
 20
0.0
 30
0.0
  9
$PUCSORGBOTTOM
 10
0.0
 20
0.0
 30
0.0
  9
$PUCSORGLEFT
 10
0.0
 20
0.0
 30
0.0
  9
$PUCSORGRIGHT
 10
0.0
 20
0.0
 30
0.0
  9
$PUCSORGFRONT
 10
0.0
 20
0.0
 30
0.0
  9
$PUCSORGBACK
 10
0.0
 20
0.0
 30
0.0
  9
$USERI1
 70
     0
  9
$USERI2
 70
     0
  9
$USERI3
 70
     0
  9
$USERI4
 70
     0
  9
$USERI5
 70
     0
  9
$USERR1
 40
0.0
  9
$USERR2
 40
0.0
  9
$USERR3
 40
0.0
  9
$USERR4
 40
0.0
  9
$USERR5
 40
0.0
  9
$WORLDVIEW
 70
     1
  9
$SHADEDGE
 70
     3
  9
$SHADEDIF
 70
    70
  9
$TILEMODE
 70
     1
  9
$MAXACTVP
 70
    16
  9
$PINSBASE
 10
0.0
 20
0.0
 30
0.0
  9
$PLIMCHECK
 70
     0
  9
$PEXTMIN
 10
1.000000000000000E+20
 20
1.000000000000000E+20
 30
1.000000000000000E+20
  9
$PEXTMAX
 10
-1.000000000000000E+20
 20
-1.000000000000000E+20
 30
-1.000000000000000E+20
  9
$PLIMMIN
 10
0.0
 20
0.0
  9
$PLIMMAX
 10
12.0
 20
9.0
  9
$UNITMODE
 70
     0
  9
$VISRETAIN
 70
     0
  9
$PLINEGEN
 70
     1
  9
$PSLTSCALE
 70
     0
  9
$TREEDEPTH
 70
  3020
  9
$CMLSTYLE
  2
Standard
  9
$CMLJUST
 70
     0
  9
$CMLSCALE
 40
1.0
  9
$PROXYGRAPHICS
 70
     0
  9
$MEASUREMENT
 70
     1
  9
$CELWEIGHT
370
     0
  9
$ENDCAPS
280
     0
  9
$JOINSTYLE
280
     0
  9
$LWDISPLAY
290
     0
  9
$INSUNITS
 70
     0
  9
$HYPERLINKBASE
  1

  9
$STYLESHEET
  1

  9
$XEDIT
290
     1
  9
$CEPSNTYPE
380
     0
  9
$PSTYLEMODE
290
     1
  9
$FINGERPRINTGUID
  2

  9
$VERSIONGUID
  2
{47131DF3-2BD9-46ED-8C0C-633B044B28EB}
  9
$EXTNAMES
290
     1
  9
$PSVPSCALE
 40
0.0
  9
$OLESTARTUP
290
     0
  0
ENDSEC
  0
SECTION
  2
CLASSES
  0
CLASS
  1
IMAGE
  2
AcDbRasterImage
  3
ISM
 90
    34943
280
     0
281
     1
  0
CLASS
  1
DICTIONARYVAR
  2
AcDbDictionaryVar
  3
ObjectDBX Classes
 90
        0
280
     0
281
     0
  0
CLASS
  1
RASTERVARIABLES
  2
AcDbRasterVariables
  3
ISM
 90
    32768
280
     0
281
     0
  0
CLASS
  1
IMAGEDEF
  2
AcDbRasterImageDef
  3
ISM
 90
    32768
280
     0
281
     0
  0
CLASS
  1
IMAGEDEF_REACTOR
  2
AcDbRasterImageDefReactor
  3
ISM
 90
    32769
280
     0
281
     0
  0
CLASS
  1
IDBUFFER
  2
AcDbIdBuffer
  3
ObjectDBX Classes
 90
    32768
280
     0
281
     0
  0
CLASS
  1
SPATIAL_FILTER
  2
AcDbSpatialFilter
  3
ObjectDBX Classes
 90
    32768
280
     0
281
     0
  0
CLASS
  1
SORTENTSTABLE
  2
AcDbSortentsTable
  3
ObjectDBX Classes
 90
        0
280
     0
281
     0
  0
CLASS
  1
LAYER_INDEX
  2
AcDbLayerIndex
  3
ObjectDBX Classes
 90
    32768
280
     0
281
     0
  0
CLASS
  1
SPATIAL_INDEX
  2
AcDbSpatialIndex
  3
ObjectDBX Classes
 90
    32768
280
     0
281
     0
  0
CLASS
  1
OBJECT_PTR
  2
CAseDLPNTableRecord
  3
ASE-LPNTableRecord
 90
    32769
280
     0
281
     0
  0
CLASS
  1
LAYOUT
  2
AcDbLayout
  3
ObjectDBX Classes
 90
        0
280
     0
281
     0
  0
CLASS
  1
PLOTSETTINGS
  2
AcDbPlotSettings
  3
ObjectDBX Classes
 90
    32768
280
     0
281
     0
  0
CLASS
  1
ACDBDICTIONARYWDFLT
  2
AcDbDictionaryWithDefault
  3
ObjectDBX Classes
 90
        0
280
     0
281
     0
  0
CLASS
  1
ACDBPLACEHOLDER
  2
AcDbPlaceHolder
  3
ObjectDBX Classes
 90
        0
280
     0
281
     0
  0
CLASS
  1
VBA_PROJECT
  2
AcDbVbaProject
  3
acad
 90
    32768
280
     0
281
     0
  0
CLASS
  1
WIPEOUT
  2
AcDbWipeout
  3
"WipeOut|Product Desc: Object Enabler for WipeOut entity                        |Company: Autodesk, Inc.                        |WEB Address: www.autodesk.com"
 90
    34943
280
     0
281
     1
  0
CLASS
  1
WIPEOUTVARIABLES
  2
AcDbWipeoutVariables
  3
"WipeOut|Product Desc:     WipeOut Dbx Application|Company:          Autodesk, Inc.|WEB Address:      www.autodesk.com"
 90
        0
280
     0
281
     0
  0
CLASS
  1
RTEXT
  2
RText
  3
RText|AutoCAD Express Tool|expresstools@autodesk.com
 90
    35839
280
     0
281
     1
  0
CLASS
  1
ARCALIGNEDTEXT
  2
AcDbArcAlignedText
  3
ATEXT|AutoCAD Express Tool|expresstools@autodesk.com
 90
    32768
280
     0
281
     1
  0
CLASS
  1
MATERIAL
  2
AcDbMaterial
  3
ObjectDBX Classes
 90
     1153
280
     0
281
     0
  0
CLASS
  1
VISUALSTYLE
  2
AcDbVisualStyle
  3
ObjectDBX Classes
 90
     4095
280
     0
281
     0
  0
CLASS
  1
TABLESTYLE
  2
AcDbTableStyle
  3
ObjectDBX Classes
 90
     4095
280
     0
281
     0
  0
CLASS
  1
SCALE
  2
AcDbScale
  3
ObjectDBX Classes
 90
     1153
280
     0
281
     0
  0
CLASS
  1
MLEADERSTYLE
  2
AcDbMLeaderStyle
  3
ACDB_MLEADERSTYLE_CLASS
 90
     4095
280
     0
281
     0
  0
CLASS
  1
CELLSTYLEMAP
  2
AcDbCellStyleMap
  3
ObjectDBX Classes
 90
     1152
280
     0
281
     0
  0
ENDSEC
  0
SECTION
  2
TABLES
  0
TABLE
  2
VPORT
  5
7
330
0
100
AcDbSymbolTable
 70
     1
  0
VPORT
  5
15
330
7
100
AcDbSymbolTableRecord
100
AcDbViewportTableRecord
  2
*ACTIVE
 70
     0
 10
0.0
 20
0.0
 11
1.0
 21
1.0
 12
-12.66296022677568
 22
-36.81850404153966
 13
0.0
 23
0.0
 14
1.0
 24
1.0
 15
0.0
 25
0.0
 16
0.0
 26
0.0
 36
1.0
 17
0.0
 27
0.0
 37
0.0
 40
294.8485296605586
 41
1.611330698287219
 42
50.0
 43
0.0
 44
0.0
 50
0.0
 51
0.0
 71
     0
 72
   100
 73
     1
 74
     1
 75
     0
 76
     0
 77
     0
 78
     0
281
     0
 65
     0
110
0.0
120
0.0
130
0.0
111
1.0
121
0.0
131
0.0
112
0.0
122
1.0
132
0.0
 79
     0
146
0.0
  0
ENDTAB
  0
TABLE
  2
LTYPE
  5
4
330
0
100
AcDbSymbolTable
 70
     4
  0
LTYPE
  5
11
330
4
100
AcDbSymbolTableRecord
100
AcDbLinetypeTableRecord
  2
ByBlock
 70
     0
  3

 72
    65
 73
     0
 40
0.0
  0
LTYPE
  5
12
330
4
100
AcDbSymbolTableRecord
100
AcDbLinetypeTableRecord
  2
ByLayer
 70
     0
  3

 72
    65
 73
     0
 40
0.0
  0
LTYPE
  5
13
330
4
100
AcDbSymbolTableRecord
100
AcDbLinetypeTableRecord
  2
Continuous
 70
     0
  3
Solid line
 72
    65
 73
     0
 40
0.0
  0
LTYPE
  5
1E4
330
4
100
AcDbSymbolTableRecord
100
AcDbLinetypeTableRecord
  2
CENTER
 70
     0
  3
____ _ ____ _ ____ _ ____ _ ____ _ ____ _ ____
 72
    65
 73
     4
 40
2.0
 49
1.25
 74
     0
 49
-0.25
 74
     0
 49
0.25
 74
     0
 49
-0.25
 74
     0
  0
ENDTAB
  0
TABLE
  2
LAYER
  5
2
330
0
100
AcDbSymbolTable
 70
     1
  0
LAYER
  5
14
102
{ACAD_XDICTIONARY
360
5E41
102
}
330
2
100
AcDbSymbolTableRecord
100
AcDbLayerTableRecord
  2
0
 70
     0
 62
     7
  6
Continuous
370
    -3
390
1D
  0
ENDTAB
  0
TABLE
  2
STYLE
  5
3
330
0
100
AcDbSymbolTable
 70
     1
  0
STYLE
  5
17
330
3
100
AcDbSymbolTableRecord
100
AcDbTextStyleTableRecord
  2
Standard
 70
     0
 40
0.0
 41
1.0
 50
0.0
 71
     0
 42
0.0
  3
I011000D.TTF
  4

1001
ACAD
1000
IsonormD
1071
        0
  0
ENDTAB
  0
TABLE
  2
VIEW
  5
5
330
0
100
AcDbSymbolTable
 70
     0
  0
ENDTAB
  0
TABLE
  2
UCS
  5
6
330
0
100
AcDbSymbolTable
 70
     0
  0
ENDTAB
  0
TABLE
  2
APPID
  5
8
330
0
100
AcDbSymbolTable
 70
     5
  0
APPID
  5
16
330
8
100
AcDbSymbolTableRecord
100
AcDbRegAppTableRecord
  2
ACAD
 70
     0
  0
APPID
  5
26
330
8
100
AcDbSymbolTableRecord
100
AcDbRegAppTableRecord
  2
TopSolid'Draft
 70
     0
  0
APPID
  5
319D
330
8
100
AcDbSymbolTableRecord
100
AcDbRegAppTableRecord
  2
ACAD_MLEADERVER
 70
     0
  0
APPID
  5
5E45
330
8
100
AcDbSymbolTableRecord
100
AcDbRegAppTableRecord
  2
DCO15
 70
     0
  0
APPID
  5
6333
330
8
100
AcDbSymbolTableRecord
100
AcDbRegAppTableRecord
  2
ACAD_EXEMPT_FROM_CAD_STANDARDS
 70
     0
  0
ENDTAB
  0
TABLE
  2
DIMSTYLE
  5
9
330
0
100
AcDbSymbolTable
 70
     2
100
AcDbDimStyleTable
 71
     1
340
18
  0
DIMSTYLE
105
18
330
9
100
AcDbSymbolTableRecord
100
AcDbDimStyleTableRecord
  2
Standard
 70
     0
 41
1.25
 42
0.0
 44
0.75
 73
     0
 74
     0
 77
     1
140
2.5
146
0.8
147
1.25
176
     7
177
     7
178
     7
271
     2
340
17
  0
ENDTAB
  0
TABLE
  2
BLOCK_RECORD
  5
1
330
0
100
AcDbSymbolTable
 70
     2
  0
BLOCK_RECORD
  5
A
102
{ACAD_XDICTIONARY
360
31A7
102
}
330
1
100
AcDbSymbolTableRecord
100
AcDbBlockTableRecord
  2
*MODEL_SPACE
340
20
  0
BLOCK_RECORD
  5
B
330
1
100
AcDbSymbolTableRecord
100
AcDbBlockTableRecord
  2
*PAPER_SPACE
340
21
  0
ENDTAB
  0
ENDSEC
  0
SECTION
  2
BLOCKS
  0
BLOCK
  5
D
330
A
100
AcDbEntity
  8
0
100
AcDbBlockBegin
  2
*MODEL_SPACE
 70
     0
 10
0.0
 20
0.0
 30
0.0
  3
*MODEL_SPACE
  1

  0
ENDBLK
  5
E
330
A
100
AcDbEntity
  8
0
100
AcDbBlockEnd
  0
BLOCK
  5
F
330
B
100
AcDbEntity
 67
     1
  8
0
100
AcDbBlockBegin
  2
*PAPER_SPACE
 70
     0
 10
0.0
 20
0.0
 30
0.0
  3
*PAPER_SPACE
  1

  0
ENDBLK
  5
10
330
B
100
AcDbEntity
 67
     1
  8
0
100
AcDbBlockEnd
  0
ENDSEC
  0
SECTION
  2
ENTITIES
  0
LINE
  5
1E5
330
A
100
AcDbEntity
  8
0
  6
CENTER
 62
     1
100
AcDbLine
 10
0.0000000000000142
 20
73.79999999997591
 30
0.0
 11
0.0000000000000142
 21
79.2499999999759
 31
0.0
  0
LINE
  5
1E6
330
A
100
AcDbEntity
  8
0
  6
CENTER
 62
     1
100
AcDbLine
 10
0.0000000000002274
 20
94.65000000000527
 30
0.0
 11
0.0000000000002274
 21
81.54999999997523
 31
0.0
  0
LINE
  5
1E7
330
A
100
AcDbEntity
  8
0
  6
CENTER
 62
     1
100
AcDbLine
 10
-101.3000000000007
 20
-0.0000000000206297
 30
0.0
 11
-106.7500000000007
 21
-0.0000000000206297
 31
0.0
  0
LINE
  5
1E8
330
A
100
AcDbEntity
  8
0
  6
CENTER
 62
     1
100
AcDbLine
 10
-101.3000000000013
 20
-50.00000000001563
 30
0.0
 11
-106.7500000000013
 21
-50.00000000001563
 31
0.0
  0
LINE
  5
1E9
330
A
100
AcDbEntity
  8
0
  6
CENTER
 62
     1
100
AcDbLine
 10
-89.80000000000041
 20
-0.0000000000206297
 30
0.0
 11
-80.50000000000041
 21
-0.0000000000206297
 31
0.0
  0
LINE
  5
1EA
330
A
100
AcDbEntity
  8
0
  6
CENTER
 62
     1
100
AcDbLine
 10
-85.15000000000041
 20
-4.650000000020749
 30
0.0
 11
-85.15000000000041
 21
4.649999999979262
 31
0.0
  0
LINE
  5
1EB
330
A
100
AcDbEntity
  8
0
  6
CENTER
 62
     1
100
AcDbLine
 10
-89.80000000000041
 20
-50.00000000002074
 30
0.0
 11
-80.50000000000041
 21
-50.00000000002074
 31
0.0
  0
LINE
  5
1EC
330
A
100
AcDbEntity
  8
0
  6
CENTER
 62
     1
100
AcDbLine
 10
-85.15000000000041
 20
-54.65000000002063
 30
0.0
 11
-85.15000000000041
 21
-45.35000000002074
 31
0.0
  0
LINE
  5
1ED
330
A
100
AcDbEntity
  8
0
  6
CENTER
 62
     1
100
AcDbLine
 10
-92.15078262927631
 20
-0.00002463694761
 30
0.0
 11
-78.15083177281495
 21
-0.00002463694761
 31
0.0
  0
LINE
  5
1EE
330
A
100
AcDbEntity
  8
0
  6
CENTER
 62
     1
100
AcDbLine
 10
-85.15080720104563
 20
-7.000000065178336
 30
0.0
 11
-85.15080720104563
 21
6.999950791283088
 31
0.0
  0
LINE
  5
1EF
330
A
100
AcDbEntity
  8
0
  6
CENTER
 62
     1
100
AcDbLine
 10
-92.15078262927631
 20
-50.00002463694775
 30
0.0
 11
-78.15083177281497
 21
-50.00002463694775
 31
0.0
  0
LINE
  5
1F0
330
A
100
AcDbEntity
  8
0
  6
CENTER
 62
     1
100
AcDbLine
 10
-85.15080720104563
 20
-57.00000006517833
 30
0.0
 11
-85.15080720104563
 21
-43.00004920871702
 31
0.0
  0
LINE
  5
1F1
330
A
100
AcDbEntity
  8
0
  6
CENTER
 62
     1
100
AcDbLine
 10
-122.15000000003
 20
-50.00000000003211
 30
0.0
 11
-109.0500000000004
 21
-50.00000000003211
 31
0.0
  0
LINE
  5
1F2
330
A
100
AcDbEntity
  8
0
  6
CENTER
 62
     1
100
AcDbLine
 10
-122.15000000003
 20
-0.0000000000322258
 30
0.0
 11
-109.05
 21
-0.0000000000322258
 31
0.0
  0
LINE
  5
1F3
330
A
100
AcDbEntity
  8
0
  6
CENTER
 62
     1
100
AcDbLine
 10
58.00000000000363
 20
-0.0000000000206297
 30
0.0
 11
67.30000000000363
 21
-0.0000000000206297
 31
0.0
  0
LINE
  5
1F4
330
A
100
AcDbEntity
  8
0
  6
CENTER
 62
     1
100
AcDbLine
 10
62.65000000000362
 20
-4.650000000020749
 30
0.0
 11
62.65000000000362
 21
4.649999999979262
 31
0.0
  0
LINE
  5
1F5
330
A
100
AcDbEntity
  8
0
  6
CENTER
 62
     1
100
AcDbLine
 10
58.00000000000363
 20
-50.00000000002074
 30
0.0
 11
67.30000000000363
 21
-50.00000000002074
 31
0.0
  0
LINE
  5
1F6
330
A
100
AcDbEntity
  8
0
  6
CENTER
 62
     1
100
AcDbLine
 10
62.65000000000362
 20
-54.65000000002063
 30
0.0
 11
62.65000000000362
 21
-45.35000000002074
 31
0.0
  0
LINE
  5
1F7
330
A
100
AcDbEntity
  8
0
  6
CENTER
 62
     1
100
AcDbLine
 10
99.65000000003334
 20
-0.0000000000322258
 30
0.0
 11
86.55000000000333
 21
-0.0000000000322258
 31
0.0
  0
LINE
  5
1F8
330
A
100
AcDbEntity
  8
0
  6
CENTER
 62
     1
100
AcDbLine
 10
99.65000000003334
 20
-50.00000000003211
 30
0.0
 11
86.55000000000372
 21
-50.00000000003211
 31
0.0
  0
LINE
  5
1F9
330
A
100
AcDbEntity
  8
0
  6
CENTER
 62
     1
100
AcDbLine
 10
0.0000000000002274
 20
-123.8000000000294
 30
0.0
 11
0.0000000000002274
 21
-129.2500000000294
 31
0.0
  0
LINE
  5
1FA
330
A
100
AcDbEntity
  8
0
  6
CENTER
 62
     1
100
AcDbLine
 10
0.0000000000002274
 20
-144.6500000000581
 30
0.0
 11
0.0000000000002274
 21
-131.5500000000285
 31
0.0
  0
LINE
  5
3F7
330
A
100
AcDbEntity
  8
0
  6
CENTER
 62
     1
100
AcDbLine
 10
-8.999999999999801
 20
0.0000000000001465
 30
0.0
 11
9.000000000000227
 21
0.0000000000001465
 31
0.0
  0
LINE
  5
3F8
330
A
100
AcDbEntity
  8
0
  6
CENTER
 62
     1
100
AcDbLine
 10
0.0000000000002274
 20
-8.999999999999854
 30
0.0
 11
0.0000000000002274
 21
9.000000000000145
 31
0.0
  0
LINE
  5
3F9
330
A
100
AcDbEntity
  8
0
  6
CENTER
 62
     1
100
AcDbLine
 10
-8.999999999999801
 20
-49.99999999999991
 30
0.0
 11
9.000000000000227
 21
-49.99999999999991
 31
0.0
  0
LINE
  5
3FA
330
A
100
AcDbEntity
  8
0
  6
CENTER
 62
     1
100
AcDbLine
 10
0.0000000000002274
 20
-58.99999999999991
 30
0.0
 11
0.0000000000002274
 21
-40.99999999999985
 31
0.0
  0
LINE
  5
5A73
330
A
100
AcDbEntity
  8
0
  6
Continuous
 62
     9
370
     0
100
AcDbLine
 10
85.95688509206233
 20
-104.4908823092604
 30
0.0
 11
85.95688509206233
 21
-162.9146217764781
 31
0.0
  0
ELLIPSE
  5
5A74
330
A
100
AcDbEntity
  8
0
  6
Continuous
 62
     7
370
     0
100
AcDbEllipse
 10
87.03019772126245
 20
-103.6145262172519
 30
0.0
 11
2.400000000000013
 21
0.0
 31
0.0
210
0.0
220
0.0000000000000001
230
1.0
 40
0.408248290463863
 41
4.248741371383878
 42
5.819537698178789
  0
LINE
  5
5A75
330
A
100
AcDbEntity
  8
0
  6
Continuous
 62
     9
370
     0
100
AcDbLine
 10
89.17682297966262
 20
-104.0527042632561
 30
0.0
 11
89.17682297966262
 21
-162.4764437304738
 31
0.0
  0
ELLIPSE
  5
5A76
330
A
100
AcDbEntity
  8
0
  6
Continuous
 62
     7
370
     0
100
AcDbEllipse
 10
87.03019772126245
 20
-162.0382656844696
 30
0.0
 11
2.400000000000013
 21
0.0
 31
0.0
210
0.0
220
0.0000000000000001
230
1.0
 40
0.408248290463863
 41
4.248741371383881
 42
5.819537698178779
  0
LINE
  5
5A77
330
A
100
AcDbEntity
  8
0
  6
Continuous
 62
     7
370
     0
100
AcDbLine
 10
85.95688509206233
 20
-104.4908823092604
 30
0.0
 11
68.78388302486065
 21
-100.9854579412266
 31
0.0
  0
ELLIPSE
  5
5A78
330
A
100
AcDbEntity
  8
0
  6
Continuous
 62
     7
370
     0
100
AcDbEllipse
 10
69.85719565406073
 20
-100.1091018492182
 30
0.0
 11
2.399999999999983
 21
0.0
 31
0.0000000000000001
210
0.0
220
0.0000000000000001
230
1.0
 40
0.4082482904638633
 41
3.141592653589792
 42
4.248741371383887
  0
LINE
  5
5A79
330
A
100
AcDbEntity
  8
0
  6
Continuous
 62
     7
370
     0
100
AcDbLine
 10
67.71057039566056
 20
-99.67092380321403
 30
0.0
 11
68.31878088554062
 21
-99.17432201774253
 31
0.0
  0
LINE
  5
5A7A
330
A
100
AcDbEntity
  8
0
  6
Continuous
 62
     7
370
     0
100
AcDbLine
 10
89.78503346954266
 20
-103.5561024777847
 30
0.0
 11
68.31878088554062
 21
-99.17432201774253
 31
0.0
  0
LINE
  5
5A7B
330
A
100
AcDbEntity
  8
0
  6
Continuous
 62
     7
370
     0
100
AcDbLine
 10
89.78503346954266
 20
-103.5561024777847
 30
0.0
 11
89.17682297966262
 21
-104.0527042632561
 31
0.0
  0
LINE
  5
5A7C
330
A
100
AcDbEntity
  8
0
  6
Continuous
 62
     9
370
     0
100
AcDbLine
 10
68.78388302486065
 20
-100.9854579412266
 30
0.0
 11
68.78388302486065
 21
-159.4091974084444
 31
0.0
  0
LINE
  5
5A7D
330
A
100
AcDbEntity
  8
0
  6
Continuous
 62
     7
370
     0
100
AcDbLine
 10
85.95688509206233
 20
-162.9146217764781
 30
0.0
 11
68.78388302486065
 21
-159.4091974084444
 31
0.0
  0
LINE
  5
5A7E
330
A
100
AcDbEntity
  8
0
  6
Continuous
 62
     7
370
     0
100
AcDbLine
 10
89.78503346954266
 20
-161.9798419450024
 30
0.0
 11
89.17682297966262
 21
-162.4764437304738
 31
0.0
  0
LINE
  5
5A7F
330
A
100
AcDbEntity
  8
0
  6
Continuous
 62
     7
370
     0
100
AcDbLine
 10
89.78503346954266
 20
-103.5561024777847
 30
0.0
 11
89.78503346954266
 21
-161.9798419450024
 31
0.0
  0
ELLIPSE
  5
5A80
330
A
100
AcDbEntity
  8
0
  6
Continuous
 62
     7
370
     0
100
AcDbEllipse
 10
69.85719565406073
 20
-100.1091018492182
 30
0.0
 11
2.399999999999983
 21
0.0
 31
0.0
210
0.0
220
0.0000000000000001
230
1.0
 40
0.4082482904638633
 41
2.677945044588997
 42
3.141592653589792
  0
ELLIPSE
  5
5A81
330
A
100
AcDbEntity
  8
0
  6
Continuous
 62
     7
370
     0
100
AcDbEllipse
 10
69.85719565406073
 20
-158.5328413164359
 30
0.0
 11
2.399999999999983
 21
0.0
 31
0.0000000000000001
210
0.0
220
0.0000000000000001
230
1.0
 40
0.4082482904638633
 41
3.141592653589792
 42
4.248741371383883
  0
LINE
  5
5A82
330
A
100
AcDbEntity
  8
0
  6
Continuous
 62
     7
370
     0
100
AcDbLine
 10
73.32757315514045
 20
-96.54525374171123
 30
0.0
 11
73.32757315514045
 21
-97.27555048505573
 31
0.0
  0
LINE
  5
5A83
330
A
100
AcDbEntity
  8
0
  6
Continuous
 62
     7
370
     0
100
AcDbLine
 10
73.32757315514045
 20
-96.54525374171123
 30
0.0
 11
93.36274223353855
 21
-100.6349155044164
 31
0.0
  0
LINE
  5
5A84
330
A
100
AcDbEntity
  8
0
  6
Continuous
 62
     7
370
     0
100
AcDbLine
 10
93.36274223353855
 20
-100.6349155044164
 30
0.0
 11
93.36274223353855
 21
-159.0586549716341
 31
0.0
  0
LINE
  5
5A85
330
A
100
AcDbEntity
  8
0
  6
Continuous
 62
     7
370
     0
100
AcDbLine
 10
89.78503346954266
 20
-158.3283582282947
 30
0.0
 11
93.36274223353855
 21
-159.0586549716341
 31
0.0
  0
LINE
  5
5A86
330
A
100
AcDbEntity
  8
0
  6
Continuous
 62
     7
370
     0
100
AcDbLine
 10
93.36274223353855
 20
-100.6349155044164
 30
0.0
 11
94.18592330559734
 21
-99.96279097359604
 31
0.0
  0
LINE
  5
5A87
330
A
100
AcDbEntity
  8
0
  6
Continuous
 62
     9
370
     0
100
AcDbLine
 10
94.18592330559734
 20
-99.96279097359604
 30
0.0
 11
94.18592330559734
 21
-158.3865304408137
 31
0.0
  0
LINE
  5
5A88
330
A
100
AcDbEntity
  8
0
  6
Continuous
 62
     7
370
     0
100
AcDbLine
 10
93.36274223353855
 20
-159.0586549716341
 30
0.0
 11
94.18592330559734
 21
-158.3865304408137
 31
0.0
  0
ELLIPSE
  5
5A89
330
A
100
AcDbEntity
  8
0
  6
Continuous
 62
     7
370
     0
100
AcDbEllipse
 10
73.18278875590245
 20
-82.27491325483944
 30
0.0
 11
-0.7999999999999952
 21
0.0
 31
0.0
210
0.0
220
0.0000000000000001
230
1.0
 40
0.4082482904638634
 41
3.020610529952388
 42
3.141592653589792
  0
ELLIPSE
  5
5A8A
330
A
100
AcDbEntity
  8
0
  6
Continuous
 62
     7
370
     0
100
AcDbEllipse
 10
-5.438305565737309
 20
-78.37270175220343
 30
0.0
 11
-80.00000000000001
 21
0.0
 31
0.0
210
0.0
220
0.0000000000000001
230
1.0
 40
0.4082482904638633
 41
2.775900681007297
 42
3.020610529952312
  0
ELLIPSE
  5
5A8B
330
A
100
AcDbEntity
  8
0
  6
Continuous
 62
     7
370
     0
100
AcDbEllipse
 10
74.50152612283294
 20
-90.86925667481484
 30
0.0
 11
5.600000000000021
 21
0.0
 31
0.0
210
0.0
220
0.0000000000000001
230
1.0
 40
0.408248290463863
 41
3.141592653589792
 42
4.246815440740101
  0
ELLIPSE
  5
5A8C
330
A
100
AcDbEntity
  8
0
  6
Continuous
 62
     7
370
     0
100
AcDbEllipse
 10
36.07265847079772
 20
-122.0958002208174
 30
0.0
 11
-80.00000000000001
 21
0.0
 31
0.0
210
0.0
220
0.0000000000000001
230
1.0
 40
0.4082482904638631
 41
3.901762882659236
 42
4.246815440740098
  0
ELLIPSE
  5
5A8D
330
A
100
AcDbEntity
  8
0
  6
Continuous
 62
     7
370
     0
100
AcDbEllipse
 10
93.47038155279731
 20
-99.81673162492803
 30
0.0
 11
-0.7999999999999952
 21
0.0
 31
0.0
210
0.0
220
0.0000000000000001
230
1.0
 40
0.4082482904638632
 41
2.677945044588985
 42
3.141592653589792
  0
ELLIPSE
  5
5A8E
330
A
100
AcDbEntity
  8
0
  6
Continuous
 62
     7
370
     0
100
AcDbEllipse
 10
72.61203140234055
 20
-96.39919439304314
 30
0.0
 11
0.7999999999999952
 21
0.0
 31
0.0
210
0.0
220
0.0000000000000001
230
1.0
 40
0.4082482904638632
 41
0.0
 42
1.107148717794089
  0
LINE
  5
5A8F
330
A
100
AcDbEntity
  8
0
  6
Continuous
 62
     7
370
     0
100
AcDbLine
 10
68.67655176194095
 20
-95.23071960369884
 30
0.0
 11
72.96980227874055
 21
-96.10707569570704
 31
0.0
  0
ELLIPSE
  5
5A90
330
A
100
AcDbEntity
  8
0
  6
Continuous
 62
     7
370
     0
100
AcDbEllipse
 10
73.68534403154045
 20
-91.14105784099354
 30
0.0
 11
-11.20000000000001
 21
0.0
 31
0.0
210
0.0
220
0.0000000000000001
230
1.0
 40
0.4082482904638633
 41
5.819537698178777
 42
6.283185307179584
  0
ELLIPSE
  5
5A91
330
A
100
AcDbEntity
  8
0
  6
Continuous
 62
     7
370
     0
100
AcDbEllipse
 10
62.95221773954144
 20
-88.95016761097284
 30
0.0
 11
0.8000000000000229
 21
0.0
 31
0.0
210
0.0
220
0.0000000000000001
230
1.0
 40
0.4082482904638633
 41
0.0
 42
1.107148717794057
  0
LINE
  5
5A92
330
A
100
AcDbEntity
  8
0
  6
Continuous
 62
     7
370
     0
100
AcDbLine
 10
71.89648964954064
 20
-81.64720017757062
 30
0.0
 11
63.30998861594143
 21
-88.65804891363675
 31
0.0
  0
LINE
  5
5A93
330
A
100
AcDbEntity
  8
0
  6
Continuous
 62
     7
370
     0
100
AcDbLine
 10
73.54055963230222
 20
-81.98279455750343
 30
0.0
 11
71.89648964954064
 21
-81.64720017757062
 31
0.0
  0
ELLIPSE
  5
5A94
330
A
100
AcDbEntity
  8
0
  6
Continuous
 62
     7
370
     0
100
AcDbEllipse
 10
93.47038155279731
 20
-99.81673162492803
 30
0.0
 11
-0.7999999999999952
 21
0.0
 31
0.0
210
0.0
220
0.0000000000000001
230
1.0
 40
0.4082482904638631
 41
3.141592653589792
 42
3.901762882659236
  0
ELLIPSE
  5
5A95
330
A
100
AcDbEntity
  8
0
  6
Continuous
 62
     7
370
     0
100
AcDbEllipse
 10
93.47038155279731
 20
-158.2404710921457
 30
0.0
 11
-0.7999999999999952
 21
0.0
 31
0.0
210
0.0
220
0.0000000000000001
230
1.0
 40
0.4082482904638632
 41
2.677945044588985
 42
3.141592653589792
  0
ELLIPSE
  5
5A96
330
A
100
AcDbEntity
  8
0
  6
Continuous
 62
     7
370
     0
100
AcDbEllipse
 10
72.61203140234055
 20
-96.39919439304314
 30
0.0
 11
0.7999999999999952
 21
0.0
 31
0.0
210
0.0
220
0.0000000000000001
230
1.0
 40
0.4082482904638632
 41
5.81953769817878
 42
6.283185307179584
  0
LINE
  5
5A97
330
A
100
AcDbEntity
  8
0
  6
Continuous
 62
     9
370
     0
100
AcDbLine
 10
72.96980227874055
 20
-96.10707569570704
 30
0.0
 11
72.96980227874055
 21
-97.30036202203073
 31
0.0
  0
LINE
  5
5A98
330
A
100
AcDbEntity
  8
0
  6
Continuous
 62
     9
370
     0
100
AcDbLine
 10
68.67655176194095
 20
-95.23071960369884
 30
0.0
 11
68.67655176194095
 21
-99.24735169207664
 31
0.0
  0
ELLIPSE
  5
5A99
330
A
100
AcDbEntity
  8
0
  6
Continuous
 62
     7
370
     0
100
AcDbEllipse
 10
73.68534403154045
 20
-91.14105784099354
 30
0.0
 11
-11.20000000000001
 21
0.0
 31
0.0
210
0.0
220
0.0000000000000001
230
1.0
 40
0.4082482904638633
 41
6.283185307179584
 42
7.390334024973672
  0
ELLIPSE
  5
5A9A
330
A
100
AcDbEntity
  8
0
  6
Continuous
 62
     7
370
     0
100
AcDbEllipse
 10
73.68534403154045
 20
-149.5647973082112
 30
0.0
 11
-11.20000000000001
 21
0.0
 31
0.0
210
0.0
220
0.0000000000000001
230
1.0
 40
0.4082482904638633
 41
6.283185307179584
 42
7.264314167455284
  0
ELLIPSE
  5
5A9B
330
A
100
AcDbEntity
  8
0
  6
Continuous
 62
     7
370
     0
100
AcDbEllipse
 10
74.50152612283294
 20
-90.86925667481484
 30
0.0
 11
5.600000000000021
 21
0.0
 31
0.0
210
0.0
220
0.0000000000000001
230
1.0
 40
0.4082482904638633
 41
2.775900681007299
 42
3.141592653589792
  0
LINE
  5
5A9C
330
A
100
AcDbEntity
  8
0
  6
Continuous
 62
     9
370
     0
100
AcDbLine
 10
69.27181750769283
 20
-90.05172504436362
 30
0.0
 11
69.27181750769283
 21
-91.68678830526614
 31
0.0
  0
LINE
  5
5A9D
330
A
100
AcDbEntity
  8
0
  6
Continuous
 62
     9
370
     0
100
AcDbLine
 10
73.97694122379782
 20
-82.31432953264382
 30
0.0
 11
73.97694122379782
 21
-93.33452605751293
 31
0.0
  0
ELLIPSE
  5
5A9E
330
A
100
AcDbEntity
  8
0
  6
Continuous
 62
     7
370
     0
100
AcDbEllipse
 10
62.95221773954144
 20
-88.95016761097284
 30
0.0
 11
0.8000000000000229
 21
0.0
 31
0.0
210
0.0
220
0.0000000000000001
230
1.0
 40
0.4082482904638633
 41
5.819537698178794
 42
6.283185307179584
  0
LINE
  5
5A9F
330
A
100
AcDbEntity
  8
0
  6
Continuous
 62
     7
370
     0
100
AcDbLine
 10
63.30998861594143
 20
-88.65804891363675
 30
0.0
 11
63.30998861594143
 21
-89.41904351662413
 31
0.0
  0
ELLIPSE
  5
5AA0
330
A
100
AcDbEntity
  8
0
  6
Continuous
 62
     7
370
     0
100
AcDbEllipse
 10
73.18278875590245
 20
-82.27491325483944
 30
0.0
 11
-0.7999999999999952
 21
0.0
 31
0.0
210
0.0
220
0.0000000000000001
230
1.0
 40
0.4082482904638631
 41
3.141592653589792
 42
4.24874137138393
  0
LINE
  5
5AA1
330
A
100
AcDbEntity
  8
0
  6
Continuous
 62
     9
370
     0
100
AcDbLine
 10
91.57388785153484
 20
-101.3652122477602
 30
0.0
 11
91.93165872793469
 21
-101.0730935504241
 31
0.0
  0
ELLIPSE
  5
5AA2
330
A
100
AcDbEntity
  8
0
  6
Continuous
 62
     7
370
     0
100
AcDbEllipse
 10
91.93165872793469
 20
-101.803390293764
 30
0.0
 11
-0.505964425626948
 21
0.6196773353931984
 31
0.0
210
0.0000000000000001
220
0.0000000000000001
230
1.0
 40
0.816496580927726
 41
3.926990816987272
 42
5.497787143782135
  0
LINE
  5
5AA3
330
A
100
AcDbEntity
  8
0
  6
Continuous
 62
     9
370
     0
100
AcDbLine
 10
92.64720048073444
 20
-101.949449642432
 30
0.0
 11
92.28942960433444
 21
-102.241568339768
 31
0.0
  0
ELLIPSE
  5
5AA4
330
A
100
AcDbEntity
  8
0
  6
Continuous
 62
     7
370
     0
100
AcDbEllipse
 10
91.57388785153484
 20
-102.0955089911001
 30
0.0
 11
0.505964425626948
 21
-0.6196773353931984
 31
0.0
210
0.0000000000000001
220
0.0000000000000001
230
1.0
 40
0.816496580927726
 41
0.7853981633974813
 42
2.356194490192343
  0
LINE
  5
5AA5
330
A
100
AcDbEntity
  8
0
  6
Continuous
 62
     7
370
     0
100
AcDbLine
 10
92.28942960433444
 20
-157.7441208336012
 30
0.0
 11
92.28942960433444
 21
-102.241568339768
 31
0.0
  0
ELLIPSE
  5
5AA6
330
A
100
AcDbEntity
  8
0
  6
Continuous
 62
     7
370
     0
100
AcDbEllipse
 10
91.57388785153484
 20
-157.5980614849332
 30
0.0
 11
0.505964425626948
 21
-0.6196773353931845
 31
0.0
210
0.0000000000000001
220
0.0000000000000001
230
1.0
 40
0.816496580927726
 41
5.497787143782124
 42
6.283185307179584
  0
LINE
  5
5AA7
330
A
100
AcDbEntity
  8
0
  6
Continuous
 62
     7
370
     0
100
AcDbLine
 10
89.78503346954266
 20
-157.9632098566045
 30
0.0
 11
91.57388785153484
 21
-158.3283582282731
 31
0.0
  0
LINE
  5
5AA8
330
A
100
AcDbEntity
  8
0
  6
Continuous
 62
     7
370
     0
100
AcDbLine
 10
72.25426052594482
 20
-98.15190657706464
 30
0.0
 11
72.25426052594482
 21
-99.97764843541773
 31
0.0
  0
ELLIPSE
  5
5AA9
330
A
100
AcDbEntity
  8
0
  6
Continuous
 62
     7
370
     0
100
AcDbEllipse
 10
72.96980227874455
 20
-98.29796592573254
 30
0.0
 11
0.505964425626948
 21
-0.6196773353931984
 31
0.0
210
0.0000000000000001
220
0.0000000000000001
230
1.0
 40
0.816496580927726
 41
2.356194490192343
 42
3.141592653589766
  0
LINE
  5
5AAA
330
A
100
AcDbEntity
  8
0
  6
Continuous
 62
     7
370
     0
100
AcDbLine
 10
91.57388785153484
 20
-101.3652122477602
 30
0.0
 11
72.96980227874455
 21
-97.56766918239263
 31
0.0
  0
LINE
  5
5AAB
330
A
100
AcDbEntity
  8
0
  6
Continuous
 62
     9
370
     0
100
AcDbLine
 10
92.28942960433444
 20
-157.7441208336012
 30
0.0
 11
92.64720048073444
 21
-157.452002136265
 31
0.0
  0
LINE
  5
5AAC
330
A
100
AcDbEntity
  8
0
  6
Continuous
 62
     7
370
     0
100
AcDbLine
 10
92.64720048073444
 20
-157.452002136265
 30
0.0
 11
92.64720048073444
 21
-101.949449642432
 31
0.0
  0
LINE
  5
5AAD
330
A
100
AcDbEntity
  8
0
  6
Continuous
 62
     9
370
     0
100
AcDbLine
 10
73.32757315514443
 20
-97.27555048505653
 30
0.0
 11
72.96980227874455
 21
-97.56766918239263
 31
0.0
  0
LINE
  5
5AAE
330
A
100
AcDbEntity
  8
0
  6
Continuous
 62
     7
370
     0
100
AcDbLine
 10
91.93165872793469
 20
-101.0730935504241
 30
0.0
 11
73.32757315514443
 21
-97.27555048505653
 31
0.0
  0
ELLIPSE
  5
5AAF
330
A
100
AcDbEntity
  8
0
  6
Continuous
 62
     7
370
     0
100
AcDbEllipse
 10
73.32757315514443
 20
-98.00584722839653
 30
0.0
 11
-0.505964425626948
 21
0.6196773353931706
 31
0.0
210
0.0
220
0.0
230
1.0
 40
0.8164965809277259
 41
5.497787143782162
 42
6.283185307179584
  0
ELLIPSE
  5
5AB0
330
A
100
AcDbEntity
  8
0
  6
Continuous
 62
     7
370
     0
100
AcDbEllipse
 10
72.96980227874455
 20
-98.29796592573254
 30
0.0
 11
0.505964425626948
 21
-0.6196773353931984
 31
0.0
210
0.0
220
0.0
230
1.0
 40
0.816496580927726
 41
3.141592653589766
 42
3.92699081698724
  0
ELLIPSE
  5
5AB1
330
A
100
AcDbEntity
  8
0
  6
Continuous
 62
     7
370
     0
100
AcDbEllipse
 10
91.57388785153484
 20
-157.5980614849332
 30
0.0
 11
0.505964425626948
 21
-0.6196773353931845
 31
0.0
210
0.0
220
0.0
230
1.0
 40
0.816496580927726
 41
0.0
 42
0.7853981633974183
  0
ELLIPSE
  5
5AB2
330
A
100
AcDbEntity
  8
0
  6
Continuous
 62
     7
370
     0
100
AcDbEllipse
 10
91.93165872793469
 20
-157.3059427875971
 30
0.0
 11
-0.505964425626948
 21
0.6196773353931845
 31
0.0
210
0.0000000000000001
220
0.0000000000000001
230
1.0
 40
0.816496580927726
 41
3.141592653589766
 42
3.926990816987227
  0
LINE
  5
5AB3
330
A
100
AcDbEntity
  8
0
  6
Continuous
 62
     7
370
     0
100
AcDbLine
 10
67.45719565406033
 20
-100.1091018492182
 30
0.0
 11
67.45719565406033
 21
-158.5328413164359
 31
0.0
  0
LINE
  5
5AB4
330
A
100
AcDbEntity
  8
0
  6
Continuous
 62
     7
370
     0
100
AcDbLine
 10
94.27038155279724
 20
-158.2404710921457
 30
0.0
 11
94.27038155279724
 21
-99.81673162492803
 31
0.0
  0
LINE
  5
5AB5
330
A
100
AcDbEntity
  8
0
  6
Continuous
 62
     7
370
     0
100
AcDbLine
 10
62.48534403154043
 20
-91.14105784099354
 30
0.0
 11
62.48534403154043
 21
-149.5647973082112
 31
0.0
  0
LINE
  5
5AB6
330
A
100
AcDbEntity
  8
0
  6
Continuous
 62
     7
370
     0
100
AcDbLine
 10
73.98278875590246
 20
-93.33581058890462
 30
0.0
 11
73.98278875590246
 21
-82.27491325483944
 31
0.0
  0
LINE
  5
5AB7
330
A
100
AcDbEntity
  8
0
  6
Continuous
 62
     7
370
     0
100
AcDbLine
 10
72.82160872951774
 20
-97.38616989300352
 30
0.0
 11
72.46383785311782
 21
-97.67828859033963
 31
0.0
  0
LINE
  5
5AB8
330
A
100
AcDbEntity
  8
0
  6
Continuous
 62
     7
370
     0
100
AcDbLine
 10
92.07985227716156
 20
-158.2177388203261
 30
0.0
 11
92.43762315356155
 21
-157.92562012299
 31
0.0
  0
LINE
  5
5C9D
330
A
100
AcDbEntity
  8
0
  6
Continuous
 62
     7
370
     0
100
AcDbLine
 10
7.000000000000227
 20
-140.1500000000251
 30
0.0
 11
-6.999999999999801
 21
-140.1500000000251
 31
0.0
  0
LINE
  5
5C9E
330
A
100
AcDbEntity
  8
0
  6
Continuous
 62
     7
370
     0
100
AcDbLine
 10
7.000000000000227
 20
-135.1500000000251
 30
0.0
 11
-6.999999999999801
 21
-135.1500000000251
 31
0.0
  0
LINE
  5
5C9F
330
A
100
AcDbEntity
  8
0
  6
Continuous
 62
     9
370
     0
100
AcDbLine
 10
5.41284210967504
 20
-125.8000000000288
 30
0.0
 11
1.889703929340129
 21
-125.8000000000288
 31
0.0
  0
LINE
  5
5CA0
330
A
100
AcDbEntity
  8
0
  6
Continuous
 62
     7
370
     0
100
AcDbLine
 10
0.72420991689512
 20
-125.5500000000288
 30
0.0
 11
4.97982940778283
 21
-125.5500000000288
 31
0.0
  0
LINE
  5
5CA1
330
A
100
AcDbEntity
  8
0
  6
Continuous
 62
     7
370
     0
100
AcDbLine
 10
-15.0000000000026
 20
-144.350000000024
 30
0.0
 11
-15.0000000000026
 21
-142.6500000000238
 31
0.0
  0
LINE
  5
5CA2
330
A
100
AcDbEntity
  8
0
  6
Continuous
 62
     7
370
     0
100
AcDbLine
 10
12.00000000000243
 20
-147.3500000000246
 30
0.0
 11
-12.00000000000203
 21
-147.3500000000246
 31
0.0
  0
ARC
  5
5CA3
330
A
100
AcDbEntity
  8
0
  6
Continuous
 62
     7
370
     0
100
AcDbCircle
 10
-12.00000000000203
 20
-144.350000000024
 30
0.0
 40
3.000000000000001
100
AcDbArc
 50
180.0
 51
270.0
  0
ARC
  5
5CA4
330
A
100
AcDbEntity
  8
0
  6
Continuous
 62
     7
370
     0
100
AcDbCircle
 10
12.00000000000243
 20
-144.350000000024
 30
0.0
 40
3.000000000000001
100
AcDbArc
 50
270.0
 51
0.0
  0
LINE
  5
5CA5
330
A
100
AcDbEntity
  8
0
  6
Continuous
 62
     7
370
     0
100
AcDbLine
 10
15.00000000000304
 20
-142.6500000000238
 30
0.0
 11
-15.0000000000026
 21
-142.6500000000238
 31
0.0
  0
LINE
  5
5CA6
330
A
100
AcDbEntity
  8
0
  6
Continuous
 62
     7
370
     0
100
AcDbLine
 10
15.00000000000304
 20
-142.6500000000238
 30
0.0
 11
15.00000000000304
 21
-144.350000000024
 31
0.0
  0
ARC
  5
5CA7
330
A
100
AcDbEntity
  8
0
  6
Continuous
 62
     7
370
     0
100
AcDbCircle
 10
-32.70234234923589
 20
-93.65000000002854
 30
0.0
 40
1.000000000000001
100
AcDbArc
 50
19.63328609612061
 51
90.0
  0
ARC
  5
5CA8
330
A
100
AcDbEntity
  8
0
  6
Continuous
 62
     7
370
     0
100
AcDbCircle
 10
-125.9467211939151
 20
-126.9138815214314
 30
0.0
 40
100.0
100
AcDbArc
 50
5.612444546287605
 51
19.63328609612061
  0
ARC
  5
5CA9
330
A
100
AcDbEntity
  8
0
  6
Continuous
 62
     7
370
     0
100
AcDbCircle
 10
-19.45965975560645
 20
-116.4493821911302
 30
0.0
 40
7.000000000000017
100
AcDbArc
 50
185.6124445462876
 51
269.8896523024766
  0
ARC
  5
5CAA
330
A
100
AcDbEntity
  8
0
  6
Continuous
 62
     7
370
     0
100
AcDbCircle
 10
-19.66573420709586
 20
-223.4491837485184
 30
0.0
 40
100.0
100
AcDbArc
 50
70.11959701425017
 51
89.88965230247579
  0
ARC
  5
5CAB
330
A
100
AcDbEntity
  8
0
  6
Continuous
 62
     7
370
     0
100
AcDbCircle
 10
14.00000000000012
 20
-130.3491389563854
 30
0.0
 40
1.0
100
AcDbArc
 50
0.0
 51
70.11959701425017
  0
LINE
  5
5CAC
330
A
100
AcDbEntity
  8
0
  6
Continuous
 62
     7
370
     0
100
AcDbLine
 10
15.00000000000023
 20
-132.6500000000285
 30
0.0
 11
15.00000000000023
 21
-130.3491389563854
 31
0.0
  0
LINE
  5
5CAD
330
A
100
AcDbEntity
  8
0
  6
Continuous
 62
     7
370
     0
100
AcDbLine
 10
-12.9999999999998
 20
-132.6500000000285
 30
0.0
 11
15.00000000000023
 21
-132.6500000000285
 31
0.0
  0
ARC
  5
5CAE
330
A
100
AcDbEntity
  8
0
  6
Continuous
 62
     7
370
     0
100
AcDbCircle
 10
-13.9999999999998
 20
-132.6500000000285
 30
0.0
 40
1.0
100
AcDbArc
 50
0.0
 51
90.0
  0
LINE
  5
5CAF
330
A
100
AcDbEntity
  8
0
  6
Continuous
 62
     7
370
     0
100
AcDbLine
 10
-19.9999999999998
 20
-131.6500000000285
 30
0.0
 11
-13.9999999999998
 21
-131.6500000000285
 31
0.0
  0
ARC
  5
5CB0
330
A
100
AcDbEntity
  8
0
  6
Continuous
 62
     7
370
     0
100
AcDbCircle
 10
-19.99999999999978
 20
-117.6500000000285
 30
0.0
 40
14.0
100
AcDbArc
 50
180.0
 51
270.0
  0
ARC
  5
5CB1
330
A
100
AcDbEntity
  8
0
  6
Continuous
 62
     7
370
     0
100
AcDbCircle
 10
-34.99999999999977
 20
-117.6500000000285
 30
0.0
 40
1.0
100
AcDbArc
 50
0.0
 51
90.0
  0
LINE
  5
5CB2
330
A
100
AcDbEntity
  8
0
  6
Continuous
 62
     7
370
     0
100
AcDbLine
 10
-34.99999999999977
 20
-92.65000000002855
 30
0.0
 11
-34.99999999999977
 21
-116.6500000000285
 31
0.0
  0
LINE
  5
5CB3
330
A
100
AcDbEntity
  8
0
  6
Continuous
 62
     7
370
     0
100
AcDbLine
 10
-32.70234234923589
 20
-92.65000000002855
 30
0.0
 11
-34.99999999999977
 21
-92.65000000002855
 31
0.0
  0
LINE
  5
5CB4
330
A
100
AcDbEntity
  8
0
  6
Continuous
 62
     9
370
     0
100
AcDbLine
 10
-12.99999999999976
 20
-141.6500000000254
 30
0.0
 11
-12.99999999999976
 21
-142.650000000025
 31
0.0
  0
LINE
  5
5CB5
330
A
100
AcDbEntity
  8
0
  6
Continuous
 62
     7
370
     0
100
AcDbLine
 10
-13.99999999999976
 20
-142.650000000025
 30
0.0
 11
-13.99999999999976
 21
-141.6500000000254
 31
0.0
  0
LINE
  5
5CB6
330
A
100
AcDbEntity
  8
0
  6
Continuous
 62
     7
370
     0
100
AcDbLine
 10
-13.9999999999991
 20
-141.6500000000254
 30
0.0
 11
-12.99999999999976
 21
-141.6500000000254
 31
0.0
  0
LINE
  5
5CB7
330
A
100
AcDbEntity
  8
0
  6
Continuous
 62
     7
370
     0
100
AcDbLine
 10
-12.99999999999976
 20
-141.6500000000254
 30
0.0
 11
13.00000000000023
 21
-141.6500000000254
 31
0.0
  0
LINE
  5
5CB8
330
A
100
AcDbEntity
  8
0
  6
Continuous
 62
     9
370
     0
100
AcDbLine
 10
13.00000000000023
 20
-142.650000000025
 30
0.0
 11
13.00000000000023
 21
-141.6500000000254
 31
0.0
  0
LINE
  5
5CB9
330
A
100
AcDbEntity
  8
0
  6
Continuous
 62
     7
370
     0
100
AcDbLine
 10
14.00000000000023
 20
-141.6500000000254
 30
0.0
 11
14.00000000000023
 21
-142.650000000025
 31
0.0
  0
LINE
  5
5CBA
330
A
100
AcDbEntity
  8
0
  6
Continuous
 62
     7
370
     0
100
AcDbLine
 10
13.00000000000023
 20
-141.6500000000254
 30
0.0
 11
13.99999999999923
 21
-141.6500000000254
 31
0.0
  0
LINE
  5
5CBB
330
A
100
AcDbEntity
  8
0
  6
Continuous
 62
     9
370
     0
100
AcDbLine
 10
12.99999999999463
 20
-133.6500000000285
 30
0.0
 11
12.99999999999463
 21
-132.6500000000285
 31
0.0
  0
LINE
  5
5CBC
330
A
100
AcDbEntity
  8
0
  6
Continuous
 62
     7
370
     0
100
AcDbLine
 10
13.99999999999423
 20
-132.6500000000285
 30
0.0
 11
13.99999999999423
 21
-133.6500000000285
 31
0.0
  0
LINE
  5
5CBD
330
A
100
AcDbEntity
  8
0
  6
Continuous
 62
     7
370
     0
100
AcDbLine
 10
13.99999999999463
 20
-133.6500000000285
 30
0.0
 11
12.99999999999463
 21
-133.6500000000285
 31
0.0
  0
LINE
  5
5CBE
330
A
100
AcDbEntity
  8
0
  6
Continuous
 62
     7
370
     0
100
AcDbLine
 10
12.99999999999463
 20
-133.6500000000285
 30
0.0
 11
-12.99999999999417
 21
-133.6500000000285
 31
0.0
  0
LINE
  5
5CBF
330
A
100
AcDbEntity
  8
0
  6
Continuous
 62
     9
370
     0
100
AcDbLine
 10
-12.99999999999417
 20
-132.6500000000285
 30
0.0
 11
-12.99999999999417
 21
-133.6500000000285
 31
0.0
  0
LINE
  5
5CC0
330
A
100
AcDbEntity
  8
0
  6
Continuous
 62
     7
370
     0
100
AcDbLine
 10
-13.99999999999377
 20
-133.6500000000285
 30
0.0
 11
-13.99999999999377
 21
-132.6500000000285
 31
0.0
  0
LINE
  5
5CC1
330
A
100
AcDbEntity
  8
0
  6
Continuous
 62
     7
370
     0
100
AcDbLine
 10
-13.9999999999942
 20
-132.6500000000285
 30
0.0
 11
-12.99999999999417
 21
-132.6500000000285
 31
0.0
  0
LINE
  5
5CC2
330
A
100
AcDbEntity
  8
0
  6
Continuous
 62
     7
370
     0
100
AcDbLine
 10
-12.99999999999417
 20
-133.6500000000285
 30
0.0
 11
-13.9999999999942
 21
-133.6500000000285
 31
0.0
  0
LINE
  5
5CC3
330
A
100
AcDbEntity
  8
0
  6
Continuous
 62
     9
370
     0
100
AcDbLine
 10
2.500000000000227
 20
-135.1499999996078
 30
0.0
 11
2.500000000000227
 21
-133.6500000000285
 31
0.0
  0
LINE
  5
5CC4
330
A
100
AcDbEntity
  8
0
  6
Continuous
 62
     9
370
     0
100
AcDbLine
 10
-2.499999999999801
 20
-133.6500000000285
 30
0.0
 11
-2.499999999999801
 21
-135.1499999996078
 31
0.0
  0
LINE
  5
5CC5
330
A
100
AcDbEntity
  8
0
  6
Continuous
 62
     7
370
     0
100
AcDbLine
 10
7.000000000000227
 20
-140.1500000000251
 30
0.0
 11
7.000000000000227
 21
-135.1500000000251
 31
0.0
  0
LINE
  5
5CC6
330
A
100
AcDbEntity
  8
0
  6
Continuous
 62
     7
370
     0
100
AcDbLine
 10
-6.999999999999801
 20
-135.1500000000251
 30
0.0
 11
-6.999999999999801
 21
-140.1500000000251
 31
0.0
  0
LINE
  5
5CC7
330
A
100
AcDbEntity
  8
0
  6
Continuous
 62
     7
370
     0
100
AcDbLine
 10
5.987692520250433
 20
-126.7956701178972
 30
0.0
 11
5.41284210967504
 21
-125.8000000000288
 31
0.0
  0
ARC
  5
5CC8
330
A
100
AcDbEntity
  8
0
  6
Continuous
 62
     7
370
     0
100
AcDbCircle
 10
4.97982940778283
 20
-126.0500000000288
 30
0.0
 40
0.500000000000002
100
AcDbArc
 50
30.00000000000012
 51
90.0
  0
LINE
  5
5CC9
330
A
100
AcDbEntity
  8
0
  6
Continuous
 62
     7
370
     0
100
AcDbLine
 10
3.000000000000227
 20
-135.1499999996209
 30
0.0
 11
3.000000000000227
 21
-133.6500000000285
 31
0.0
  0
LINE
  5
5CCA
330
A
100
AcDbEntity
  8
0
  6
Continuous
 62
     7
370
     0
100
AcDbLine
 10
-2.999999999999801
 20
-133.6500000000285
 30
0.0
 11
-2.999999999999801
 21
-135.1499999996209
 31
0.0
  0
LINE
  5
5CCB
330
A
100
AcDbEntity
  8
0
  6
Continuous
 62
     7
370
     0
100
AcDbLine
 10
-4.900000000000673
 20
-140.1499999996701
 30
0.0
 11
-4.900000000000673
 21
-141.6500000000254
 31
0.0
  0
LINE
  5
5CCC
330
A
100
AcDbEntity
  8
0
  6
Continuous
 62
     7
370
     0
100
AcDbLine
 10
4.900000000001142
 20
-141.6500000000254
 30
0.0
 11
4.900000000001142
 21
-140.1499999996701
 31
0.0
  0
LINE
  5
5CCD
330
A
100
AcDbEntity
  8
0
  6
Continuous
 62
     7
370
     0
100
AcDbLine
 10
-117.6500000004461
 20
-56.99999999999991
 30
0.0
 11
-117.649999999997
 21
-49.99999999999991
 31
0.0
  0
LINE
  5
5CCE
330
A
100
AcDbEntity
  8
0
  6
Continuous
 62
     7
370
     0
100
AcDbLine
 10
-112.6500000004461
 20
-57.00000000032062
 30
0.0
 11
-112.649999999997
 21
-50.00000000032062
 31
0.0
  0
LINE
  5
5CCF
330
A
100
AcDbEntity
  8
0
  6
Continuous
 62
     7
370
     0
100
AcDbLine
 10
-117.649999999997
 20
-49.99999999999991
 30
0.0
 11
-117.649999999548
 21
-42.9999999999999
 31
0.0
  0
LINE
  5
5CD0
330
A
100
AcDbEntity
  8
0
  6
Continuous
 62
     7
370
     0
100
AcDbLine
 10
-112.649999999997
 20
-50.00000000032062
 30
0.0
 11
-112.649999999548
 21
-43.00000000032062
 31
0.0
  0
LINE
  5
5CD1
330
A
100
AcDbEntity
  8
0
  6
Continuous
 62
     7
370
     0
100
AcDbLine
 10
-117.6500000004438
 20
-6.999999999999853
 30
0.0
 11
-117.649999999997
 21
0.0000000000001465
 31
0.0
  0
LINE
  5
5CD2
330
A
100
AcDbEntity
  8
0
  6
Continuous
 62
     7
370
     0
100
AcDbLine
 10
-112.6500000004438
 20
-7.000000000318943
 30
0.0
 11
-112.649999999997
 21
-0.0000000003190008
 31
0.0
  0
LINE
  5
5CD3
330
A
100
AcDbEntity
  8
0
  6
Continuous
 62
     7
370
     0
100
AcDbLine
 10
-117.649999999997
 20
0.0000000000001465
 30
0.0
 11
-117.6499999995502
 21
7.000000000000146
 31
0.0
  0
LINE
  5
5CD4
330
A
100
AcDbEntity
  8
0
  6
Continuous
 62
     7
370
     0
100
AcDbLine
 10
-112.649999999997
 20
-0.0000000003190008
 30
0.0
 11
-112.6499999995502
 21
6.999999999680999
 31
0.0
  0
LINE
  5
5CD5
330
A
100
AcDbEntity
  8
0
  6
Continuous
 62
     9
370
     0
100
AcDbLine
 10
-103.3000000000013
 20
-55.41284210969072
 30
0.0
 11
-103.3000000000013
 21
-44.58715789034061
 31
0.0
  0
LINE
  5
5CD6
330
A
100
AcDbEntity
  8
0
  6
Continuous
 62
     7
370
     0
100
AcDbLine
 10
-103.0500000000013
 20
-45.02017059223285
 30
0.0
 11
-103.0500000000013
 21
-54.97982940779842
 31
0.0
  0
LINE
  5
5CD7
330
A
100
AcDbEntity
  8
0
  6
Continuous
 62
     9
370
     0
100
AcDbLine
 10
-103.3000000000007
 20
-5.412842109695726
 30
0.0
 11
-103.3000000000007
 21
5.41284210965441
 31
0.0
  0
LINE
  5
5CD8
330
A
100
AcDbEntity
  8
0
  6
Continuous
 62
     7
370
     0
100
AcDbLine
 10
-103.0500000000007
 20
4.979829407762143
 30
0.0
 11
-103.0500000000007
 21
-4.979829407803403
 31
0.0
  0
LINE
  5
5CD9
330
A
100
AcDbEntity
  8
0
  6
Continuous
 62
     7
370
     0
100
AcDbLine
 10
-120.1499999999957
 20
-65.00000000003234
 30
0.0
 11
-121.849999999996
 21
-65.00000000003234
 31
0.0
  0
LINE
  5
5CDA
330
A
100
AcDbEntity
  8
0
  6
Continuous
 62
     9
370
     0
100
AcDbLine
 10
-121.849999999996
 20
14.99999999996789
 30
0.0
 11
-121.849999999996
 21
-65.00000000003234
 31
0.0
  0
LINE
  5
5CDB
330
A
100
AcDbEntity
  8
0
  6
Continuous
 62
     7
370
     0
100
AcDbLine
 10
-120.1499999999957
 20
14.99999999996789
 30
0.0
 11
-121.849999999996
 21
14.99999999996789
 31
0.0
  0
LINE
  5
5CDC
330
A
100
AcDbEntity
  8
0
  6
Continuous
 62
     7
370
     0
100
AcDbLine
 10
-120.1499999999957
 20
14.99999999996789
 30
0.0
 11
-120.1499999999957
 21
-65.00000000003234
 31
0.0
  0
LINE
  5
5CDD
330
A
100
AcDbEntity
  8
0
  6
Continuous
 62
     7
370
     0
100
AcDbLine
 10
-124.8499999999966
 20
14.99999999996789
 30
0.0
 11
-124.8499999999966
 21
-65.00000000003234
 31
0.0
  0
LINE
  5
5CDE
330
A
100
AcDbEntity
  8
0
  6
Continuous
 62
     7
370
     0
100
AcDbLine
 10
-121.849999999996
 20
14.99999999996789
 30
0.0
 11
-124.849999999996
 21
14.99999999996789
 31
0.0
  0
LINE
  5
5CDF
330
A
100
AcDbEntity
  8
0
  6
Continuous
 62
     7
370
     0
100
AcDbLine
 10
-121.849999999996
 20
-65.00000000003234
 30
0.0
 11
-124.849999999996
 21
-65.00000000003234
 31
0.0
  0
LINE
  5
5CE0
330
A
100
AcDbEntity
  8
0
  6
Continuous
 62
     9
370
     0
100
AcDbLine
 10
-107.8491389563573
 20
14.99999999997937
 30
0.0
 11
-107.8491389563573
 21
-65.0000000000206
 31
0.0
  0
LINE
  5
5CE1
330
A
100
AcDbEntity
  8
0
  6
Continuous
 62
     7
370
     0
100
AcDbLine
 10
-107.8491389563573
 20
14.99999999997937
 30
0.0
 11
-106.9087344635075
 21
14.99999999997937
 31
0.0
  0
LINE
  5
5CE2
330
A
100
AcDbEntity
  8
0
  6
Continuous
 62
     9
370
     0
100
AcDbLine
 10
-106.9087344635075
 20
14.99999999997937
 30
0.0
 11
-106.9087344635075
 21
-65.0000000000206
 31
0.0
  0
LINE
  5
5CE3
330
A
100
AcDbEntity
  8
0
  6
Continuous
 62
     7
370
     0
100
AcDbLine
 10
-107.8491389563573
 20
-65.0000000000206
 30
0.0
 11
-106.9087344635075
 21
-65.0000000000206
 31
0.0
  0
LINE
  5
5CE4
330
A
100
AcDbEntity
  8
0
  6
Continuous
 62
     7
370
     0
100
AcDbLine
 10
-110.1500000000004
 20
-65.0000000000206
 30
0.0
 11
-107.8491389563573
 21
-65.0000000000206
 31
0.0
  0
LINE
  5
5CE5
330
A
100
AcDbEntity
  8
0
  6
Continuous
 62
     7
370
     0
100
AcDbLine
 10
-110.1500000000004
 20
14.99999999997937
 30
0.0
 11
-110.1500000000004
 21
-65.0000000000206
 31
0.0
  0
LINE
  5
5CE6
330
A
100
AcDbEntity
  8
0
  6
Continuous
 62
     7
370
     0
100
AcDbLine
 10
-110.1500000000004
 20
14.99999999997937
 30
0.0
 11
-107.8491389563573
 21
14.99999999997937
 31
0.0
  0
LINE
  5
5CE7
330
A
100
AcDbEntity
  8
0
  6
Continuous
 62
     9
370
     0
100
AcDbLine
 10
-100.9493692088752
 20
14.99999999997937
 30
0.0
 11
-100.9493692088752
 21
-65.0000000000206
 31
0.0
  0
LINE
  5
5D00
330
A
100
AcDbEntity
  8
0
  6
Continuous
 62
     7
370
     0
100
AcDbLine
 10
-106.9087344635075
 20
-65.0000000000206
 30
0.0
 11
-100.9493692088752
 21
-65.0000000000206
 31
0.0
  0
LINE
  5
5D01
330
A
100
AcDbEntity
  8
0
  6
Continuous
 62
     7
370
     0
100
AcDbLine
 10
-106.9087344635075
 20
14.99999999997937
 30
0.0
 11
-100.9493692088752
 21
14.99999999997937
 31
0.0
  0
LINE
  5
5D1A
330
A
100
AcDbEntity
  8
0
  6
Continuous
 62
     9
370
     0
100
AcDbLine
 10
-94.63397560523398
 20
14.99999999997937
 30
0.0
 11
-94.63397560523397
 21
-65.0000000000206
 31
0.0
  0
LINE
  5
5D1B
330
A
100
AcDbEntity
  8
0
  6
Continuous
 62
     7
370
     0
100
AcDbLine
 10
-94.63397560523397
 20
-65.0000000000206
 30
0.0
 11
-100.9493692088752
 21
-65.0000000000206
 31
0.0
  0
LINE
  5
5D1C
330
A
100
AcDbEntity
  8
0
  6
Continuous
 62
     7
370
     0
100
AcDbLine
 10
-94.63397560523398
 20
14.99999999997937
 30
0.0
 11
-100.9493692088752
 21
14.99999999997937
 31
0.0
  0
LINE
  5
5D1D
330
A
100
AcDbEntity
  8
0
  6
Continuous
 62
     9
370
     0
100
AcDbLine
 10
-70.8140011967539
 20
14.99999999997937
 30
0.0
 11
-70.81400119675389
 21
-65.0000000000206
 31
0.0
  0
CIRCLE
  5
5D1E
330
A
100
AcDbEntity
  8
0
  6
Continuous
 62
     7
370
     0
100
AcDbCircle
 10
-85.15080720104563
 20
-0.00002463694761
 30
0.0
 40
4.999975428230677
  0
CIRCLE
  5
5D1F
330
A
100
AcDbEntity
  8
0
  6
Continuous
 62
     7
370
     0
100
AcDbCircle
 10
-85.15080720104563
 20
-50.00002463694775
 30
0.0
 40
4.999975428230677
  0
LINE
  5
5D20
330
A
100
AcDbEntity
  8
0
  6
Continuous
 62
     7
370
     0
100
AcDbLine
 10
-94.63397560523397
 20
-65.0000000000206
 30
0.0
 11
-70.81400119675392
 21
-65.0000000000206
 31
0.0
  0
LINE
  5
5D21
330
A
100
AcDbEntity
  8
0
  6
Continuous
 62
     7
370
     0
100
AcDbLine
 10
-94.63397560523397
 20
14.99999999997937
 30
0.0
 11
-70.81400119675392
 21
14.99999999997937
 31
0.0
  0
CIRCLE
  5
5D22
330
A
100
AcDbEntity
  8
0
  6
Continuous
 62
     7
370
     0
100
AcDbCircle
 10
-85.15000000000041
 20
-0.0000000000206297
 30
0.0
 40
2.649999999999999
  0
CIRCLE
  5
5D23
330
A
100
AcDbEntity
  8
0
  6
Continuous
 62
     7
370
     0
100
AcDbCircle
 10
-85.15000000000041
 20
-50.00000000002074
 30
0.0
 40
2.649999999999999
  0
LINE
  5
5D24
330
A
100
AcDbEntity
  8
0
  6
Continuous
 62
     7
370
     0
100
AcDbLine
 10
-70.15000000000042
 20
14.99999999997937
 30
0.0
 11
-70.1500000000004
 21
-65.0000000000206
 31
0.0
  0
LINE
  5
5D25
330
A
100
AcDbEntity
  8
0
  6
Continuous
 62
     7
370
     0
100
AcDbLine
 10
-70.8140011967539
 20
-65.0000000000206
 30
0.0
 11
-70.1500000000004
 21
-65.0000000000206
 31
0.0
  0
LINE
  5
5D26
330
A
100
AcDbEntity
  8
0
  6
Continuous
 62
     7
370
     0
100
AcDbLine
 10
-70.81400119675392
 20
14.99999999997937
 30
0.0
 11
-70.15000000000042
 21
14.99999999997937
 31
0.0
  0
LINE
  5
5D27
330
A
100
AcDbEntity
  8
0
  6
Continuous
 62
     9
370
     0
100
AcDbLine
 10
-119.1499999999973
 20
12.99999999999017
 30
0.0
 11
-120.149999999997
 21
12.99999999999017
 31
0.0
  0
LINE
  5
5D28
330
A
100
AcDbEntity
  8
0
  6
Continuous
 62
     7
370
     0
100
AcDbLine
 10
-119.1499999999973
 20
12.99999999999017
 30
0.0
 11
-119.1499999999973
 21
-62.99999999999712
 31
0.0
  0
LINE
  5
5D29
330
A
100
AcDbEntity
  8
0
  6
Continuous
 62
     9
370
     0
100
AcDbLine
 10
-120.149999999997
 20
-62.99999999999712
 30
0.0
 11
-119.1499999999973
 21
-62.99999999999712
 31
0.0
  0
LINE
  5
5D2A
330
A
100
AcDbEntity
  8
0
  6
Continuous
 62
     7
370
     0
100
AcDbLine
 10
-120.149999999997
 20
13.99999999999008
 30
0.0
 11
-119.1499999999973
 21
13.99999999999008
 31
0.0
  0
LINE
  5
5D2B
330
A
100
AcDbEntity
  8
0
  6
Continuous
 62
     7
370
     0
100
AcDbLine
 10
-119.1499999999973
 20
13.99999999998954
 30
0.0
 11
-119.1499999999973
 21
12.99999999999017
 31
0.0
  0
LINE
  5
5D2C
330
A
100
AcDbEntity
  8
0
  6
Continuous
 62
     7
370
     0
100
AcDbLine
 10
-119.1499999999973
 20
-63.99999999999693
 30
0.0
 11
-120.149999999997
 21
-63.99999999999693
 31
0.0
  0
LINE
  5
5D2D
330
A
100
AcDbEntity
  8
0
  6
Continuous
 62
     7
370
     0
100
AcDbLine
 10
-119.1499999999973
 20
-62.99999999999712
 30
0.0
 11
-119.1499999999973
 21
-63.9999999999961
 31
0.0
  0
LINE
  5
5D2E
330
A
100
AcDbEntity
  8
0
  6
Continuous
 62
     7
370
     0
100
AcDbLine
 10
-110.1500000000004
 20
-63.99999999999323
 30
0.0
 11
-111.1500000000004
 21
-63.99999999999323
 31
0.0
  0
LINE
  5
5D2F
330
A
100
AcDbEntity
  8
0
  6
Continuous
 62
     7
370
     0
100
AcDbLine
 10
-111.1500000000004
 20
-63.99999999999374
 30
0.0
 11
-111.1500000000004
 21
-62.99999999999374
 31
0.0
  0
LINE
  5
5D30
330
A
100
AcDbEntity
  8
0
  6
Continuous
 62
     9
370
     0
100
AcDbLine
 10
-111.1500000000004
 20
-62.99999999999374
 30
0.0
 11
-110.1500000000004
 21
-62.99999999999374
 31
0.0
  0
LINE
  5
5D31
330
A
100
AcDbEntity
  8
0
  6
Continuous
 62
     7
370
     0
100
AcDbLine
 10
-111.1500000000004
 20
-62.99999999999374
 30
0.0
 11
-111.1500000000004
 21
12.99999999997377
 31
0.0
  0
LINE
  5
5D32
330
A
100
AcDbEntity
  8
0
  6
Continuous
 62
     9
370
     0
100
AcDbLine
 10
-110.1500000000004
 20
12.99999999997377
 30
0.0
 11
-111.1500000000004
 21
12.99999999997377
 31
0.0
  0
LINE
  5
5D33
330
A
100
AcDbEntity
  8
0
  6
Continuous
 62
     7
370
     0
100
AcDbLine
 10
-111.1500000000004
 20
13.99999999997337
 30
0.0
 11
-110.1500000000004
 21
13.99999999997337
 31
0.0
  0
LINE
  5
5D34
330
A
100
AcDbEntity
  8
0
  6
Continuous
 62
     7
370
     0
100
AcDbLine
 10
-111.1500000000004
 20
12.99999999997377
 30
0.0
 11
-111.1500000000004
 21
13.99999999997377
 31
0.0
  0
LINE
  5
5D35
330
A
100
AcDbEntity
  8
0
  6
Continuous
 62
     9
370
     0
100
AcDbLine
 10
-112.6500000001566
 20
-2.500000000020629
 30
0.0
 11
-111.1500000000004
 21
-2.500000000020629
 31
0.0
  0
LINE
  5
5D36
330
A
100
AcDbEntity
  8
0
  6
Continuous
 62
     9
370
     0
100
AcDbLine
 10
-111.1500000000004
 20
2.49999999997937
 30
0.0
 11
-112.6499999998374
 21
2.49999999997937
 31
0.0
  0
LINE
  5
5D37
330
A
100
AcDbEntity
  8
0
  6
Continuous
 62
     9
370
     0
100
AcDbLine
 10
-112.6500000001574
 20
-52.50000000002074
 30
0.0
 11
-111.1500000000004
 21
-52.50000000002074
 31
0.0
  0
LINE
  5
5D38
330
A
100
AcDbEntity
  8
0
  6
Continuous
 62
     9
370
     0
100
AcDbLine
 10
-111.1500000000004
 20
-47.50000000002073
 30
0.0
 11
-112.6499999998367
 21
-47.50000000002073
 31
0.0
  0
LINE
  5
5D39
330
A
100
AcDbEntity
  8
0
  6
Continuous
 62
     7
370
     0
100
AcDbLine
 10
-117.6500000004461
 20
-56.99999999999991
 30
0.0
 11
-112.6500000004461
 21
-57.00000000032062
 31
0.0
  0
LINE
  5
5D3A
330
A
100
AcDbEntity
  8
0
  6
Continuous
 62
     7
370
     0
100
AcDbLine
 10
-112.649999999548
 20
-43.00000000032062
 30
0.0
 11
-117.649999999548
 21
-42.99999999999985
 31
0.0
  0
LINE
  5
5D3B
330
A
100
AcDbEntity
  8
0
  6
Continuous
 62
     7
370
     0
100
AcDbLine
 10
-117.6500000004438
 20
-6.999999999999853
 30
0.0
 11
-112.6500000004438
 21
-7.000000000319
 31
0.0
  0
LINE
  5
5D3C
330
A
100
AcDbEntity
  8
0
  6
Continuous
 62
     7
370
     0
100
AcDbLine
 10
-112.6499999995502
 20
6.999999999680999
 30
0.0
 11
-117.6499999995502
 21
7.000000000000146
 31
0.0
  0
LINE
  5
5D3D
330
A
100
AcDbEntity
  8
0
  6
Continuous
 62
     7
370
     0
100
AcDbLine
 10
-103.5053670751986
 20
-55.53141084583852
 30
0.0
 11
-103.3000000000013
 21
-55.41284210969072
 31
0.0
  0
LINE
  5
5D3E
330
A
100
AcDbEntity
  8
0
  6
Continuous
 62
     7
370
     0
100
AcDbLine
 10
-103.3000000000013
 20
-44.58715789034061
 30
0.0
 11
-103.5050192398875
 21
-44.46878997700323
 31
0.0
  0
ARC
  5
5D3F
330
A
100
AcDbEntity
  8
0
  6
Continuous
 62
     7
370
     0
100
AcDbCircle
 10
-103.5500000000013
 20
-45.02017059223285
 30
0.0
 40
0.5000000000000006
100
AcDbArc
 50
0.0
 51
60.00000000000028
  0
ARC
  5
5D40
330
A
100
AcDbEntity
  8
0
  6
Continuous
 62
     7
370
     0
100
AcDbCircle
 10
-103.5500000000013
 20
-54.97982940779842
 30
0.0
 40
0.500000000000002
100
AcDbArc
 50
299.9999999999997
 51
0.0
  0
LINE
  5
5D41
330
A
100
AcDbEntity
  8
0
  6
Continuous
 62
     7
370
     0
100
AcDbLine
 10
-103.5053670751966
 20
-5.531410845842738
 30
0.0
 11
-103.3000000000007
 21
-5.412842109695726
 31
0.0
  0
LINE
  5
5D42
330
A
100
AcDbEntity
  8
0
  6
Continuous
 62
     7
370
     0
100
AcDbLine
 10
-103.3000000000007
 20
5.41284210965441
 30
0.0
 11
-103.5050192398892
 21
5.531210022993069
 31
0.0
  0
ARC
  5
5D43
330
A
100
AcDbEntity
  8
0
  6
Continuous
 62
     7
370
     0
100
AcDbCircle
 10
-103.5500000000007
 20
4.979829407762143
 30
0.0
 40
0.5000000000000006
100
AcDbArc
 50
0.0
 51
60.00000000000028
  0
ARC
  5
5D44
330
A
100
AcDbEntity
  8
0
  6
Continuous
 62
     7
370
     0
100
AcDbCircle
 10
-103.5500000000007
 20
-4.979829407803403
 30
0.0
 40
0.500000000000002
100
AcDbArc
 50
299.9999999999997
 51
0.0
  0
LINE
  5
5D45
330
A
100
AcDbEntity
  8
0
  6
Continuous
 62
     7
370
     0
100
AcDbLine
 10
-112.6500000001879
 20
-3.000000000020743
 30
0.0
 11
-111.1500000000004
 21
-3.000000000020743
 31
0.0
  0
LINE
  5
5D46
330
A
100
AcDbEntity
  8
0
  6
Continuous
 62
     7
370
     0
100
AcDbLine
 10
-111.1500000000004
 20
2.999999999979483
 30
0.0
 11
-112.649999999805
 21
2.999999999979483
 31
0.0
  0
LINE
  5
5D47
330
A
100
AcDbEntity
  8
0
  6
Continuous
 62
     7
370
     0
100
AcDbLine
 10
-112.6500000001895
 20
-53.00000000002082
 30
0.0
 11
-111.1500000000004
 21
-53.00000000002082
 31
0.0
  0
LINE
  5
5D48
330
A
100
AcDbEntity
  8
0
  6
Continuous
 62
     7
370
     0
100
AcDbLine
 10
-111.1500000000004
 20
-47.00000000002074
 30
0.0
 11
-112.6499999998046
 21
-47.00000000002074
 31
0.0
  0
LINE
  5
5D49
330
A
100
AcDbEntity
  8
0
  6
Continuous
 62
     7
370
     0
100
AcDbLine
 10
-117.6499999996483
 20
4.899999999967893
 30
0.0
 11
-119.1499999999973
 21
4.899999999967893
 31
0.0
  0
LINE
  5
5D4A
330
A
100
AcDbEntity
  8
0
  6
Continuous
 62
     7
370
     0
100
AcDbLine
 10
-119.1499999999973
 20
-4.900000000032117
 30
0.0
 11
-117.6500000002738
 21
-4.900000000032117
 31
0.0
  0
LINE
  5
5D4B
330
A
100
AcDbEntity
  8
0
  6
Continuous
 62
     7
370
     0
100
AcDbLine
 10
-117.6499999996468
 20
-45.1000000000321
 30
0.0
 11
-119.1499999999973
 21
-45.1000000000321
 31
0.0
  0
LINE
  5
5D4C
330
A
100
AcDbEntity
  8
0
  6
Continuous
 62
     7
370
     0
100
AcDbLine
 10
-119.1499999999973
 20
-54.90000000003223
 30
0.0
 11
-117.6500000002754
 21
-54.90000000003223
 31
0.0
  0
LINE
  5
5D4D
330
A
100
AcDbEntity
  8
0
  6
Continuous
 62
     7
370
     0
100
AcDbLine
 10
95.14999999955124
 20
-42.99999999999985
 30
0.0
 11
95.15000000044933
 21
-56.99999999999991
 31
0.0
  0
LINE
  5
5D4E
330
A
100
AcDbEntity
  8
0
  6
Continuous
 62
     7
370
     0
100
AcDbLine
 10
90.14999999955129
 20
-43.00000000032062
 30
0.0
 11
90.15000000044933
 21
-57.00000000032062
 31
0.0
  0
LINE
  5
5D4F
330
A
100
AcDbEntity
  8
0
  6
Continuous
 62
     7
370
     0
100
AcDbLine
 10
95.14999999955351
 20
7.000000000000146
 30
0.0
 11
95.15000000044704
 21
-6.999999999999853
 31
0.0
  0
LINE
  5
5D50
330
A
100
AcDbEntity
  8
0
  6
Continuous
 62
     7
370
     0
100
AcDbLine
 10
90.14999999955346
 20
6.999999999680999
 30
0.0
 11
90.15000000044715
 21
-7.000000000319
 31
0.0
  0
LINE
  5
5D51
330
A
100
AcDbEntity
  8
0
  6
Continuous
 62
     9
370
     0
100
AcDbLine
 10
99.34999999999924
 20
14.99999999996789
 30
0.0
 11
99.34999999999924
 21
-65.00000000003234
 31
0.0
  0
LINE
  5
5D52
330
A
100
AcDbEntity
  8
0
  6
Continuous
 62
     7
370
     0
100
AcDbLine
 10
102.3499999999992
 20
14.99999999996789
 30
0.0
 11
99.34999999999924
 21
14.99999999996789
 31
0.0
  0
LINE
  5
5D53
330
A
100
AcDbEntity
  8
0
  6
Continuous
 62
     7
370
     0
100
AcDbLine
 10
102.3499999999998
 20
14.99999999996789
 30
0.0
 11
102.3499999999998
 21
-65.00000000003234
 31
0.0
  0
LINE
  5
5D54
330
A
100
AcDbEntity
  8
0
  6
Continuous
 62
     7
370
     0
100
AcDbLine
 10
102.3499999999992
 20
-65.00000000003234
 30
0.0
 11
99.34999999999924
 21
-65.00000000003234
 31
0.0
  0
LINE
  5
5D55
330
A
100
AcDbEntity
  8
0
  6
Continuous
 62
     7
370
     0
100
AcDbLine
 10
99.34999999999924
 20
14.99999999996789
 30
0.0
 11
97.64999999999897
 21
14.99999999996789
 31
0.0
  0
LINE
  5
5D56
330
A
100
AcDbEntity
  8
0
  6
Continuous
 62
     7
370
     0
100
AcDbLine
 10
99.34999999999924
 20
-65.00000000003234
 30
0.0
 11
97.64999999999897
 21
-65.00000000003234
 31
0.0
  0
LINE
  5
5D57
330
A
100
AcDbEntity
  8
0
  6
Continuous
 62
     7
370
     0
100
AcDbLine
 10
97.64999999999897
 20
-65.00000000003234
 30
0.0
 11
97.64999999999897
 21
14.99999999996789
 31
0.0
  0
LINE
  5
5D58
330
A
100
AcDbEntity
  8
0
  6
Continuous
 62
     7
370
     0
100
AcDbLine
 10
71.65000000000363
 20
14.99999999997937
 30
0.0
 11
71.65000000000363
 21
-65.0000000000206
 31
0.0
  0
LINE
  5
5D59
330
A
100
AcDbEntity
  8
0
  6
Continuous
 62
     9
370
     0
100
AcDbLine
 10
72.65000000000362
 20
14.99999999997937
 30
0.0
 11
72.65000000000362
 21
-65.0000000000206
 31
0.0
  0
LINE
  5
5D5A
330
A
100
AcDbEntity
  8
0
  6
Continuous
 62
     7
370
     0
100
AcDbLine
 10
72.65000000000362
 20
-65.0000000000206
 30
0.0
 11
71.65000000000363
 21
-65.0000000000206
 31
0.0
  0
LINE
  5
5D5B
330
A
100
AcDbEntity
  8
0
  6
Continuous
 62
     7
370
     0
100
AcDbLine
 10
72.65000000000362
 20
14.99999999997937
 30
0.0
 11
71.65000000000363
 21
14.99999999997937
 31
0.0
  0
CIRCLE
  5
5D5C
330
A
100
AcDbEntity
  8
0
  6
Continuous
 62
     7
370
     0
100
AcDbCircle
 10
62.65000000000362
 20
-0.0000000000206297
 30
0.0
 40
2.649999999999983
  0
CIRCLE
  5
5D5D
330
A
100
AcDbEntity
  8
0
  6
Continuous
 62
     7
370
     0
100
AcDbCircle
 10
62.65000000000362
 20
-50.00000000002074
 30
0.0
 40
2.649999999999983
  0
LINE
  5
5D5E
330
A
100
AcDbEntity
  8
0
  6
Continuous
 62
     7
370
     0
100
AcDbLine
 10
47.65000000000362
 20
14.99999999997937
 30
0.0
 11
47.65000000000362
 21
-65.0000000000206
 31
0.0
  0
LINE
  5
5D5F
330
A
100
AcDbEntity
  8
0
  6
Continuous
 62
     7
370
     0
100
AcDbLine
 10
47.65000000000362
 20
-65.0000000000206
 30
0.0
 11
71.65000000000363
 21
-65.0000000000206
 31
0.0
  0
LINE
  5
5D60
330
A
100
AcDbEntity
  8
0
  6
Continuous
 62
     7
370
     0
100
AcDbLine
 10
47.65000000000362
 20
14.99999999997937
 30
0.0
 11
71.65000000000363
 21
14.99999999997937
 31
0.0
  0
LINE
  5
5D61
330
A
100
AcDbEntity
  8
0
  6
Continuous
 62
     7
370
     0
100
AcDbLine
 10
86.65000000000363
 20
14.99999999997937
 30
0.0
 11
86.65000000000363
 21
-65.0000000000206
 31
0.0
  0
LINE
  5
5D62
330
A
100
AcDbEntity
  8
0
  6
Continuous
 62
     7
370
     0
100
AcDbLine
 10
72.65000000000362
 20
-65.0000000000206
 30
0.0
 11
86.65000000000363
 21
-65.0000000000206
 31
0.0
  0
LINE
  5
5D63
330
A
100
AcDbEntity
  8
0
  6
Continuous
 62
     7
370
     0
100
AcDbLine
 10
72.65000000000362
 20
14.99999999997937
 30
0.0
 11
86.65000000000363
 21
14.99999999997937
 31
0.0
  0
LINE
  5
5D64
330
A
100
AcDbEntity
  8
0
  6
Continuous
 62
     7
370
     0
100
AcDbLine
 10
87.65000000000362
 20
14.99999999997937
 30
0.0
 11
87.65000000000362
 21
13.99999999997337
 31
0.0
  0
LINE
  5
5D65
330
A
100
AcDbEntity
  8
0
  6
Continuous
 62
     7
370
     0
100
AcDbLine
 10
87.65000000000362
 20
13.99999999997337
 30
0.0
 11
87.65000000000362
 21
12.99999999997377
 31
0.0
  0
LINE
  5
5D66
330
A
100
AcDbEntity
  8
0
  6
Continuous
 62
     7
370
     0
100
AcDbLine
 10
87.65000000000362
 20
-62.99999999999374
 30
0.0
 11
87.65000000000362
 21
-63.99999999999374
 31
0.0
  0
LINE
  5
5D67
330
A
100
AcDbEntity
  8
0
  6
Continuous
 62
     7
370
     0
100
AcDbLine
 10
87.65000000000362
 20
-63.99999999999374
 30
0.0
 11
87.65000000000362
 21
-65.0000000000206
 31
0.0
  0
LINE
  5
5D68
330
A
100
AcDbEntity
  8
0
  6
Continuous
 62
     7
370
     0
100
AcDbLine
 10
87.65000000000362
 20
-65.0000000000206
 30
0.0
 11
86.65000000000363
 21
-65.0000000000206
 31
0.0
  0
LINE
  5
5D69
330
A
100
AcDbEntity
  8
0
  6
Continuous
 62
     7
370
     0
100
AcDbLine
 10
87.65000000000362
 20
14.99999999997937
 30
0.0
 11
86.65000000000363
 21
14.99999999997937
 31
0.0
  0
LINE
  5
5D6A
330
A
100
AcDbEntity
  8
0
  6
Continuous
 62
     9
370
     0
100
AcDbLine
 10
96.65000000000054
 20
-62.99999999999712
 30
0.0
 11
97.65000000000021
 21
-62.99999999999712
 31
0.0
  0
LINE
  5
5D6B
330
A
100
AcDbEntity
  8
0
  6
Continuous
 62
     7
370
     0
100
AcDbLine
 10
97.65000000000021
 20
-63.99999999999693
 30
0.0
 11
96.65000000000054
 21
-63.99999999999693
 31
0.0
  0
LINE
  5
5D6C
330
A
100
AcDbEntity
  8
0
  6
Continuous
 62
     7
370
     0
100
AcDbLine
 10
96.65000000000054
 20
-63.99999999999641
 30
0.0
 11
96.65000000000054
 21
-62.99999999999712
 31
0.0
  0
LINE
  5
5D6D
330
A
100
AcDbEntity
  8
0
  6
Continuous
 62
     9
370
     0
100
AcDbLine
 10
97.65000000000021
 20
12.99999999999025
 30
0.0
 11
96.65000000000054
 21
12.99999999999025
 31
0.0
  0
LINE
  5
5D6E
330
A
100
AcDbEntity
  8
0
  6
Continuous
 62
     7
370
     0
100
AcDbLine
 10
96.65000000000054
 20
-62.99999999999712
 30
0.0
 11
96.65000000000054
 21
12.99999999999025
 31
0.0
  0
LINE
  5
5D6F
330
A
100
AcDbEntity
  8
0
  6
Continuous
 62
     7
370
     0
100
AcDbLine
 10
96.65000000000054
 20
13.99999999999008
 30
0.0
 11
97.65000000000021
 21
13.99999999999008
 31
0.0
  0
LINE
  5
5D70
330
A
100
AcDbEntity
  8
0
  6
Continuous
 62
     7
370
     0
100
AcDbLine
 10
96.65000000000054
 20
12.99999999999025
 30
0.0
 11
96.65000000000054
 21
13.99999999998926
 31
0.0
  0
LINE
  5
5D71
330
A
100
AcDbEntity
  8
0
  6
Continuous
 62
     7
370
     0
100
AcDbLine
 10
88.65000000000362
 20
-63.99999999999323
 30
0.0
 11
87.65000000000362
 21
-63.99999999999323
 31
0.0
  0
LINE
  5
5D72
330
A
100
AcDbEntity
  8
0
  6
Continuous
 62
     7
370
     0
100
AcDbLine
 10
87.65000000000362
 20
-63.99999999999374
 30
0.0
 11
87.65000000000362
 21
-62.99999999999374
 31
0.0
  0
LINE
  5
5D73
330
A
100
AcDbEntity
  8
0
  6
Continuous
 62
     7
370
     0
100
AcDbLine
 10
88.65000000000362
 20
-62.99999999999374
 30
0.0
 11
88.65000000000362
 21
-63.99999999999374
 31
0.0
  0
LINE
  5
5D74
330
A
100
AcDbEntity
  8
0
  6
Continuous
 62
     9
370
     0
100
AcDbLine
 10
88.65000000000362
 20
12.99999999997377
 30
0.0
 11
87.65000000000362
 21
12.99999999997377
 31
0.0
  0
LINE
  5
5D75
330
A
100
AcDbEntity
  8
0
  6
Continuous
 62
     7
370
     0
100
AcDbLine
 10
87.65000000000362
 20
12.99999999997377
 30
0.0
 11
87.65000000000362
 21
13.99999999997377
 31
0.0
  0
LINE
  5
5D76
330
A
100
AcDbEntity
  8
0
  6
Continuous
 62
     7
370
     0
100
AcDbLine
 10
87.65000000000362
 20
13.99999999997337
 30
0.0
 11
88.65000000000362
 21
13.99999999997337
 31
0.0
  0
LINE
  5
5D77
330
A
100
AcDbEntity
  8
0
  6
Continuous
 62
     7
370
     0
100
AcDbLine
 10
88.65000000000362
 20
13.99999999997377
 30
0.0
 11
88.65000000000362
 21
12.99999999997377
 31
0.0
  0
LINE
  5
5D78
330
A
100
AcDbEntity
  8
0
  6
Continuous
 62
     9
370
     0
100
AcDbLine
 10
87.65000000000362
 20
-62.99999999999374
 30
0.0
 11
88.65000000000362
 21
-62.99999999999374
 31
0.0
  0
LINE
  5
5D79
330
A
100
AcDbEntity
  8
0
  6
Continuous
 62
     7
370
     0
100
AcDbLine
 10
87.65000000000362
 20
12.99999999997377
 30
0.0
 11
87.65000000000362
 21
-62.99999999999374
 31
0.0
  0
LINE
  5
5D7A
330
A
100
AcDbEntity
  8
0
  6
Continuous
 62
     7
370
     0
100
AcDbLine
 10
88.65000000000362
 20
12.99999999997377
 30
0.0
 11
88.65000000000362
 21
-62.99999999999374
 31
0.0
  0
LINE
  5
5D7B
330
A
100
AcDbEntity
  8
0
  6
Continuous
 62
     9
370
     0
100
AcDbLine
 10
90.14999999984071
 20
2.49999999997937
 30
0.0
 11
88.65000000000362
 21
2.49999999997937
 31
0.0
  0
LINE
  5
5D7C
330
A
100
AcDbEntity
  8
0
  6
Continuous
 62
     9
370
     0
100
AcDbLine
 10
88.65000000000362
 20
-2.500000000020629
 30
0.0
 11
90.15000000015984
 21
-2.500000000020629
 31
0.0
  0
LINE
  5
5D7D
330
A
100
AcDbEntity
  8
0
  6
Continuous
 62
     9
370
     0
100
AcDbLine
 10
90.14999999983992
 20
-47.50000000002073
 30
0.0
 11
88.65000000000362
 21
-47.50000000002073
 31
0.0
  0
LINE
  5
5D7E
330
A
100
AcDbEntity
  8
0
  6
Continuous
 62
     9
370
     0
100
AcDbLine
 10
88.65000000000362
 20
-52.50000000002074
 30
0.0
 11
90.15000000016064
 21
-52.50000000002074
 31
0.0
  0
LINE
  5
5D7F
330
A
100
AcDbEntity
  8
0
  6
Continuous
 62
     7
370
     0
100
AcDbLine
 10
95.14999999955124
 20
-42.99999999999985
 30
0.0
 11
90.14999999955129
 21
-43.00000000032062
 31
0.0
  0
LINE
  5
5D80
330
A
100
AcDbEntity
  8
0
  6
Continuous
 62
     7
370
     0
100
AcDbLine
 10
90.15000000044933
 20
-57.00000000032062
 30
0.0
 11
95.15000000044933
 21
-56.99999999999991
 31
0.0
  0
LINE
  5
5D81
330
A
100
AcDbEntity
  8
0
  6
Continuous
 62
     7
370
     0
100
AcDbLine
 10
95.14999999955351
 20
7.000000000000146
 30
0.0
 11
90.14999999955346
 21
6.999999999680999
 31
0.0
  0
LINE
  5
5D82
330
A
100
AcDbEntity
  8
0
  6
Continuous
 62
     7
370
     0
100
AcDbLine
 10
90.15000000044704
 20
-7.000000000319
 30
0.0
 11
95.15000000044704
 21
-6.999999999999853
 31
0.0
  0
LINE
  5
5D83
330
A
100
AcDbEntity
  8
0
  6
Continuous
 62
     7
370
     0
100
AcDbLine
 10
90.14999999980823
 20
2.999999999979483
 30
0.0
 11
88.65000000000362
 21
2.999999999979483
 31
0.0
  0
LINE
  5
5D84
330
A
100
AcDbEntity
  8
0
  6
Continuous
 62
     7
370
     0
100
AcDbLine
 10
88.65000000000362
 20
-3.000000000020743
 30
0.0
 11
90.15000000019115
 21
-3.000000000020743
 31
0.0
  0
LINE
  5
5D85
330
A
100
AcDbEntity
  8
0
  6
Continuous
 62
     7
370
     0
100
AcDbLine
 10
90.14999999980798
 20
-47.00000000002074
 30
0.0
 11
88.65000000000362
 21
-47.00000000002074
 31
0.0
  0
LINE
  5
5D86
330
A
100
AcDbEntity
  8
0
  6
Continuous
 62
     7
370
     0
100
AcDbLine
 10
88.65000000000362
 20
-53.00000000002082
 30
0.0
 11
90.15000000019272
 21
-53.00000000002082
 31
0.0
  0
LINE
  5
5D87
330
A
100
AcDbEntity
  8
0
  6
Continuous
 62
     7
370
     0
100
AcDbLine
 10
95.1500000002786
 20
-54.90000000003223
 30
0.0
 11
96.65000000000054
 21
-54.90000000003223
 31
0.0
  0
LINE
  5
5D88
330
A
100
AcDbEntity
  8
0
  6
Continuous
 62
     7
370
     0
100
AcDbLine
 10
96.65000000000054
 20
-45.1000000000321
 30
0.0
 11
95.14999999965004
 21
-45.1000000000321
 31
0.0
  0
LINE
  5
5D89
330
A
100
AcDbEntity
  8
0
  6
Continuous
 62
     7
370
     0
100
AcDbLine
 10
95.15000000027704
 20
-4.900000000032117
 30
0.0
 11
96.65000000000054
 21
-4.900000000032117
 31
0.0
  0
LINE
  5
5D8A
330
A
100
AcDbEntity
  8
0
  6
Continuous
 62
     7
370
     0
100
AcDbLine
 10
96.65000000000054
 20
4.899999999967893
 30
0.0
 11
95.14999999965157
 21
4.899999999967893
 31
0.0
  0
LINE
  5
5D8B
330
A
100
AcDbEntity
  8
0
  6
Continuous
 62
     7
370
     0
100
AcDbLine
 10
-6.999999999999801
 20
90.14999999997229
 30
0.0
 11
7.000000000000127
 21
90.14999999997229
 31
0.0
  0
LINE
  5
5D8C
330
A
100
AcDbEntity
  8
0
  6
Continuous
 62
     7
370
     0
100
AcDbLine
 10
-6.999999999999801
 20
85.14999999997229
 30
0.0
 11
7.000000000000127
 21
85.14999999997229
 31
0.0
  0
LINE
  5
5D8D
330
A
100
AcDbEntity
  8
0
  6
Continuous
 62
     9
370
     0
100
AcDbLine
 10
1.889703929342815
 20
75.79999999997642
 30
0.0
 11
5.412842109675224
 21
75.79999999997642
 31
0.0
  0
LINE
  5
5D8E
330
A
100
AcDbEntity
  8
0
  6
Continuous
 62
     7
370
     0
100
AcDbLine
 10
4.979829407783043
 20
75.54999999997642
 30
0.0
 11
0.724209916898019
 21
75.54999999997642
 31
0.0
  0
ARC
  5
5D8F
330
A
100
AcDbEntity
  8
0
  6
Continuous
 62
     7
370
     0
100
AcDbCircle
 10
12.00000000000243
 20
94.34999999997121
 30
0.0
 40
3.000000000000001
100
AcDbArc
 50
0.0
 51
90.0
  0
ARC
  5
5D90
330
A
100
AcDbEntity
  8
0
  6
Continuous
 62
     7
370
     0
100
AcDbCircle
 10
-12.00000000000203
 20
94.34999999997121
 30
0.0
 40
3.000000000000001
100
AcDbArc
 50
90.0
 51
180.0
  0
LINE
  5
5D91
330
A
100
AcDbEntity
  8
0
  6
Continuous
 62
     7
370
     0
100
AcDbLine
 10
12.00000000000243
 20
97.34999999997171
 30
0.0
 11
-12.00000000000203
 21
97.34999999997171
 31
0.0
  0
LINE
  5
5D92
330
A
100
AcDbEntity
  8
0
  6
Continuous
 62
     7
370
     0
100
AcDbLine
 10
15.00000000000304
 20
92.64999999997087
 30
0.0
 11
-15.00000000000261
 21
92.64999999997087
 31
0.0
  0
LINE
  5
5D93
330
A
100
AcDbEntity
  8
0
  6
Continuous
 62
     7
370
     0
100
AcDbLine
 10
15.00000000000304
 20
92.64999999997087
 30
0.0
 11
15.00000000000304
 21
94.34999999997121
 31
0.0
  0
LINE
  5
5D94
330
A
100
AcDbEntity
  8
0
  6
Continuous
 62
     7
370
     0
100
AcDbLine
 10
-15.00000000000261
 20
94.34999999997121
 30
0.0
 11
-15.00000000000261
 21
92.64999999997087
 31
0.0
  0
ARC
  5
5D95
330
A
100
AcDbEntity
  8
0
  6
Continuous
 62
     7
370
     0
100
AcDbCircle
 10
-34.99999999999977
 20
67.64999999997553
 30
0.0
 40
1.0
100
AcDbArc
 50
270.0
 51
0.0
  0
ARC
  5
5D96
330
A
100
AcDbEntity
  8
0
  6
Continuous
 62
     7
370
     0
100
AcDbCircle
 10
-19.99999999999978
 20
67.64999999997553
 30
0.0
 40
14.0
100
AcDbArc
 50
90.0
 51
180.0
  0
LINE
  5
5D97
330
A
100
AcDbEntity
  8
0
  6
Continuous
 62
     7
370
     0
100
AcDbLine
 10
-19.9999999999998
 20
81.64999999997553
 30
0.0
 11
-13.9999999999998
 21
81.64999999997553
 31
0.0
  0
ARC
  5
5D98
330
A
100
AcDbEntity
  8
0
  6
Continuous
 62
     7
370
     0
100
AcDbCircle
 10
-13.9999999999998
 20
82.64999999997542
 30
0.0
 40
1.0
100
AcDbArc
 50
270.0
 51
0.0
  0
LINE
  5
5D99
330
A
100
AcDbEntity
  8
0
  6
Continuous
 62
     7
370
     0
100
AcDbLine
 10
15.00000000000023
 20
82.64999999997542
 30
0.0
 11
15.00000000000023
 21
80.34913895633257
 31
0.0
  0
ARC
  5
5D9A
330
A
100
AcDbEntity
  8
0
  6
Continuous
 62
     7
370
     0
100
AcDbCircle
 10
14.00000000000012
 20
80.34913895633257
 30
0.0
 40
1.0
100
AcDbArc
 50
289.8804029857497
 51
0.0
  0
ARC
  5
5D9B
330
A
100
AcDbEntity
  8
0
  6
Continuous
 62
     7
370
     0
100
AcDbCircle
 10
-19.66573420709586
 20
173.4491837484654
 30
0.0
 40
100.0
100
AcDbArc
 50
270.1103476975242
 51
289.8804029857497
  0
ARC
  5
5D9C
330
A
100
AcDbEntity
  8
0
  6
Continuous
 62
     7
370
     0
100
AcDbCircle
 10
-19.45965975560645
 20
66.44938219107729
 30
0.0
 40
7.000000000000045
100
AcDbArc
 50
90.11034769752338
 51
174.3875554537124
  0
ARC
  5
5D9D
330
A
100
AcDbEntity
  8
0
  6
Continuous
 62
     7
370
     0
100
AcDbCircle
 10
-125.9467211939151
 20
76.91388152137858
 30
0.0
 40
100.0
100
AcDbArc
 50
340.3667139038794
 51
354.3875554537124
  0
LINE
  5
5D9E
330
A
100
AcDbEntity
  8
0
  6
Continuous
 62
     7
370
     0
100
AcDbLine
 10
-32.70234234923589
 20
42.64999999997554
 30
0.0
 11
-34.99999999999977
 21
42.64999999997554
 31
0.0
  0
ARC
  5
5D9F
330
A
100
AcDbEntity
  8
0
  6
Continuous
 62
     7
370
     0
100
AcDbCircle
 10
-32.70234234923589
 20
43.64999999997554
 30
0.0
 40
0.9999999999999811
100
AcDbArc
 50
270.0000000000008
 51
340.3667139038809
  0
LINE
  5
5DA0
330
A
100
AcDbEntity
  8
0
  6
Continuous
 62
     7
370
     0
100
AcDbLine
 10
-34.99999999999977
 20
42.64999999997554
 30
0.0
 11
-34.99999999999977
 21
66.64999999997553
 31
0.0
  0
LINE
  5
5DA1
330
A
100
AcDbEntity
  8
0
  6
Continuous
 62
     7
370
     0
100
AcDbLine
 10
-12.9999999999998
 20
82.64999999997542
 30
0.0
 11
15.00000000000023
 21
82.64999999997542
 31
0.0
  0
LINE
  5
5DA2
330
A
100
AcDbEntity
  8
0
  6
Continuous
 62
     9
370
     0
100
AcDbLine
 10
13.00000000000013
 20
91.64999999997258
 30
0.0
 11
13.00000000000013
 21
92.64999999997218
 31
0.0
  0
LINE
  5
5DA3
330
A
100
AcDbEntity
  8
0
  6
Continuous
 62
     7
370
     0
100
AcDbLine
 10
14.00000000000012
 20
92.64999999997218
 30
0.0
 11
14.00000000000012
 21
91.64999999997258
 31
0.0
  0
LINE
  5
5DA4
330
A
100
AcDbEntity
  8
0
  6
Continuous
 62
     7
370
     0
100
AcDbLine
 10
13.99999999999953
 20
91.64999999997258
 30
0.0
 11
13.00000000000013
 21
91.64999999997258
 31
0.0
  0
LINE
  5
5DA5
330
A
100
AcDbEntity
  8
0
  6
Continuous
 62
     7
370
     0
100
AcDbLine
 10
-13.99999999999976
 20
91.64999999997258
 30
0.0
 11
-13.99999999999976
 21
92.64999999997218
 31
0.0
  0
LINE
  5
5DA6
330
A
100
AcDbEntity
  8
0
  6
Continuous
 62
     9
370
     0
100
AcDbLine
 10
-12.99999999999976
 20
92.64999999997218
 30
0.0
 11
-12.99999999999976
 21
91.64999999997258
 31
0.0
  0
LINE
  5
5DA7
330
A
100
AcDbEntity
  8
0
  6
Continuous
 62
     7
370
     0
100
AcDbLine
 10
-12.99999999999976
 20
91.64999999997258
 30
0.0
 11
-13.99999999999877
 21
91.64999999997258
 31
0.0
  0
LINE
  5
5DA8
330
A
100
AcDbEntity
  8
0
  6
Continuous
 62
     7
370
     0
100
AcDbLine
 10
13.00000000000013
 20
91.64999999997258
 30
0.0
 11
-12.99999999999976
 21
91.64999999997258
 31
0.0
  0
LINE
  5
5DA9
330
A
100
AcDbEntity
  8
0
  6
Continuous
 62
     9
370
     0
100
AcDbLine
 10
-12.9999999999942
 20
83.64999999997554
 30
0.0
 11
-12.9999999999942
 21
82.64999999997542
 31
0.0
  0
LINE
  5
5DAA
330
A
100
AcDbEntity
  8
0
  6
Continuous
 62
     7
370
     0
100
AcDbLine
 10
-12.9999999999942
 20
83.64999999997554
 30
0.0
 11
12.99999999999463
 21
83.64999999997554
 31
0.0
  0
LINE
  5
5DAB
330
A
100
AcDbEntity
  8
0
  6
Continuous
 62
     9
370
     0
100
AcDbLine
 10
12.99999999999463
 20
82.64999999997542
 30
0.0
 11
12.99999999999463
 21
83.64999999997554
 31
0.0
  0
LINE
  5
5DAC
330
A
100
AcDbEntity
  8
0
  6
Continuous
 62
     7
370
     0
100
AcDbLine
 10
13.99999999999423
 20
83.64999999997554
 30
0.0
 11
13.99999999999423
 21
82.64999999997542
 31
0.0
  0
LINE
  5
5DAD
330
A
100
AcDbEntity
  8
0
  6
Continuous
 62
     7
370
     0
100
AcDbLine
 10
12.99999999999463
 20
83.64999999997554
 30
0.0
 11
13.99999999999463
 21
83.64999999997554
 31
0.0
  0
LINE
  5
5DAE
330
A
100
AcDbEntity
  8
0
  6
Continuous
 62
     7
370
     0
100
AcDbLine
 10
-13.99999999999377
 20
82.64999999997542
 30
0.0
 11
-13.99999999999377
 21
83.64999999997554
 31
0.0
  0
LINE
  5
5DAF
330
A
100
AcDbEntity
  8
0
  6
Continuous
 62
     7
370
     0
100
AcDbLine
 10
-13.9999999999942
 20
83.64999999997554
 30
0.0
 11
-12.9999999999942
 21
83.64999999997554
 31
0.0
  0
LINE
  5
5DB0
330
A
100
AcDbEntity
  8
0
  6
Continuous
 62
     7
370
     0
100
AcDbLine
 10
-12.9999999999942
 20
82.64999999997542
 30
0.0
 11
-13.9999999999942
 21
82.64999999997542
 31
0.0
  0
LINE
  5
5DB1
330
A
100
AcDbEntity
  8
0
  6
Continuous
 62
     9
370
     0
100
AcDbLine
 10
-2.499999999999801
 20
85.15000000039169
 30
0.0
 11
-2.499999999999801
 21
83.64999999997554
 31
0.0
  0
LINE
  5
5DB2
330
A
100
AcDbEntity
  8
0
  6
Continuous
 62
     9
370
     0
100
AcDbLine
 10
2.500000000000227
 20
83.64999999997554
 30
0.0
 11
2.500000000000227
 21
85.15000000039169
 31
0.0
  0
LINE
  5
5DB3
330
A
100
AcDbEntity
  8
0
  6
Continuous
 62
     7
370
     0
100
AcDbLine
 10
-6.999999999999801
 20
90.14999999997229
 30
0.0
 11
-6.999999999999801
 21
85.14999999997229
 31
0.0
  0
LINE
  5
5DB4
330
A
100
AcDbEntity
  8
0
  6
Continuous
 62
     7
370
     0
100
AcDbLine
 10
7.000000000000227
 20
85.14999999997229
 30
0.0
 11
7.000000000000227
 21
90.14999999997229
 31
0.0
  0
LINE
  5
5DB5
330
A
100
AcDbEntity
  8
0
  6
Continuous
 62
     7
370
     0
100
AcDbLine
 10
5.412842109675224
 20
75.79999999997642
 30
0.0
 11
5.98769252025022
 21
76.79567011784422
 31
0.0
  0
ARC
  5
5DB6
330
A
100
AcDbEntity
  8
0
  6
Continuous
 62
     7
370
     0
100
AcDbCircle
 10
4.979829407783043
 20
76.04999999997642
 30
0.0
 40
0.5000000000000006
100
AcDbArc
 50
270.0
 51
329.9999999999999
  0
LINE
  5
5DB7
330
A
100
AcDbEntity
  8
0
  6
Continuous
 62
     7
370
     0
100
AcDbLine
 10
-2.999999999999801
 20
85.15000000037792
 30
0.0
 11
-2.999999999999801
 21
83.64999999997554
 31
0.0
  0
LINE
  5
5DB8
330
A
100
AcDbEntity
  8
0
  6
Continuous
 62
     7
370
     0
100
AcDbLine
 10
3.000000000000227
 20
83.64999999997554
 30
0.0
 11
3.000000000000227
 21
85.15000000037792
 31
0.0
  0
LINE
  5
5DB9
330
A
100
AcDbEntity
  8
0
  6
Continuous
 62
     7
370
     0
100
AcDbLine
 10
4.900000000001142
 20
90.15000000025697
 30
0.0
 11
4.900000000001142
 21
91.64999999997258
 31
0.0
  0
LINE
  5
5DBA
330
A
100
AcDbEntity
  8
0
  6
Continuous
 62
     7
370
     0
100
AcDbLine
 10
-4.90000000000073
 20
91.64999999997258
 30
0.0
 11
-4.90000000000073
 21
90.15000000025697
 31
0.0
  0
LINE
  5
5DDB
330
A
100
AcDbEntity
  8
0
  6
Continuous
 62
     9
370
     0
100
AcDbLine
 10
12.00000000000243
 20
14.99999999996789
 30
0.0
 11
12.00000000000243
 21
-65.00000000003234
 31
0.0
  0
LINE
  5
5DDC
330
A
100
AcDbEntity
  8
0
  6
Continuous
 62
     7
370
     0
100
AcDbLine
 10
15.00000000000243
 20
14.99999999996789
 30
0.0
 11
12.00000000000243
 21
14.99999999996789
 31
0.0
  0
LINE
  5
5DDD
330
A
100
AcDbEntity
  8
0
  6
Continuous
 62
     7
370
     0
100
AcDbLine
 10
15.00000000000304
 20
14.99999999996789
 30
0.0
 11
15.00000000000304
 21
-65.00000000003234
 31
0.0
  0
LINE
  5
5DDE
330
A
100
AcDbEntity
  8
0
  6
Continuous
 62
     7
370
     0
100
AcDbLine
 10
15.00000000000243
 20
-65.00000000003234
 30
0.0
 11
12.00000000000243
 21
-65.00000000003234
 31
0.0
  0
LINE
  5
5DDF
330
A
100
AcDbEntity
  8
0
  6
Continuous
 62
     7
370
     0
100
AcDbLine
 10
-15.0000000000026
 20
14.99999999996789
 30
0.0
 11
-15.00000000000261
 21
-65.00000000003234
 31
0.0
  0
LINE
  5
5DE0
330
A
100
AcDbEntity
  8
0
  6
Continuous
 62
     9
370
     0
100
AcDbLine
 10
-12.00000000000203
 20
14.99999999996789
 30
0.0
 11
-12.00000000000203
 21
-65.00000000003234
 31
0.0
  0
LINE
  5
5DE1
330
A
100
AcDbEntity
  8
0
  6
Continuous
 62
     7
370
     0
100
AcDbLine
 10
-12.00000000000203
 20
-65.00000000003234
 30
0.0
 11
-15.00000000000206
 21
-65.00000000003234
 31
0.0
  0
LINE
  5
5DE2
330
A
100
AcDbEntity
  8
0
  6
Continuous
 62
     7
370
     0
100
AcDbLine
 10
-12.00000000000203
 20
14.99999999996789
 30
0.0
 11
-15.00000000000206
 21
14.99999999996789
 31
0.0
  0
LINE
  5
5DE3
330
A
100
AcDbEntity
  8
0
  6
Continuous
 62
     7
370
     0
100
AcDbLine
 10
12.00000000000243
 20
-65.00000000003234
 30
0.0
 11
-12.00000000000203
 21
-65.00000000003234
 31
0.0
  0
LINE
  5
5DE4
330
A
100
AcDbEntity
  8
0
  6
Continuous
 62
     7
370
     0
100
AcDbLine
 10
12.00000000000243
 20
14.99999999996789
 30
0.0
 11
-12.00000000000203
 21
14.99999999996789
 31
0.0
  0
LINE
  5
5DEE
330
A
100
AcDbEntity
  8
0
  6
Continuous
 62
     9
370
     0
100
AcDbLine
 10
-19.9999999999998
 20
14.99999999997937
 30
0.0
 11
-19.9999999999998
 21
-65.0000000000206
 31
0.0
  0
LINE
  5
5DEF
330
A
100
AcDbEntity
  8
0
  6
Continuous
 62
     7
370
     0
100
AcDbLine
 10
-19.9999999999998
 20
-65.0000000000206
 30
0.0
 11
-15.00000000000261
 21
-65.0000000000206
 31
0.0
  0
LINE
  5
5DF0
330
A
100
AcDbEntity
  8
0
  6
Continuous
 62
     7
370
     0
100
AcDbLine
 10
-19.9999999999998
 20
14.99999999997937
 30
0.0
 11
-15.0000000000026
 21
14.99999999997937
 31
0.0
  0
LINE
  5
5DF1
330
A
100
AcDbEntity
  8
0
  6
Continuous
 62
     7
370
     0
100
AcDbLine
 10
-33.99999999999979
 20
14.99999999997937
 30
0.0
 11
-33.99999999999979
 21
-65.0000000000206
 31
0.0
  0
LINE
  5
5DF2
330
A
100
AcDbEntity
  8
0
  6
Continuous
 62
     7
370
     0
100
AcDbLine
 10
-33.99999999999977
 20
-65.0000000000206
 30
0.0
 11
-19.9999999999998
 21
-65.0000000000206
 31
0.0
  0
LINE
  5
5DF3
330
A
100
AcDbEntity
  8
0
  6
Continuous
 62
     7
370
     0
100
AcDbLine
 10
-33.99999999999977
 20
14.99999999997937
 30
0.0
 11
-19.9999999999998
 21
14.99999999997937
 31
0.0
  0
LINE
  5
5DF7
330
A
100
AcDbEntity
  8
0
  6
Continuous
 62
     7
370
     0
100
AcDbLine
 10
-34.99999999999977
 20
14.99999999997937
 30
0.0
 11
-34.99999999999977
 21
-65.0000000000206
 31
0.0
  0
LINE
  5
5DF8
330
A
100
AcDbEntity
  8
0
  6
Continuous
 62
     7
370
     0
100
AcDbLine
 10
-33.99999999999979
 20
-65.0000000000206
 30
0.0
 11
-34.99999999999977
 21
-65.0000000000206
 31
0.0
  0
LINE
  5
5DF9
330
A
100
AcDbEntity
  8
0
  6
Continuous
 62
     7
370
     0
100
AcDbLine
 10
-33.99999999999979
 20
14.99999999997937
 30
0.0
 11
-34.99999999999977
 21
14.99999999997937
 31
0.0
  0
TEXT
  5
62C2
330
A
100
AcDbEntity
  8
0
  6
Continuous
 62
     7
370
     0
100
AcDbText
 10
-13.12786725231656
 20
42.50732064419015
 30
0.0
 40
10.0
  1
4410
100
AcDbText
  0
LINE
  5
62C3
330
A
100
AcDbEntity
  8
0
  6
Continuous
 62
     7
370
     0
100
AcDbLine
 10
-102.9019585901529
 20
6.199999999964266
 30
0.0
 11
-102.7745018028578
 21
6.166176285551874
 31
0.0
  0
LINE
  5
62C4
330
A
100
AcDbEntity
  8
0
  6
Continuous
 62
     7
370
     0
100
AcDbLine
 10
-102.7745018028578
 20
6.166176285551874
 30
0.0
 11
-102.6717701876995
 21
6.08573974060764
 31
0.0
  0
LINE
  5
62C5
330
A
100
AcDbEntity
  8
0
  6
Continuous
 62
     7
370
     0
100
AcDbLine
 10
-102.6717701876995
 20
6.08573974060764
 30
0.0
 11
-102.5754306451948
 21
5.961060459661671
 31
0.0
  0
ARC
  5
62C6
330
A
100
AcDbEntity
  8
0
  6
Continuous
 62
     7
370
     0
100
AcDbCircle
 10
-125.7509902750824
 20
-0.0969527222606201
 30
0.0
 40
23.95424989163343
100
AcDbArc
 50
353.3275317857595
 51
14.6491447681454
  0
ARC
  5
62C7
330
A
100
AcDbEntity
  8
0
  6
Continuous
 62
     7
370
     0
100
AcDbCircle
 10
-111.1964766267469
 20
-2.694640477896537
 30
0.0
 40
9.239349626104022
100
AcDbArc
 50
340.0182198125614
 51
358.8487170816478
  0
LINE
  5
62C8
330
A
100
AcDbEntity
  8
0
  6
Continuous
 62
     7
370
     0
100
AcDbLine
 10
-102.5133235208669
 20
-5.851923115424336
 30
0.0
 11
-102.6045253433895
 21
-6.004153628477321
 31
0.0
  0
LINE
  5
62C9
330
A
100
AcDbEntity
  8
0
  6
Continuous
 62
     7
370
     0
100
AcDbLine
 10
-102.6045253433895
 20
-6.004153628477321
 30
0.0
 11
-102.7121666793609
 21
-6.123416998871216
 31
0.0
  0
LINE
  5
62CA
330
A
100
AcDbEntity
  8
0
  6
Continuous
 62
     7
370
     0
100
AcDbLine
 10
-102.7121666793609
 20
-6.123416998871216
 30
0.0
 11
-102.8374603014625
 21
-6.19145920481409
 31
0.0
  0
LINE
  5
62CB
330
A
100
AcDbEntity
  8
0
  6
Continuous
 62
     7
370
     0
100
AcDbLine
 10
-102.8374603014625
 20
-6.19145920481409
 30
0.0
 11
-102.9019558524612
 21
-6.200000000020618
 31
0.0
  0
LINE
  5
62CC
330
A
100
AcDbEntity
  8
0
  6
Continuous
 62
     7
370
     0
100
AcDbLine
 10
-102.9019585901528
 20
-43.80000000003573
 30
0.0
 11
-102.7745018028578
 21
-43.83382371444812
 31
0.0
  0
LINE
  5
62CD
330
A
100
AcDbEntity
  8
0
  6
Continuous
 62
     7
370
     0
100
AcDbLine
 10
-102.7745018028578
 20
-43.83382371444812
 30
0.0
 11
-102.6717701876995
 21
-43.91426025939241
 31
0.0
  0
LINE
  5
62CE
330
A
100
AcDbEntity
  8
0
  6
Continuous
 62
     7
370
     0
100
AcDbLine
 10
-102.6717701876995
 20
-43.91426025939241
 30
0.0
 11
-102.5754306451948
 21
-44.03893954033832
 31
0.0
  0
ARC
  5
62CF
330
A
100
AcDbEntity
  8
0
  6
Continuous
 62
     7
370
     0
100
AcDbCircle
 10
-125.7509902750809
 20
-50.0969527222605
 30
0.0
 40
23.95424989163197
100
AcDbArc
 50
353.3275317857581
 51
14.64914476814698
  0
ARC
  5
62D0
330
A
100
AcDbEntity
  8
0
  6
Continuous
 62
     7
370
     0
100
AcDbCircle
 10
-111.196476626745
 20
-52.6946404778969
 30
0.0
 40
9.239349626102141
100
AcDbArc
 50
340.0182198125595
 51
358.8487170816494
  0
LINE
  5
62D1
330
A
100
AcDbEntity
  8
0
  6
Continuous
 62
     7
370
     0
100
AcDbLine
 10
-102.5133235208669
 20
-55.85192311542433
 30
0.0
 11
-102.6045253433895
 21
-56.00415362847732
 31
0.0
  0
LINE
  5
62D2
330
A
100
AcDbEntity
  8
0
  6
Continuous
 62
     7
370
     0
100
AcDbLine
 10
-102.6045253433895
 20
-56.00415362847732
 30
0.0
 11
-102.7121666793609
 21
-56.12341699887132
 31
0.0
  0
LINE
  5
62D3
330
A
100
AcDbEntity
  8
0
  6
Continuous
 62
     7
370
     0
100
AcDbLine
 10
-102.7121666793609
 20
-56.12341699887132
 30
0.0
 11
-102.8374603014625
 21
-56.19145920481408
 31
0.0
  0
LINE
  5
62D4
330
A
100
AcDbEntity
  8
0
  6
Continuous
 62
     7
370
     0
100
AcDbLine
 10
-102.8374603014625
 20
-56.19145920481408
 30
0.0
 11
-102.9019558524612
 21
-56.20000000002073
 31
0.0
  0
LINE
  5
62D5
330
A
100
AcDbEntity
  8
0
  6
Continuous
 62
     7
370
     0
100
AcDbLine
 10
-102.9019558524612
 20
-56.20000000002073
 30
0.0
 11
-103.0089061605388
 21
-56.17762076513912
 31
0.0
  0
LINE
  5
62D6
330
A
100
AcDbEntity
  8
0
  6
Continuous
 62
     7
370
     0
100
AcDbLine
 10
-103.0089061605388
 20
-56.17762076513912
 30
0.0
 11
-103.1179018047004
 21
-56.11086183719361
 31
0.0
  0
LINE
  5
62D7
330
A
100
AcDbEntity
  8
0
  6
Continuous
 62
     7
370
     0
100
AcDbLine
 10
-103.1179018047004
 20
-56.11086183719361
 30
0.0
 11
-103.2313336597577
 21
-55.9962502007001
 31
0.0
  0
ARC
  5
62D8
330
A
100
AcDbEntity
  8
0
  6
Continuous
 62
     7
370
     0
100
AcDbCircle
 10
-87.98076500893499
 20
-49.88419285643001
 30
0.0
 40
16.42976229752282
100
AcDbArc
 50
169.1776053672789
 51
201.8397133756765
  0
ARC
  5
62D9
330
A
100
AcDbEntity
  8
0
  6
Continuous
 62
     7
370
     0
100
AcDbCircle
 10
-96.41736688385117
 20
-47.64207039204134
 30
0.0
 40
7.746922573272827
100
AcDbArc
 50
152.9838836673627
 51
173.7542222814496
  0
LINE
  5
62DA
330
A
100
AcDbEntity
  8
0
  6
Continuous
 62
     7
370
     0
100
AcDbLine
 10
-103.3189358851893
 20
-44.12309970787074
 30
0.0
 11
-103.2079066114588
 21
-43.97636450539123
 31
0.0
  0
LINE
  5
62DB
330
A
100
AcDbEntity
  8
0
  6
Continuous
 62
     7
370
     0
100
AcDbLine
 10
-103.2079066114588
 20
-43.97636450539123
 30
0.0
 11
-103.0957258196662
 21
-43.87208191852724
 31
0.0
  0
LINE
  5
62DC
330
A
100
AcDbEntity
  8
0
  6
Continuous
 62
     7
370
     0
100
AcDbLine
 10
-103.0957258196662
 20
-43.87208191852724
 30
0.0
 11
-102.9860503219879
 21
-43.81390588738642
 31
0.0
  0
LINE
  5
62DD
330
A
100
AcDbEntity
  8
0
  6
Continuous
 62
     7
370
     0
100
AcDbLine
 10
-102.9860503219879
 20
-43.81390588738642
 30
0.0
 11
-102.9019585901528
 21
-43.80000000003573
 31
0.0
  0
LINE
  5
62DE
330
A
100
AcDbEntity
  8
0
  6
Continuous
 62
     7
370
     0
100
AcDbLine
 10
-102.9019558524612
 20
-6.200000000020618
 30
0.0
 11
-103.0089061605388
 21
-6.177620765138921
 31
0.0
  0
LINE
  5
62DF
330
A
100
AcDbEntity
  8
0
  6
Continuous
 62
     7
370
     0
100
AcDbLine
 10
-103.0089061605388
 20
-6.177620765138921
 30
0.0
 11
-103.1179018047005
 21
-6.110861837193506
 31
0.0
  0
LINE
  5
62E0
330
A
100
AcDbEntity
  8
0
  6
Continuous
 62
     7
370
     0
100
AcDbLine
 10
-103.1179018047005
 20
-6.110861837193506
 30
0.0
 11
-103.2313336597577
 21
-5.996250200700099
 31
0.0
  0
ARC
  5
62E1
330
A
100
AcDbEntity
  8
0
  6
Continuous
 62
     7
370
     0
100
AcDbCircle
 10
-87.98076500893477
 20
0.1158071435699854
 30
0.0
 40
16.42976229752304
100
AcDbArc
 50
169.1776053672789
 51
201.8397133756762
  0
ARC
  5
62E2
330
A
100
AcDbEntity
  8
0
  6
Continuous
 62
     7
370
     0
100
AcDbCircle
 10
-96.41736688385105
 20
2.357929607958571
 30
0.0
 40
7.746922573272971
100
AcDbArc
 50
152.9838836673627
 51
173.754222281448
  0
LINE
  5
62E3
330
A
100
AcDbEntity
  8
0
  6
Continuous
 62
     7
370
     0
100
AcDbLine
 10
-103.3189358851893
 20
5.876900292129254
 30
0.0
 11
-103.2079066114588
 21
6.023635494608758
 31
0.0
  0
LINE
  5
62E4
330
A
100
AcDbEntity
  8
0
  6
Continuous
 62
     7
370
     0
100
AcDbLine
 10
-103.2079066114588
 20
6.023635494608758
 30
0.0
 11
-103.0957258196663
 21
6.127918081472675
 31
0.0
  0
LINE
  5
62E5
330
A
100
AcDbEntity
  8
0
  6
Continuous
 62
     7
370
     0
100
AcDbLine
 10
-103.0957258196663
 20
6.127918081472675
 30
0.0
 11
-102.9860503219879
 21
6.186094112613578
 31
0.0
  0
LINE
  5
62E6
330
A
100
AcDbEntity
  8
0
  6
Continuous
 62
     7
370
     0
100
AcDbLine
 10
-102.9860503219879
 20
6.186094112613578
 30
0.0
 11
-102.9019585901529
 21
6.199999999964266
 31
0.0
  0
CIRCLE
  5
6349
330
A
100
AcDbEntity
  8
0
  6
CENTER
 62
     1
100
AcDbCircle
 10
0.0000000000002274
 20
0.0000000000001457
 30
0.0
 40
7.0
  0
CIRCLE
  5
634A
330
A
100
AcDbEntity
  8
0
  6
CENTER
 62
     1
100
AcDbCircle
 10
0.0000000000002132
 20
-49.99999999999991
 30
0.0
 40
7.0
  0
ENDSEC
  0
SECTION
  2
OBJECTS
  0
DICTIONARY
  5
19
330
0
100
AcDbDictionary
281
     1
  3
ACAD_COLOR
350
3176
  3
ACAD_GROUP
350
1A
  3
ACAD_LAYOUT
350
1E
  3
ACAD_MATERIAL
350
314C
  3
ACAD_MLEADERSTYLE
350
319B
  3
ACAD_MLINESTYLE
350
1B
  3
ACAD_PLOTSETTINGS
350
22
  3
ACAD_PLOTSTYLENAME
350
1F
  3
ACAD_SCALELIST
350
3179
  3
ACAD_TABLESTYLE
350
3177
  3
ACAD_VISUALSTYLE
350
3165
  3
ACAD_WIPEOUT_VARS
350
23
  3
ACDB_RECOMPOSE_DATA
350
630A
  3
AcDbVariableDictionary
350
630B
  3
ASE_INDEX_DICTIONARY
350
5E44
  3
DWGPROPS
350
63FA
  0
DICTIONARY
  5
5E41
330
14
100
AcDbDictionary
280
     1
281
     1
  3
ADSK_XREC_LAYER_RECONCILED
360
5E42
  0
DICTIONARY
  5
31A7
330
A
100
AcDbDictionary
280
     1
281
     1
  3
ACAD_SORTENTS
360
31A8
  0
DICTIONARY
  5
3176
102
{ACAD_REACTORS
330
19
102
}
330
19
100
AcDbDictionary
281
     1
  0
DICTIONARY
  5
1A
102
{ACAD_REACTORS
330
19
102
}
330
19
100
AcDbDictionary
281
     1
  0
DICTIONARY
  5
1E
102
{ACAD_REACTORS
330
19
102
}
330
19
100
AcDbDictionary
281
     1
  3
Layout1
350
21
  3
Model
350
20
  0
DICTIONARY
  5
314C
102
{ACAD_REACTORS
330
19
102
}
330
19
100
AcDbDictionary
281
     1
  3
ByBlock
350
3155
  3
ByLayer
350
314D
  3
Global
350
315D
  0
DICTIONARY
  5
319B
102
{ACAD_REACTORS
330
19
102
}
330
19
100
AcDbDictionary
281
     1
  3
Standard
350
319C
  0
DICTIONARY
  5
1B
102
{ACAD_REACTORS
330
19
102
}
330
19
100
AcDbDictionary
281
     1
  3
Standard
350
1C
  0
DICTIONARY
  5
22
102
{ACAD_REACTORS
330
19
102
}
330
19
100
AcDbDictionary
281
     1
  0
ACDBDICTIONARYWDFLT
  5
1F
102
{ACAD_REACTORS
330
19
102
}
330
19
100
AcDbDictionary
281
     1
  3
Normal
350
1D
100
AcDbDictionaryWithDefault
340
1D
  0
DICTIONARY
  5
3179
102
{ACAD_REACTORS
330
19
102
}
330
19
100
AcDbDictionary
281
     1
  3
A0
350
317A
  3
A1
350
317B
  3
A2
350
317C
  3
A3
350
317D
  3
A4
350
317E
  3
A5
350
317F
  3
A6
350
3180
  3
A7
350
3181
  3
A8
350
3182
  3
A9
350
3183
  3
B0
350
3184
  3
B1
350
3185
  3
B2
350
3186
  3
B3
350
3187
  3
B4
350
3188
  3
B5
350
3189
  3
B6
350
318A
  3
B7
350
318B
  3
B8
350
318C
  3
B9
350
318D
  3
C0
350
318E
  3
C1
350
318F
  3
C2
350
3190
  3
C3
350
3191
  3
C4
350
3192
  3
C5
350
3193
  3
C6
350
3194
  3
C7
350
3195
  3
C8
350
3196
  3
C9
350
3197
  3
D0
350
3198
  3
D1
350
3199
  3
D2
350
319A
  0
DICTIONARY
  5
3177
102
{ACAD_REACTORS
330
19
102
}
330
19
100
AcDbDictionary
281
     1
  3
Standard
350
3178
  0
DICTIONARY
  5
3165
102
{ACAD_REACTORS
330
19
102
}
330
19
100
AcDbDictionary
281
     1
  3
2dWireframe
350
316B
  3
3D Hidden
350
316D
  3
3dWireframe
350
316C
  3
Basic
350
316A
  3
Brighten
350
3171
  3
ColorChange
350
3175
  3
Conceptual
350
316E
  3
Dim
350
3170
  3
Facepattern
350
3174
  3
Flat
350
3166
  3
FlatWithEdges
350
3167
  3
Gouraud
350
3168
  3
GouraudWithEdges
350
3169
  3
Linepattern
350
3173
  3
Realistic
350
316F
  3
Thicken
350
3172
  0
WIPEOUTVARIABLES
  5
23
330
19
100
AcDbWipeoutVariables
 70
     1
  0
XRECORD
  5
630A
102
{ACAD_REACTORS
330
19
102
}
330
19
100
AcDbXrecord
280
     1
 90
        1
330
3178
  0
DICTIONARY
  5
630B
102
{ACAD_REACTORS
330
19
102
}
330
19
100
AcDbDictionary
281
     1
  3
CANNOSCALE
350
630F
  3
CMLEADERSTYLE
350
630D
  3
CTABLESTYLE
350
630C
  3
DIMASSOC
350
6318
  3
INDEXCTL
350
6317
  3
LIGHTINGUNITS
350
6310
  3
MSLTSCALE
350
630E
  3
SORTENTS
350
6316
  0
DICTIONARY
  5
5E44
102
{ACAD_REACTORS
330
19
102
}
330
19
100
AcDbDictionary
281
     1
  3
ASEBlockHierarchyIndexRecord
350
5E46
1001
DCO15
1040
1685075681.336
  0
XRECORD
  5
63FA
102
{ACAD_REACTORS
330
19
102
}
330
19
100
AcDbXrecord
280
     1
  1
DWGPROPS COOKIE
  2

  3

  4

  6

  7

  8
renzo.ceresoli
  9

300
=
301
=
302
=
303
=
304
=
305
=
306
=
307
=
308
=
309
=
 40
0.028802662037037
 41
2455303.727916667
 42
2455306.431187917
  1

 90
        0
  0
XRECORD
  5
5E42
102
{ACAD_REACTORS
330
5E41
102
}
330
5E41
100
AcDbXrecord
280
     1
290
     1
  0
SORTENTSTABLE
  5
31A8
102
{ACAD_REACTORS
330
31A7
102
}
330
31A7
100
AcDbSortentsTable
330
A
331
5CCE
  5
1906
331
5D01
  5
1EE3
331
5CB3
  5
2CA2
331
5D3D
  5
275A
331
5D58
  5
1220
331
5CE7
  5
1C26
331
5D73
  5
1405
331
5D8E
  5
A8C
331
5A78
  5
3416
331
5A8B
  5
3431
331
5AA4
  5
344A
331
5DB1
  5
FCA
331
5CCC
  5
312F
331
5CB1
  5
2CA0
331
5D3B
  5
2758
331
5D56
  5
121E
331
5CE5
  5
1C24
331
5D71
  5
1403
331
5D8C
  5
A8A
331
5A76
  5
3414
331
5A89
  5
342B
331
5AA2
  5
3448
331
5DAF
  5
FC8
331
1E7
  5
3132
331
1FA
  5
31A5
331
5CCA
  5
312D
331
5CAF
  5
2C9E
331
5D54
  5
121C
331
5D6F
  5
1401
331
5D8A
  5
1904
331
5CE3
  5
1AC8
331
5D26
  5
20E2
331
5D39
  5
2756
331
5A74
  5
3412
331
5AA0
  5
3446
331
5DE3
  5
4E0
331
5DAD
  5
FC6
331
1E5
  5
3130
331
1F8
  5
31A3
331
1F6
  5
31A1
331
5CC8
  5
312B
331
5CAD
  5
2C9C
331
5D52
  5
121A
331
5D6D
  5
13FF
331
5D88
  5
1782
331
5CC6
  5
3111
331
5CE1
  5
1AC6
331
5D24
  5
20E0
331
5D37
  5
2754
331
5D86
  5
1780
331
5A9E
  5
3444
331
5DAB
  5
FC4
331
5DE1
  5
4DE
331
5DDF
  5
4DC
331
1F4
  5
313F
331
5CAB
  5
2C9A
331
5D50
  5
1218
331
5D6B
  5
13FD
331
5CDF
  5
1AC4
331
5D22
  5
20DE
331
5D35
  5
254E
331
5CC4
  5
2CE7
331
5D84
  5
168A
331
5D9F
  5
DDD
331
5AB7
  5
345D
331
5A9C
  5
3442
331
5DA9
  5
FC2
331
5DF8
  5
669
331
5DDD
  5
4DA
331
1F2
  5
313D
331
5CA9
  5
2C98
331
5D4E
  5
1216
331
5D69
  5
13FB
331
5CDD
  5
1A5B
331
5D20
  5
20DC
331
5D33
  5
254C
331
5CA7
  5
2C96
331
5CC2
  5
2CB1
331
5D67
  5
13F9
331
5D82
  5
1688
331
5D9D
  5
DDB
331
5AB5
  5
345B
331
5A87
  5
3425
331
5A9A
  5
3440
331
5DA7
  5
FC0
331
5DDB
  5
4D8
331
1F0
  5
313B
331
5D4C
  5
2C8B
331
5CDB
  5
19BC
331
5D1E
  5
20DA
331
5D31
  5
254A
331
5CA5
  5
2C94
331
5CC0
  5
2CAF
331
5D65
  5
13F7
331
5D80
  5
1686
331
5D9B
  5
DD9
331
5AB3
  5
3459
331
5A85
  5
3423
331
5A98
  5
343E
331
5DA5
  5
DE3
331
1EE
  5
3139
331
3F9
  5
340F
331
5CD9
  5
19BA
331
5D1C
  5
1FB7
331
5D2F
  5
2548
331
5CA3
  5
2C92
331
5CBE
  5
2CAD
331
5D4A
  5
2C89
331
5D63
  5
122B
331
5D7E
  5
1684
331
5D99
  5
DD7
331
5AB1
  5
3457
331
5A83
  5
3421
331
5A96
  5
343C
331
5DA3
  5
DE1
331
5DF2
  5
663
331
1EC
  5
3137
331
3F7
  5
340D
331
5CD7
  5
19B8
331
5D1A
  5
1EE6
331
5D2D
  5
2546
331
5CA1
  5
2C90
331
5CBC
  5
2CAB
331
5D48
  5
2C87
331
5D61
  5
1229
331
5D7C
  5
1682
331
5D97
  5
DD5
331
5D46
  5
2C85
331
5A81
  5
341F
331
5A94
  5
343A
331
5AAF
  5
3455
331
5DA1
  5
DDF
331
5DBA
  5
1214
331
5DF0
  5
4ED
331
1EA
  5
3135
331
5D2B
  5
2544
331
5C9F
  5
2C8E
331
5CBA
  5
2CA9
331
5CD5
  5
19B6
331
5D5F
  5
1227
331
5D7A
  5
1680
331
5D95
  5
DD3
331
5D44
  5
2761
331
5A7F
  5
341D
331
5A92
  5
3438
331
5AAD
  5
3453
331
5DB8
  5
1212
331
5DEE
  5
4EB
331
1E8
  5
3133
331
5D29
  5
2542
331
5C9D
  5
2C8C
331
5CB8
  5
2CA7
331
5CD3
  5
190B
331
5D5D
  5
1225
331
5D78
  5
167E
331
5D93
  5
DB9
331
5D42
  5
275F
331
5A7D
  5
341B
331
5A90
  5
3436
331
5AAB
  5
3451
331
5DB6
  5
FCF
331
5CB6
  5
2CA5
331
5CD1
  5
1909
331
5D76
  5
167C
331
5D91
  5
A8F
331
5D40
  5
275D
331
5D5B
  5
1223
331
5A7B
  5
3419
331
5A8E
  5
3434
331
5AA9
  5
344F
331
5AA7
  5
344D
331
5DB4
  5
FCD
331
5CB4
  5
2CA3
331
5CCF
  5
1907
331
5D74
  5
167A
331
5D8F
  5
A8D
331
5D3E
  5
275B
331
5D59
  5
1221
331
5A79
  5
3417
331
5A8C
  5
3432
331
5AA5
  5
344B
331
5DB2
  5
FCB
331
5D00
  5
1EE2
331
5CB2
  5
2CA1
331
5CCD
  5
1905
331
5D72
  5
1404
331
5D8D
  5
A8B
331
5D3C
  5
2759
331
5D57
  5
121F
331
5CE6
  5
1C25
331
5A77
  5
3415
331
5A8A
  5
342C
331
5AA3
  5
3449
331
5DB0
  5
FC9
331
5CB0
  5
2C9F
331
5CCB
  5
312E
331
5D70
  5
1402
331
5D8B
  5
A89
331
5D27
  5
20E3
331
5D3A
  5
2757
331
5D55
  5
121D
331
5CE4
  5
1C23
331
5A75
  5
3413
331
5A88
  5
3426
331
5AA1
  5
3447
331
5DE4
  5
4E1
331
5DAE
  5
FC7
331
1F9
  5
31A4
331
1E6
  5
3131
331
1F7
  5
31A2
331
5CAE
  5
2C9D
331
5CC9
  5
312C
331
5D6E
  5
1400
331
5D89
  5
1783
331
5D25
  5
20E1
331
5D38
  5
2755
331
5D53
  5
121B
331
5CC7
  5
312A
331
5CE2
  5
1AC7
331
5D87
  5
1781
331
5A73
  5
3411
331
5A9F
  5
3445
331
5DE2
  5
4DF
331
5DAC
  5
FC5
331
1F5
  5
3140
331
5CAC
  5
2C9B
331
5D23
  5
20DF
331
5D36
  5
2753
331
5D51
  5
1219
331
5CC5
  5
3110
331
5CE0
  5
1AC5
331
5D6C
  5
13FE
331
5D85
  5
177F
331
5A9D
  5
3443
331
5AB8
  5
345E
331
5DE0
  5
4DD
331
5DAA
  5
FC3
331
5DDE
  5
4DB
331
5DF9
  5
66A
331
1F3
  5
313E
331
5CAA
  5
2C99
331
5D21
  5
20DD
331
5D34
  5
254D
331
5D4F
  5
1217
331
5CC3
  5
2CE6
331
5CDE
  5
1A5C
331
5D6A
  5
13FC
331
5D83
  5
1689
331
5D9E
  5
DDC
331
5A9B
  5
3441
331
5AB6
  5
345C
331
5DA8
  5
FC1
331
5DDC
  5
4D9
331
5DF7
  5
668
331
1F1
  5
313C
331
5CA8
  5
2C97
331
5D32
  5
254B
331
5D4D
  5
1215
331
5D68
  5
13FA
331
5CA6
  5
2C95
331
5CC1
  5
2CB0
331
5CDC
  5
1A5A
331
5D1F
  5
20DB
331
5D81
  5
1687
331
5D9C
  5
DDA
331
5D66
  5
13F8
331
5A86
  5
3424
331
5A99
  5
343F
331
5AB4
  5
345A
331
5DA6
  5
DE4
331
3FA
  5
3410
331
1EF
  5
313A
331
5D30
  5
2549
331
5D4B
  5
2C8A
331
5CA4
  5
2C93
331
5CBF
  5
2CAE
331
5CDA
  5
19BB
331
5D1D
  5
20D9
331
5D7F
  5
1685
331
5D9A
  5
DD8
331
5D64
  5
13F6
331
5A97
  5
343D
331
5AB2
  5
3458
331
5A84
  5
3422
331
5DA4
  5
DE2
331
5DF3
  5
664
331
3F8
  5
340E
331
1ED
  5
3138
331
5D2E
  5
2547
331
5D49
  5
2C88
331
5CBD
  5
2CAC
331
5CD8
  5
19B9
331
5D1B
  5
1EE7
331
5CA2
  5
2C91
331
5D98
  5
DD6
331
5D47
  5
2C86
331
5D62
  5
122A
331
5D7D
  5
1683
331
5A95
  5
343B
331
5AB0
  5
3456
331
5A82
  5
3420
331
5DA2
  5
DE0
331
5DF1
  5
662
331
1EB
  5
3136
331
5D2C
  5
2545
331
5CBB
  5
2CAA
331
5CD6
  5
19B7
331
5CA0
  5
2C8F
331
5D96
  5
DD4
331
5D45
  5
2C84
331
5D60
  5
1228
331
5D7B
  5
1681
331
5A93
  5
3439
331
5AAE
  5
3454
331
5A80
  5
341E
331
5DA0
  5
DDE
331
5DEF
  5
4EC
331
5DB9
  5
1213
331
1E9
  5
3134
331
5D2A
  5
2543
331
5CB9
  5
2CA8
331
5CD4
  5
190C
331
5C9E
  5
2C8D
331
5D94
  5
DD2
331
5D43
  5
2760
331
5D5E
  5
1226
331
5D79
  5
167F
331
5A91
  5
3437
331
5AAC
  5
3452
331
5A7E
  5
341C
331
5DB7
  5
FD0
331
5CB7
  5
2CA6
331
5CD2
  5
190A
331
5D28
  5
2541
331
5D92
  5
A90
331
5D41
  5
275E
331
5D5C
  5
1224
331
5D77
  5
167D
331
5A8F
  5
3435
331
5AAA
  5
3450
331
5A7C
  5
341A
331
5DB5
  5
FCE
331
5CB5
  5
2CA4
331
5CD0
  5
1908
331
5D90
  5
A8E
331
5D3F
  5
275C
331
5D5A
  5
1222
331
5D75
  5
167B
331
5AA8
  5
344E
331
5A7A
  5
3418
331
5A8D
  5
3433
331
5AA6
  5
344C
331
5DB3
  5
FCC
  0
LAYOUT
  5
21
102
{ACAD_XDICTIONARY
360
63FD
102
}
102
{ACAD_REACTORS
330
1E
102
}
330
1E
100
AcDbPlotSettings
  1

  2

  4

  6

 40
0.0
 41
0.0
 42
0.0
 43
0.0
 44
0.0
 45
0.0
 46
0.0
 47
0.0
 48
0.0
 49
0.0
140
0.0
141
0.0
142
1.0
143
1.0
 70
     0
 72
     0
 73
     0
 74
     0
  7

 75
     0
147
1.0
148
0.0
149
0.0
100
AcDbLayout
  1
Layout1
 70
     0
 71
     1
 10
0.0
 20
0.0
 11
12.0
 21
9.0
 12
0.0
 22
0.0
 32
0.0
 14
1.000000000000000E+20
 24
1.000000000000000E+20
 34
1.000000000000000E+20
 15
-1.000000000000000E+20
 25
-1.000000000000000E+20
 35
-1.000000000000000E+20
146
0.0
 13
0.0
 23
0.0
 33
0.0
 16
1.0
 26
0.0
 36
0.0
 17
0.0
 27
1.0
 37
0.0
 76
     0
330
B
  0
LAYOUT
  5
20
102
{ACAD_XDICTIONARY
360
63FB
102
}
102
{ACAD_REACTORS
330
1E
102
}
330
1E
100
AcDbPlotSettings
  1

  2

  4

  6

 40
0.0
 41
0.0
 42
0.0
 43
0.0
 44
0.0
 45
0.0
 46
0.0
 47
0.0
 48
0.0
 49
0.0
140
0.0
141
0.0
142
1.0
143
1.0
 70
  1024
 72
     0
 73
     0
 74
     0
  7

 75
     0
147
1.0
148
0.0
149
0.0
100
AcDbLayout
  1
Model
 70
     0
 71
     0
 10
0.0
 20
0.0
 11
0.0
 21
0.0
 12
0.0
 22
0.0
 32
0.0
 14
0.0
 24
0.0
 34
0.0
 15
0.0
 25
0.0
 35
0.0
146
0.0
 13
0.0
 23
0.0
 33
0.0
 16
0.0
 26
0.0
 36
0.0
 17
0.0
 27
0.0
 37
0.0
 76
     0
330
A
331
15
  0
MATERIAL
  5
3155
102
{ACAD_XDICTIONARY
360
3156
102
}
102
{ACAD_REACTORS
330
314C
102
}
330
314C
100
AcDbMaterial
  1
ByBlock
 72
     0
 43
0.0208333333333333
 43
0.0
 43
0.0
 43
0.0
 43
0.0
 43
0.0208333333333333
 43
0.0
 43
0.0
 43
0.0
 43
0.0
 43
1.0
 43
0.0
 43
0.0
 43
0.0
 43
0.0
 43
1.0
 77
     0
 47
0.0208333333333333
 47
0.0
 47
0.0
 47
0.0
 47
0.0
 47
0.0208333333333333
 47
0.0
 47
0.0
 47
0.0
 47
0.0
 47
1.0
 47
0.0
 47
0.0
 47
0.0
 47
0.0
 47
1.0
171
     0
 49
0.0208333333333333
 49
0.0
 49
0.0
 49
0.0
 49
0.0
 49
0.0208333333333333
 49
0.0
 49
0.0
 49
0.0
 49
0.0
 49
1.0
 49
0.0
 49
0.0
 49
0.0
 49
0.0
 49
1.0
175
     0
142
0.0208333333333333
142
0.0
142
0.0
142
0.0
142
0.0
142
0.0208333333333333
142
0.0
142
0.0
142
0.0
142
0.0
142
1.0
142
0.0
142
0.0
142
0.0
142
0.0
142
1.0
179
     0
144
0.0208333333333333
144
0.0
144
0.0
144
0.0
144
0.0
144
0.0208333333333333
144
0.0
144
0.0
144
0.0
144
0.0
144
1.0
144
0.0
144
0.0
144
0.0
144
0.0
144
1.0
147
0.0208333333333333
147
0.0
147
0.0
147
0.0
147
0.0
147
0.0208333333333333
147
0.0
147
0.0
147
0.0
147
0.0
147
1.0
147
0.0
147
0.0
147
0.0
147
0.0
147
1.0
  0
MATERIAL
  5
314D
102
{ACAD_XDICTIONARY
360
314E
102
}
102
{ACAD_REACTORS
330
314C
102
}
330
314C
100
AcDbMaterial
  1
ByLayer
 72
     0
 43
0.0208333333333333
 43
0.0
 43
0.0
 43
0.0
 43
0.0
 43
0.0208333333333333
 43
0.0
 43
0.0
 43
0.0
 43
0.0
 43
1.0
 43
0.0
 43
0.0
 43
0.0
 43
0.0
 43
1.0
 77
     0
 47
0.0208333333333333
 47
0.0
 47
0.0
 47
0.0
 47
0.0
 47
0.0208333333333333
 47
0.0
 47
0.0
 47
0.0
 47
0.0
 47
1.0
 47
0.0
 47
0.0
 47
0.0
 47
0.0
 47
1.0
171
     0
 49
0.0208333333333333
 49
0.0
 49
0.0
 49
0.0
 49
0.0
 49
0.0208333333333333
 49
0.0
 49
0.0
 49
0.0
 49
0.0
 49
1.0
 49
0.0
 49
0.0
 49
0.0
 49
0.0
 49
1.0
175
     0
142
0.0208333333333333
142
0.0
142
0.0
142
0.0
142
0.0
142
0.0208333333333333
142
0.0
142
0.0
142
0.0
142
0.0
142
1.0
142
0.0
142
0.0
142
0.0
142
0.0
142
1.0
179
     0
144
0.0208333333333333
144
0.0
144
0.0
144
0.0
144
0.0
144
0.0208333333333333
144
0.0
144
0.0
144
0.0
144
0.0
144
1.0
144
0.0
144
0.0
144
0.0
144
0.0
144
1.0
147
0.0208333333333333
147
0.0
147
0.0
147
0.0
147
0.0
147
0.0208333333333333
147
0.0
147
0.0
147
0.0
147
0.0
147
1.0
147
0.0
147
0.0
147
0.0
147
0.0
147
1.0
  0
MATERIAL
  5
315D
102
{ACAD_XDICTIONARY
360
315E
102
}
102
{ACAD_REACTORS
330
314C
102
}
330
314C
100
AcDbMaterial
  1
Global
 72
     0
 43
0.0208333333333333
 43
0.0
 43
0.0
 43
0.0
 43
0.0
 43
0.0208333333333333
 43
0.0
 43
0.0
 43
0.0
 43
0.0
 43
1.0
 43
0.0
 43
0.0
 43
0.0
 43
0.0
 43
1.0
 77
     0
 47
0.0208333333333333
 47
0.0
 47
0.0
 47
0.0
 47
0.0
 47
0.0208333333333333
 47
0.0
 47
0.0
 47
0.0
 47
0.0
 47
1.0
 47
0.0
 47
0.0
 47
0.0
 47
0.0
 47
1.0
171
     0
 49
0.0208333333333333
 49
0.0
 49
0.0
 49
0.0
 49
0.0
 49
0.0208333333333333
 49
0.0
 49
0.0
 49
0.0
 49
0.0
 49
1.0
 49
0.0
 49
0.0
 49
0.0
 49
0.0
 49
1.0
175
     0
142
0.0208333333333333
142
0.0
142
0.0
142
0.0
142
0.0
142
0.0208333333333333
142
0.0
142
0.0
142
0.0
142
0.0
142
1.0
142
0.0
142
0.0
142
0.0
142
0.0
142
1.0
179
     0
144
0.0208333333333333
144
0.0
144
0.0
144
0.0
144
0.0
144
0.0208333333333333
144
0.0
144
0.0
144
0.0
144
0.0
144
1.0
144
0.0
144
0.0
144
0.0
144
0.0
144
1.0
147
0.0208333333333333
147
0.0
147
0.0
147
0.0
147
0.0
147
0.0208333333333333
147
0.0
147
0.0
147
0.0
147
0.0
147
1.0
147
0.0
147
0.0
147
0.0
147
0.0
147
1.0
  0
MLEADERSTYLE
  5
319C
102
{ACAD_REACTORS
330
319B
102
}
330
319B
100
AcDbMLeaderStyle
170
     2
171
     1
172
     0
 90
        2
 40
0.0
 41
0.0
173
     1
 91
-1056964608
340
11
 92
       -2
290
     1
 42
2.0
291
     1
 43
0.36
  3
Standard
 44
4.0
300

342
17
174
     1
178
     6
175
     1
176
     0
 93
-1056964608
 45
4.0
292
     0
297
     0
 46
4.0
 94
-1056964608
 47
1.0
 49
1.0
140
1.0
293
     1
141
0.0
294
     1
177
     0
142
1.0
295
     0
296
     0
143
0.125
1001
ACAD_MLEADERVER
1070
     2
  0
MLINESTYLE
  5
1C
102
{ACAD_REACTORS
330
1B
102
}
330
1B
100
AcDbMlineStyle
  2
STANDARD
 70
     0
  3

 62
     0
 51
90.0
 52
90.0
 71
     2
 49
0.5
 62
   256
  6
BYLAYER
 49
-0.5
 62
   256
  6
BYLAYER
  0
ACDBPLACEHOLDER
  5
1D
102
{ACAD_REACTORS
330
1F
102
}
330
1F
  0
SCALE
  5
317A
102
{ACAD_REACTORS
330
3179
102
}
330
3179
100
AcDbScale
 70
     0
300
1:1
140
1.0
141
1.0
290
     1
  0
SCALE
  5
317B
102
{ACAD_REACTORS
330
3179
102
}
330
3179
100
AcDbScale
 70
     0
300
1:2
140
1.0
141
2.0
290
     0
  0
SCALE
  5
317C
102
{ACAD_REACTORS
330
3179
102
}
330
3179
100
AcDbScale
 70
     0
300
1:4
140
1.0
141
4.0
290
     0
  0
SCALE
  5
317D
102
{ACAD_REACTORS
330
3179
102
}
330
3179
100
AcDbScale
 70
     0
300
1:5
140
1.0
141
5.0
290
     0
  0
SCALE
  5
317E
102
{ACAD_REACTORS
330
3179
102
}
330
3179
100
AcDbScale
 70
     0
300
1:8
140
1.0
141
8.0
290
     0
  0
SCALE
  5
317F
102
{ACAD_REACTORS
330
3179
102
}
330
3179
100
AcDbScale
 70
     0
300
1:10
140
1.0
141
10.0
290
     0
  0
SCALE
  5
3180
102
{ACAD_REACTORS
330
3179
102
}
330
3179
100
AcDbScale
 70
     0
300
1:16
140
1.0
141
16.0
290
     0
  0
SCALE
  5
3181
102
{ACAD_REACTORS
330
3179
102
}
330
3179
100
AcDbScale
 70
     0
300
1:20
140
1.0
141
20.0
290
     0
  0
SCALE
  5
3182
102
{ACAD_REACTORS
330
3179
102
}
330
3179
100
AcDbScale
 70
     0
300
1:30
140
1.0
141
30.0
290
     0
  0
SCALE
  5
3183
102
{ACAD_REACTORS
330
3179
102
}
330
3179
100
AcDbScale
 70
     0
300
1:40
140
1.0
141
40.0
290
     0
  0
SCALE
  5
3184
102
{ACAD_REACTORS
330
3179
102
}
330
3179
100
AcDbScale
 70
     0
300
1:50
140
1.0
141
50.0
290
     0
  0
SCALE
  5
3185
102
{ACAD_REACTORS
330
3179
102
}
330
3179
100
AcDbScale
 70
     0
300
1:100
140
1.0
141
100.0
290
     0
  0
SCALE
  5
3186
102
{ACAD_REACTORS
330
3179
102
}
330
3179
100
AcDbScale
 70
     0
300
2:1
140
2.0
141
1.0
290
     0
  0
SCALE
  5
3187
102
{ACAD_REACTORS
330
3179
102
}
330
3179
100
AcDbScale
 70
     0
300
4:1
140
4.0
141
1.0
290
     0
  0
SCALE
  5
3188
102
{ACAD_REACTORS
330
3179
102
}
330
3179
100
AcDbScale
 70
     0
300
8:1
140
8.0
141
1.0
290
     0
  0
SCALE
  5
3189
102
{ACAD_REACTORS
330
3179
102
}
330
3179
100
AcDbScale
 70
     0
300
10:1
140
10.0
141
1.0
290
     0
  0
SCALE
  5
318A
102
{ACAD_REACTORS
330
3179
102
}
330
3179
100
AcDbScale
 70
     0
300
100:1
140
100.0
141
1.0
290
     0
  0
SCALE
  5
318B
102
{ACAD_REACTORS
330
3179
102
}
330
3179
100
AcDbScale
 70
     0
300
1/128" = 1'-0"
140
0.0078125
141
12.0
290
     0
  0
SCALE
  5
318C
102
{ACAD_REACTORS
330
3179
102
}
330
3179
100
AcDbScale
 70
     0
300
1/64" = 1'-0"
140
0.015625
141
12.0
290
     0
  0
SCALE
  5
318D
102
{ACAD_REACTORS
330
3179
102
}
330
3179
100
AcDbScale
 70
     0
300
1/32" = 1'-0"
140
0.03125
141
12.0
290
     0
  0
SCALE
  5
318E
102
{ACAD_REACTORS
330
3179
102
}
330
3179
100
AcDbScale
 70
     0
300
1/16" = 1'-0"
140
0.0625
141
12.0
290
     0
  0
SCALE
  5
318F
102
{ACAD_REACTORS
330
3179
102
}
330
3179
100
AcDbScale
 70
     0
300
3/32" = 1'-0"
140
0.09375
141
12.0
290
     0
  0
SCALE
  5
3190
102
{ACAD_REACTORS
330
3179
102
}
330
3179
100
AcDbScale
 70
     0
300
1/8" = 1'-0"
140
0.125
141
12.0
290
     0
  0
SCALE
  5
3191
102
{ACAD_REACTORS
330
3179
102
}
330
3179
100
AcDbScale
 70
     0
300
3/16" = 1'-0"
140
0.1875
141
12.0
290
     0
  0
SCALE
  5
3192
102
{ACAD_REACTORS
330
3179
102
}
330
3179
100
AcDbScale
 70
     0
300
1/4" = 1'-0"
140
0.25
141
12.0
290
     0
  0
SCALE
  5
3193
102
{ACAD_REACTORS
330
3179
102
}
330
3179
100
AcDbScale
 70
     0
300
3/8" = 1'-0"
140
0.375
141
12.0
290
     0
  0
SCALE
  5
3194
102
{ACAD_REACTORS
330
3179
102
}
330
3179
100
AcDbScale
 70
     0
300
1/2" = 1'-0"
140
0.5
141
12.0
290
     0
  0
SCALE
  5
3195
102
{ACAD_REACTORS
330
3179
102
}
330
3179
100
AcDbScale
 70
     0
300
3/4" = 1'-0"
140
0.75
141
12.0
290
     0
  0
SCALE
  5
3196
102
{ACAD_REACTORS
330
3179
102
}
330
3179
100
AcDbScale
 70
     0
300
1" = 1'-0"
140
1.0
141
12.0
290
     0
  0
SCALE
  5
3197
102
{ACAD_REACTORS
330
3179
102
}
330
3179
100
AcDbScale
 70
     0
300
1-1/2" = 1'-0"
140
1.5
141
12.0
290
     0
  0
SCALE
  5
3198
102
{ACAD_REACTORS
330
3179
102
}
330
3179
100
AcDbScale
 70
     0
300
3" = 1'-0"
140
3.0
141
12.0
290
     0
  0
SCALE
  5
3199
102
{ACAD_REACTORS
330
3179
102
}
330
3179
100
AcDbScale
 70
     0
300
6" = 1'-0"
140
6.0
141
12.0
290
     0
  0
SCALE
  5
319A
102
{ACAD_REACTORS
330
3179
102
}
330
3179
100
AcDbScale
 70
     0
300
1'-0" = 1'-0"
140
12.0
141
12.0
290
     0
  0
TABLESTYLE
  5
3178
102
{ACAD_XDICTIONARY
360
6308
102
}
102
{ACAD_REACTORS
330
3177
102
}
330
3177
100
AcDbTableStyle
  3
Standard
 70
     0
 71
     0
 40
1.5
 41
1.5
280
     0
281
     0
  7
Standard
140
4.5
170
     2
 62
     0
 63
     7
283
     0
274
    -2
284
     1
 64
     0
275
    -2
285
     1
 65
     0
276
    -2
286
     1
 66
     0
277
    -2
287
     1
 67
     0
278
    -2
288
     1
 68
     0
279
    -2
289
     1
 69
     0
  7
Standard
140
6.0
170
     5
 62
     0
 63
     7
283
     0
274
    -2
284
     1
 64
     0
275
    -2
285
     1
 65
     0
276
    -2
286
     1
 66
     0
277
    -2
287
     1
 67
     0
278
    -2
288
     1
 68
     0
279
    -2
289
     1
 69
     0
  7
Standard
140
4.5
170
     5
 62
     0
 63
     7
283
     0
274
    -2
284
     1
 64
     0
275
    -2
285
     1
 65
     0
276
    -2
286
     1
 66
     0
277
    -2
287
     1
 67
     0
278
    -2
288
     1
 68
     0
279
    -2
289
     1
 69
     0
  0
VISUALSTYLE
  5
316B
102
{ACAD_REACTORS
330
3165
102
}
330
3165
100
AcDbVisualStyle
  2
2dWireframe
 70
     4
 71
     0
 72
     2
 73
     0
 90
        0
 40
-0.6
 41
-30.0
 62
     5
 63
     7
 74
     1
 91
        4
 64
     7
 65
   257
 75
     1
175
     1
 42
1.0
 92
        0
 66
   257
 43
1.0
 76
     1
 77
     6
 78
     2
 67
     7
 79
     5
170
     0
171
     0
290
     0
174
     0
 93
        1
 44
0.0
173
     0
291
     0
 45
0.0
1001
ACAD
1000
AcDbSavedByObjectVersion
1070
     0
1000
AcDbSavedByObjectVersion
1070
     0
1000
AcDbSavedByObjectVersion
1070
     0
  0
VISUALSTYLE
  5
316D
102
{ACAD_REACTORS
330
3165
102
}
330
3165
100
AcDbVisualStyle
  2
3D Hidden
 70
     6
 71
     1
 72
     2
 73
     2
 90
        0
 40
-0.6
 41
-30.0
 62
     5
 63
     7
 74
     2
 91
        2
 64
     7
 65
   257
 75
     2
175
     1
 42
40.0
 92
        0
 66
   257
 43
1.0
 76
     1
 77
     6
 78
     2
 67
     7
 79
     3
170
     0
171
     0
290
     0
174
     0
 93
        1
 44
0.0
173
     0
291
     0
 45
0.0
1001
ACAD
1000
AcDbSavedByObjectVersion
1070
     0
1000
AcDbSavedByObjectVersion
1070
     0
1000
AcDbSavedByObjectVersion
1070
     0
  0
VISUALSTYLE
  5
316C
102
{ACAD_REACTORS
330
3165
102
}
330
3165
100
AcDbVisualStyle
  2
3dWireframe
 70
     5
 71
     0
 72
     2
 73
     0
 90
        0
 40
-0.6
 41
-30.0
 62
     5
 63
     7
 74
     1
 91
        4
 64
     7
 65
   257
 75
     1
175
     1
 42
1.0
 92
        0
 66
   257
 43
1.0
 76
     1
 77
     6
 78
     2
 67
     7
 79
     5
170
     0
171
     0
290
     0
174
     0
 93
        1
 44
0.0
173
     0
291
     0
 45
0.0
1001
ACAD
1000
AcDbSavedByObjectVersion
1070
     0
1000
AcDbSavedByObjectVersion
1070
     0
1000
AcDbSavedByObjectVersion
1070
     0
  0
VISUALSTYLE
  5
316A
102
{ACAD_REACTORS
330
3165
102
}
330
3165
100
AcDbVisualStyle
  2
Basic
 70
     7
 71
     1
 72
     0
 73
     1
 90
        0
 40
-0.6
 41
-30.0
 62
     5
 63
     7
 74
     0
 91
        4
 64
     7
 65
   257
 75
     1
175
     1
 42
1.0
 92
        8
 66
     7
 43
1.0
 76
     1
 77
     6
 78
     2
 67
     7
 79
     5
170
     0
171
     0
290
     0
174
     0
 93
        1
 44
0.0
173
     0
291
     1
 45
0.0
1001
ACAD
1000
AcDbSavedByObjectVersion
1070
     0
1000
AcDbSavedByObjectVersion
1070
     0
1000
AcDbSavedByObjectVersion
1070
     0
  0
VISUALSTYLE
  5
3171
102
{ACAD_REACTORS
330
3165
102
}
330
3165
100
AcDbVisualStyle
  2
Brighten
 70
    12
 71
     2
 72
     2
 73
     0
 90
        0
 40
-0.6
 41
-30.0
 62
     5
 63
     7
 74
     1
 91
        4
 64
     7
 65
   257
 75
     1
175
     1
 42
1.0
 92
        8
 66
     7
 43
1.0
 76
     1
 77
     6
 78
     2
 67
     7
 79
     5
170
     0
171
     0
290
     0
174
     0
 93
        1
 44
50.0
173
     0
291
     1
 45
0.0
1001
ACAD
1000
AcDbSavedByObjectVersion
1070
     0
1000
AcDbSavedByObjectVersion
1070
     0
1000
AcDbSavedByObjectVersion
1070
     0
  0
VISUALSTYLE
  5
3175
102
{ACAD_REACTORS
330
3165
102
}
330
3165
100
AcDbVisualStyle
  2
ColorChange
 70
    16
 71
     2
 72
     2
 73
     3
 90
        0
 40
-0.6
 41
-30.0
 62
     5
 63
     8
 74
     1
 91
        4
 64
     7
 65
   257
 75
     1
175
     1
 42
1.0
 92
        8
 66
     8
 43
1.0
 76
     1
 77
     6
 78
     2
 67
     7
 79
     5
170
     0
171
     0
290
     0
174
     0
 93
        1
 44
0.0
173
     0
291
     1
 45
0.0
1001
ACAD
1000
AcDbSavedByObjectVersion
1070
     0
1000
AcDbSavedByObjectVersion
1070
     0
1000
AcDbSavedByObjectVersion
1070
     0
  0
VISUALSTYLE
  5
316E
102
{ACAD_REACTORS
330
3165
102
}
330
3165
100
AcDbVisualStyle
  2
Conceptual
 70
     9
 71
     3
 72
     2
 73
     0
 90
        0
 40
-0.6
 41
-30.0
 62
     5
 63
     7
 74
     2
 91
        2
 64
     7
 65
   257
 75
     1
175
     1
 42
40.0
 92
        8
 66
     7
 43
1.0
 76
     1
 77
     6
 78
     2
 67
     7
 79
     3
170
     0
171
     0
290
     0
174
     0
 93
        1
 44
0.0
173
     0
291
     0
 45
0.0
1001
ACAD
1000
AcDbSavedByObjectVersion
1070
     0
1000
AcDbSavedByObjectVersion
1070
     0
1000
AcDbSavedByObjectVersion
1070
     0
  0
VISUALSTYLE
  5
3170
102
{ACAD_REACTORS
330
3165
102
}
330
3165
100
AcDbVisualStyle
  2
Dim
 70
    11
 71
     2
 72
     2
 73
     0
 90
        0
 40
-0.6
 41
-30.0
 62
     5
 63
     7
 74
     1
 91
        4
 64
     7
 65
   257
 75
     1
175
     1
 42
1.0
 92
        8
 66
     7
 43
1.0
 76
     1
 77
     6
 78
     2
 67
     7
 79
     5
170
     0
171
     0
290
     0
174
     0
 93
        1
 44
-50.0
173
     0
291
     1
 45
0.0
1001
ACAD
1000
AcDbSavedByObjectVersion
1070
     0
1000
AcDbSavedByObjectVersion
1070
     0
1000
AcDbSavedByObjectVersion
1070
     0
  0
VISUALSTYLE
  5
3174
102
{ACAD_REACTORS
330
3165
102
}
330
3165
100
AcDbVisualStyle
  2
Facepattern
 70
    15
 71
     2
 72
     2
 73
     0
 90
        0
 40
-0.6
 41
-30.0
 62
     5
 63
     7
 74
     1
 91
        4
 64
     7
 65
   257
 75
     1
175
     1
 42
1.0
 92
        8
 66
     7
 43
1.0
 76
     1
 77
     6
 78
     2
 67
     7
 79
     5
170
     0
171
     0
290
     0
174
     0
 93
        1
 44
0.0
173
     0
291
     1
 45
0.0
1001
ACAD
1000
AcDbSavedByObjectVersion
1070
     0
1000
AcDbSavedByObjectVersion
1070
     0
1000
AcDbSavedByObjectVersion
1070
     0
  0
VISUALSTYLE
  5
3166
102
{ACAD_REACTORS
330
3165
102
}
330
3165
100
AcDbVisualStyle
  2
Flat
 70
     0
 71
     2
 72
     1
 73
     1
 90
        2
 40
-0.6
 41
30.0
 62
     5
 63
     7
 74
     0
 91
        4
 64
     7
 65
   257
 75
     1
175
     1
 42
1.0
 92
        8
 66
     7
 43
1.0
 76
     1
 77
     6
 78
     2
 67
     7
 79
     5
170
     0
171
     0
290
     0
174
     0
 93
       13
 44
0.0
173
     0
291
     1
 45
0.0
1001
ACAD
1000
AcDbSavedByObjectVersion
1070
     0
1000
AcDbSavedByObjectVersion
1070
     0
1000
AcDbSavedByObjectVersion
1070
     0
  0
VISUALSTYLE
  5
3167
102
{ACAD_REACTORS
330
3165
102
}
330
3165
100
AcDbVisualStyle
  2
FlatWithEdges
 70
     1
 71
     2
 72
     1
 73
     1
 90
        2
 40
-0.6
 41
30.0
 62
     5
 63
     7
 74
     1
 91
        4
 64
     7
 65
   257
 75
     1
175
     1
 42
1.0
 92
        0
 66
   257
 43
1.0
 76
     1
 77
     6
 78
     2
 67
     7
 79
     5
170
     0
171
     0
290
     0
174
     0
 93
       13
 44
0.0
173
     0
291
     1
 45
0.0
1001
ACAD
1000
AcDbSavedByObjectVersion
1070
     0
1000
AcDbSavedByObjectVersion
1070
     0
1000
AcDbSavedByObjectVersion
1070
     0
  0
VISUALSTYLE
  5
3168
102
{ACAD_REACTORS
330
3165
102
}
330
3165
100
AcDbVisualStyle
  2
Gouraud
 70
     2
 71
     2
 72
     2
 73
     1
 90
        2
 40
-0.6
 41
30.0
 62
     5
 63
     7
 74
     0
 91
        4
 64
     7
 65
   257
 75
     1
175
     1
 42
1.0
 92
        0
 66
     7
 43
1.0
 76
     1
 77
     6
 78
     2
 67
     7
 79
     5
170
     0
171
     0
290
     0
174
     0
 93
       13
 44
0.0
173
     0
291
     1
 45
0.0
1001
ACAD
1000
AcDbSavedByObjectVersion
1070
     0
1000
AcDbSavedByObjectVersion
1070
     0
1000
AcDbSavedByObjectVersion
1070
     0
  0
VISUALSTYLE
  5
3169
102
{ACAD_REACTORS
330
3165
102
}
330
3165
100
AcDbVisualStyle
  2
GouraudWithEdges
 70
     3
 71
     2
 72
     2
 73
     1
 90
        2
 40
-0.6
 41
30.0
 62
     5
 63
     7
 74
     1
 91
        4
 64
     7
 65
   257
 75
     1
175
     1
 42
1.0
 92
        0
 66
   257
 43
1.0
 76
     1
 77
     6
 78
     2
 67
     7
 79
     5
170
     0
171
     0
290
     0
174
     0
 93
       13
 44
0.0
173
     0
291
     1
 45
0.0
1001
ACAD
1000
AcDbSavedByObjectVersion
1070
     0
1000
AcDbSavedByObjectVersion
1070
     0
1000
AcDbSavedByObjectVersion
1070
     0
  0
VISUALSTYLE
  5
3173
102
{ACAD_REACTORS
330
3165
102
}
330
3165
100
AcDbVisualStyle
  2
Linepattern
 70
    14
 71
     2
 72
     2
 73
     0
 90
        0
 40
-0.6
 41
-30.0
 62
     5
 63
     7
 74
     1
 91
        4
 64
     7
 65
   257
 75
     7
175
     7
 42
1.0
 92
        8
 66
     7
 43
1.0
 76
     1
 77
     6
 78
     2
 67
     7
 79
     5
170
     0
171
     0
290
     0
174
     0
 93
        1
 44
0.0
173
     0
291
     1
 45
0.0
1001
ACAD
1000
AcDbSavedByObjectVersion
1070
     0
1000
AcDbSavedByObjectVersion
1070
     0
1000
AcDbSavedByObjectVersion
1070
     0
  0
VISUALSTYLE
  5
316F
102
{ACAD_REACTORS
330
3165
102
}
330
3165
100
AcDbVisualStyle
  2
Realistic
 70
     8
 71
     2
 72
     2
 73
     0
 90
        0
 40
-0.6
 41
-30.0
 62
     5
 63
     7
 74
     1
 91
        0
 64
     7
 65
   257
 75
     1
175
     1
 42
1.0
 92
        8
 66
     8
 43
1.0
 76
     1
 77
     6
 78
     2
 67
     7
 79
     5
170
     0
171
     0
290
     0
174
     0
 93
       13
 44
0.0
173
     0
291
     0
 45
0.0
1001
ACAD
1000
AcDbSavedByObjectVersion
1070
     0
1000
AcDbSavedByObjectVersion
1070
     0
1000
AcDbSavedByObjectVersion
1070
     0
  0
VISUALSTYLE
  5
3172
102
{ACAD_REACTORS
330
3165
102
}
330
3165
100
AcDbVisualStyle
  2
Thicken
 70
    13
 71
     2
 72
     2
 73
     0
 90
        0
 40
-0.6
 41
-30.0
 62
     5
 63
     7
 74
     1
 91
        4
 64
     7
 65
   257
 75
     1
175
     1
 42
1.0
 92
       12
 66
     7
 43
1.0
 76
     1
 77
     6
 78
     2
 67
     7
 79
     5
170
     0
171
     0
290
     0
174
     0
 93
        1
 44
0.0
173
     0
291
     1
 45
0.0
1001
ACAD
1000
AcDbSavedByObjectVersion
1070
     0
1000
AcDbSavedByObjectVersion
1070
     0
1000
AcDbSavedByObjectVersion
1070
     0
  0
DICTIONARYVAR
  5
630F
102
{ACAD_REACTORS
330
630B
102
}
330
630B
100
DictionaryVariables
280
     0
  1
1:1
  0
DICTIONARYVAR
  5
630D
102
{ACAD_REACTORS
330
630B
102
}
330
630B
100
DictionaryVariables
280
     0
  1
STANDARD
  0
DICTIONARYVAR
  5
630C
102
{ACAD_REACTORS
330
630B
102
}
330
630B
100
DictionaryVariables
280
     0
  1
STANDARD
  0
DICTIONARYVAR
  5
6318
102
{ACAD_REACTORS
330
630B
102
}
330
630B
100
DictionaryVariables
280
     0
  1
1
  0
DICTIONARYVAR
  5
6317
102
{ACAD_REACTORS
330
630B
102
}
330
630B
100
DictionaryVariables
280
     0
  1
0
  0
DICTIONARYVAR
  5
6310
102
{ACAD_REACTORS
330
630B
102
}
330
630B
100
DictionaryVariables
280
     0
  1
0
  0
DICTIONARYVAR
  5
630E
102
{ACAD_REACTORS
330
630B
102
}
330
630B
100
DictionaryVariables
280
     0
  1
0
  0
DICTIONARYVAR
  5
6316
102
{ACAD_REACTORS
330
630B
102
}
330
630B
100
DictionaryVariables
280
     0
  1
127
  0
XRECORD
  5
5E46
102
{ACAD_REACTORS
330
5E44
102
}
330
5E44
100
AcDbXrecord
280
     1
  0
DICTIONARY
  5
63FD
330
21
100
AcDbDictionary
280
     1
281
     1
  3
ACAD_XREC_ROUNDTRIP
360
63FE
  0
DICTIONARY
  5
63FB
330
20
100
AcDbDictionary
280
     1
281
     1
  3
ACAD_XREC_ROUNDTRIP
360
63FC
  0
DICTIONARY
  5
3156
330
3155
100
AcDbDictionary
280
     1
281
     1
  3
ACAD_XREC_ROUNDTRIP
360
6320
  3
BUMPTILE
360
3158
  3
DIFFUSETILE
360
3157
  3
OPACITYTILE
360
315B
  3
REFLECTIONTILE
360
315A
  3
REFRACTIONTILE
360
315C
  3
SPECULARTILE
360
3159
  0
DICTIONARY
  5
314E
330
314D
100
AcDbDictionary
280
     1
281
     1
  3
ACAD_XREC_ROUNDTRIP
360
631F
  3
BUMPTILE
360
3150
  3
DIFFUSETILE
360
314F
  3
OPACITYTILE
360
3153
  3
REFLECTIONTILE
360
3152
  3
REFRACTIONTILE
360
3154
  3
SPECULARTILE
360
3151
  0
DICTIONARY
  5
315E
330
315D
100
AcDbDictionary
280
     1
281
     1
  3
ACAD_XREC_ROUNDTRIP
360
6321
  3
BUMPTILE
360
3160
  3
DIFFUSETILE
360
315F
  3
OPACITYTILE
360
3163
  3
REFLECTIONTILE
360
3162
  3
REFRACTIONTILE
360
3164
  3
SPECULARTILE
360
3161
  0
DICTIONARY
  5
6308
330
3178
100
AcDbDictionary
280
     1
281
     1
  3
ACAD_ROUNDTRIP_2008_TABLESTYLE_CELLSTYLEMAP
360
63F9
  3
ACAD_XREC_ROUNDTRIP
360
63FF
  0
XRECORD
  5
63FE
102
{ACAD_REACTORS
330
63FD
102
}
330
63FD
100
AcDbXrecord
280
     1
102
SHADEPLOT
 70
     0
102
SHADEPLOTRESLEVEL
 70
     2
102
SHADEPLOTCUSTOMDPI
 70
   300
  0
XRECORD
  5
63FC
102
{ACAD_REACTORS
330
63FB
102
}
330
63FB
100
AcDbXrecord
280
     1
102
SHADEPLOT
 70
     0
102
SHADEPLOTRESLEVEL
 70
     2
102
SHADEPLOTCUSTOMDPI
 70
   300
  0
XRECORD
  5
6320
102
{ACAD_REACTORS
330
3156
102
}
330
3156
100
AcDbXrecord
280
     1
102
MATERIAL
148
0.0
149
0.0
149
0.0
 93
        0
 94
      127
282
     0
 72
     0
 77
     0
171
     0
175
     0
179
     0
273
     0
  0
XRECORD
  5
3158
102
{ACAD_REACTORS
330
3156
102
}
330
3156
100
AcDbXrecord
280
     1
270
     1
271
     1
  0
XRECORD
  5
3157
102
{ACAD_REACTORS
330
3156
102
}
330
3156
100
AcDbXrecord
280
     1
270
     1
271
     1
  0
XRECORD
  5
315B
102
{ACAD_REACTORS
330
3156
102
}
330
3156
100
AcDbXrecord
280
     1
270
     1
271
     1
  0
XRECORD
  5
315A
102
{ACAD_REACTORS
330
3156
102
}
330
3156
100
AcDbXrecord
280
     1
270
     1
271
     1
  0
XRECORD
  5
315C
102
{ACAD_REACTORS
330
3156
102
}
330
3156
100
AcDbXrecord
280
     1
270
     1
271
     1
  0
XRECORD
  5
3159
102
{ACAD_REACTORS
330
3156
102
}
330
3156
100
AcDbXrecord
280
     1
270
     1
271
     1
  0
XRECORD
  5
631F
102
{ACAD_REACTORS
330
314E
102
}
330
314E
100
AcDbXrecord
280
     1
102
MATERIAL
148
0.0
149
0.0
149
0.0
 93
        0
 94
      127
282
     0
 72
     0
 77
     0
171
     0
175
     0
179
     0
273
     0
  0
XRECORD
  5
3150
102
{ACAD_REACTORS
330
314E
102
}
330
314E
100
AcDbXrecord
280
     1
270
     1
271
     1
  0
XRECORD
  5
314F
102
{ACAD_REACTORS
330
314E
102
}
330
314E
100
AcDbXrecord
280
     1
270
     1
271
     1
  0
XRECORD
  5
3153
102
{ACAD_REACTORS
330
314E
102
}
330
314E
100
AcDbXrecord
280
     1
270
     1
271
     1
  0
XRECORD
  5
3152
102
{ACAD_REACTORS
330
314E
102
}
330
314E
100
AcDbXrecord
280
     1
270
     1
271
     1
  0
XRECORD
  5
3154
102
{ACAD_REACTORS
330
314E
102
}
330
314E
100
AcDbXrecord
280
     1
270
     1
271
     1
  0
XRECORD
  5
3151
102
{ACAD_REACTORS
330
314E
102
}
330
314E
100
AcDbXrecord
280
     1
270
     1
271
     1
  0
XRECORD
  5
6321
102
{ACAD_REACTORS
330
315E
102
}
330
315E
100
AcDbXrecord
280
     1
102
MATERIAL
148
0.0
149
0.0
149
0.0
 93
        0
 94
      127
282
     0
 72
     0
 77
     0
171
     0
175
     0
179
     0
273
     0
  0
XRECORD
  5
3160
102
{ACAD_REACTORS
330
315E
102
}
330
315E
100
AcDbXrecord
280
     1
270
     1
271
     1
  0
XRECORD
  5
315F
102
{ACAD_REACTORS
330
315E
102
}
330
315E
100
AcDbXrecord
280
     1
270
     1
271
     1
  0
XRECORD
  5
3163
102
{ACAD_REACTORS
330
315E
102
}
330
315E
100
AcDbXrecord
280
     1
270
     1
271
     1
  0
XRECORD
  5
3162
102
{ACAD_REACTORS
330
315E
102
}
330
315E
100
AcDbXrecord
280
     1
270
     1
271
     1
  0
XRECORD
  5
3164
102
{ACAD_REACTORS
330
315E
102
}
330
315E
100
AcDbXrecord
280
     1
270
     1
271
     1
  0
XRECORD
  5
3161
102
{ACAD_REACTORS
330
315E
102
}
330
315E
100
AcDbXrecord
280
     1
270
     1
271
     1
  0
CELLSTYLEMAP
  5
63F9
102
{ACAD_REACTORS
330
6308
102
}
330
6308
100
AcDbCellStyleMap
 90
        3
300
CELLSTYLE
  1
TABLEFORMAT_BEGIN
 90
        5
170
     1
 91
        0
 92
    32768
 62
   257
 93
        1
300
CONTENTFORMAT
  1
CONTENTFORMAT_BEGIN
 90
        0
 91
        0
 92
      512
 93
        0
300

 40
0.0
140
1.0
 94
        5
 62
     0
340
17
144
6.0
309
CONTENTFORMAT_END
171
     1
301
MARGIN
  1
CELLMARGIN_BEGIN
 40
1.5
 40
1.5
 40
1.5
 40
1.5
 40
0.18
 40
0.18
309
CELLMARGIN_END
 94
        6
 95
        1
302
GRIDFORMAT
  1
GRIDFORMAT_BEGIN
 90
        0
 91
        1
 62
     0
 92
       -2
340
0
 93
        0
 40
1.125
309
GRIDFORMAT_END
 95
        2
302
GRIDFORMAT
  1
GRIDFORMAT_BEGIN
 90
        0
 91
        1
 62
     0
 92
       -2
340
0
 93
        0
 40
1.125
309
GRIDFORMAT_END
 95
        4
302
GRIDFORMAT
  1
GRIDFORMAT_BEGIN
 90
        0
 91
        1
 62
     0
 92
       -2
340
0
 93
        0
 40
1.125
309
GRIDFORMAT_END
 95
        8
302
GRIDFORMAT
  1
GRIDFORMAT_BEGIN
 90
        0
 91
        1
 62
     0
 92
       -2
340
0
 93
        0
 40
1.125
309
GRIDFORMAT_END
 95
       16
302
GRIDFORMAT
  1
GRIDFORMAT_BEGIN
 90
        0
 91
        1
 62
     0
 92
       -2
340
0
 93
        0
 40
1.125
309
GRIDFORMAT_END
 95
       32
302
GRIDFORMAT
  1
GRIDFORMAT_BEGIN
 90
        0
 91
        1
 62
     0
 92
       -2
340
0
 93
        0
 40
1.125
309
GRIDFORMAT_END
309
TABLEFORMAT_END
  1
CELLSTYLE_BEGIN
 90
        1
 91
        1
300
_TITLE
309
CELLSTYLE_END
300
CELLSTYLE
  1
TABLEFORMAT_BEGIN
 90
        5
170
     1
 91
        0
 92
        0
 62
   257
 93
        1
300
CONTENTFORMAT
  1
CONTENTFORMAT_BEGIN
 90
        0
 91
        0
 92
      512
 93
        0
300

 40
0.0
140
1.0
 94
        5
 62
     0
340
17
144
4.5
309
CONTENTFORMAT_END
171
     1
301
MARGIN
  1
CELLMARGIN_BEGIN
 40
1.5
 40
1.5
 40
1.5
 40
1.5
 40
0.18
 40
0.18
309
CELLMARGIN_END
 94
        6
 95
        1
302
GRIDFORMAT
  1
GRIDFORMAT_BEGIN
 90
        0
 91
        1
 62
     0
 92
       -2
340
0
 93
        0
 40
1.125
309
GRIDFORMAT_END
 95
        2
302
GRIDFORMAT
  1
GRIDFORMAT_BEGIN
 90
        0
 91
        1
 62
     0
 92
       -2
340
0
 93
        0
 40
1.125
309
GRIDFORMAT_END
 95
        4
302
GRIDFORMAT
  1
GRIDFORMAT_BEGIN
 90
        0
 91
        1
 62
     0
 92
       -2
340
0
 93
        0
 40
1.125
309
GRIDFORMAT_END
 95
        8
302
GRIDFORMAT
  1
GRIDFORMAT_BEGIN
 90
        0
 91
        1
 62
     0
 92
       -2
340
0
 93
        0
 40
1.125
309
GRIDFORMAT_END
 95
       16
302
GRIDFORMAT
  1
GRIDFORMAT_BEGIN
 90
        0
 91
        1
 62
     0
 92
       -2
340
0
 93
        0
 40
1.125
309
GRIDFORMAT_END
 95
       32
302
GRIDFORMAT
  1
GRIDFORMAT_BEGIN
 90
        0
 91
        1
 62
     0
 92
       -2
340
0
 93
        0
 40
1.125
309
GRIDFORMAT_END
309
TABLEFORMAT_END
  1
CELLSTYLE_BEGIN
 90
        2
 91
        1
300
_HEADER
309
CELLSTYLE_END
300
CELLSTYLE
  1
TABLEFORMAT_BEGIN
 90
        5
170
     1
 91
        0
 92
        0
 62
   257
 93
        1
300
CONTENTFORMAT
  1
CONTENTFORMAT_BEGIN
 90
        0
 91
        0
 92
      512
 93
        0
300

 40
0.0
140
1.0
 94
        2
 62
     0
340
17
144
4.5
309
CONTENTFORMAT_END
171
     1
301
MARGIN
  1
CELLMARGIN_BEGIN
 40
1.5
 40
1.5
 40
1.5
 40
1.5
 40
0.18
 40
0.18
309
CELLMARGIN_END
 94
        6
 95
        1
302
GRIDFORMAT
  1
GRIDFORMAT_BEGIN
 90
        0
 91
        1
 62
     0
 92
       -2
340
0
 93
        0
 40
1.125
309
GRIDFORMAT_END
 95
        2
302
GRIDFORMAT
  1
GRIDFORMAT_BEGIN
 90
        0
 91
        1
 62
     0
 92
       -2
340
0
 93
        0
 40
1.125
309
GRIDFORMAT_END
 95
        4
302
GRIDFORMAT
  1
GRIDFORMAT_BEGIN
 90
        0
 91
        1
 62
     0
 92
       -2
340
0
 93
        0
 40
1.125
309
GRIDFORMAT_END
 95
        8
302
GRIDFORMAT
  1
GRIDFORMAT_BEGIN
 90
        0
 91
        1
 62
     0
 92
       -2
340
0
 93
        0
 40
1.125
309
GRIDFORMAT_END
 95
       16
302
GRIDFORMAT
  1
GRIDFORMAT_BEGIN
 90
        0
 91
        1
 62
     0
 92
       -2
340
0
 93
        0
 40
1.125
309
GRIDFORMAT_END
 95
       32
302
GRIDFORMAT
  1
GRIDFORMAT_BEGIN
 90
        0
 91
        1
 62
     0
 92
       -2
340
0
 93
        0
 40
1.125
309
GRIDFORMAT_END
309
TABLEFORMAT_END
  1
CELLSTYLE_BEGIN
 90
        3
 91
        2
300
_DATA
309
CELLSTYLE_END
  0
XRECORD
  5
63FF
102
{ACAD_REACTORS
330
6308
102
}
330
6308
100
AcDbXrecord
280
     1
102
ACAD_ROUNDTRIP_PRE2007_TABLESTYLE
 90
      512
 91
        0
  1

 92
      512
 93
        0
  2

 94
      512
 95
        0
  3

  0
ENDSEC
  0
EOF
