  0
SECTION
  2
HEADER
  9
$ACADVER
  1
AC1014
  9
$ACADMAINTVER
 70
     9
  9
$DWGCODEPAGE
  3
ANSI_1252
  9
$INSBASE
 10
0.0
 20
0.0
 30
0.0
  9
$EXTMIN
 10
0.0
 20
0.0
 30
0.0
  9
$EXTMAX
 10
210.0
 20
297.0
 30
0.0
  9
$LIMMIN
 10
0.0
 20
0.0
  9
$LIMMAX
 10
210.0
 20
297.0
  9
$ORTHOMODE
 70
     0
  9
$REGENMODE
 70
     1
  9
$FILLMODE
 70
     1
  9
$QTEXTMODE
 70
     0
  9
$MIRRTEXT
 70
     1
  9
$DRAGMODE
 70
     2
  9
$LTSCALE
 40
1.0
  9
$OSMODE
 70
    37
  9
$ATTMODE
 70
     1
  9
$TEXTSIZE
 40
2.8
  9
$TRACEWID
 40
1.0
  9
$TEXTSTYLE
  7
STANDARD
  9
$CLAYER
  8
0
  9
$CELTYPE
  6
BYLAYER
  9
$CECOLOR
 62
   256
  9
$CELTSCALE
 40
1.0
  9
$DELOBJ
 70
     1
  9
$DISPSILH
 70
     0
  9
$DIMSCALE
 40
1.0
  9
$DIMASZ
 40
3.2
  9
$DIMEXO
 40
0.1
  9
$DIMDLI
 40
3.75
  9
$DIMRND
 40
0.0
  9
$DIMDLE
 40
0.0
  9
$DIMEXE
 40
1.0
  9
$DIMTP
 40
0.0
  9
$DIMTM
 40
0.0
  9
$DIMTXT
 40
3.2
  9
$DIMCEN
 40
2.5
  9
$DIMTSZ
 40
0.0
  9
$DIMTOL
 70
     0
  9
$DIMLIM
 70
     0
  9
$DIMTIH
 70
     1
  9
$DIMTOH
 70
     1
  9
$DIMSE1
 70
     0
  9
$DIMSE2
 70
     0
  9
$DIMTAD
 70
     1
  9
$DIMZIN
 70
     0
  9
$DIMBLK
  1

  9
$DIMASO
 70
     1
  9
$DIMSHO
 70
     1
  9
$DIMPOST
  1

  9
$DIMAPOST
  1

  9
$DIMALT
 70
     0
  9
$DIMALTD
 70
     3
  9
$DIMALTF
 40
0.0393700787
  9
$DIMLFAC
 40
1.0
  9
$DIMTOFL
 70
     1
  9
$DIMTVP
 40
0.0
  9
$DIMTIX
 70
     0
  9
$DIMSOXD
 70
     0
  9
$DIMSAH
 70
     0
  9
$DIMBLK1
  1

  9
$DIMBLK2
  1

  9
$DIMSTYLE
  2
ISO-25
  9
$DIMCLRD
 70
     0
  9
$DIMCLRE
 70
     0
  9
$DIMCLRT
 70
     0
  9
$DIMTFAC
 40
1.0
  9
$DIMGAP
 40
2.0
  9
$DIMJUST
 70
     0
  9
$DIMSD1
 70
     0
  9
$DIMSD2
 70
     0
  9
$DIMTOLJ
 70
     0
  9
$DIMTZIN
 70
     0
  9
$DIMALTZ
 70
     0
  9
$DIMALTTZ
 70
     0
  9
$DIMFIT
 70
     3
  9
$DIMUPT
 70
     0
  9
$DIMUNIT
 70
     2
  9
$DIMDEC
 70
     2
  9
$DIMTDEC
 70
     2
  9
$DIMALTU
 70
     2
  9
$DIMALTTD
 70
     3
  9
$DIMTXSTY
  7
STANDARD
  9
$DIMAUNIT
 70
     0
  9
$LUNITS
 70
     2
  9
$LUPREC
 70
     2
  9
$SKETCHINC
 40
1.0
  9
$FILLETRAD
 40
10.0
  9
$AUNITS
 70
     0
  9
$AUPREC
 70
     2
  9
$MENU
  1
.
  9
$ELEVATION
 40
0.0
  9
$PELEVATION
 40
0.0
  9
$THICKNESS
 40
0.0
  9
$LIMCHECK
 70
     0
  9
$CHAMFERA
 40
10.0
  9
$CHAMFERB
 40
10.0
  9
$CHAMFERC
 40
20.0
  9
$CHAMFERD
 40
0.0
  9
$SKPOLY
 70
     0
  9
$TDCREATE
 40
2456645.483990093
  9
$TDUPDATE
 40
2456645.483999653
  9
$TDINDWG
 40
0.0000000116
  9
$TDUSRTIMER
 40
0.0000000116
  9
$USRTIMER
 70
     1
  9
$ANGBASE
 50
0.0
  9
$ANGDIR
 70
     0
  9
$PDMODE
 70
     0
  9
$PDSIZE
 40
-1.0
  9
$PLINEWID
 40
0.0
  9
$COORDS
 70
     1
  9
$SPLFRAME
 70
     0
  9
$SPLINETYPE
 70
     6
  9
$SPLINESEGS
 70
     8
  9
$ATTDIA
 70
     0
  9
$ATTREQ
 70
     1
  9
$HANDLING
 70
     1
  9
$HANDSEED
  5
351
  9
$SURFTAB1
 70
     6
  9
$SURFTAB2
 70
     6
  9
$SURFTYPE
 70
     6
  9
$SURFU
 70
     6
  9
$SURFV
 70
     6
  9
$UCSNAME
  2

  9
$UCSORG
 10
0.0
 20
0.0
 30
0.0
  9
$UCSXDIR
 10
1.0
 20
0.0
 30
0.0
  9
$UCSYDIR
 10
0.0
 20
1.0
 30
0.0
  9
$PUCSNAME
  2

  9
$PUCSORG
 10
0.0
 20
0.0
 30
0.0
  9
$PUCSXDIR
 10
1.0
 20
0.0
 30
0.0
  9
$PUCSYDIR
 10
0.0
 20
1.0
 30
0.0
  9
$USERI1
 70
     0
  9
$USERI2
 70
     0
  9
$USERI3
 70
     0
  9
$USERI4
 70
     0
  9
$USERI5
 70
     0
  9
$USERR1
 40
0.0
  9
$USERR2
 40
0.0
  9
$USERR3
 40
0.0
  9
$USERR4
 40
0.0
  9
$USERR5
 40
0.0
  9
$WORLDVIEW
 70
     1
  9
$SHADEDGE
 70
     3
  9
$SHADEDIF
 70
    70
  9
$TILEMODE
 70
     1
  9
$MAXACTVP
 70
    64
  9
$PINSBASE
 10
0.0
 20
0.0
 30
0.0
  9
$PLIMCHECK
 70
     0
  9
$PEXTMIN
 10
1.0000000000E+20
 20
1.0000000000E+20
 30
1.0000000000E+20
  9
$PEXTMAX
 10
-1.0000000000E+20
 20
-1.0000000000E+20
 30
-1.0000000000E+20
  9
$PLIMMIN
 10
0.0
 20
0.0
  9
$PLIMMAX
 10
420.0
 20
297.0
  9
$UNITMODE
 70
     0
  9
$VISRETAIN
 70
     1
  9
$PLINEGEN
 70
     0
  9
$PSLTSCALE
 70
     1
  9
$TREEDEPTH
 70
  3020
  9
$PICKSTYLE
 70
     1
  9
$CMLSTYLE
  2
STANDARD
  9
$CMLJUST
 70
     0
  9
$CMLSCALE
 40
20.0
  9
$PROXYGRAPHICS
 70
     1
  9
$MEASUREMENT
 70
     1
  0
ENDSEC
  0
SECTION
  2
CLASSES
  0
CLASS
  1
ACDBDICTIONARYWDFLT
  2
AcDbDictionaryWithDefault
  3
ObjectDBX Classes
 90
        0
280
     0
281
     0
  0
CLASS
  1
VISUALSTYLE
  2
AcDbVisualStyle
  3
ObjectDBX Classes
 90
     4095
280
     0
281
     0
  0
CLASS
  1
MATERIAL
  2
AcDbMaterial
  3
ObjectDBX Classes
 90
     1153
280
     0
281
     0
  0
CLASS
  1
XRECORD
  2
AcDbXrecord
  3
AutoCAD 2000
 90
        0
280
     0
281
     0
  0
CLASS
  1
LWPOLYLINE
  2
AcDbPolyline
  3
AutoCAD 2000
 90
        0
280
     0
281
     1
  0
CLASS
  1
HATCH
  2
AcDbHatch
  3
AutoCAD 2000
 90
        0
280
     0
281
     1
  0
ENDSEC
  0
SECTION
  2
TABLES
  0
TABLE
  2
VPORT
  5
8
330
0
100
AcDbSymbolTable
 70
     1
  0
VPORT
  5
29
330
8
100
AcDbSymbolTableRecord
100
AcDbViewportTableRecord
  2
*ACTIVE
 70
     0
 10
0.0
 20
0.0
 11
1.0
 21
1.0
 12
105.0
 22
148.5
 13
0.0
 23
0.0
 14
10.0
 24
10.0
 15
10.0
 25
10.0
 16
0.0
 26
0.0
 36
1.0
 17
0.0
 27
0.0
 37
0.0
 40
297.0
 41
0.7070707071
 42
50.0
 43
0.0
 44
0.0
 50
0.0
 51
0.0
 71
     0
 72
  2000
 73
     1
 74
     3
 75
     0
 76
     0
 77
     0
 78
     0
  0
ENDTAB
  0
TABLE
  2
LTYPE
  5
5
330
0
100
AcDbSymbolTable
 70
     6
  0
LTYPE
  5
14
330
5
100
AcDbSymbolTableRecord
100
AcDbLinetypeTableRecord
  2
BYBLOCK
 70
     0
  3

 72
    65
 73
     0
 40
0.0
  0
LTYPE
  5
15
330
5
100
AcDbSymbolTableRecord
100
AcDbLinetypeTableRecord
  2
BYLAYER
 70
     0
  3

 72
    65
 73
     0
 40
0.0
  0
LTYPE
  5
16
330
5
100
AcDbSymbolTableRecord
100
AcDbLinetypeTableRecord
  2
CONTINUOUS
 70
     0
  3
Solid line
 72
    65
 73
     0
 40
0.0
  0
LTYPE
  5
3F
330
5
100
AcDbSymbolTableRecord
100
AcDbLinetypeTableRecord
  2
HIDDEN
 70
     0
  3
Hidden __ __ __ __ __ __ __ __ __ __ __ __ __ __
 72
    65
 73
     2
 40
1.905
 49
1.27
 74
     0
 49
-0.635
 74
     0
  0
LTYPE
  5
40
330
5
100
AcDbSymbolTableRecord
100
AcDbLinetypeTableRecord
  2
PHANTOM
 70
     0
  3
Phantom ______  __  __  ______  __  __  ______
 72
    65
 73
     6
 40
12.7
 49
6.35
 74
     0
 49
-1.27
 74
     0
 49
1.27
 74
     0
 49
-1.27
 74
     0
 49
1.27
 74
     0
 49
-1.27
 74
     0
  0
LTYPE
  5
41
330
5
100
AcDbSymbolTableRecord
100
AcDbLinetypeTableRecord
  2
CENTER
 70
     0
  3
Center ____ _ ____ _ ____ _ ____ _ ____ _ ____
 72
    65
 73
     4
 40
10.16
 49
6.35
 74
     0
 49
-1.27
 74
     0
 49
1.27
 74
     0
 49
-1.27
 74
     0
  0
LTYPE
  5
42
330
5
100
AcDbSymbolTableRecord
100
AcDbLinetypeTableRecord
  2
CENTERX2
 70
     0
  3
Center (2x) ________  __  ________  __  _____
 72
    65
 73
     4
 40
20.32
 49
12.7
 74
     0
 49
-2.54
 74
     0
 49
2.54
 74
     0
 49
-2.54
 74
     0
  0
LTYPE
  5
43
330
5
100
AcDbSymbolTableRecord
100
AcDbLinetypeTableRecord
  2
DOT2
 70
     0
  3
Dot (.5x) ........................................
 72
    65
 73
     2
 40
0.635
 49
0.0
 74
     0
 49
-0.635
 74
     0
  0
ENDTAB
  0
TABLE
  2
LAYER
  5
2
330
0
100
AcDbSymbolTable
 70
     2
  0
LAYER
  5
10
330
2
100
AcDbSymbolTableRecord
100
AcDbLayerTableRecord
  2
0
 70
     0
 62
     7
  6
CONTINUOUS
  0
LAYER
  5
44
330
2
100
AcDbSymbolTableRecord
100
AcDbLayerTableRecord
  2
FORMAT
 70
     0
 62
     7
  6
CONTINUOUS
  0
ENDTAB
  0
TABLE
  2
STYLE
  5
3
330
0
100
AcDbSymbolTable
 70
     2
  0
STYLE
  5
11
330
3
100
AcDbSymbolTableRecord
100
AcDbTextStyleTableRecord
  2
STANDARD
 70
     0
 40
0.0
 41
1.0
 50
0.0
 71
     0
 42
2.8
  3
txt
  4

  0
STYLE
  5
45
330
3
100
AcDbSymbolTableRecord
100
AcDbTextStyleTableRecord
  2
SLDTEXTSTYLE0
 70
     0
 40
0.0
 41
0.75
 50
0.0
 71
     0
 42
0.2
  3
TXT
  4

  0
ENDTAB
  0
TABLE
  2
VIEW
  5
6
330
0
100
AcDbSymbolTable
 70
     0
  0
ENDTAB
  0
TABLE
  2
UCS
  5
7
330
0
100
AcDbSymbolTable
 70
     0
  0
ENDTAB
  0
TABLE
  2
APPID
  5
9
330
0
100
AcDbSymbolTable
 70
     1
  0
APPID
  5
12
330
9
100
AcDbSymbolTableRecord
100
AcDbRegAppTableRecord
  2
ACAD
 70
     0
  0
ENDTAB
  0
TABLE
  2
DIMSTYLE
  5
A
330
0
100
AcDbSymbolTable
 70
     1
  0
DIMSTYLE
105
27
330
A
100
AcDbSymbolTableRecord
100
AcDbDimStyleTableRecord
  2
ISO-25
 70
     0
  3

  4

  5

  6

  7

 40
1.0
 41
2.5
 42
0.625
 43
3.75
 44
1.25
 45
0.0
 46
0.0
 47
0.0
 48
0.0
140
2.5
141
2.5
142
0.0
143
0.0393700787
144
1.0
145
0.0
146
1.0
147
0.625
 71
     0
 72
     0
 73
     0
 74
     0
 75
     0
 76
     0
 77
     1
 78
     8
170
     0
171
     3
172
     1
173
     0
174
     0
175
     0
176
     0
177
     0
178
     0
270
     2
271
     2
272
     2
273
     2
274
     3
340
11
275
     0
280
     0
281
     0
282
     0
283
     0
284
     8
285
     0
286
     0
287
     3
288
     0
  0
ENDTAB
  0
TABLE
  2
BLOCK_RECORD
  5
1
330
0
100
AcDbSymbolTable
 70
     1
  0
BLOCK_RECORD
  5
1F
330
1
100
AcDbSymbolTableRecord
100
AcDbBlockTableRecord
  2
*MODEL_SPACE
  0
BLOCK_RECORD
  5
1B
330
1
100
AcDbSymbolTableRecord
100
AcDbBlockTableRecord
  2
*PAPER_SPACE
  0
BLOCK_RECORD
  5
23
330
1
100
AcDbSymbolTableRecord
100
AcDbBlockTableRecord
  2
*PAPER_SPACE0
  0
ENDTAB
  0
ENDSEC
  0
SECTION
  2
BLOCKS
  0
BLOCK
  5
20
330
1F
100
AcDbEntity
  8
0
100
AcDbBlockBegin
  2
*MODEL_SPACE
 70
     0
 10
0.0
 20
0.0
 30
0.0
  3
*MODEL_SPACE
  1

  0
ENDBLK
  5
21
330
1F
100
AcDbEntity
  8
0
100
AcDbBlockEnd
  0
BLOCK
  5
1C
330
1B
100
AcDbEntity
 67
     1
  8
0
100
AcDbBlockBegin
  2
*PAPER_SPACE
 70
     0
 10
0.0
 20
0.0
 30
0.0
  3
*PAPER_SPACE
  1

  0
ENDBLK
  5
1D
330
1B
100
AcDbEntity
 67
     1
  8
0
100
AcDbBlockEnd
  0
BLOCK
  5
24
330
23
100
AcDbEntity
  8
0
100
AcDbBlockBegin
  2
*PAPER_SPACE0
 70
     0
 10
0.0
 20
0.0
 30
0.0
  3
*PAPER_SPACE0
  1

  0
ENDBLK
  5
25
330
23
100
AcDbEntity
  8
0
100
AcDbBlockEnd
  0
ENDSEC
  0
SECTION
  2
ENTITIES
  0
MTEXT
  5
46
330
1F
100
AcDbEntity
  8
0
  6
CONTINUOUS
 62
     7
100
AcDbMText
 10
21.0749738939
 20
420.1943533659
 30
0.0
 40
9.525
 41
0.0
 71
     1
 72
     1
  1
kit saune
  7
SLDTEXTSTYLE0
  0
ARC
  5
47
330
1F
100
AcDbEntity
  8
0
  6
CONTINUOUS
 62
     7
100
AcDbCircle
 10
74.8413889357
 20
162.9429230871
 30
0.0
 40
35.00000000000001
100
AcDbArc
 50
169.4116498625
 51
211.9941469076
  0
ARC
  5
48
330
1F
100
AcDbEntity
  8
0
  6
CONTINUOUS
 62
     7
100
AcDbCircle
 10
74.8413889357
 20
162.9429230871
 30
0.0
 40
35.00000000000001
100
AcDbArc
 50
211.9941469076
 51
219.6099875357
  0
SPLINE
  5
49
330
1F
100
AcDbEntity
  8
0
  6
CONTINUOUS
 62
     7
100
AcDbSpline
210
0.0
220
0.0
230
1.0
 70
     8
 71
     3
 72
    53
 73
    49
 74
     0
 42
0.00000001
 43
0.00000001
 12
1.0
 22
0.0
 32
0.0
 13
1.0
 23
0.0
 33
0.0
 40
0.0
 40
0.0
 40
0.0
 40
0.0
 40
0.0198462252216368
 40
0.0437723011584119
 40
0.0675580561067217
 40
0.0886543851651702
 40
0.1117194365258269
 40
0.1343673322299793
 40
0.1565272567049577
 40
0.1782280838009149
 40
0.1995272947512993
 40
0.2204975160103528
 40
0.2412197820230081
 40
0.2617719630619393
 40
0.282228308383753
 40
0.3026841643649208
 40
0.3232364759258893
 40
0.3439809561008509
 40
0.3650063844236965
 40
0.3863852169391709
 40
0.4081611401062247
 40
0.4303371887541294
 40
0.4528714268758727
 40
0.4756869200834556
 40
0.4986952672000605
 40
0.5218158848526873
 40
0.5450072499747515
 40
0.5682712487638157
 40
0.591631553246715
 40
0.6151115273118913
 40
0.6387396958693783
 40
0.6625271482575206
 40
0.6864391084631984
 40
0.7103732434482906
 40
0.7341908063311698
 40
0.7577374096486044
 40
0.7784890022038633
 40
0.8011537325026986
 40
0.823387319311798
 40
0.845156293871531
 40
0.8665135016198088
 40
0.8875297514059315
 40
0.9082850368073202
 40
0.9288605012283161
 40
0.9493255530090075
 40
0.9697751369983292
 40
0.990306079206773
 40
1.0
 40
1.0
 40
1.0
 40
1.0
 10
47.58704063044425
 20
141.0195006934243
 30
0.0
 10
48.13868753234358
 20
140.3503794332163
 30
0.0
 10
49.35538511857862
 20
138.874583558372
 30
0.0
 10
51.49407598623392
 20
136.8763334324908
 30
0.0
 10
53.84215850964032
 20
135.0754512609302
 30
0.0
 10
56.32978572996683
 20
133.5688345424371
 30
0.0
 10
58.91560497636274
 20
132.3666855516758
 30
0.0
 10
61.66463396346152
 20
131.4684413437399
 30
0.0
 10
64.44317277820552
 20
130.9208992068741
 30
0.0
 10
67.21026930878683
 20
130.7206173019098
 30
0.0
 10
69.93088835535521
 20
130.8573565610071
 30
0.0
 10
72.57390926758727
 20
131.3170136155186
 30
0.0
 10
75.1116584744773
 20
132.0829250607974
 30
0.0
 10
77.51962115467636
 20
133.1367328352901
 30
0.0
 10
79.77714683986221
 20
134.4594377378887
 30
0.0
 10
81.8673975011977
 20
136.0326962138237
 30
0.0
 10
83.77677732110413
 20
137.8400026595097
 30
0.0
 10
85.49333246510436
 20
139.866593125286
 30
0.0
 10
87.00572886646223
 20
142.0990466679213
 30
0.0
 10
88.30230608646659
 20
144.5240746145788
 30
0.0
 10
89.37056727138487
 20
147.1265060916658
 30
0.0
 10
90.19750377273309
 20
149.8869306953401
 30
0.0
 10
90.77089226591076
 20
152.7799743322321
 30
0.0
 10
91.08113147010273
 20
155.7742590398242
 30
0.0
 10
91.12269484511096
 20
158.8340328832679
 30
0.0
 10
90.89454261735584
 20
161.9225360881782
 30
0.0
 10
90.39909117567306
 20
165.0050926535681
 30
0.0
 10
89.6403837997861
 20
168.050403031955
 30
0.0
 10
88.62281496500434
 20
171.0292028070203
 30
0.0
 10
87.35069565965848
 20
173.9128351224479
 30
0.0
 10
85.82849254484857
 20
176.671783012123
 30
0.0
 10
84.06194884588247
 20
179.274074598116
 30
0.0
 10
82.06108944860468
 20
181.6833037881438
 30
0.0
 10
79.8431988190881
 20
183.8597179823785
 30
0.0
 10
77.43489819888106
 20
185.7635394858189
 30
0.0
 10
74.95809595500702
 20
187.3059308425339
 30
0.0
 10
72.38108898835847
 20
188.540822135368
 30
0.0
 10
69.73817062429025
 20
189.4591551511945
 30
0.0
 10
66.96376612244042
 20
190.0606931935185
 30
0.0
 10
64.1925429220302
 20
190.3144585614015
 30
0.0
 10
61.46255038569094
 20
190.2293108116098
 30
0.0
 10
58.80557637431171
 20
189.818846842132
 30
0.0
 10
56.24965478306654
 20
189.0994346520044
 30
0.0
 10
53.82016584421527
 20
188.0890212470432
 30
0.0
 10
51.53741773216785
 20
186.807361794175
 30
0.0
 10
49.42236334262049
 20
185.2701398254469
 30
0.0
 10
47.82345107138966
 20
183.8201789994283
 30
0.0
 10
46.95754637291055
 20
182.8702937380349
 30
0.0
 10
46.67982761001407
 20
182.5656401657063
 30
0.0
  0
SPLINE
  5
4A
330
1F
100
AcDbEntity
  8
0
  6
CONTINUOUS
 62
     7
100
AcDbSpline
210
0.0
220
0.0
230
1.0
 70
     8
 71
     3
 72
    13
 73
     9
 74
     0
 42
0.00000001
 43
0.00000001
 12
1.0
 22
0.0
 32
0.0
 13
1.0
 23
0.0
 33
0.0
 40
0.0
 40
0.0
 40
0.0
 40
0.0
 40
0.1475424900089276
 40
0.327013770835431
 40
0.5088267359556636
 40
0.6940551225737159
 40
0.8826463649496126
 40
1.0
 40
1.0
 40
1.0
 40
1.0
 10
46.67982761001407
 20
182.5656401657063
 30
0.0
 10
46.20457995451571
 20
181.9977765020294
 30
0.0
 10
45.151239131165
 20
180.7391611840408
 30
0.0
 10
43.75943342934676
 20
178.5845451875168
 30
0.0
 10
42.49017004970543
 20
176.1315155114962
 30
0.0
 10
41.46776034299758
 20
173.5003358698003
 30
0.0
 10
40.75345305310338
 20
171.0908310336157
 30
0.0
 10
40.49229032059208
 20
169.5344263172791
 30
0.0
 10
40.39211411807574
 20
168.9374241624852
 30
0.0
  0
LINE
  5
4B
330
1F
100
AcDbEntity
  8
0
  6
CONTINUOUS
 62
     7
100
AcDbLine
 10
90.7595286804
 20
153.1180053889
 30
0.0
 11
92.3661224551
 21
153.5338224555
 31
0.0
  0
LINE
  5
4C
330
1F
100
AcDbEntity
  8
0
  6
CONTINUOUS
 62
     7
100
AcDbLine
 10
85.6009266638
 20
179.6725317945
 30
0.0
 11
84.0072446865
 21
179.2600565469
 31
0.0
  0
SPLINE
  5
4D
330
1F
100
AcDbEntity
  8
0
  6
CONTINUOUS
 62
     7
100
AcDbSpline
210
0.0
220
0.0
230
1.0
 70
     8
 71
     3
 72
    10
 73
     6
 74
     0
 42
0.00000001
 43
0.00000001
 12
1.0
 22
0.0
 32
0.0
 13
1.0
 23
0.0
 33
0.0
 40
0.0
 40
0.0
 40
0.0
 40
0.0
 40
0.4247293139746034
 40
0.866253015013407
 40
1.0
 40
1.0
 40
1.0
 40
1.0
 10
86.70822111694913
 20
181.501037228948
 30
0.0
 10
86.21990400971596
 20
181.352142308798
 30
0.0
 10
85.22396105851045
 20
181.048464956526
 30
0.0
 10
84.14821230317874
 20
180.4615173985846
 30
0.0
 10
83.61668210404301
 20
179.9884615112047
 30
0.0
 10
83.49310451997577
 20
179.8784788539893
 30
0.0
  0
SPLINE
  5
4E
330
1F
100
AcDbEntity
  8
0
  6
CONTINUOUS
 62
     7
100
AcDbSpline
210
0.0
220
0.0
230
1.0
 70
     8
 71
     3
 72
    10
 73
     6
 74
     0
 42
0.00000001
 43
0.00000001
 12
1.0
 22
0.0
 32
0.0
 13
1.0
 23
0.0
 33
0.0
 40
0.0
 40
0.0
 40
0.0
 40
0.0
 40
0.2070691140484784
 40
0.6634492010236455
 40
0.9999999999999999
 40
0.9999999999999999
 40
0.9999999999999999
 40
0.9999999999999999
 10
90.63668262316682
 20
152.3379698553421
 30
0.0
 10
90.88620150921514
 20
152.2873736181873
 30
0.0
 10
91.68565973044616
 20
152.1252633330808
 30
0.0
 10
92.90568364724065
 20
152.1620783561224
 30
0.0
 10
93.82623553660092
 20
152.3960557740111
 30
0.0
 10
94.21695366771723
 20
152.4953649172517
 30
0.0
  0
LINE
  5
4F
330
1F
100
AcDbEntity
  8
0
  6
CONTINUOUS
 62
     7
100
AcDbLine
 10
94.1112730595
 20
152.43607451
 30
0.0
 11
94.8632870093
 21
152.6307100424
 31
0.0
  0
LINE
  5
50
330
1F
100
AcDbEntity
  8
0
  6
CONTINUOUS
 62
     7
100
AcDbLine
 10
87.3464027967
 20
181.673720419
 30
0.0
 11
86.5943888469
 21
181.4790848866
 31
0.0
  0
LINE
  5
51
330
1F
100
AcDbEntity
  8
0
  6
CONTINUOUS
 62
     7
100
AcDbLine
 10
96.5836981208
 20
184.0645083741
 30
0.0
 11
95.831684171
 21
183.8698728417
 31
0.0
  0
LINE
  5
52
330
1F
100
AcDbEntity
  8
0
  6
CONTINUOUS
 62
     7
100
AcDbLine
 10
103.3485683835
 20
154.8268624651
 30
0.0
 11
104.1005823333
 21
155.0214979975
 31
0.0
  0
SPLINE
  5
53
330
1F
100
AcDbEntity
  8
0
  6
CONTINUOUS
 62
     7
100
AcDbSpline
210
0.0
220
0.0
230
1.0
 70
     8
 71
     3
 72
    29
 73
    25
 74
     0
 42
0.00000001
 43
0.00000001
 12
1.0
 22
0.0
 32
0.0
 13
1.0
 23
0.0
 33
0.0
 40
0.0
 40
0.0
 40
0.0
 40
0.0
 40
0.0231490382389444
 40
0.0678425816151807
 40
0.1125503161689687
 40
0.15774484721955
 40
0.2036951891436992
 40
0.250408249359031
 40
0.2976941821817858
 40
0.3453040453605901
 40
0.3930338675075415
 40
0.440767194326612
 40
0.4884897404375676
 40
0.536224727973184
 40
0.5840110376213856
 40
0.6318821079582568
 40
0.6798790856934964
 40
0.7280214393205122
 40
0.7762760860593311
 40
0.8244681497692282
 40
0.8723213201116905
 40
0.9194911820152151
 40
0.9657324423087591
 40
1.0
 40
1.0
 40
1.0
 40
1.0
 10
104.0457314310278
 20
155.0485161686339
 30
0.0
 10
104.3146093538298
 20
155.1090256865589
 30
0.0
 10
105.1026063424706
 20
155.2863601341482
 30
0.0
 10
106.3095726696639
 20
155.9101115152602
 30
0.0
 10
107.626853108209
 20
156.8724788568721
 30
0.0
 10
108.7818695732106
 20
158.1066091344196
 30
0.0
 10
109.7623145454671
 20
159.5742589525557
 30
0.0
 10
110.5475758672325
 20
161.257594096295
 30
0.0
 10
111.1195749180797
 20
163.1228214312832
 30
0.0
 10
111.4641454928825
 20
165.1295207636512
 30
0.0
 10
111.5737476810567
 20
167.2317885172525
 30
0.0
 10
111.4472356315491
 20
169.3829405651785
 30
0.0
 10
111.0885775954094
 20
171.5373539423962
 30
0.0
 10
110.5056290343692
 20
173.6510071393589
 30
0.0
 10
109.7096297904093
 20
175.6809598465481
 30
0.0
 10
108.7148310092451
 20
177.5858111552459
 30
0.0
 10
107.5381762068495
 20
179.3259768612747
 30
0.0
 10
106.1992184302225
 20
180.8636022125356
 30
0.0
 10
104.7213063252692
 20
182.1621892029097
 30
0.0
 10
103.1335976023975
 20
183.1858767831481
 30
0.0
 10
101.4716930993954
 20
183.9081530968531
 30
0.0
 10
99.7823511896244
 20
184.2937405863731
 30
0.0
 10
98.23670618861202
 20
184.3791607244857
 30
0.0
 10
97.29652385565089
 20
184.1891102269322
 30
0.0
 10
96.89634716517806
 20
184.1082176420926
 30
0.0
  0
SPLINE
  5
54
330
1F
100
AcDbEntity
  8
0
  6
CONTINUOUS
 62
     7
100
AcDbSpline
210
0.0
220
0.0
230
1.0
 70
     8
 71
     3
 72
    28
 73
    24
 74
     0
 42
0.00000001
 43
0.00000001
 12
1.0
 22
0.0
 32
0.0
 13
1.0
 23
0.0
 33
0.0
 40
0.0
 40
0.0
 40
0.0
 40
0.0
 40
0.043532142610867
 40
0.0971126914095283
 40
0.1503426334428897
 40
0.1975052430637528
 40
0.2490674021608747
 40
0.2996871525540858
 40
0.3492169446687746
 40
0.3977293849972908
 40
0.4453577770153485
 40
0.4922672809763856
 40
0.5386408868928002
 40
0.5846481625249088
 40
0.6304625820790111
 40
0.6762982885016091
 40
0.722372546100858
 40
0.7688988799498798
 40
0.8160735023369269
 40
0.8640534180295774
 40
0.9129281560134449
 40
0.9626940821224049
 40
1.0
 40
1.0
 40
1.0
 40
1.0
 10
142.8668926033945
 20
195.7749982080628
 30
0.0
 10
142.3203636350437
 20
196.4238667725036
 30
0.0
 10
141.1011519016758
 20
197.871380468927
 30
0.0
 10
138.9558191303962
 20
199.8308172896456
 30
0.0
 10
136.5913511092668
 20
201.601827099419
 30
0.0
 10
134.0911420640194
 20
203.0755666468248
 30
0.0
 10
131.4969482275633
 20
204.243252924517
 30
0.0
 10
128.7432348457197
 20
205.1051266450337
 30
0.0
 10
125.9641568645059
 20
205.616399325154
 30
0.0
 10
123.2003150428126
 20
205.7812339668067
 30
0.0
 10
120.4863507173135
 20
205.6103557024974
 30
0.0
 10
117.8529890904347
 20
205.1181824764088
 30
0.0
 10
115.3276190787941
 20
204.3215965035466
 30
0.0
 10
112.9343481830144
 20
203.2390744474582
 30
0.0
 10
110.6934412136269
 20
201.8896179909496
 30
0.0
 10
108.6213099503121
 20
200.2913980061081
 30
0.0
 10
106.7313872017135
 20
198.4607272754422
 30
0.0
 10
105.0353185913156
 20
196.4122515753215
 30
0.0
 10
103.5451762079789
 20
194.1591096732621
 30
0.0
 10
102.2698516720291
 20
191.7154342508263
 30
0.0
 10
101.2328215961752
 20
189.093837206601
 30
0.0
 10
100.4788048817856
 20
186.5711876630591
 30
0.0
 10
100.1923988795301
 20
184.8952320425828
 30
0.0
 10
100.0696882728563
 20
184.1771691202718
 30
0.0
  0
SPLINE
  5
55
330
1F
100
AcDbEntity
  8
0
  6
CONTINUOUS
 62
     7
100
AcDbSpline
210
0.0
220
0.0
230
1.0
 70
     8
 71
     3
 72
    16
 73
    12
 74
     0
 42
0.00000001
 43
0.00000001
 12
1.0
 22
0.0
 32
0.0
 13
1.0
 23
0.0
 33
0.0
 40
0.0
 40
0.0
 40
0.0
 40
0.0
 40
0.1068802512071842
 40
0.2346556551369182
 40
0.3617234354233311
 40
0.4744827109069354
 40
0.5977655576394265
 40
0.7188311061382058
 40
0.8372882635229549
 40
0.9532817200759692
 40
1.0
 40
1.0
 40
1.0
 40
1.0
 10
107.1945609826439
 20
156.6166758782038
 30
0.0
 10
107.7477485595436
 20
155.9387245328345
 30
0.0
 10
108.9622722138657
 20
154.4502819505823
 30
0.0
 10
111.0966532709756
 20
152.4342176519905
 30
0.0
 10
113.4366647677129
 20
150.6189913665646
 30
0.0
 10
115.9180681946155
 20
149.0964847022972
 30
0.0
 10
118.4996681497702
 20
147.8779331395856
 30
0.0
 10
121.246348622599
 20
146.9612250135375
 30
0.0
 10
124.0241958519586
 20
146.399282280167
 30
0.0
 10
126.2600672282558
 20
146.214459847336
 30
0.0
 10
127.5544251459403
 20
146.2377392811812
 30
0.0
 10
127.9260650585216
 20
146.2444233417806
 30
0.0
  0
SPLINE
  5
56
330
1F
100
AcDbEntity
  8
0
  6
CONTINUOUS
 62
     7
100
AcDbSpline
210
0.0
220
0.0
230
1.0
 70
     8
 71
     3
 72
    20
 73
    16
 74
     0
 42
0.00000001
 43
0.00000001
 12
1.0
 22
0.0
 32
0.0
 13
1.0
 23
0.0
 33
0.0
 40
0.0
 40
0.0
 40
0.0
 40
0.0
 40
0.072868829334112
 40
0.152582106442186
 40
0.2315049852643839
 40
0.3098414985173176
 40
0.3879049881926533
 40
0.4660617149391944
 40
0.5446819815293485
 40
0.6241269992004701
 40
0.7047236583811665
 40
0.7867250870977639
 40
0.8702617934741089
 40
0.9553008254041674
 40
1.0
 40
1.0
 40
1.0
 40
1.0
 10
127.9260650585216
 20
146.2444233417806
 30
0.0
 10
128.7359124370255
 20
146.2972249809645
 30
0.0
 10
130.4316748094693
 20
146.4077878293579
 30
0.0
 10
132.9603782727921
 20
146.9465379963287
 30
0.0
 10
135.4661911635447
 20
147.7836335796818
 30
0.0
 10
137.8371553877511
 20
148.9097788599727
 30
0.0
 10
140.0529971982881
 20
150.2984176344201
 30
0.0
 10
142.0978545878942
 20
151.9335966228639
 30
0.0
 10
143.9585841093329
 20
153.7987611726524
 30
0.0
 10
145.6237814639189
 20
155.8796233691066
 30
0.0
 10
147.0809916726469
 20
158.163205269812
 30
0.0
 10
148.3226348556403
 20
160.6348313921215
 30
0.0
 10
149.3196258119098
 20
163.2827904244484
 30
0.0
 10
149.9907546657824
 20
165.6143950109989
 30
0.0
 10
150.2249818547827
 20
167.0835846152342
 30
0.0
 10
150.3056809972834
 20
167.589769835399
 30
0.0
  0
LINE
  5
57
330
1F
100
AcDbEntity
  8
0
  6
CONTINUOUS
 62
     7
100
AcDbLine
 10
109.8095129751
 20
185.9381749868
 30
0.0
 11
101.5709053233
 21
183.8058664214
 31
0.0
  0
LINE
  5
58
330
1F
100
AcDbEntity
  8
0
  6
CONTINUOUS
 62
     7
100
AcDbLine
 10
108.2939659457
 20
157.6562516983
 30
0.0
 11
116.5747087664
 21
159.7994656479
 31
0.0
  0
ARC
  5
59
330
1F
100
AcDbEntity
  8
0
  6
CONTINUOUS
 62
     7
100
AcDbCircle
 10
115.8535822445
 20
173.5576597969
 30
0.0
 40
35.00000000000002
100
AcDbArc
 50
349.4116498625
 51
8.557350779
  0
ARC
  5
5A
330
1F
100
AcDbEntity
  8
0
  6
CONTINUOUS
 62
     7
100
AcDbCircle
 10
115.8535822445
 20
173.5576597969
 30
0.0
 40
35.00000000000001
100
AcDbArc
 50
8.557350779
 51
39.6099875357
  0
LINE
  5
5B
330
1F
100
AcDbEntity
  8
0
  6
CONTINUOUS
 62
     7
100
AcDbLine
 10
-38.4523733687
 20
149.1238641724
 30
0.0
 11
-38.4523733687
 21
162.3165599842
 31
0.0
  0
LINE
  5
5C
330
1F
100
AcDbEntity
  8
0
  6
CONTINUOUS
 62
     7
100
AcDbLine
 10
-42.3282732285
 20
178.5210961115
 30
0.0
 11
-45.8638071344
 21
179.436159621
 31
0.0
  0
LINE
  5
5D
330
1F
100
AcDbEntity
  8
0
  6
CONTINUOUS
 62
     7
100
AcDbLine
 10
-38.4523733687
 20
81.6463406204
 30
0.0
 11
-38.4523733687
 21
88.2265847445
 31
0.0
  0
LINE
  5
5E
330
1F
100
AcDbEntity
  8
0
  6
CONTINUOUS
 62
     7
100
AcDbLine
 10
-66.2793121252
 20
84.1578308058
 30
0.0
 11
-54.628841195
 21
81.1424670446
 31
0.0
  0
LINE
  5
5F
330
1F
100
AcDbEntity
  8
0
  6
CONTINUOUS
 62
     7
100
AcDbLine
 10
-73.4257159138
 20
72.9451215735
 30
0.0
 11
-69.8901820079
 21
72.030058064
 31
0.0
  0
LINE
  5
60
330
1F
100
AcDbEntity
  8
0
  6
CONTINUOUS
 62
     7
100
AcDbLine
 10
-38.4523733687
 20
298.8423672472
 30
0.0
 11
-38.4523733687
 21
312.035063059
 31
0.0
  0
LINE
  5
61
330
1F
100
AcDbEntity
  8
0
  6
CONTINUOUS
 62
     7
100
AcDbLine
 10
-42.3282732285
 20
328.2395991863
 30
0.0
 11
-45.8638071344
 21
329.1546626958
 31
0.0
  0
LINE
  5
62
330
1F
100
AcDbEntity
  8
0
  6
CONTINUOUS
 62
     7
100
AcDbLine
 10
-38.4523733687
 20
231.3648436953
 30
0.0
 11
-38.4523733687
 21
237.9450878193
 31
0.0
  0
LINE
  5
63
330
1F
100
AcDbEntity
  8
0
  6
CONTINUOUS
 62
     7
100
AcDbLine
 10
-66.2793121252
 20
233.8763338806
 30
0.0
 11
-54.628841195
 21
230.8609701195
 31
0.0
  0
LINE
  5
64
330
1F
100
AcDbEntity
  8
0
  6
CONTINUOUS
 62
     7
100
AcDbLine
 10
-73.4257159138
 20
222.6636246483
 30
0.0
 11
-69.8901820079
 21
221.7485611388
 31
0.0
  0
LINE
  5
65
330
1F
100
AcDbEntity
  8
0
  6
CONTINUOUS
 62
     7
100
AcDbLine
 10
27.5833962367
 20
91.3283167167
 30
0.0
 11
29.4582357601
 21
91.8135608919
 31
0.0
  0
LINE
  5
66
330
1F
100
AcDbEntity
  8
0
  6
CONTINUOUS
 62
     7
100
AcDbLine
 10
27.5833962367
 20
241.0468197915
 30
0.0
 11
29.4582357601
 21
241.5320639667
 31
0.0
  0
LINE
  5
67
330
1F
100
AcDbEntity
  8
0
  6
CONTINUOUS
 62
     7
100
AcDbLine
 10
-65.1663643943
 20
104.0938274173
 30
0.0
 11
-65.719728975
 21
104.2370487096
 31
0.0
  0
LINE
  5
68
330
1F
100
AcDbEntity
  8
0
  6
CONTINUOUS
 62
     7
100
AcDbLine
 10
-66.7219802033
 20
100.3646473261
 30
0.0
 11
-66.1686156226
 21
100.2214260337
 31
0.0
  0
LINE
  5
69
330
1F
100
AcDbEntity
  8
0
  6
CONTINUOUS
 62
     7
100
AcDbLine
 10
-65.1663643943
 20
294.3812151962
 30
0.0
 11
-65.719728975
 21
294.5244364886
 31
0.0
  0
LINE
  5
6A
330
1F
100
AcDbEntity
  8
0
  6
CONTINUOUS
 62
     7
100
AcDbLine
 10
-66.7219802033
 20
290.652035105
 30
0.0
 11
-66.1686156226
 21
290.5088138127
 31
0.0
  0
LINE
  5
6B
330
1F
100
AcDbEntity
  8
0
  6
CONTINUOUS
 62
     7
100
AcDbLine
 10
-65.1663643943
 20
253.8123304921
 30
0.0
 11
-65.719728975
 21
253.9555517844
 31
0.0
  0
LINE
  5
6C
330
1F
100
AcDbEntity
  8
0
  6
CONTINUOUS
 62
     7
100
AcDbLine
 10
-66.7219802033
 20
250.0831504009
 30
0.0
 11
-66.1686156226
 21
249.9399291085
 31
0.0
  0
LINE
  5
6D
330
1F
100
AcDbEntity
  8
0
  6
CONTINUOUS
 62
     7
100
AcDbLine
 10
-65.1663643943
 20
144.6627121214
 30
0.0
 11
-65.719728975
 21
144.8059334138
 31
0.0
  0
LINE
  5
6E
330
1F
100
AcDbEntity
  8
0
  6
CONTINUOUS
 62
     7
100
AcDbLine
 10
-66.7219802033
 20
140.9335320302
 30
0.0
 11
-66.1686156226
 21
140.7903107379
 31
0.0
  0
LINE
  5
6F
330
1F
100
AcDbEntity
  8
0
  6
CONTINUOUS
 62
     7
100
AcDbLine
 10
8.7992469361
 20
261.0042046553
 30
0.0
 11
9.063190063
 21
260.8097333795
 31
0.0
  0
LINE
  5
70
330
1F
100
AcDbEntity
  8
0
  6
CONTINUOUS
 62
     7
100
AcDbLine
 10
8.7992469361
 20
111.2857015805
 30
0.0
 11
9.063190063
 21
111.0912303047
 31
0.0
  0
LINE
  5
71
330
1F
100
AcDbEntity
  8
0
  6
CONTINUOUS
 62
     7
100
AcDbLine
 10
11.0867941337
 20
92.5338389319
 30
0.0
 11
12.6520216019
 21
92.1287282532
 31
0.0
  0
LINE
  5
72
330
1F
100
AcDbEntity
  8
0
  6
CONTINUOUS
 62
     7
100
AcDbLine
 10
19.1666545861
 20
117.2993372462
 30
0.0
 11
17.9512885239
 21
117.6138971299
 31
0.0
  0
LINE
  5
73
330
1F
100
AcDbEntity
  8
0
  6
CONTINUOUS
 62
     7
100
AcDbLine
 10
11.0867941337
 20
242.2523420067
 30
0.0
 11
12.6520216019
 21
241.847231328
 31
0.0
  0
LINE
  5
74
330
1F
100
AcDbEntity
  8
0
  6
CONTINUOUS
 62
     7
100
AcDbLine
 10
19.1666545861
 20
267.017840321
 30
0.0
 11
17.9512885239
 21
267.3324002047
 31
0.0
  0
LINE
  5
75
330
1F
100
AcDbEntity
  8
0
  6
CONTINUOUS
 62
     7
100
AcDbLine
 10
-24.6688682148
 20
145.2947558409
 30
0.0
 11
-24.957898128
 21
145.5637284826
 31
0.0
  0
LINE
  5
76
330
1F
100
AcDbEntity
  8
0
  6
CONTINUOUS
 62
     7
100
AcDbLine
 10
-31.8946160448
 20
145.5637284826
 30
0.0
 11
-32.183645958
 21
145.2947558409
 31
0.0
  0
LINE
  5
77
330
1F
100
AcDbEntity
  8
0
  6
CONTINUOUS
 62
     7
100
AcDbLine
 10
-32.3262570864
 20
145.0242894599
 30
0.0
 11
-32.3262570864
 21
144.7330198926
 31
0.0
  0
LINE
  5
78
330
1F
100
AcDbEntity
  8
0
  6
CONTINUOUS
 62
     7
100
AcDbLine
 10
-24.5262570864
 20
144.7330198926
 30
0.0
 11
-24.5262570864
 21
145.0242894599
 31
0.0
  0
LINE
  5
79
330
1F
100
AcDbEntity
  8
0
  6
CONTINUOUS
 62
     7
100
AcDbLine
 10
-24.6688682148
 20
295.0132589157
 30
0.0
 11
-24.957898128
 21
295.2822315574
 31
0.0
  0
LINE
  5
7A
330
1F
100
AcDbEntity
  8
0
  6
CONTINUOUS
 62
     7
100
AcDbLine
 10
-31.8946160448
 20
295.2822315574
 30
0.0
 11
-32.183645958
 21
295.0132589157
 31
0.0
  0
LINE
  5
7B
330
1F
100
AcDbEntity
  8
0
  6
CONTINUOUS
 62
     7
100
AcDbLine
 10
-32.3262570864
 20
294.7427925347
 30
0.0
 11
-32.3262570864
 21
294.4515229674
 31
0.0
  0
LINE
  5
7C
330
1F
100
AcDbEntity
  8
0
  6
CONTINUOUS
 62
     7
100
AcDbLine
 10
-24.5262570864
 20
294.4515229674
 30
0.0
 11
-24.5262570864
 21
294.7427925347
 31
0.0
  0
LINE
  5
7D
330
1F
100
AcDbEntity
  8
0
  6
CONTINUOUS
 62
     7
100
AcDbLine
 10
-62.3877097595
 20
244.1400087282
 30
0.0
 11
6.0378514506
 21
226.4301703152
 31
0.0
  0
LINE
  5
7E
330
1F
100
AcDbEntity
  8
0
  6
CONTINUOUS
 62
     7
100
AcDbLine
 10
-62.465967584
 20
297.5594093848
 30
0.0
 11
-62.465967584
 21
244.5169380079
 31
0.0
  0
LINE
  5
7F
330
1F
100
AcDbEntity
  8
0
  6
CONTINUOUS
 62
     7
100
AcDbLine
 10
-62.3877097595
 20
94.4215056534
 30
0.0
 11
6.0378514506
 21
76.7116672404
 31
0.0
  0
LINE
  5
80
330
1F
100
AcDbEntity
  8
0
  6
CONTINUOUS
 62
     7
100
AcDbLine
 10
-62.465967584
 20
147.84090631
 30
0.0
 11
-62.465967584
 21
94.7984349331
 31
0.0
  0
ARC
  5
81
330
1F
100
AcDbEntity
  8
0
  6
CONTINUOUS
 62
     7
100
AcDbCircle
 10
97.1419552285
 20
168.0827672006
 30
0.0
 40
6.052404407676393
100
AcDbArc
 50
318.9923169778
 51
16.8596902993
  0
ARC
  5
82
330
1F
100
AcDbEntity
  8
0
  6
CONTINUOUS
 62
     7
100
AcDbCircle
 10
96.7019522286
 20
169.0752756545
 30
0.0
 40
6.278778009882412
100
AcDbArc
 50
6.9786119173
 51
69.4837332821
  0
SPLINE
  5
83
330
1F
100
AcDbEntity
  8
0
  6
CONTINUOUS
 62
     7
100
AcDbSpline
210
0.0
220
0.0
230
1.0
 70
     8
 71
     3
 72
    11
 73
     7
 74
     0
 42
0.00000001
 43
0.00000001
 12
1.0
 22
0.0
 32
0.0
 13
1.0
 23
0.0
 33
0.0
 40
0.0
 40
0.0
 40
0.0
 40
0.0
 40
0.2276180579300389
 40
0.5665950257064056
 40
0.9245523416838751
 40
0.9999999999999999
 40
0.9999999999999999
 40
0.9999999999999999
 40
0.9999999999999999
 10
102.9818900345295
 20
169.3447121325212
 30
0.0
 10
102.9671337755627
 20
169.7040821447116
 30
0.0
 10
102.930401967003
 20
170.5986388558392
 30
0.0
 10
102.5114019693228
 20
172.0639611650265
 30
0.0
 10
101.9444443470627
 20
173.1582413979798
 30
0.0
 10
101.5566949586708
 20
173.677470653626
 30
0.0
 10
101.4891950795673
 20
173.7678587058895
 30
0.0
  0
SPLINE
  5
84
330
1F
100
AcDbEntity
  8
0
  6
CONTINUOUS
 62
     7
100
AcDbSpline
210
0.0
220
0.0
230
1.0
 70
     8
 71
     3
 72
     9
 73
     5
 74
     0
 42
0.00000001
 43
0.00000001
 12
1.0
 22
0.0
 32
0.0
 13
1.0
 23
0.0
 33
0.0
 40
0.0
 40
0.0
 40
0.0
 40
0.0
 40
0.7577093880358114
 40
1.0
 40
1.0
 40
1.0
 40
1.0
 10
101.4891950795674
 20
173.7678587058895
 30
0.0
 10
101.1308347367592
 20
174.0089542494298
 30
0.0
 10
100.6578825093398
 20
174.3271442406683
 30
0.0
 10
100.1797233999294
 20
174.3381108334313
 30
0.0
 10
100.0638699366941
 20
174.340767935903
 30
0.0
  0
LINE
  5
85
330
1F
100
AcDbEntity
  8
0
  6
CONTINUOUS
 62
     7
100
AcDbLine
 10
40.4373433376
 20
169.37422517
 30
0.0
 11
40.366538712
 21
168.9805331727
 31
0.0
  0
LINE
  5
86
330
1F
100
AcDbEntity
  8
0
  6
CONTINUOUS
 62
     7
100
AcDbLine
 10
47.595806954
 20
140.9738831344
 30
0.0
 11
47.8773147965
 21
140.6283828541
 31
0.0
  0
LWPOLYLINE
  5
87
330
1F
100
AcDbEntity
  8
0
  6
CONTINUOUS
 62
     7
100
AcDbPolyline
 90
       21
 70
   128
 43
0.0
 10
92.3661224551
 20
153.5338224555
 10
93.2523709191
 20
153.8348329683
 10
94.5995014703
 20
154.6050537517
 10
95.7934428111
 20
155.702552064
 10
96.8016273342
 20
157.097391012
 10
97.5965543938
 20
158.7515230256
 10
98.1565404521
 20
160.6198276952
 10
98.4663105491
 20
162.6513425398
 10
98.517414964
 20
164.7906531303
 10
98.3084597017
 20
166.9794046504
 10
97.845144517
 20
169.1578936644
 10
97.1401074404
 20
171.2666966708
 10
96.2125800455
 20
173.2482910209
 10
95.0878628616
 20
175.0486239865
 10
93.7966352416
 20
176.6185871773
 10
92.3741185091
 20
177.9153560901
 10
90.8591152123
 20
178.9035582494
 10
89.2929506917
 20
179.5562380763
 10
87.7183458329
 20
179.8555921666
 10
86.1782517516
 20
179.793454921
 10
85.6009266638
 20
179.6725317945
  0
LWPOLYLINE
  5
88
330
1F
100
AcDbEntity
  8
0
  6
CONTINUOUS
 62
     7
100
AcDbPolyline
 90
       23
 70
   128
 43
0.0
 10
94.8632870093
 20
152.6307100424
 10
95.3443445871
 20
152.7737955412
 10
96.7787892571
 20
153.4422158117
 10
98.0802414805
 20
154.4319868485
 10
99.2181963202
 20
155.7199092575
 10
100.1659810792
 20
157.2757952289
 10
100.9013804861
 20
159.0631761143
 10
101.4071574021
 20
161.0401572206
 10
101.6714568449
 20
163.1603997863
 10
101.6880838597
 20
165.3742071227
 10
101.4566487233
 20
167.6296894623
 10
100.9825760791
 20
169.8739802105
 10
100.2769777881
 20
172.0544750944
 10
99.3563924762
 20
174.1200651621
 10
98.2423978829
 20
176.0223347331
 10
96.9611050973
 20
177.7166962209
 10
95.5425465362
 20
179.1634352284
 10
94.0199720101
 20
180.3286414193
 10
92.4290693753
 20
181.1850033482
 10
90.8071280413
 20
181.7124486173
 10
89.1921649381
 20
181.8986143564
 10
87.6220334323
 20
181.7391369985
 10
87.3464027967
 20
181.673720419
  0
LINE
  5
89
330
1F
100
AcDbEntity
  8
0
  6
CONTINUOUS
 62
     7
100
AcDbLine
 10
96.5836981208
 20
184.0645083741
 30
0.0
 11
96.8491170933
 21
184.127710609
 31
0.0
  0
LWPOLYLINE
  5
8A
330
1F
100
AcDbEntity
  8
0
  6
CONTINUOUS
 62
     7
100
AcDbPolyline
 90
        3
 70
   128
 43
0.0
 10
101.8085113839
 20
154.6057665951
 10
100.1992316524
 20
154.7257430855
 10
98.7447202532
 20
155.1243846458
  0
LWPOLYLINE
  5
8B
330
1F
100
AcDbEntity
  8
0
  6
CONTINUOUS
 62
     7
100
AcDbPolyline
 90
       27
 70
   128
 43
0.0
 10
91.950250927
 20
181.3761982383
 10
92.382974672
 20
181.8439009055
 10
93.655331073
 20
182.8928650051
 10
95.0667940436
 20
183.6243575666
 10
96.5842800879
 20
184.0212330243
 10
98.1722206192
 20
184.0741889539
 10
99.7933956574
 20
183.7819841132
 10
101.4098062337
 20
183.151467536
 10
102.983565054
 20
182.1974179966
 10
104.4777845456
 20
180.9421976075
 10
105.8574414699
 20
179.4152276707
 10
107.090197838
 20
177.6522990674
 10
108.1471588856
 20
175.6947333498
 10
109.0035503413
 20
173.5884141993
 10
109.6392991155
 20
171.3827119514
 10
110.0395037957
 20
169.1293263974
 10
110.1947839232
 20
166.8810749847
 10
110.1014998637
 20
164.6906548211
 10
109.7618381163
 20
162.6094074985
 10
109.1837600645
 20
160.6861156903
 10
108.380815368
 20
158.9658597263
 10
107.3718243698
 20
157.4889609484
 10
106.1804369638
 20
156.290036612
 10
104.834578261
 20
155.3971884875
 10
103.3657940487
 20
154.8313441782
 10
101.8085113839
 20
154.6057665951
 10
101.8085113839
 20
154.6057665951
  0
LINE
  5
8C
330
1F
100
AcDbEntity
  8
0
  6
CONTINUOUS
 62
     7
100
AcDbLine
 10
150.3320555751
 20
167.5410604337
 30
0.0
 11
150.2576278427
 21
167.126357714
 31
0.0
  0
ARC
  5
8D
330
1F
100
AcDbEntity
  8
0
  6
CONTINUOUS
 62
     7
100
AcDbCircle
 10
-130.4580953542
 20
108.0660599623
 30
0.0
 40
157.5411446286246
100
AcDbArc
 50
352.0936975028
 51
7.9063024972
  0
ARC
  5
8E
330
1F
100
AcDbEntity
  8
0
  6
CONTINUOUS
 62
     7
100
AcDbCircle
 10
18.4280002022
 20
128.7774372597
 30
0.0
 40
7.221470819953963
100
AcDbArc
 50
7.6310019163
 51
26.9848993673
  0
ARC
  5
8F
330
1F
100
AcDbEntity
  8
0
  6
CONTINUOUS
 62
     7
100
AcDbCircle
 10
20.992909705
 20
86.9819441574
 30
0.0
 40
4.629869430723201
100
AcDbArc
 50
330.3890349399
 51
352.7258555817
  0
ARC
  5
90
330
1F
100
AcDbEntity
  8
0
  6
CONTINUOUS
 62
     7
100
AcDbCircle
 10
-130.4580953542
 20
257.7845630372
 30
0.0
 40
157.5411446286254
100
AcDbArc
 50
352.0936975028
 51
7.9063024972
  0
ARC
  5
91
330
1F
100
AcDbEntity
  8
0
  6
CONTINUOUS
 62
     7
100
AcDbCircle
 10
18.4280002022
 20
278.4959403345
 30
0.0
 40
7.221470819953458
100
AcDbArc
 50
7.6310019163
 51
26.9848993673
  0
ARC
  5
92
330
1F
100
AcDbEntity
  8
0
  6
CONTINUOUS
 62
     7
100
AcDbCircle
 10
20.992909705
 20
236.7004472322
 30
0.0
 40
4.629869430724601
100
AcDbArc
 50
330.3890349399
 51
352.7258555817
  0
SPLINE
  5
93
330
1F
100
AcDbEntity
  8
0
  6
CONTINUOUS
 62
     7
100
AcDbSpline
210
0.0
220
0.0
230
1.0
 70
     8
 71
     3
 72
    26
 73
    22
 74
     0
 42
0.00000001
 43
0.00000001
 12
1.0
 22
0.0
 32
0.0
 13
1.0
 23
0.0
 33
0.0
 40
0.0
 40
0.0
 40
0.0
 40
0.0
 40
0.0501493195426592
 40
0.1018232215856835
 40
0.1519546533767034
 40
0.2034269040433117
 40
0.2557895104485625
 40
0.3095292473478846
 40
0.3644107683408817
 40
0.420931805184324
 40
0.4748349058906204
 40
0.5304545243685651
 40
0.5818912418671929
 40
0.634865885846496
 40
0.68562222311539
 40
0.737787993283583
 40
0.7897067413672696
 40
0.8430777401920904
 40
0.8958828124664882
 40
0.9502508634123071
 40
1.0
 40
1.0
 40
1.0
 40
1.0
 10
-58.93765474291492
 20
157.2949701499128
 30
0.0
 10
-58.46783374195494
 20
157.1958006416891
 30
0.0
 10
-57.51390877701779
 20
156.9944467867914
 30
0.0
 10
-55.8567376926939
 20
156.9261476713298
 30
0.0
 10
-54.07524562394106
 20
157.016886025285
 30
0.0
 10
-52.20216310270888
 20
157.2615423221338
 30
0.0
 10
-50.2502185605095
 20
157.63746572179
 30
0.0
 10
-48.26380622965201
 20
158.1199283111374
 30
0.0
 10
-46.28339246172163
 20
158.6821756816792
 30
0.0
 10
-44.41227494932133
 20
159.2793583462241
 30
0.0
 10
-42.70163390077671
 20
159.8812033762963
 30
0.0
 10
-41.25783554054184
 20
160.4427694437189
 30
0.0
 10
-40.08084298518239
 20
160.9625949924604
 30
0.0
 10
-39.21819813844965
 20
161.4234333259582
 30
0.0
 10
-38.6555108116481
 20
161.8434194886741
 30
0.0
 10
-38.40957316066938
 20
162.2248970528026
 30
0.0
 10
-38.48711702518741
 20
162.5871489185088
 30
0.0
 10
-38.8935956613314
 20
162.9378925338723
 30
0.0
 10
-39.63777541694373
 20
163.2931743696834
 30
0.0
 10
-40.65251482000662
 20
163.6476067717814
 30
0.0
 10
-41.54205370370484
 20
163.8885268478786
 30
0.0
 10
-41.96709199443781
 20
164.0036429594104
 30
0.0
  0
LINE
  5
94
330
1F
100
AcDbEntity
  8
0
  6
CONTINUOUS
 62
     7
100
AcDbLine
 10
-58.9376547429
 20
157.2949701499
 30
0.0
 11
-67.0693827266
 21
159.3996162217
 31
0.0
  0
LINE
  5
95
330
1F
100
AcDbEntity
  8
0
  6
CONTINUOUS
 62
     7
100
AcDbLine
 10
-41.9670919944
 20
164.0036429594
 30
0.0
 11
-50.0988199781
 21
166.1082890312
 31
0.0
  0
LWPOLYLINE
  5
96
330
1F
100
AcDbEntity
  8
0
  6
CONTINUOUS
 62
     7
100
AcDbPolyline
 90
       14
 70
   128
 43
0.0
 10
-58.9376547429
 20
146.9277117497
 10
-57.2676496507
 20
146.5675493402
 10
-55.3740013541
 20
146.2912723694
 10
-53.3188498977
 20
146.1079468626
 10
-51.1696350506
 20
146.0235886439
 10
-48.9968832705
 20
146.0409659272
 10
-46.8718933794
 20
146.1595084772
 10
-44.8643968936
 20
146.3753263216
 10
-43.0402697847
 20
146.6813374006
 10
-41.4593707606
 20
147.0674999645
 10
-40.1735770026
 20
147.5211420937
 10
-39.2250818165
 20
148.0273775275
 10
-38.6450100598
 20
148.5695941567
 10
-38.4523733687
 20
149.1238641724
  0
ARC
  5
97
330
1F
100
AcDbEntity
  8
0
  6
CONTINUOUS
 62
     7
100
AcDbCircle
 10
-67.1309478291
 20
148.2171378044
 30
0.0
 40
0.804641956017841
100
AcDbArc
 50
75.3881619126
 51
85.6118727256
  0
LINE
  5
98
330
1F
100
AcDbEntity
  8
0
  6
CONTINUOUS
 62
     7
100
AcDbLine
 10
-66.9279613703
 20
148.9957552811
 30
0.0
 11
-58.9376547429
 21
146.9277117497
 31
0.0
  0
LINE
  5
99
330
1F
100
AcDbEntity
  8
0
  6
CONTINUOUS
 62
     7
100
AcDbLine
 10
-70.9584700231
 20
170.5332759362
 30
0.0
 11
-74.494003929
 21
171.4483394456
 31
0.0
  0
LWPOLYLINE
  5
9A
330
1F
100
AcDbEntity
  8
0
  6
CONTINUOUS
 62
     7
100
AcDbPolyline
 90
       10
 70
   128
 43
0.0
 10
-74.494003929
 20
171.4483394456
 10
-71.312456953
 20
173.8495306823
 10
-68.0425344617
 20
175.8897355536
 10
-64.7090040785
 20
177.5535007802
 10
-61.3371152168
 20
178.8282243783
 10
-57.9524078314
 20
179.7042511118
 10
-54.5805189697
 20
180.1749456244
 10
-51.2469885865
 20
180.236742699
 10
-47.9770660952
 20
179.8891742612
 10
-45.8638071344
 20
179.436159621
  0
LWPOLYLINE
  5
9B
330
1F
100
AcDbEntity
  8
0
  6
CONTINUOUS
 62
     7
100
AcDbPolyline
 90
       10
 70
   128
 43
0.0
 10
-41.2599852133
 20
178.2198094156
 10
-44.4415321893
 20
178.9741107517
 10
-47.7114546806
 20
179.3216791896
 10
-51.0449850638
 20
179.259882115
 10
-54.4168739255
 20
178.7891876023
 10
-57.8015813108
 20
177.9131608689
 10
-61.1734701726
 20
176.6384372708
 10
-64.5070005558
 20
174.9746720442
 10
-67.776923047
 20
172.9344671728
 10
-70.9584700231
 20
170.5332759362
  0
ARC
  5
9C
330
1F
100
AcDbEntity
  8
0
  6
CONTINUOUS
 62
     7
100
AcDbCircle
 10
-74.9307241998
 20
144.9399172057
 30
0.0
 40
6.507917857196512
100
AcDbArc
 50
307.616442954
 51
331.885273479
  0
LINE
  5
9D
330
1F
100
AcDbEntity
  8
0
  6
CONTINUOUS
 62
     7
100
AcDbLine
 10
-70.9584700231
 20
139.7849010475
 30
0.0
 11
-70.9584700231
 21
170.5332759362
 31
0.0
  0
LINE
  5
9E
330
1F
100
AcDbEntity
  8
0
  6
CONTINUOUS
 62
     7
100
AcDbLine
 10
-41.2599852133
 20
178.2198094156
 30
0.0
 11
-41.2599852133
 21
163.8051758864
 31
0.0
  0
LWPOLYLINE
  5
9F
330
1F
100
AcDbEntity
  8
0
  6
CONTINUOUS
 62
     7
100
AcDbPolyline
 90
       25
 70
   128
 43
0.0
 10
-49.5331345531
 20
172.3761090509
 10
-49.4078453408
 20
171.1085362852
 10
-49.0405159566
 20
169.9922009773
 10
-48.456179291
 20
169.1031795337
 10
-47.694656922
 20
168.5020572964
 10
-46.8078453408
 20
168.2297997527
 10
-45.856179291
 20
168.3049608041
 10
-44.9045132411
 20
168.7224183492
 10
-44.0177016599
 20
169.4537233463
 10
-43.256179291
 20
170.4490385682
 10
-42.6718426253
 20
171.6405349275
 10
-42.3045132411
 20
172.9470139163
 10
-42.1792240288
 20
174.2794411506
 10
-42.3045132411
 20
175.5470139163
 10
-42.6718426253
 20
176.6633492242
 10
-43.256179291
 20
177.5523706679
 10
-44.0177016599
 20
178.1534929051
 10
-44.9045132411
 20
178.4257504489
 10
-45.856179291
 20
178.3505893975
 10
-46.8078453408
 20
177.9331318523
 10
-47.694656922
 20
177.2018268553
 10
-48.456179291
 20
176.2065116333
 10
-49.0405159566
 20
175.015015274
 10
-49.4078453408
 20
173.7085362852
 10
-49.5331345531
 20
172.3761090509
  0
LWPOLYLINE
  5
A0
330
1F
100
AcDbEntity
  8
0
  6
CONTINUOUS
 62
     7
100
AcDbPolyline
 90
       25
 70
   128
 43
0.0
 10
-70.0392312075
 20
167.0687406961
 10
-69.9139419952
 20
165.8011679304
 10
-69.546612611
 20
164.6848326225
 10
-68.9622759454
 20
163.7958111788
 10
-68.2007535765
 20
163.1946889415
 10
-67.3139419952
 20
162.9224313978
 10
-66.3622759454
 20
162.9975924492
 10
-65.4106098955
 20
163.4150499943
 10
-64.5237983143
 20
164.1463549914
 10
-63.7622759454
 20
165.1416702133
 10
-63.1779392798
 20
166.3331665726
 10
-62.8106098955
 20
167.6396455614
 10
-62.6853206832
 20
168.9720727957
 10
-62.8106098955
 20
170.2396455614
 10
-63.1779392798
 20
171.3559808693
 10
-63.7622759454
 20
172.245002313
 10
-64.5237983143
 20
172.8461245503
 10
-65.4106098955
 20
173.118382094
 10
-66.3622759454
 20
173.0432210426
 10
-67.3139419952
 20
172.6257634975
 10
-68.2007535765
 20
171.8944585004
 10
-68.9622759454
 20
170.8991432785
 10
-69.546612611
 20
169.7076469192
 10
-69.9139419952
 20
168.4011679304
 10
-70.0392312075
 20
167.0687406961
  0
LINE
  5
A1
330
1F
100
AcDbEntity
  8
0
  6
CONTINUOUS
 62
     7
100
AcDbLine
 10
-70.8170486668
 20
139.7482985071
 30
0.0
 11
-70.9584700231
 21
139.7849010475
 31
0.0
  0
LINE
  5
A2
330
1F
100
AcDbEntity
  8
0
  6
CONTINUOUS
 62
     7
100
AcDbLine
 10
-70.8170486668
 20
139.7482985071
 30
0.0
 11
-70.8170486668
 21
139.1306425956
 31
0.0
  0
ARC
  5
A3
330
1F
100
AcDbEntity
  8
0
  6
CONTINUOUS
 62
     7
100
AcDbCircle
 10
59.2877995971
 20
121.3957078076
 30
0.0
 40
131.3080327082543
100
AcDbArc
 50
172.2377027773
 51
187.7622972227
  0
LINE
  5
A4
330
1F
100
AcDbEntity
  8
0
  6
CONTINUOUS
 62
     7
100
AcDbLine
 10
-70.8170486668
 20
103.6607730196
 30
0.0
 11
-70.8170486668
 21
103.0431171081
 31
0.0
  0
LINE
  5
A5
330
1F
100
AcDbEntity
  8
0
  6
CONTINUOUS
 62
     7
100
AcDbLine
 10
-70.8170486668
 20
103.0431171081
 30
0.0
 11
-70.9584700231
 21
103.0797196485
 31
0.0
  0
LINE
  5
A6
330
1F
100
AcDbEntity
  8
0
  6
CONTINUOUS
 62
     7
100
AcDbLine
 10
-70.9584700231
 20
72.3313447599
 30
0.0
 11
-70.9584700231
 21
103.0797196485
 31
0.0
  0
LINE
  5
A7
330
1F
100
AcDbEntity
  8
0
  6
CONTINUOUS
 62
     7
100
AcDbLine
 10
-74.494003929
 20
73.2464082693
 30
0.0
 11
-70.9584700231
 21
72.3313447599
 31
0.0
  0
LINE
  5
A8
330
1F
100
AcDbEntity
  8
0
  6
CONTINUOUS
 62
     7
100
AcDbLine
 10
-74.494003929
 20
171.4483394456
 30
0.0
 11
-74.494003929
 21
73.2464082693
 31
0.0
  0
LWPOLYLINE
  5
A9
330
1F
100
AcDbEntity
  8
0
  6
CONTINUOUS
 62
     7
100
AcDbPolyline
 90
       15
 70
   128
 43
0.0
 10
-70.0142888417
 20
167.6592448904
 10
-69.9046679607
 20
167.1677272908
 10
-69.5214642546
 20
166.4834854799
 10
-68.9479593798
 20
166.1084534666
 10
-68.2714642546
 20
166.0997264753
 10
-67.5949691294
 20
166.4586331112
 10
-67.0214642546
 20
167.1305330927
 10
-66.6382605485
 20
168.0131357381
 10
-66.5036973016
 20
168.9720727957
 10
-66.6382605485
 20
169.8613547912
 10
-67.0214642546
 20
170.5455966021
 10
-67.5949691294
 20
170.9206286154
 10
-68.2714642546
 20
170.9293556067
 10
-68.9479593798
 20
170.5704489708
 10
-69.3805155179
 20
170.1079569761
  0
SPLINE
  5
AA
330
1F
100
AcDbEntity
  8
0
  6
CONTINUOUS
 62
     7
100
AcDbSpline
210
0.0
220
0.0
230
1.0
 70
     8
 71
     3
 72
    13
 73
     9
 74
     0
 42
0.00000001
 43
0.00000001
 12
1.0
 22
0.0
 32
0.0
 13
1.0
 23
0.0
 33
0.0
 40
0.0
 40
0.0
 40
0.0
 40
0.0
 40
0.1711350938178822
 40
0.3418242642637646
 40
0.5235231871316783
 40
0.7346287254306689
 40
0.9968674587443728
 40
1.0
 40
1.0
 40
1.0
 40
1.0
 10
-67.06938272656024
 20
159.3996162216734
 30
0.0
 10
-67.18328646743603
 20
159.4327381222619
 30
0.0
 10
-67.41079715243436
 20
159.4988956183493
 30
0.0
 10
-67.83146797870309
 20
159.6627802637615
 30
0.0
 10
-68.27906985239495
 20
159.8610597985283
 30
0.0
 10
-68.76155776674257
 20
160.1025988392699
 30
0.0
 10
-69.0535520712882
 20
160.2707213216921
 30
0.0
 10
-69.18910297679992
 20
160.3564547107609
 30
0.0
 10
-69.19070307011988
 20
160.3574667395823
 30
0.0
  0
SPLINE
  5
AB
330
1F
100
AcDbEntity
  8
0
  6
CONTINUOUS
 62
     7
100
AcDbSpline
210
0.0
220
0.0
230
1.0
 70
     8
 71
     3
 72
    13
 73
     9
 74
     0
 42
0.00000001
 43
0.00000001
 12
1.0
 22
0.0
 32
0.0
 13
1.0
 23
0.0
 33
0.0
 40
0.0
 40
0.0
 40
0.0
 40
0.0
 40
0.1564749921329289
 40
0.3123896137400474
 40
0.5189878509272541
 40
0.7817908134946076
 40
0.9970900847928307
 40
1.0
 40
1.0
 40
1.0
 40
1.0
 10
-50.09881997808308
 20
166.1082890311709
 30
0.0
 10
-50.19030631758628
 20
166.145746645841
 30
0.0
 10
-50.37295136437825
 20
166.2205277314249
 30
0.0
 10
-50.52724495555158
 20
166.4824915868812
 30
0.0
 10
-50.55952194716741
 20
166.8734510496865
 30
0.0
 10
-50.40980558333974
 20
167.3529240475918
 30
0.0
 10
-50.20828357086577
 20
167.6863674773899
 30
0.0
 10
-50.10026051293875
 20
167.8327557844648
 30
0.0
 10
-50.09881997808311
 20
167.8347079367446
 30
0.0
  0
SPLINE
  5
AC
330
1F
100
AcDbEntity
  8
0
  6
CONTINUOUS
 62
     7
100
AcDbSpline
210
0.0
220
0.0
230
1.0
 70
     8
 71
     3
 72
    13
 73
     9
 74
     0
 42
0.00000001
 43
0.00000001
 12
1.0
 22
0.0
 32
0.0
 13
1.0
 23
0.0
 33
0.0
 40
0.0
 40
0.0
 40
0.0
 40
0.0
 40
0.1299960892234924
 40
0.3207447405544694
 40
0.5996000914527168
 40
0.8010995389728541
 40
0.9685817181078592
 40
1.0
 40
1.0
 40
1.0
 40
1.0
 10
-68.52013145166273
 20
147.6838207072334
 30
0.0
 10
-68.50781955449938
 20
147.7810955569073
 30
0.0
 10
-68.4774419001793
 20
148.0211058265045
 30
0.0
 10
-68.21985150946755
 20
148.4138868598025
 30
0.0
 10
-67.84779258794543
 20
148.7615116368018
 30
0.0
 10
-67.44068713767011
 20
148.9761334318387
 30
0.0
 10
-67.19461969137484
 20
149.0255928700566
 30
0.0
 10
-67.0864665739883
 20
149.0202629665004
 30
0.0
 10
-67.0693827265602
 20
149.0194210558707
 30
0.0
  0
LINE
  5
AD
330
1F
100
AcDbEntity
  8
0
  6
CONTINUOUS
 62
     7
100
AcDbLine
 10
-68.5201314517
 20
147.6838207072
 30
0.0
 11
-68.5201314517
 21
142.9982141181
 31
0.0
  0
LINE
  5
AE
330
1F
100
AcDbEntity
  8
0
  6
CONTINUOUS
 62
     7
100
AcDbLine
 10
-68.5201314517
 20
142.9982141181
 30
0.0
 11
-69.1907030701
 21
141.8731351354
 31
0.0
  0
ARC
  5
AF
330
1F
100
AcDbEntity
  8
0
  6
CONTINUOUS
 62
     7
100
AcDbCircle
 10
-71.123076843
 20
169.2525926881
 30
0.0
 40
3.028396012145149
100
AcDbArc
 50
299.5393672842
 51
31.4389953177
  0
ARC
  5
B0
330
1F
100
AcDbEntity
  8
0
  6
CONTINUOUS
 62
     7
100
AcDbCircle
 10
-51.2556359378
 20
125.3244824299
 30
0.0
 40
33.57251260454722
100
AcDbArc
 50
256.7724661385
 51
268.5314859975
  0
LINE
  5
B1
330
1F
100
AcDbEntity
  8
0
  6
CONTINUOUS
 62
     7
100
AcDbLine
 10
-58.9376547429
 20
92.6426803123
 30
0.0
 11
-66.9279613703
 21
94.7107238436
 31
0.0
  0
SPLINE
  5
B2
330
1F
100
AcDbEntity
  8
0
  6
CONTINUOUS
 62
     7
100
AcDbSpline
210
0.0
220
0.0
230
1.0
 70
     8
 71
     3
 72
    22
 73
    18
 74
     0
 42
0.00000001
 43
0.00000001
 12
1.0
 22
0.0
 32
0.0
 13
1.0
 23
0.0
 33
0.0
 40
0.0
 40
0.0
 40
0.0
 40
0.0
 40
0.020386327763705
 40
0.0924856394090155
 40
0.162379810916202
 40
0.2344070054210902
 40
0.3025080624746024
 40
0.3726207227787554
 40
0.4402361607498221
 40
0.5096918558262422
 40
0.5796396647845113
 40
0.6514544934082299
 40
0.7243086395930728
 40
0.79931081004207
 40
0.8712569681573067
 40
0.9455897923376566
 40
1.0
 40
1.0
 40
1.0
 40
1.0
 10
-38.48653758237203
 20
81.64603357870136
 30
0.0
 10
-38.47667395058168
 20
81.58134242567581
 30
0.0
 10
-38.43192610273005
 20
81.2878612886598
 30
0.0
 10
-38.69574753547398
 20
80.79831321624009
 30
0.0
 10
-39.28487132987105
 20
80.22479049333202
 30
0.0
 10
-40.20199046631085
 20
79.77342594010726
 30
0.0
 10
-41.39538390315778
 20
79.45809359238613
 30
0.0
 10
-42.80261951371899
 20
79.2962046873577
 30
0.0
 10
-44.4117053221706
 20
79.28360065648583
 30
0.0
 10
-46.16669871959464
 20
79.41237647124099
 30
0.0
 10
-48.06159616309424
 20
79.67237853023144
 30
0.0
 10
-50.04769768028208
 20
80.04351272675883
 30
0.0
 10
-52.09443764963707
 20
80.50191467595879
 30
0.0
 10
-54.1071311302647
 20
81.00374170868957
 30
0.0
 10
-56.03443343741466
 20
81.50985457711361
 30
0.0
 10
-57.65859919056203
 20
81.94217334530614
 30
0.0
 10
-58.55767960077019
 20
82.17642216861421
 30
0.0
 10
-58.93765474291492
 20
82.27542191204441
 30
0.0
  0
LINE
  5
B3
330
1F
100
AcDbEntity
  8
0
  6
CONTINUOUS
 62
     7
100
AcDbLine
 10
-62.465967584
 20
141.2920614271
 30
0.0
 11
-70.8170486668
 21
139.1306425956
 31
0.0
  0
ARC
  5
B4
330
1F
100
AcDbEntity
  8
0
  6
CONTINUOUS
 62
     7
100
AcDbCircle
 10
-75.2058386263
 20
145.2867737946
 30
0.0
 40
7.066554027096747
100
AcDbArc
 50
308.3939542197
 51
341.1036016171
  0
LWPOLYLINE
  5
B5
330
1F
100
AcDbEntity
  8
0
  6
CONTINUOUS
 62
     7
100
AcDbPolyline
 90
        6
 70
   128
 43
0.0
 10
-67.6350681515
 20
142.5037073182
 10
-67.527417554
 20
143.2708569643
 10
-67.2208545891
 20
143.9769390807
 10
-66.7620506893
 20
144.5144590658
 10
-66.2208545891
 20
144.8015843746
 10
-65.719728975
 20
144.8059334138
  0
ARC
  5
B6
330
1F
100
AcDbEntity
  8
0
  6
CONTINUOUS
 62
     7
100
AcDbCircle
 10
-66.2226511169
 20
142.2744787418
 30
0.0
 40
1.430897487524292
100
AcDbArc
 50
170.7815436005
 51
249.5761503186
  0
LINE
  5
B7
330
1F
100
AcDbEntity
  8
0
  6
CONTINUOUS
 62
     7
100
AcDbLine
 10
-70.8170486668
 20
103.6607730196
 30
0.0
 11
-62.465967584
 21
105.8221918511
 31
0.0
  0
LINE
  5
B8
330
1F
100
AcDbEntity
  8
0
  6
CONTINUOUS
 62
     7
100
AcDbLine
 10
-67.0693827266
 20
84.3800679838
 30
0.0
 11
-66.2793121252
 21
84.1578308058
 31
0.0
  0
LINE
  5
B9
330
1F
100
AcDbEntity
  8
0
  6
CONTINUOUS
 62
     7
100
AcDbLine
 10
-58.9376547429
 20
82.275421912
 30
0.0
 11
-67.0693827266
 21
84.3800679838
 31
0.0
  0
ARC
  5
BA
330
1F
100
AcDbEntity
  8
0
  6
CONTINUOUS
 62
     7
100
AcDbCircle
 10
-66.6962040176
 20
95.5989581394
 30
0.0
 40
0.9179714781941589
100
AcDbArc
 50
246.0132489876
 51
255.3764651448
  0
ARC
  5
BB
330
1F
100
AcDbEntity
  8
0
  6
CONTINUOUS
 62
     7
100
AcDbCircle
 10
-71.6974199291
 20
100.0519984321
 30
0.0
 40
3.118170534058894
100
AcDbArc
 50
36.4952399334
 51
74.5987816343
  0
LWPOLYLINE
  5
BC
330
1F
100
AcDbEntity
  8
0
  6
CONTINUOUS
 62
     7
100
AcDbPolyline
 90
       10
 70
   128
 43
0.0
 10
-70.9584700231
 20
72.3313447599
 10
-67.776923047
 20
71.5770434238
 10
-64.5070005558
 20
71.2294749859
 10
-61.1734701726
 20
71.2912720605
 10
-57.8015813108
 20
71.7619665732
 10
-54.4168739255
 20
72.6379933066
 10
-51.0449850638
 20
73.9127169047
 10
-47.7114546806
 20
75.5764821313
 10
-44.4415321893
 20
77.6166870026
 10
-42.1057705942
 20
79.3374345235
  0
LWPOLYLINE
  5
BD
330
1F
100
AcDbEntity
  8
0
  6
CONTINUOUS
 62
     7
100
AcDbPolyline
 90
       25
 70
   128
 43
0.0
 10
-70.0392312075
 20
76.2717130249
 10
-69.9139419952
 20
75.0041402592
 10
-69.546612611
 20
73.8878049513
 10
-68.9622759454
 20
72.9987835076
 10
-68.2007535765
 20
72.3976612704
 10
-67.3139419952
 20
72.1254037266
 10
-66.3622759454
 20
72.200564778
 10
-65.4106098955
 20
72.6180223232
 10
-64.5237983143
 20
73.3493273202
 10
-63.7622759454
 20
74.3446425421
 10
-63.1779392798
 20
75.5361389015
 10
-62.8106098955
 20
76.8426178903
 10
-62.6853206832
 20
78.1750451246
 10
-62.8106098955
 20
79.4426178903
 10
-63.1779392798
 20
80.5589531982
 10
-63.7622759454
 20
81.4479746418
 10
-64.5237983143
 20
82.0490968791
 10
-65.4106098955
 20
82.3213544228
 10
-66.3622759454
 20
82.2461933714
 10
-67.3139419952
 20
81.8287358263
 10
-68.2007535765
 20
81.0974308292
 10
-68.9622759454
 20
80.1021156073
 10
-69.546612611
 20
78.910619248
 10
-69.9139419952
 20
77.6041402592
 10
-70.0392312075
 20
76.2717130249
  0
LWPOLYLINE
  5
BE
330
1F
100
AcDbEntity
  8
0
  6
CONTINUOUS
 62
     7
100
AcDbPolyline
 90
        9
 70
   128
 43
0.0
 10
-49.3046666827
 20
79.8952939628
 10
-49.0405159566
 20
79.1951733062
 10
-48.456179291
 20
78.3061518625
 10
-47.694656922
 20
77.7050296252
 10
-46.8078453408
 20
77.4327720815
 10
-45.856179291
 20
77.5079331329
 10
-44.9045132411
 20
77.925390678
 10
-44.0177016599
 20
78.6566956751
 10
-43.5244579452
 20
79.2505286204
  0
ARC
  5
BF
330
1F
100
AcDbEntity
  8
0
  6
CONTINUOUS
 62
     7
100
AcDbCircle
 10
-71.7127964929
 20
99.734381732
 30
0.0
 40
3.427841005231099
100
AcDbArc
 50
21.3470854846
 51
74.8518691924
  0
LINE
  5
C0
330
1F
100
AcDbEntity
  8
0
  6
CONTINUOUS
 62
     7
100
AcDbLine
 10
-68.5201314517
 20
100.9821733378
 30
0.0
 11
-68.5201314517
 21
96.2965667487
 31
0.0
  0
LWPOLYLINE
  5
C1
330
1F
100
AcDbEntity
  8
0
  6
CONTINUOUS
 62
     7
100
AcDbPolyline
 90
        6
 70
   128
 43
0.0
 10
-67.6350681515
 20
101.9348226141
 10
-67.527417554
 20
102.7019722602
 10
-67.2208545891
 20
103.4080543765
 10
-66.7620506893
 20
103.9455743617
 10
-66.2208545891
 20
104.2326996704
 10
-65.719728975
 20
104.2370487096
  0
ARC
  5
C2
330
1F
100
AcDbEntity
  8
0
  6
CONTINUOUS
 62
     7
100
AcDbCircle
 10
-66.2226511169
 20
101.7055940377
 30
0.0
 40
1.430897487524431
100
AcDbArc
 50
170.7815436006
 51
249.5761503186
  0
SPLINE
  5
C3
330
1F
100
AcDbEntity
  8
0
  6
CONTINUOUS
 62
     7
100
AcDbSpline
210
0.0
220
0.0
230
1.0
 70
     8
 71
     3
 72
     9
 73
     5
 74
     0
 42
0.00000001
 43
0.00000001
 12
1.0
 22
0.0
 32
0.0
 13
1.0
 23
0.0
 33
0.0
 40
0.0
 40
0.0
 40
0.0
 40
0.0
 40
0.8822701344529256
 40
1.0
 40
1.0
 40
1.0
 40
1.0
 10
-69.19070307011987
 20
101.9065490700523
 30
0.0
 10
-68.99621769674286
 20
101.6512297407657
 30
0.0
 10
-68.77578025271944
 20
101.3618406757659
 30
0.0
 10
-68.54705879780454
 20
101.0221634874968
 30
0.0
 10
-68.52013145166964
 20
100.9821733377924
 30
0.0
  0
SPLINE
  5
C4
330
1F
100
AcDbEntity
  8
0
  6
CONTINUOUS
 62
     7
100
AcDbSpline
210
0.0
220
0.0
230
1.0
 70
     8
 71
     3
 72
    13
 73
     9
 74
     0
 42
0.00000001
 43
0.00000001
 12
1.0
 22
0.0
 32
0.0
 13
1.0
 23
0.0
 33
0.0
 40
0.0
 40
0.0
 40
0.0
 40
0.0
 40
0.1814225734651828
 40
0.3617657299836292
 40
0.6211307170059789
 40
0.8377930666782061
 40
0.9660096973155448
 40
0.9999999999999999
 40
0.9999999999999999
 40
0.9999999999999999
 40
0.9999999999999999
 10
-67.0693827265602
 20
94.76026314960755
 30
0.0
 10
-67.17419676060474
 20
94.81232959955153
 30
0.0
 10
-67.38320121255575
 20
94.9161527176557
 30
0.0
 10
-67.77798248870118
 20
95.19095178556817
 30
0.0
 10
-68.15673594546985
 20
95.52765699414739
 30
0.0
 10
-68.42785738682979
 20
95.88476413358336
 30
0.0
 10
-68.51542432673084
 20
96.15162351422727
 30
0.0
 10
-68.51931596310976
 20
96.27145597487018
 30
0.0
 10
-68.52013145166964
 20
96.29656674865318
 30
0.0
  0
SPLINE
  5
C5
330
1F
100
AcDbEntity
  8
0
  6
CONTINUOUS
 62
     7
100
AcDbSpline
210
0.0
220
0.0
230
1.0
 70
     8
 71
     3
 72
    13
 73
     9
 74
     0
 42
0.00000001
 43
0.00000001
 12
1.0
 22
0.0
 32
0.0
 13
1.0
 23
0.0
 33
0.0
 40
0.0
 40
0.0
 40
0.0
 40
0.0
 40
0.0031325412556273
 40
0.265371274569332
 40
0.4764768128683224
 40
0.6581757357362412
 40
0.8288649061821264
 40
1.0
 40
1.0
 40
1.0
 40
1.0
 10
-69.19070307011987
 20
83.42221746589603
 30
0.0
 10
-69.18910297679992
 20
83.42405529006908
 30
0.0
 10
-69.05355207129017
 20
83.57974541621327
 30
0.0
 10
-68.7615577667418
 20
83.84979088422423
 30
0.0
 10
-68.27906985239511
 20
84.15436849158321
 30
0.0
 10
-67.831467978703
 20
84.33894401925308
 30
0.0
 10
-67.41079715243437
 20
84.42908854055639
 30
0.0
 10
-67.18328646743605
 20
84.39642237416062
 30
0.0
 10
-67.06938272656022
 20
84.38006798380495
 30
0.0
  0
LWPOLYLINE
  5
C6
330
1F
100
AcDbEntity
  8
0
  6
CONTINUOUS
 62
     7
100
AcDbPolyline
 90
       15
 70
   128
 43
0.0
 10
-49.5081921875
 20
172.9666132474
 10
-49.3985713063
 20
172.4750956457
 10
-49.0153676002
 20
171.7908538348
 10
-48.4418627254
 20
171.4158218215
 10
-47.7653676002
 20
171.4070948302
 10
-47.088872475
 20
171.7660014661
 10
-46.5153676002
 20
172.4379014475
 10
-46.1321638941
 20
173.320504093
 10
-45.9976006472
 20
174.2794411506
 10
-46.1321638941
 20
175.1687231461
 10
-46.5153676002
 20
175.852964957
 10
-47.088872475
 20
176.2279969703
 10
-47.7653676002
 20
176.2367239616
 10
-48.4418627254
 20
175.8778173256
 10
-48.8744188649
 20
175.4153253291
  0
ARC
  5
C7
330
1F
100
AcDbEntity
  8
0
  6
CONTINUOUS
 62
     7
100
AcDbCircle
 10
-50.6169801886
 20
174.559961043
 30
0.0
 40
3.02839601214586
100
AcDbArc
 50
299.5393672842
 51
31.4389953176
  0
LWPOLYLINE
  5
C8
330
1F
100
AcDbEntity
  8
0
  6
CONTINUOUS
 62
     7
100
AcDbPolyline
 90
       15
 70
   128
 43
0.0
 10
-70.0142888418
 20
76.8622172205
 10
-69.9046679607
 20
76.3706996196
 10
-69.5214642546
 20
75.6864578087
 10
-68.9479593798
 20
75.3114257954
 10
-68.2714642546
 20
75.3026988041
 10
-67.5949691294
 20
75.6616054401
 10
-67.0214642546
 20
76.3335054215
 10
-66.6382605485
 20
77.216108067
 10
-66.5036973016
 20
78.1750451246
 10
-66.6382605485
 20
79.06432712
 10
-67.0214642546
 20
79.7485689309
 10
-67.5949691294
 20
80.1236009442
 10
-68.2714642546
 20
80.1323279356
 10
-68.9479593798
 20
79.7734212996
 10
-69.3805155187
 20
79.3109293037
  0
LINE
  5
C9
330
1F
100
AcDbEntity
  8
0
  6
CONTINUOUS
 62
     7
100
AcDbLine
 10
-73.4257159138
 20
72.9451215735
 30
0.0
 11
-74.494003929
 21
73.2464082693
 31
0.0
  0
ARC
  5
CA
330
1F
100
AcDbEntity
  8
0
  6
CONTINUOUS
 62
     7
100
AcDbCircle
 10
-71.1230768429
 20
78.455565017
 30
0.0
 40
3.028396012122763
100
AcDbArc
 50
299.5393672825
 51
31.4389953189
  0
LWPOLYLINE
  5
CB
330
1F
100
AcDbEntity
  8
0
  6
CONTINUOUS
 62
     7
100
AcDbPolyline
 90
       14
 70
   128
 43
0.0
 10
-58.9376547429
 20
296.6462148245
 10
-57.2676496507
 20
296.286052415
 10
-55.3740013541
 20
296.0097754442
 10
-53.3188498977
 20
295.8264499374
 10
-51.1696350506
 20
295.7420917187
 10
-48.9968832705
 20
295.759469002
 10
-46.8718933794
 20
295.878011552
 10
-44.8643968936
 20
296.0938293964
 10
-43.0402697847
 20
296.3998404754
 10
-41.4593707606
 20
296.7860030393
 10
-40.1735770026
 20
297.2396451685
 10
-39.2250818165
 20
297.7458806024
 10
-38.6450100598
 20
298.2880972315
 10
-38.4523733687
 20
298.8423672472
  0
SPLINE
  5
CC
330
1F
100
AcDbEntity
  8
0
  6
CONTINUOUS
 62
     7
100
AcDbSpline
210
0.0
220
0.0
230
1.0
 70
     8
 71
     3
 72
    26
 73
    22
 74
     0
 42
0.00000001
 43
0.00000001
 12
1.0
 22
0.0
 32
0.0
 13
1.0
 23
0.0
 33
0.0
 40
0.0
 40
0.0
 40
0.0
 40
0.0
 40
0.0501493195426592
 40
0.1018232215856835
 40
0.1519546533767034
 40
0.2034269040433117
 40
0.2557895104485625
 40
0.3095292473478846
 40
0.3644107683408817
 40
0.420931805184324
 40
0.4748349058906204
 40
0.5304545243685651
 40
0.5818912418671929
 40
0.634865885846496
 40
0.68562222311539
 40
0.737787993283583
 40
0.7897067413672696
 40
0.8430777401920904
 40
0.8958828124664882
 40
0.9502508634123071
 40
1.0
 40
1.0
 40
1.0
 40
1.0
 10
-58.93765474291492
 20
307.0134732247184
 30
0.0
 10
-58.46783374195494
 20
306.9143037164947
 30
0.0
 10
-57.51390877701778
 20
306.712949861597
 30
0.0
 10
-55.8567376926939
 20
306.6446507461354
 30
0.0
 10
-54.07524562394104
 20
306.7353891000905
 30
0.0
 10
-52.20216310270888
 20
306.9800453969394
 30
0.0
 10
-50.2502185605095
 20
307.3559687965956
 30
0.0
 10
-48.263806229652
 20
307.838431385943
 30
0.0
 10
-46.28339246172163
 20
308.4006787564848
 30
0.0
 10
-44.41227494932133
 20
308.9978614210297
 30
0.0
 10
-42.70163390077671
 20
309.599706451102
 30
0.0
 10
-41.25783554054184
 20
310.1612725185245
 30
0.0
 10
-40.08084298518239
 20
310.681098067266
 30
0.0
 10
-39.21819813844965
 20
311.1419364007639
 30
0.0
 10
-38.65551081164809
 20
311.5619225634796
 30
0.0
 10
-38.40957316066938
 20
311.9434001276081
 30
0.0
 10
-38.48711702518741
 20
312.3056519933144
 30
0.0
 10
-38.89359566133138
 20
312.6563956086779
 30
0.0
 10
-39.63777541694373
 20
313.011677444489
 30
0.0
 10
-40.65251482000662
 20
313.366109846587
 30
0.0
 10
-41.54205370370484
 20
313.6070299226842
 30
0.0
 10
-41.96709199443779
 20
313.7221460342159
 30
0.0
  0
LINE
  5
CD
330
1F
100
AcDbEntity
  8
0
  6
CONTINUOUS
 62
     7
100
AcDbLine
 10
-58.9376547429
 20
307.0134732247
 30
0.0
 11
-67.0693827266
 21
309.1181192965
 31
0.0
  0
LINE
  5
CE
330
1F
100
AcDbEntity
  8
0
  6
CONTINUOUS
 62
     7
100
AcDbLine
 10
-41.9670919944
 20
313.7221460342
 30
0.0
 11
-50.0988199781
 21
315.826792106
 31
0.0
  0
ARC
  5
CF
330
1F
100
AcDbEntity
  8
0
  6
CONTINUOUS
 62
     7
100
AcDbCircle
 10
-67.1309478291
 20
297.9356408792
 30
0.0
 40
0.8046419560297541
100
AcDbArc
 50
75.3881619127
 51
85.6118727256
  0
LINE
  5
D0
330
1F
100
AcDbEntity
  8
0
  6
CONTINUOUS
 62
     7
100
AcDbLine
 10
-66.9279613703
 20
298.7142583559
 30
0.0
 11
-58.9376547429
 21
296.6462148245
 31
0.0
  0
LINE
  5
D1
330
1F
100
AcDbEntity
  8
0
  6
CONTINUOUS
 62
     7
100
AcDbLine
 10
-70.9584700231
 20
320.251779011
 30
0.0
 11
-74.494003929
 21
321.1668425204
 31
0.0
  0
LWPOLYLINE
  5
D2
330
1F
100
AcDbEntity
  8
0
  6
CONTINUOUS
 62
     7
100
AcDbPolyline
 90
       10
 70
   128
 43
0.0
 10
-74.494003929
 20
321.1668425204
 10
-71.312456953
 20
323.5680337571
 10
-68.0425344617
 20
325.6082386284
 10
-64.7090040785
 20
327.272003855
 10
-61.3371152168
 20
328.5467274531
 10
-57.9524078314
 20
329.4227541866
 10
-54.5805189697
 20
329.8934486992
 10
-51.2469885865
 20
329.9552457738
 10
-47.9770660952
 20
329.607677336
 10
-45.8638071344
 20
329.1546626958
  0
LWPOLYLINE
  5
D3
330
1F
100
AcDbEntity
  8
0
  6
CONTINUOUS
 62
     7
100
AcDbPolyline
 90
       10
 70
   128
 43
0.0
 10
-41.2599852133
 20
327.9383124904
 10
-44.4415321893
 20
328.6926138265
 10
-47.7114546806
 20
329.0401822644
 10
-51.0449850638
 20
328.9783851898
 10
-54.4168739255
 20
328.5076906771
 10
-57.8015813108
 20
327.6316639437
 10
-61.1734701726
 20
326.3569403456
 10
-64.5070005558
 20
324.693175119
 10
-67.776923047
 20
322.6529702476
 10
-70.9584700231
 20
320.251779011
  0
ARC
  5
D4
330
1F
100
AcDbEntity
  8
0
  6
CONTINUOUS
 62
     7
100
AcDbCircle
 10
-74.9307241998
 20
294.6584202805
 30
0.0
 40
6.507917857197148
100
AcDbArc
 50
307.616442954
 51
331.885273479
  0
LINE
  5
D5
330
1F
100
AcDbEntity
  8
0
  6
CONTINUOUS
 62
     7
100
AcDbLine
 10
-70.9584700231
 20
289.5034041223
 30
0.0
 11
-70.9584700231
 21
320.251779011
 31
0.0
  0
LINE
  5
D6
330
1F
100
AcDbEntity
  8
0
  6
CONTINUOUS
 62
     7
100
AcDbLine
 10
-41.2599852133
 20
327.9383124904
 30
0.0
 11
-41.2599852133
 21
313.5236789612
 31
0.0
  0
LWPOLYLINE
  5
D7
330
1F
100
AcDbEntity
  8
0
  6
CONTINUOUS
 62
     7
100
AcDbPolyline
 90
       25
 70
   128
 43
0.0
 10
-49.5331345531
 20
322.0946121257
 10
-49.4078453408
 20
320.82703936
 10
-49.0405159566
 20
319.7107040521
 10
-48.456179291
 20
318.8216826085
 10
-47.694656922
 20
318.2205603712
 10
-46.8078453408
 20
317.9483028275
 10
-45.856179291
 20
318.0234638789
 10
-44.9045132411
 20
318.440921424
 10
-44.0177016599
 20
319.1722264211
 10
-43.256179291
 20
320.167541643
 10
-42.6718426253
 20
321.3590380023
 10
-42.3045132411
 20
322.6655169911
 10
-42.1792240288
 20
323.9979442254
 10
-42.3045132411
 20
325.2655169911
 10
-42.6718426253
 20
326.381852299
 10
-43.256179291
 20
327.2708737427
 10
-44.0177016599
 20
327.8719959799
 10
-44.9045132411
 20
328.1442535237
 10
-45.856179291
 20
328.0690924723
 10
-46.8078453408
 20
327.6516349271
 10
-47.694656922
 20
326.9203299301
 10
-48.456179291
 20
325.9250147081
 10
-49.0405159566
 20
324.7335183488
 10
-49.4078453408
 20
323.42703936
 10
-49.5331345531
 20
322.0946121257
  0
LWPOLYLINE
  5
D8
330
1F
100
AcDbEntity
  8
0
  6
CONTINUOUS
 62
     7
100
AcDbPolyline
 90
       25
 70
   128
 43
0.0
 10
-70.0392312075
 20
316.7872437709
 10
-69.9139419952
 20
315.5196710052
 10
-69.546612611
 20
314.4033356973
 10
-68.9622759454
 20
313.5143142536
 10
-68.2007535765
 20
312.9131920163
 10
-67.3139419952
 20
312.6409344726
 10
-66.3622759454
 20
312.716095524
 10
-65.4106098955
 20
313.1335530691
 10
-64.5237983143
 20
313.8648580662
 10
-63.7622759454
 20
314.8601732881
 10
-63.1779392798
 20
316.0516696474
 10
-62.8106098955
 20
317.3581486362
 10
-62.6853206832
 20
318.6905758705
 10
-62.8106098955
 20
319.9581486362
 10
-63.1779392798
 20
321.0744839441
 10
-63.7622759454
 20
321.9635053878
 10
-64.5237983143
 20
322.5646276251
 10
-65.4106098955
 20
322.8368851688
 10
-66.3622759454
 20
322.7617241174
 10
-67.3139419952
 20
322.3442665723
 10
-68.2007535765
 20
321.6129615752
 10
-68.9622759454
 20
320.6176463533
 10
-69.546612611
 20
319.426149994
 10
-69.9139419952
 20
318.1196710052
 10
-70.0392312075
 20
316.7872437709
  0
LINE
  5
D9
330
1F
100
AcDbEntity
  8
0
  6
CONTINUOUS
 62
     7
100
AcDbLine
 10
-70.8170486668
 20
289.4668015819
 30
0.0
 11
-70.9584700231
 21
289.5034041223
 31
0.0
  0
LINE
  5
DA
330
1F
100
AcDbEntity
  8
0
  6
CONTINUOUS
 62
     7
100
AcDbLine
 10
-70.8170486668
 20
289.4668015819
 30
0.0
 11
-70.8170486668
 21
288.8491456704
 31
0.0
  0
ARC
  5
DB
330
1F
100
AcDbEntity
  8
0
  6
CONTINUOUS
 62
     7
100
AcDbCircle
 10
59.2877995971
 20
271.1142108824
 30
0.0
 40
131.3080327082547
100
AcDbArc
 50
172.2377027773
 51
187.7622972227
  0
LINE
  5
DC
330
1F
100
AcDbEntity
  8
0
  6
CONTINUOUS
 62
     7
100
AcDbLine
 10
-70.8170486668
 20
253.3792760944
 30
0.0
 11
-70.8170486668
 21
252.7616201829
 31
0.0
  0
LINE
  5
DD
330
1F
100
AcDbEntity
  8
0
  6
CONTINUOUS
 62
     7
100
AcDbLine
 10
-70.8170486668
 20
252.7616201829
 30
0.0
 11
-70.9584700231
 21
252.7982227233
 31
0.0
  0
LINE
  5
DE
330
1F
100
AcDbEntity
  8
0
  6
CONTINUOUS
 62
     7
100
AcDbLine
 10
-70.9584700231
 20
222.0498478347
 30
0.0
 11
-70.9584700231
 21
252.7982227233
 31
0.0
  0
LINE
  5
DF
330
1F
100
AcDbEntity
  8
0
  6
CONTINUOUS
 62
     7
100
AcDbLine
 10
-74.494003929
 20
222.9649113441
 30
0.0
 11
-70.9584700231
 21
222.0498478347
 31
0.0
  0
LINE
  5
E0
330
1F
100
AcDbEntity
  8
0
  6
CONTINUOUS
 62
     7
100
AcDbLine
 10
-74.494003929
 20
321.1668425204
 30
0.0
 11
-74.494003929
 21
222.9649113441
 31
0.0
  0
LWPOLYLINE
  5
E1
330
1F
100
AcDbEntity
  8
0
  6
CONTINUOUS
 62
     7
100
AcDbPolyline
 90
       15
 70
   128
 43
0.0
 10
-70.01428884
 20
317.3777479525
 10
-69.9046679607
 20
316.8862303656
 10
-69.5214642546
 20
316.2019885547
 10
-68.9479593798
 20
315.8269565414
 10
-68.2714642546
 20
315.8182295501
 10
-67.5949691294
 20
316.177136186
 10
-67.0214642546
 20
316.8490361675
 10
-66.6382605485
 20
317.7316388129
 10
-66.5036973016
 20
318.6905758705
 10
-66.6382605485
 20
319.579857866
 10
-67.0214642546
 20
320.2640996769
 10
-67.5949691294
 20
320.6391316902
 10
-68.2714642546
 20
320.6478586815
 10
-68.9479593798
 20
320.2889520456
 10
-69.3805155101
 20
319.8264600614
  0
SPLINE
  5
E2
330
1F
100
AcDbEntity
  8
0
  6
CONTINUOUS
 62
     7
100
AcDbSpline
210
0.0
220
0.0
230
1.0
 70
     8
 71
     3
 72
    13
 73
     9
 74
     0
 42
0.00000001
 43
0.00000001
 12
1.0
 22
0.0
 32
0.0
 13
1.0
 23
0.0
 33
0.0
 40
0.0
 40
0.0
 40
0.0
 40
0.0
 40
0.1711350938178822
 40
0.3418242642637646
 40
0.5235231871316783
 40
0.7346287254306689
 40
0.9968674587443728
 40
1.0
 40
1.0
 40
1.0
 40
1.0
 10
-67.06938272656022
 20
309.118119296479
 30
0.0
 10
-67.18328646743603
 20
309.1512411970675
 30
0.0
 10
-67.41079715243436
 20
309.2173986931549
 30
0.0
 10
-67.83146797870309
 20
309.3812833385671
 30
0.0
 10
-68.27906985239494
 20
309.5795628733338
 30
0.0
 10
-68.76155776674256
 20
309.8211019140763
 30
0.0
 10
-69.0535520712882
 20
309.9892243964954
 30
0.0
 10
-69.18910297679992
 20
310.0749577855665
 30
0.0
 10
-69.19070307011988
 20
310.0759698143879
 30
0.0
  0
SPLINE
  5
E3
330
1F
100
AcDbEntity
  8
0
  6
CONTINUOUS
 62
     7
100
AcDbSpline
210
0.0
220
0.0
230
1.0
 70
     8
 71
     3
 72
    13
 73
     9
 74
     0
 42
0.00000001
 43
0.00000001
 12
1.0
 22
0.0
 32
0.0
 13
1.0
 23
0.0
 33
0.0
 40
0.0
 40
0.0
 40
0.0
 40
0.0
 40
0.1564749921329289
 40
0.3123896137400474
 40
0.5189878509272541
 40
0.7817908134946076
 40
0.9970900847928307
 40
1.0
 40
1.0
 40
1.0
 40
1.0
 10
-50.09881997808308
 20
315.8267921059765
 30
0.0
 10
-50.19030631758628
 20
315.8642497206466
 30
0.0
 10
-50.37295136437825
 20
315.9390308062304
 30
0.0
 10
-50.52724495555158
 20
316.2009946616868
 30
0.0
 10
-50.55952194716741
 20
316.5919541244921
 30
0.0
 10
-50.40980558333973
 20
317.0714271223974
 30
0.0
 10
-50.20828357086577
 20
317.4048705521953
 30
0.0
 10
-50.10026051293875
 20
317.5512588592704
 30
0.0
 10
-50.09881997808311
 20
317.5532110115502
 30
0.0
  0
SPLINE
  5
E4
330
1F
100
AcDbEntity
  8
0
  6
CONTINUOUS
 62
     7
100
AcDbSpline
210
0.0
220
0.0
230
1.0
 70
     8
 71
     3
 72
    13
 73
     9
 74
     0
 42
0.00000001
 43
0.00000001
 12
1.0
 22
0.0
 32
0.0
 13
1.0
 23
0.0
 33
0.0
 40
0.0
 40
0.0
 40
0.0
 40
0.0
 40
0.1299960892234924
 40
0.3207447405544694
 40
0.5996000914527168
 40
0.8010995389728541
 40
0.9685817181078592
 40
1.0
 40
1.0
 40
1.0
 40
1.0
 10
-68.52013145166272
 20
297.402323782039
 30
0.0
 10
-68.50781955449936
 20
297.4995986317129
 30
0.0
 10
-68.4774419001793
 20
297.7396089013101
 30
0.0
 10
-68.21985150946755
 20
298.1323899346081
 30
0.0
 10
-67.84779258794543
 20
298.4800147116075
 30
0.0
 10
-67.44068713767011
 20
298.6946365066443
 30
0.0
 10
-67.19461969137483
 20
298.7440959448622
 30
0.0
 10
-67.0864665739883
 20
298.738766041306
 30
0.0
 10
-67.06938272656019
 20
298.7379241306763
 30
0.0
  0
LINE
  5
E5
330
1F
100
AcDbEntity
  8
0
  6
CONTINUOUS
 62
     7
100
AcDbLine
 10
-68.5201314517
 20
297.402323782
 30
0.0
 11
-68.5201314517
 21
292.7167171929
 31
0.0
  0
LINE
  5
E6
330
1F
100
AcDbEntity
  8
0
  6
CONTINUOUS
 62
     7
100
AcDbLine
 10
-68.5201314517
 20
292.7167171929
 30
0.0
 11
-69.1907030701
 21
291.5916382102
 31
0.0
  0
ARC
  5
E7
330
1F
100
AcDbEntity
  8
0
  6
CONTINUOUS
 62
     7
100
AcDbCircle
 10
-71.123076843
 20
318.9710957629
 30
0.0
 40
3.028396012162959
100
AcDbArc
 50
299.5393672853
 51
31.4389953165
  0
SPLINE
  5
E8
330
1F
100
AcDbEntity
  8
0
  6
CONTINUOUS
 62
     7
100
AcDbSpline
210
0.0
220
0.0
230
1.0
 70
     8
 71
     3
 72
    22
 73
    18
 74
     0
 42
0.00000001
 43
0.00000001
 12
1.0
 22
0.0
 32
0.0
 13
1.0
 23
0.0
 33
0.0
 40
0.0
 40
0.0
 40
0.0
 40
0.0
 40
0.020386327763705
 40
0.0924856394090155
 40
0.162379810916202
 40
0.2344070054210902
 40
0.3025080624746024
 40
0.3726207227787554
 40
0.4402361607498221
 40
0.5096918558262422
 40
0.5796396647845113
 40
0.6514544934082299
 40
0.7243086395930728
 40
0.79931081004207
 40
0.8712569681573067
 40
0.9455897923376566
 40
1.0
 40
1.0
 40
1.0
 40
1.0
 10
-38.48653758237203
 20
231.3645366535069
 30
0.0
 10
-38.47667395058167
 20
231.2998455004814
 30
0.0
 10
-38.43192610273004
 20
231.0063643634654
 30
0.0
 10
-38.69574753547397
 20
230.5168162910457
 30
0.0
 10
-39.28487132987105
 20
229.9432935681376
 30
0.0
 10
-40.20199046631085
 20
229.4919290149129
 30
0.0
 10
-41.39538390315778
 20
229.1765966671917
 30
0.0
 10
-42.80261951371899
 20
229.0147077621634
 30
0.0
 10
-44.4117053221706
 20
229.0021037312914
 30
0.0
 10
-46.16669871959464
 20
229.1308795460466
 30
0.0
 10
-48.06159616309424
 20
229.390881605037
 30
0.0
 10
-50.04769768028207
 20
229.7620158015644
 30
0.0
 10
-52.09443764963707
 20
230.2204177507643
 30
0.0
 10
-54.1071311302647
 20
230.7222447834951
 30
0.0
 10
-56.03443343741464
 20
231.2283576519192
 30
0.0
 10
-57.65859919056203
 20
231.6606764201117
 30
0.0
 10
-58.55767960077019
 20
231.8949252434198
 30
0.0
 10
-58.93765474291492
 20
231.99392498685
 30
0.0
  0
ARC
  5
E9
330
1F
100
AcDbEntity
  8
0
  6
CONTINUOUS
 62
     7
100
AcDbCircle
 10
-51.2556359378
 20
275.0429855047
 30
0.0
 40
33.57251260454545
100
AcDbArc
 50
256.7724661385
 51
268.5314859975
  0
LINE
  5
EA
330
1F
100
AcDbEntity
  8
0
  6
CONTINUOUS
 62
     7
100
AcDbLine
 10
-58.9376547429
 20
242.3611833871
 30
0.0
 11
-66.9279613703
 21
244.4292269184
 31
0.0
  0
LINE
  5
EB
330
1F
100
AcDbEntity
  8
0
  6
CONTINUOUS
 62
     7
100
AcDbLine
 10
-62.465967584
 20
291.0105645019
 30
0.0
 11
-70.8170486668
 21
288.8491456704
 31
0.0
  0
ARC
  5
EC
330
1F
100
AcDbEntity
  8
0
  6
CONTINUOUS
 62
     7
100
AcDbCircle
 10
-75.2058386263
 20
295.0052768694
 30
0.0
 40
7.066554027097005
100
AcDbArc
 50
308.3939542197
 51
341.1036016171
  0
LWPOLYLINE
  5
ED
330
1F
100
AcDbEntity
  8
0
  6
CONTINUOUS
 62
     7
100
AcDbPolyline
 90
        6
 70
   128
 43
0.0
 10
-67.6350681515
 20
292.222210393
 10
-67.527417554
 20
292.9893600391
 10
-67.2208545891
 20
293.6954421555
 10
-66.7620506893
 20
294.2329621406
 10
-66.2208545891
 20
294.5200874494
 10
-65.719728975
 20
294.5244364886
  0
ARC
  5
EE
330
1F
100
AcDbEntity
  8
0
  6
CONTINUOUS
 62
     7
100
AcDbCircle
 10
-66.2226511169
 20
291.9929818166
 30
0.0
 40
1.430897487524717
100
AcDbArc
 50
170.7815436006
 51
249.5761503186
  0
LINE
  5
EF
330
1F
100
AcDbEntity
  8
0
  6
CONTINUOUS
 62
     7
100
AcDbLine
 10
-70.8170486668
 20
253.3792760944
 30
0.0
 11
-62.465967584
 21
255.5406949259
 31
0.0
  0
LINE
  5
F0
330
1F
100
AcDbEntity
  8
0
  6
CONTINUOUS
 62
     7
100
AcDbLine
 10
-67.0693827266
 20
234.0985710586
 30
0.0
 11
-66.2793121252
 21
233.8763338806
 31
0.0
  0
LINE
  5
F1
330
1F
100
AcDbEntity
  8
0
  6
CONTINUOUS
 62
     7
100
AcDbLine
 10
-58.9376547429
 20
231.9939249869
 30
0.0
 11
-67.0693827266
 21
234.0985710586
 31
0.0
  0
ARC
  5
F2
330
1F
100
AcDbEntity
  8
0
  6
CONTINUOUS
 62
     7
100
AcDbCircle
 10
-66.6962040176
 20
245.3174612143
 30
0.0
 40
0.917971478197795
100
AcDbArc
 50
246.0132489876
 51
255.3764651448
  0
ARC
  5
F3
330
1F
100
AcDbEntity
  8
0
  6
CONTINUOUS
 62
     7
100
AcDbCircle
 10
-71.6974199291
 20
249.7705015069
 30
0.0
 40
3.118170534058685
100
AcDbArc
 50
36.4952399334
 51
74.5987816343
  0
LWPOLYLINE
  5
F4
330
1F
100
AcDbEntity
  8
0
  6
CONTINUOUS
 62
     7
100
AcDbPolyline
 90
       10
 70
   128
 43
0.0
 10
-70.9584700231
 20
222.0498478347
 10
-67.776923047
 20
221.2955464986
 10
-64.5070005558
 20
220.9479780607
 10
-61.1734701726
 20
221.0097751353
 10
-57.8015813108
 20
221.480469648
 10
-54.4168739255
 20
222.3564963814
 10
-51.0449850638
 20
223.6312199795
 10
-47.7114546806
 20
225.2949852061
 10
-44.4415321893
 20
227.3351900775
 10
-42.1057705942
 20
229.0559375983
  0
LWPOLYLINE
  5
F5
330
1F
100
AcDbEntity
  8
0
  6
CONTINUOUS
 62
     7
100
AcDbPolyline
 90
       25
 70
   128
 43
0.0
 10
-70.0392312075
 20
225.9902160997
 10
-69.9139419952
 20
224.722643334
 10
-69.546612611
 20
223.6063080261
 10
-68.9622759454
 20
222.7172865824
 10
-68.2007535765
 20
222.1161643452
 10
-67.3139419952
 20
221.8439068014
 10
-66.3622759454
 20
221.9190678528
 10
-65.4106098955
 20
222.336525398
 10
-64.5237983143
 20
223.067830395
 10
-63.7622759454
 20
224.063145617
 10
-63.1779392798
 20
225.2546419763
 10
-62.8106098955
 20
226.5611209651
 10
-62.6853206832
 20
227.8935481994
 10
-62.8106098955
 20
229.1611209651
 10
-63.1779392798
 20
230.277456273
 10
-63.7622759454
 20
231.1664777166
 10
-64.5237983143
 20
231.7675999539
 10
-65.4106098955
 20
232.0398574976
 10
-66.3622759454
 20
231.9646964462
 10
-67.3139419952
 20
231.5472389011
 10
-68.2007535765
 20
230.815933904
 10
-68.9622759454
 20
229.8206186821
 10
-69.546612611
 20
228.6291223228
 10
-69.9139419952
 20
227.322643334
 10
-70.0392312075
 20
225.9902160997
  0
LWPOLYLINE
  5
F6
330
1F
100
AcDbEntity
  8
0
  6
CONTINUOUS
 62
     7
100
AcDbPolyline
 90
        9
 70
   128
 43
0.0
 10
-49.3046666827
 20
229.6137970376
 10
-49.0405159566
 20
228.913676381
 10
-48.456179291
 20
228.0246549373
 10
-47.694656922
 20
227.4235327
 10
-46.8078453408
 20
227.1512751563
 10
-45.856179291
 20
227.2264362077
 10
-44.9045132411
 20
227.6438937528
 10
-44.0177016599
 20
228.3751987499
 10
-43.5244579452
 20
228.9690316952
  0
ARC
  5
F7
330
1F
100
AcDbEntity
  8
0
  6
CONTINUOUS
 62
     7
100
AcDbCircle
 10
-71.7127964929
 20
249.4528848068
 30
0.0
 40
3.427841005231112
100
AcDbArc
 50
21.3470854846
 51
74.8518691924
  0
LINE
  5
F8
330
1F
100
AcDbEntity
  8
0
  6
CONTINUOUS
 62
     7
100
AcDbLine
 10
-68.5201314517
 20
250.7006764126
 30
0.0
 11
-68.5201314517
 21
246.0150698235
 31
0.0
  0
LWPOLYLINE
  5
F9
330
1F
100
AcDbEntity
  8
0
  6
CONTINUOUS
 62
     7
100
AcDbPolyline
 90
        6
 70
   128
 43
0.0
 10
-67.6350681515
 20
251.6533256889
 10
-67.527417554
 20
252.420475335
 10
-67.2208545891
 20
253.1265574513
 10
-66.7620506893
 20
253.6640774365
 10
-66.2208545891
 20
253.9512027452
 10
-65.719728975
 20
253.9555517844
  0
ARC
  5
FA
330
1F
100
AcDbEntity
  8
0
  6
CONTINUOUS
 62
     7
100
AcDbCircle
 10
-66.2226511169
 20
251.4240971125
 30
0.0
 40
1.430897487524598
100
AcDbArc
 50
170.7815436006
 51
249.5761503186
  0
SPLINE
  5
FB
330
1F
100
AcDbEntity
  8
0
  6
CONTINUOUS
 62
     7
100
AcDbSpline
210
0.0
220
0.0
230
1.0
 70
     8
 71
     3
 72
     9
 73
     5
 74
     0
 42
0.00000001
 43
0.00000001
 12
1.0
 22
0.0
 32
0.0
 13
1.0
 23
0.0
 33
0.0
 40
0.0
 40
0.0
 40
0.0
 40
0.0
 40
0.8822701344529256
 40
1.0
 40
1.0
 40
1.0
 40
1.0
 10
-69.19070307011987
 20
251.6250521448579
 30
0.0
 10
-68.99621769674286
 20
251.3697328155712
 30
0.0
 10
-68.77578025271944
 20
251.0803437505714
 30
0.0
 10
-68.54705879780454
 20
250.7406665623024
 30
0.0
 10
-68.52013145166964
 20
250.700676412598
 30
0.0
  0
SPLINE
  5
FC
330
1F
100
AcDbEntity
  8
0
  6
CONTINUOUS
 62
     7
100
AcDbSpline
210
0.0
220
0.0
230
1.0
 70
     8
 71
     3
 72
    13
 73
     9
 74
     0
 42
0.00000001
 43
0.00000001
 12
1.0
 22
0.0
 32
0.0
 13
1.0
 23
0.0
 33
0.0
 40
0.0
 40
0.0
 40
0.0
 40
0.0
 40
0.1814225734651828
 40
0.3617657299836292
 40
0.6211307170059789
 40
0.8377930666782061
 40
0.9660096973155448
 40
0.9999999999999999
 40
0.9999999999999999
 40
0.9999999999999999
 40
0.9999999999999999
 10
-67.06938272656019
 20
244.4787662244132
 30
0.0
 10
-67.17419676060473
 20
244.5308326743572
 30
0.0
 10
-67.38320121255573
 20
244.6346557924613
 30
0.0
 10
-67.77798248870117
 20
244.9094548603738
 30
0.0
 10
-68.15673594546985
 20
245.246160068953
 30
0.0
 10
-68.4278573868298
 20
245.6032672083889
 30
0.0
 10
-68.51542432673084
 20
245.8701265890329
 30
0.0
 10
-68.51931596310976
 20
245.9899590496758
 30
0.0
 10
-68.52013145166964
 20
246.0150698234588
 30
0.0
  0
SPLINE
  5
FD
330
1F
100
AcDbEntity
  8
0
  6
CONTINUOUS
 62
     7
100
AcDbSpline
210
0.0
220
0.0
230
1.0
 70
     8
 71
     3
 72
    13
 73
     9
 74
     0
 42
0.00000001
 43
0.00000001
 12
1.0
 22
0.0
 32
0.0
 13
1.0
 23
0.0
 33
0.0
 40
0.0
 40
0.0
 40
0.0
 40
0.0
 40
0.0031325412556273
 40
0.265371274569332
 40
0.4764768128683224
 40
0.6581757357362412
 40
0.8288649061821264
 40
1.0
 40
1.0
 40
1.0
 40
1.0
 10
-69.19070307011987
 20
233.1407205407016
 30
0.0
 10
-69.18910297679992
 20
233.1425583648747
 30
0.0
 10
-69.05355207129008
 20
233.2982484910188
 30
0.0
 10
-68.76155776674183
 20
233.5682939590298
 30
0.0
 10
-68.27906985239511
 20
233.8728715663889
 30
0.0
 10
-67.831467978703
 20
234.0574470940586
 30
0.0
 10
-67.41079715243437
 20
234.147591615362
 30
0.0
 10
-67.18328646743603
 20
234.1149254489662
 30
0.0
 10
-67.06938272656022
 20
234.0985710586105
 30
0.0
  0
LWPOLYLINE
  5
FE
330
1F
100
AcDbEntity
  8
0
  6
CONTINUOUS
 62
     7
100
AcDbPolyline
 90
       15
 70
   128
 43
0.0
 10
-49.5081921893
 20
322.685116336
 10
-49.3985713063
 20
322.1935987205
 10
-49.0153676002
 20
321.5093569096
 10
-48.4418627254
 20
321.1343248963
 10
-47.7653676002
 20
321.125597905
 10
-47.088872475
 20
321.4845045409
 10
-46.5153676002
 20
322.1564045223
 10
-46.1321638941
 20
323.0390071678
 10
-45.9976006472
 20
323.9979442254
 10
-46.1321638941
 20
324.8872262209
 10
-46.5153676002
 20
325.5714680318
 10
-47.088872475
 20
325.9465000451
 10
-47.7653676002
 20
325.9552270364
 10
-48.4418627254
 20
325.5963204004
 10
-48.8744188732
 20
325.1338283925
  0
ARC
  5
FF
330
1F
100
AcDbEntity
  8
0
  6
CONTINUOUS
 62
     7
100
AcDbCircle
 10
-50.616980191
 20
324.2784641185
 30
0.0
 40
3.028396014388358
100
AcDbArc
 50
299.5393674272
 51
31.4389951702
  0
LWPOLYLINE
  5
100
330
1F
100
AcDbEntity
  8
0
  6
CONTINUOUS
 62
     7
100
AcDbPolyline
 90
       15
 70
   128
 43
0.0
 10
-70.0142888412
 20
226.5807202906
 10
-69.9046679607
 20
226.0892026944
 10
-69.5214642546
 20
225.4049608835
 10
-68.9479593798
 20
225.0299288702
 10
-68.2714642546
 20
225.0212018789
 10
-67.5949691294
 20
225.3801085149
 10
-67.0214642546
 20
226.0520084963
 10
-66.6382605485
 20
226.9346111418
 10
-66.5036973016
 20
227.8935481994
 10
-66.6382605485
 20
228.7828301948
 10
-67.0214642546
 20
229.4670720057
 10
-67.5949691294
 20
229.842104019
 10
-68.2714642546
 20
229.8508310104
 10
-68.9479593798
 20
229.4919243744
 10
-69.3805155158
 20
229.0294323825
  0
LINE
  5
101
330
1F
100
AcDbEntity
  8
0
  6
CONTINUOUS
 62
     7
100
AcDbLine
 10
-73.4257159138
 20
222.6636246483
 30
0.0
 11
-74.494003929
 21
222.9649113441
 31
0.0
  0
ARC
  5
102
330
1F
100
AcDbEntity
  8
0
  6
CONTINUOUS
 62
     7
100
AcDbCircle
 10
-71.123076843
 20
228.1740680918
 30
0.0
 40
3.028396012150069
100
AcDbArc
 50
299.5393672845
 51
31.4389953173
  0
LWPOLYLINE
  5
103
330
1F
100
AcDbEntity
  8
0
  6
CONTINUOUS
 62
     7
100
AcDbPolyline
 90
       14
 70
   128
 43
0.0
 10
-58.4135094274
 20
296.5184617162
 10
-58.1735877847
 20
296.4303471196
 10
-56.8811465359
 20
296.0561881985
 10
-55.3384723931
 20
295.7520969494
 10
-53.6013216193
 20
295.5290640223
 10
-51.7324793696
 20
295.3951504082
 10
-49.7994904721
 20
295.3551960942
 10
-47.8722181818
 20
295.4106451332
 10
-46.0203191409
 20
295.5594934525
 10
-44.3107258057
 20
295.7963612859
 10
-42.8052273337
 20
296.112687613
 10
-41.5582363621
 20
296.4970395759
 10
-40.6148223938
 20
296.9355256934
 10
-40.1940965131
 20
297.2308626009
  0
ARC
  5
104
330
1F
100
AcDbEntity
  8
0
  6
CONTINUOUS
 62
     7
100
AcDbCircle
 10
-50.0365504529
 20
326.0544489241
 30
0.0
 40
30.45892254534116
100
AcDbArc
 50
261.773642185
 51
282.7047437245
  0
LWPOLYLINE
  5
105
330
1F
100
AcDbEntity
  8
0
  6
CONTINUOUS
 62
     7
100
AcDbPolyline
 90
       14
 70
   128
 43
0.0
 10
-58.4135094274
 20
146.7999586413
 10
-58.1735877847
 20
146.7118440448
 10
-56.8811465359
 20
146.3376851237
 10
-55.3384723931
 20
146.0335938746
 10
-53.6013216193
 20
145.8105609475
 10
-51.7324793696
 20
145.6766473334
 10
-49.7994904721
 20
145.6366930194
 10
-47.8722181818
 20
145.6921420584
 10
-46.0203191409
 20
145.8409903777
 10
-44.3107258057
 20
146.0778582111
 10
-42.8052273337
 20
146.3941845382
 10
-41.5582363621
 20
146.7785365011
 10
-40.6148223938
 20
147.2170226185
 10
-40.1940965131
 20
147.5123595261
  0
ARC
  5
106
330
1F
100
AcDbEntity
  8
0
  6
CONTINUOUS
 62
     7
100
AcDbCircle
 10
-50.036550453
 20
176.3359458486
 30
0.0
 40
30.45892254470606
100
AcDbArc
 50
261.7736421837
 51
282.7047437256
  0
ARC
  5
107
330
1F
100
AcDbEntity
  8
0
  6
CONTINUOUS
 62
     7
100
AcDbCircle
 10
15.4807300886
 20
271.8970657448
 30
0.0
 40
14.0757700947058
100
AcDbArc
 50
359.9762193294
 51
35.3015067839
  0
ARC
  5
108
330
1F
100
AcDbEntity
  8
0
  6
CONTINUOUS
 62
     7
100
AcDbCircle
 10
14.4944604281
 20
271.6547921233
 30
0.0
 40
14.35503115442511
100
AcDbArc
 50
0.2132128012
 51
27.8177145363
  0
ARC
  5
109
330
1F
100
AcDbEntity
  8
0
  6
CONTINUOUS
 62
     7
100
AcDbCircle
 10
18.1336755575
 20
249.3091798745
 30
0.0
 40
10.71727464206339
100
AcDbArc
 50
336.6607668531
 51
0.9769803128
  0
LINE
  5
10A
330
1F
100
AcDbEntity
  8
0
  6
CONTINUOUS
 62
     7
100
AcDbLine
 10
28.8493921897
 20
271.7082108806
 30
0.0
 11
28.8493921897
 21
249.491916876
 31
0.0
  0
LINE
  5
10B
330
1F
100
AcDbEntity
  8
0
  6
CONTINUOUS
 62
     7
100
AcDbLine
 10
29.5564989709
 20
271.8912235825
 30
0.0
 11
29.5564989709
 21
249.6749295779
 31
0.0
  0
ARC
  5
10C
330
1F
100
AcDbEntity
  8
0
  6
CONTINUOUS
 62
     7
100
AcDbCircle
 10
19.8906563769
 20
249.3176580542
 30
0.0
 40
9.672443124332124
100
AcDbArc
 50
325.5590382107
 51
2.1168186538
  0
ARC
  5
10D
330
1F
100
AcDbEntity
  8
0
  6
CONTINUOUS
 62
     7
100
AcDbCircle
 10
15.4807300886
 20
122.17856267
 30
0.0
 40
14.07577009470567
100
AcDbArc
 50
359.9762193294
 51
35.3015067839
  0
ARC
  5
10E
330
1F
100
AcDbEntity
  8
0
  6
CONTINUOUS
 62
     7
100
AcDbCircle
 10
14.4944604281
 20
121.9362890485
 30
0.0
 40
14.35503115442479
100
AcDbArc
 50
0.2132128012
 51
27.8177145363
  0
ARC
  5
10F
330
1F
100
AcDbEntity
  8
0
  6
CONTINUOUS
 62
     7
100
AcDbCircle
 10
18.1336755575
 20
99.5906767997
 30
0.0
 40
10.71727464206305
100
AcDbArc
 50
336.6607668531
 51
0.9769803128
  0
LINE
  5
110
330
1F
100
AcDbEntity
  8
0
  6
CONTINUOUS
 62
     7
100
AcDbLine
 10
28.8493921897
 20
121.9897078058
 30
0.0
 11
28.8493921897
 21
99.7734138012
 31
0.0
  0
LINE
  5
111
330
1F
100
AcDbEntity
  8
0
  6
CONTINUOUS
 62
     7
100
AcDbLine
 10
29.5564989709
 20
122.1727205077
 30
0.0
 11
29.5564989709
 21
99.956426503
 31
0.0
  0
ARC
  5
112
330
1F
100
AcDbEntity
  8
0
  6
CONTINUOUS
 62
     7
100
AcDbCircle
 10
19.8906563769
 20
99.5991549794
 30
0.0
 40
9.672443124332286
100
AcDbArc
 50
325.5590382107
 51
2.1168186538
  0
ARC
  5
113
330
1F
100
AcDbEntity
  8
0
  6
CONTINUOUS
 62
     7
100
AcDbCircle
 10
-129.0438817918
 20
258.1505884409
 30
0.0
 40
157.5411446286314
100
AcDbArc
 50
352.0936975028
 51
7.9063024972
  0
LWPOLYLINE
  5
114
330
1F
100
AcDbEntity
  8
0
  6
CONTINUOUS
 62
     7
100
AcDbPolyline
 90
        3
 70
   128
 43
0.0
 10
23.5265339932
 20
284.6465521203
 10
24.134583421
 20
284.4172160246
 10
24.3479364206
 20
284.3018071433
  0
ARC
  5
115
330
1F
100
AcDbEntity
  8
0
  6
CONTINUOUS
 62
     7
100
AcDbCircle
 10
20.7576192621
 20
279.1674232435
 30
0.0
 40
6.276225825236718
100
AcDbArc
 50
5.9766564821
 51
53.6480372707
  0
LINE
  5
116
330
1F
100
AcDbEntity
  8
0
  6
CONTINUOUS
 62
     7
100
AcDbLine
 10
-38.4523733687
 20
300.6878737402
 30
0.0
 11
23.5265339932
 21
284.6465521203
 31
0.0
  0
ARC
  5
117
330
1F
100
AcDbEntity
  8
0
  6
CONTINUOUS
 62
     7
100
AcDbCircle
 10
23.5648307621
 20
236.6490239803
 30
0.0
 40
3.43904300878659
100
AcDbArc
 50
292.264341021
 51
357.1870725464
  0
ARC
  5
118
330
1F
100
AcDbEntity
  8
0
  6
CONTINUOUS
 62
     7
100
AcDbCircle
 10
-129.0438817918
 20
108.4320853661
 30
0.0
 40
157.5411446286308
100
AcDbArc
 50
352.0936975028
 51
7.9063024972
  0
LWPOLYLINE
  5
119
330
1F
100
AcDbEntity
  8
0
  6
CONTINUOUS
 62
     7
100
AcDbPolyline
 90
        3
 70
   128
 43
0.0
 10
23.5265339932
 20
134.9280490455
 10
24.134583421
 20
134.6987129498
 10
24.3479364206
 20
134.5833040685
  0
ARC
  5
11A
330
1F
100
AcDbEntity
  8
0
  6
CONTINUOUS
 62
     7
100
AcDbCircle
 10
20.7576192621
 20
129.4489201687
 30
0.0
 40
6.27622582523697
100
AcDbArc
 50
5.9766564821
 51
53.6480372707
  0
LINE
  5
11B
330
1F
100
AcDbEntity
  8
0
  6
CONTINUOUS
 62
     7
100
AcDbLine
 10
-38.4523733687
 20
150.9693706654
 30
0.0
 11
23.5265339932
 21
134.9280490455
 31
0.0
  0
ARC
  5
11C
330
1F
100
AcDbEntity
  8
0
  6
CONTINUOUS
 62
     7
100
AcDbCircle
 10
23.5648307621
 20
86.9305209055
 30
0.0
 40
3.4390430087866
100
AcDbArc
 50
292.264341021
 51
357.1870725464
  0
ARC
  5
11D
330
1F
100
AcDbEntity
  8
0
  6
CONTINUOUS
 62
     7
100
AcDbCircle
 10
25.8411706741
 20
93.1657770883
 30
0.0
 40
3.939419139616503
100
AcDbArc
 50
292.8726393423
 51
351.9372731303
  0
ARC
  5
11E
330
1F
100
AcDbEntity
  8
0
  6
CONTINUOUS
 62
     7
100
AcDbCircle
 10
27.9215651016
 20
94.0906096338
 30
0.0
 40
2.344207942139139
100
AcDbArc
 50
320.9337221364
 51
2.4639489874
  0
LINE
  5
11F
330
1F
100
AcDbEntity
  8
0
  6
CONTINUOUS
 62
     7
100
AcDbLine
 10
30.2636057521
 20
126.839681864
 30
0.0
 11
30.2636057521
 21
94.1913889354
 31
0.0
  0
ARC
  5
120
330
1F
100
AcDbEntity
  8
0
  6
CONTINUOUS
 62
     7
100
AcDbCircle
 10
26.6933683319
 20
126.8293312981
 30
0.0
 40
3.570252423997606
100
AcDbArc
 50
0.1661071827
 51
31.3726077761
  0
ARC
  5
121
330
1F
100
AcDbEntity
  8
0
  6
CONTINUOUS
 62
     7
100
AcDbCircle
 10
23.2605555924
 20
127.8450477407
 30
0.0
 40
6.535683468917959
100
AcDbArc
 50
7.4105649504
 51
68.3914146206
  0
LINE
  5
122
330
1F
100
AcDbEntity
  8
0
  6
CONTINUOUS
 62
     7
100
AcDbLine
 10
25.6674116744
 20
133.9214119666
 30
0.0
 11
25.0207756584
 21
134.0887736828
 31
0.0
  0
LINE
  5
123
330
1F
100
AcDbEntity
  8
0
  6
CONTINUOUS
 62
     7
100
AcDbLine
 10
32.2480753802
 20
83.4389566426
 30
0.0
 11
26.3715297879
 21
84.9599185613
 31
0.0
  0
LINE
  5
124
330
1F
100
AcDbEntity
  8
0
  6
CONTINUOUS
 62
     7
100
AcDbLine
 10
-28.4262570864
 20
148.3744208231
 30
0.0
 11
-28.4262570864
 21
152.2685498797
 31
0.0
  0
LINE
  5
125
330
1F
100
AcDbEntity
  8
0
  6
CONTINUOUS
 62
     7
100
AcDbLine
 10
32.2480753802
 20
136.5648770885
 30
0.0
 11
-28.4262570864
 21
152.2685498797
 31
0.0
  0
ARC
  5
126
330
1F
100
AcDbEntity
  8
0
  6
CONTINUOUS
 62
     7
100
AcDbCircle
 10
-122.6269411632
 20
110.0019168655
 30
0.0
 40
157.1364426386318
100
AcDbArc
 50
350.2677647981
 51
9.7322352019
  0
LINE
  5
127
330
1F
100
AcDbEntity
  8
0
  6
CONTINUOUS
 62
     7
100
AcDbLine
 10
32.2480753802
 20
136.5648770885
 30
0.0
 11
36.1371626768
 21
137.5714469489
 31
0.0
  0
SPLINE
  5
128
330
1F
100
AcDbEntity
  8
0
  6
CONTINUOUS
 62
     7
100
AcDbSpline
210
0.0
220
0.0
230
1.0
 70
     8
 71
     3
 72
    11
 73
     7
 74
     0
 42
0.00000001
 43
0.00000001
 12
1.0
 22
0.0
 32
0.0
 13
1.0
 23
0.0
 33
0.0
 40
0.0
 40
0.0
 40
0.0
 40
0.0
 40
0.2468625956554726
 40
0.4949699021238322
 40
0.7468579603354152
 40
1.0
 40
1.0
 40
1.0
 40
1.0
 10
39.99552293278545
 20
127.6808878174917
 30
0.0
 10
39.77129186193006
 20
128.5429016374033
 30
0.0
 10
39.32169912026858
 20
130.2712756542855
 30
0.0
 10
38.42680264435282
 20
132.7824418752875
 30
0.0
 10
37.38468049649519
 20
135.2366622252172
 30
0.0
 10
36.55368972882456
 20
136.7918981658646
 30
0.0
 10
36.13716267676326
 20
137.5714469488594
 30
0.0
  0
SPLINE
  5
129
330
1F
100
AcDbEntity
  8
0
  6
CONTINUOUS
 62
     7
100
AcDbSpline
210
0.0
220
0.0
230
1.0
 70
     8
 71
     3
 72
    15
 73
    11
 74
     0
 42
0.00000001
 43
0.00000001
 12
1.0
 22
0.0
 32
0.0
 13
1.0
 23
0.0
 33
0.0
 40
0.0
 40
0.0
 40
0.0
 40
0.0
 40
0.091100073284556
 40
0.2740339721001919
 40
0.459596890031886
 40
0.553494344273364
 40
0.6479213577742358
 40
0.7425259385617927
 40
0.8710454537811596
 40
1.0
 40
1.0
 40
1.0
 40
1.0
 10
39.99552293278546
 20
94.87930592792935
 30
0.0
 10
40.21580917513739
 20
95.86768561492917
 30
0.0
 10
40.878442165587
 20
98.8407854358886
 30
0.0
 10
41.61872724793427
 20
103.8875285010916
 30
0.0
 10
41.94488536006692
 20
108.9924035384297
 30
0.0
 10
41.9311899827061
 20
113.1161723868548
 30
0.0
 10
41.78333203152977
 20
116.2295175737321
 30
0.0
 10
41.45825182691146
 20
119.7078614132035
 30
0.0
 10
40.91187911197733
 20
123.5408112884279
 30
0.0
 10
40.30131886228192
 20
126.2993087119652
 30
0.0
 10
39.99552293278545
 20
127.6808878174917
 30
0.0
  0
SPLINE
  5
12A
330
1F
100
AcDbEntity
  8
0
  6
CONTINUOUS
 62
     7
100
AcDbSpline
210
0.0
220
0.0
230
1.0
 70
     8
 71
     3
 72
    11
 73
     7
 74
     0
 42
0.00000001
 43
0.00000001
 12
1.0
 22
0.0
 32
0.0
 13
1.0
 23
0.0
 33
0.0
 40
0.0
 40
0.0
 40
0.0
 40
0.0
 40
0.2469368417622262
 40
0.4950436131835191
 40
0.7468669807299487
 40
1.0
 40
1.0
 40
1.0
 40
1.0
 10
36.13716267676322
 20
84.44552650296058
 30
0.0
 10
36.54380129090402
 20
85.27788735129464
 30
0.0
 10
37.35900507891569
 20
86.94655258120214
 30
0.0
 10
38.39766062516487
 20
89.5336103589503
 30
0.0
 10
39.30567620994879
 20
92.17906963603714
 30
0.0
 10
39.76517677257905
 20
93.97767221583496
 30
0.0
 10
39.99552293278546
 20
94.87930592792935
 30
0.0
  0
LINE
  5
12B
330
1F
100
AcDbEntity
  8
0
  6
CONTINUOUS
 62
     7
100
AcDbLine
 10
32.2480753802
 20
83.4389566426
 30
0.0
 11
36.1371626768
 21
84.445526503
 31
0.0
  0
LINE
  5
12C
330
1F
100
AcDbEntity
  8
0
  6
CONTINUOUS
 62
     7
100
AcDbLine
 10
-28.4262570864
 20
152.2685498797
 30
0.0
 11
-24.5371697899
 21
153.2751197401
 31
0.0
  0
LINE
  5
12D
330
1F
100
AcDbEntity
  8
0
  6
CONTINUOUS
 62
     7
100
AcDbLine
 10
36.1371626768
 20
137.5714469489
 30
0.0
 11
-24.5371697899
 21
153.2751197401
 31
0.0
  0
LINE
  5
12E
330
1F
100
AcDbEntity
  8
0
  6
CONTINUOUS
 62
     7
100
AcDbLine
 10
29.7416490887
 20
128.6880100758
 30
0.0
 11
29.8078986719
 21
128.5186645829
 31
0.0
  0
LINE
  5
12F
330
1F
100
AcDbEntity
  8
0
  6
CONTINUOUS
 62
     7
100
AcDbLine
 10
27.6679709061
 20
91.3502062519
 30
0.0
 11
29.0945306358
 21
90.9809854249
 31
0.0
  0
SPLINE
  5
130
330
1F
100
AcDbEntity
  8
0
  6
CONTINUOUS
 62
     7
100
AcDbSpline
210
0.0
220
0.0
230
1.0
 70
     8
 71
     3
 72
     9
 73
     5
 74
     0
 42
0.00000001
 43
0.00000001
 12
1.0
 22
0.0
 32
0.0
 13
1.0
 23
0.0
 33
0.0
 40
0.0
 40
0.0
 40
0.0
 40
0.0
 40
0.6509107817504698
 40
1.0
 40
1.0
 40
1.0
 40
1.0
 10
30.26183908861716
 20
94.27735180851728
 30
0.0
 10
30.20440715169076
 20
93.89911208606698
 30
0.0
 10
30.11617395823842
 20
93.31801904988606
 30
0.0
 10
29.83856083636533
 20
92.79561203162403
 30
0.0
 10
29.74164908867485
 20
92.61324537401087
 30
0.0
  0
ARC
  5
131
330
1F
100
AcDbEntity
  8
0
  6
CONTINUOUS
 62
     7
100
AcDbCircle
 10
25.8411706741
 20
242.8842801631
 30
0.0
 40
3.939419139616607
100
AcDbArc
 50
292.8726393423
 51
351.9372731303
  0
ARC
  5
132
330
1F
100
AcDbEntity
  8
0
  6
CONTINUOUS
 62
     7
100
AcDbCircle
 10
27.9215651016
 20
243.8091127086
 30
0.0
 40
2.34420794213899
100
AcDbArc
 50
320.9337221364
 51
2.4639489874
  0
LINE
  5
133
330
1F
100
AcDbEntity
  8
0
  6
CONTINUOUS
 62
     7
100
AcDbLine
 10
30.2636057521
 20
276.5581849388
 30
0.0
 11
30.2636057521
 21
243.9098920102
 31
0.0
  0
ARC
  5
134
330
1F
100
AcDbEntity
  8
0
  6
CONTINUOUS
 62
     7
100
AcDbCircle
 10
26.6933683319
 20
276.5478343729
 30
0.0
 40
3.570252423997239
100
AcDbArc
 50
0.1661071827
 51
31.3726077761
  0
ARC
  5
135
330
1F
100
AcDbEntity
  8
0
  6
CONTINUOUS
 62
     7
100
AcDbCircle
 10
23.2605555924
 20
277.5635508155
 30
0.0
 40
6.535683468917743
100
AcDbArc
 50
7.4105649504
 51
68.3914146206
  0
LINE
  5
136
330
1F
100
AcDbEntity
  8
0
  6
CONTINUOUS
 62
     7
100
AcDbLine
 10
25.6674116744
 20
283.6399150414
 30
0.0
 11
25.0207756584
 21
283.8072767576
 31
0.0
  0
LINE
  5
137
330
1F
100
AcDbEntity
  8
0
  6
CONTINUOUS
 62
     7
100
AcDbLine
 10
32.2480753802
 20
233.1574597174
 30
0.0
 11
26.3715297879
 21
234.6784216361
 31
0.0
  0
LINE
  5
138
330
1F
100
AcDbEntity
  8
0
  6
CONTINUOUS
 62
     7
100
AcDbLine
 10
-28.4262570864
 20
298.0929238979
 30
0.0
 11
-28.4262570864
 21
301.9870529545
 31
0.0
  0
LINE
  5
139
330
1F
100
AcDbEntity
  8
0
  6
CONTINUOUS
 62
     7
100
AcDbLine
 10
32.2480753802
 20
286.2833801633
 30
0.0
 11
-28.4262570864
 21
301.9870529545
 31
0.0
  0
ARC
  5
13A
330
1F
100
AcDbEntity
  8
0
  6
CONTINUOUS
 62
     7
100
AcDbCircle
 10
-122.6269411632
 20
259.7204199403
 30
0.0
 40
157.1364426386317
100
AcDbArc
 50
350.2677647981
 51
9.7322352019
  0
LINE
  5
13B
330
1F
100
AcDbEntity
  8
0
  6
CONTINUOUS
 62
     7
100
AcDbLine
 10
32.2480753802
 20
286.2833801633
 30
0.0
 11
36.1371626768
 21
287.2899500237
 31
0.0
  0
SPLINE
  5
13C
330
1F
100
AcDbEntity
  8
0
  6
CONTINUOUS
 62
     7
100
AcDbSpline
210
0.0
220
0.0
230
1.0
 70
     8
 71
     3
 72
    11
 73
     7
 74
     0
 42
0.00000001
 43
0.00000001
 12
1.0
 22
0.0
 32
0.0
 13
1.0
 23
0.0
 33
0.0
 40
0.0
 40
0.0
 40
0.0
 40
0.0
 40
0.2468625956554726
 40
0.4949699021238321
 40
0.7468579603354137
 40
1.0
 40
1.0
 40
1.0
 40
1.0
 10
39.99552293278546
 20
277.3993908922973
 30
0.0
 10
39.77129186193007
 20
278.2614047122089
 30
0.0
 10
39.32169912026859
 20
279.989778729091
 30
0.0
 10
38.42680264435283
 20
282.5009449500931
 30
0.0
 10
37.38468049649519
 20
284.9551653000229
 30
0.0
 10
36.55368972882457
 20
286.5104012406701
 30
0.0
 10
36.13716267676327
 20
287.289950023665
 30
0.0
  0
SPLINE
  5
13D
330
1F
100
AcDbEntity
  8
0
  6
CONTINUOUS
 62
     7
100
AcDbSpline
210
0.0
220
0.0
230
1.0
 70
     8
 71
     3
 72
    15
 73
    11
 74
     0
 42
0.00000001
 43
0.00000001
 12
1.0
 22
0.0
 32
0.0
 13
1.0
 23
0.0
 33
0.0
 40
0.0
 40
0.0
 40
0.0
 40
0.0
 40
0.0911000732845558
 40
0.2740339721001918
 40
0.4595968900318859
 40
0.5534943442733639
 40
0.6479213577742358
 40
0.7425259385617919
 40
0.8710454537811595
 40
1.0
 40
1.0
 40
1.0
 40
1.0
 10
39.99552293278548
 20
244.5978090027349
 30
0.0
 10
40.2158091751374
 20
245.5861886897348
 30
0.0
 10
40.87844216558703
 20
248.5592885106941
 30
0.0
 10
41.61872724793427
 20
253.6060315758972
 30
0.0
 10
41.94488536006693
 20
258.7109066132352
 30
0.0
 10
41.9311899827061
 20
262.8346754616604
 30
0.0
 10
41.78333203152979
 20
265.9480206485377
 30
0.0
 10
41.45825182691146
 20
269.426364488009
 30
0.0
 10
40.91187911197734
 20
273.2593143632336
 30
0.0
 10
40.30131886228195
 20
276.0178117867708
 30
0.0
 10
39.99552293278545
 20
277.3993908922973
 30
0.0
  0
SPLINE
  5
13E
330
1F
100
AcDbEntity
  8
0
  6
CONTINUOUS
 62
     7
100
AcDbSpline
210
0.0
220
0.0
230
1.0
 70
     8
 71
     3
 72
    11
 73
     7
 74
     0
 42
0.00000001
 43
0.00000001
 12
1.0
 22
0.0
 32
0.0
 13
1.0
 23
0.0
 33
0.0
 40
0.0
 40
0.0
 40
0.0
 40
0.0
 40
0.2469368417622247
 40
0.495043613183519
 40
0.7468669807299487
 40
1.0
 40
1.0
 40
1.0
 40
1.0
 10
36.13716267676323
 20
234.1640295777662
 30
0.0
 10
36.54380129090404
 20
234.9963904261003
 30
0.0
 10
37.35900507891572
 20
236.6650556560078
 30
0.0
 10
38.39766062516487
 20
239.252113433756
 30
0.0
 10
39.3056762099488
 20
241.8975727108428
 30
0.0
 10
39.76517677257905
 20
243.6961752906405
 30
0.0
 10
39.99552293278548
 20
244.5978090027349
 30
0.0
  0
LINE
  5
13F
330
1F
100
AcDbEntity
  8
0
  6
CONTINUOUS
 62
     7
100
AcDbLine
 10
32.2480753802
 20
233.1574597174
 30
0.0
 11
36.1371626768
 21
234.1640295778
 31
0.0
  0
LINE
  5
140
330
1F
100
AcDbEntity
  8
0
  6
CONTINUOUS
 62
     7
100
AcDbLine
 10
-28.4262570864
 20
301.9870529545
 30
0.0
 11
-24.5371697899
 21
302.9936228149
 31
0.0
  0
LINE
  5
141
330
1F
100
AcDbEntity
  8
0
  6
CONTINUOUS
 62
     7
100
AcDbLine
 10
36.1371626768
 20
287.2899500237
 30
0.0
 11
-24.5371697899
 21
302.9936228149
 31
0.0
  0
LINE
  5
142
330
1F
100
AcDbEntity
  8
0
  6
CONTINUOUS
 62
     7
100
AcDbLine
 10
29.7416490887
 20
278.4065131506
 30
0.0
 11
29.8078986719
 21
278.2371676577
 31
0.0
  0
LINE
  5
143
330
1F
100
AcDbEntity
  8
0
  6
CONTINUOUS
 62
     7
100
AcDbLine
 10
27.6679709061
 20
241.0687093267
 30
0.0
 11
29.0945306358
 21
240.6994884997
 31
0.0
  0
SPLINE
  5
144
330
1F
100
AcDbEntity
  8
0
  6
CONTINUOUS
 62
     7
100
AcDbSpline
210
0.0
220
0.0
230
1.0
 70
     8
 71
     3
 72
     9
 73
     5
 74
     0
 42
0.00000001
 43
0.00000001
 12
1.0
 22
0.0
 32
0.0
 13
1.0
 23
0.0
 33
0.0
 40
0.0
 40
0.0
 40
0.0
 40
0.0
 40
0.6509107817504698
 40
1.0
 40
1.0
 40
1.0
 40
1.0
 10
30.26183908861718
 20
243.9958548833229
 30
0.0
 10
30.20440715169077
 20
243.6176151608726
 30
0.0
 10
30.11617395823842
 20
243.0365221246916
 30
0.0
 10
29.83856083636535
 20
242.5141151064296
 30
0.0
 10
29.74164908867486
 20
242.3317484488165
 30
0.0
  0
LINE
  5
145
330
1F
100
AcDbEntity
  8
0
  6
CONTINUOUS
 62
     7
100
AcDbLine
 10
29.4076799268
 20
273.9010209908
 30
0.0
 11
29.4076799268
 21
275.3104811774
 31
0.0
  0
LINE
  5
146
330
1F
100
AcDbEntity
  8
0
  6
CONTINUOUS
 62
     7
100
AcDbLine
 10
30.2636057521
 20
266.0273430461
 30
0.0
 11
29.5564989709
 21
265.8625576691
 31
0.0
  0
LINE
  5
147
330
1F
100
AcDbEntity
  8
0
  6
CONTINUOUS
 62
     7
100
AcDbLine
 10
29.4076799268
 20
124.182517916
 30
0.0
 11
29.4076799268
 21
125.5919781026
 31
0.0
  0
LINE
  5
148
330
1F
100
AcDbEntity
  8
0
  6
CONTINUOUS
 62
     7
100
AcDbLine
 10
30.2636057521
 20
116.3088399713
 30
0.0
 11
29.5564989709
 21
116.1440545943
 31
0.0
  0
LINE
  5
149
330
1F
100
AcDbEntity
  8
0
  6
CONTINUOUS
 62
     7
100
AcDbLine
 10
29.4076799268
 20
96.9840421886
 30
0.0
 11
29.1944198893
 21
96.9988318477
 31
0.0
  0
LINE
  5
14A
330
1F
100
AcDbEntity
  8
0
  6
CONTINUOUS
 62
     7
100
AcDbLine
 10
29.4076799268
 20
96.9840421886
 30
0.0
 11
29.4076799268
 21
98.0236635005
 31
0.0
  0
LINE
  5
14B
330
1F
100
AcDbEntity
  8
0
  6
CONTINUOUS
 62
     7
100
AcDbLine
 10
30.2636057521
 20
97.1835086107
 30
0.0
 11
29.4076799268
 21
96.9840421886
 31
0.0
  0
LINE
  5
14C
330
1F
100
AcDbEntity
  8
0
  6
CONTINUOUS
 62
     7
100
AcDbLine
 10
29.4076799268
 20
246.7025452634
 30
0.0
 11
29.1944198893
 21
246.7173349225
 31
0.0
  0
LINE
  5
14D
330
1F
100
AcDbEntity
  8
0
  6
CONTINUOUS
 62
     7
100
AcDbLine
 10
29.4076799268
 20
246.7025452634
 30
0.0
 11
29.4076799268
 21
247.7421665753
 31
0.0
  0
LINE
  5
14E
330
1F
100
AcDbEntity
  8
0
  6
CONTINUOUS
 62
     7
100
AcDbLine
 10
30.2636057521
 20
246.9020116855
 30
0.0
 11
29.4076799268
 21
246.7025452634
 31
0.0
  0
ARC
  5
14F
330
1F
100
AcDbEntity
  8
0
  6
CONTINUOUS
 62
     7
100
AcDbCircle
 10
17.8127901265
 20
123.4662807413
 30
0.0
 40
12.59558110788169
100
AcDbArc
 50
8.695165933
 51
50.6128205986
  0
LINE
  5
150
330
1F
100
AcDbEntity
  8
0
  6
CONTINUOUS
 62
     7
100
AcDbLine
 10
29.1092518088
 20
125.6692169831
 30
0.0
 11
30.2636057521
 21
125.3704481978
 31
0.0
  0
LINE
  5
151
330
1F
100
AcDbEntity
  8
0
  6
CONTINUOUS
 62
     7
100
AcDbLine
 10
30.2636057521
 20
115.5180047697
 30
0.0
 11
29.5564989709
 21
115.7010174716
 31
0.0
  0
LINE
  5
152
330
1F
100
AcDbEntity
  8
0
  6
CONTINUOUS
 62
     7
100
AcDbLine
 10
29.5564989709
 20
106.4281295392
 30
0.0
 11
30.2636057521
 21
106.2451168373
 31
0.0
  0
LINE
  5
153
330
1F
100
AcDbEntity
  8
0
  6
CONTINUOUS
 62
     7
100
AcDbLine
 10
30.2636057521
 20
96.3926734091
 30
0.0
 11
29.1092518088
 21
96.6914421945
 31
0.0
  0
ARC
  5
154
330
1F
100
AcDbEntity
  8
0
  6
CONTINUOUS
 62
     7
100
AcDbCircle
 10
22.8714677002
 20
97.4948421793
 30
0.0
 40
7.473853154557145
100
AcDbArc
 50
309.5206605071
 51
351.5196650486
  0
ARC
  5
155
330
1F
100
AcDbEntity
  8
0
  6
CONTINUOUS
 62
     7
100
AcDbCircle
 10
17.8127901265
 20
273.1847838161
 30
0.0
 40
12.59558110788126
100
AcDbArc
 50
8.695165933
 51
50.6128205986
  0
LINE
  5
156
330
1F
100
AcDbEntity
  8
0
  6
CONTINUOUS
 62
     7
100
AcDbLine
 10
29.1092518088
 20
275.3877200579
 30
0.0
 11
30.2636057521
 21
275.0889512726
 31
0.0
  0
LINE
  5
157
330
1F
100
AcDbEntity
  8
0
  6
CONTINUOUS
 62
     7
100
AcDbLine
 10
30.2636057521
 20
265.2365078445
 30
0.0
 11
29.5564989709
 21
265.4195205464
 31
0.0
  0
LINE
  5
158
330
1F
100
AcDbEntity
  8
0
  6
CONTINUOUS
 62
     7
100
AcDbLine
 10
29.5564989709
 20
256.146632614
 30
0.0
 11
30.2636057521
 21
255.9636199121
 31
0.0
  0
LINE
  5
159
330
1F
100
AcDbEntity
  8
0
  6
CONTINUOUS
 62
     7
100
AcDbLine
 10
30.2636057521
 20
246.1111764839
 30
0.0
 11
29.1092518088
 21
246.4099452693
 31
0.0
  0
ARC
  5
15A
330
1F
100
AcDbEntity
  8
0
  6
CONTINUOUS
 62
     7
100
AcDbCircle
 10
22.8714677002
 20
247.2133452541
 30
0.0
 40
7.473853154556501
100
AcDbArc
 50
309.5206605071
 51
351.5196650486
  0
LWPOLYLINE
  5
15B
330
1F
100
AcDbEntity
  8
0
  6
CONTINUOUS
 62
     7
100
AcDbPolyline
 90
       17
 70
   128
 43
0.0
 10
-65.6172235624
 20
100.2400056821
 10
-65.0801957378
 20
100.5522362924
 10
-64.6325781421
 20
101.1088730433
 10
-64.3425164966
 20
101.8251730353
 10
-64.2541700573
 20
102.5920860879
 10
-64.3809887688
 20
103.292856641
 10
-64.7036656318
 20
103.8207987304
 10
-65.1730760192
 20
104.0955379587
 10
-65.7177564545
 20
104.0752477689
 10
-66.2547842791
 20
103.7630171586
 10
-66.7024018748
 20
103.2063804077
 10
-66.9924635203
 20
102.4900804157
 10
-67.0808099596
 20
101.7231673631
 10
-66.9539912481
 20
101.02239681
 10
-66.631314385
 20
100.4944547206
 10
-66.1619039977
 20
100.2197154923
 10
-65.6172235624
 20
100.2400056821
  0
LWPOLYLINE
  5
15C
330
1F
100
AcDbEntity
  8
0
  6
CONTINUOUS
 62
     7
100
AcDbPolyline
 90
       10
 70
   128
 43
0.0
 10
-65.719728975
 20
104.2370487096
 10
-65.7264405999
 20
104.238759251
 10
-66.2711210352
 20
104.2184690613
 10
-66.8081488598
 20
103.9062384509
 10
-67.2557664555
 20
103.3496017001
 10
-67.545828101
 20
102.6333017081
 10
-67.6341745403
 20
101.8663886554
 10
-67.5073558288
 20
101.1656181023
 10
-67.1846789657
 20
100.637676013
 10
-66.7219802033
 20
100.3646473261
  0
LWPOLYLINE
  5
15D
330
1F
100
AcDbEntity
  8
0
  6
CONTINUOUS
 62
     7
100
AcDbPolyline
 90
       17
 70
   128
 43
0.0
 10
-64.4679992448
 20
293.778820012
 10
-64.8459913616
 20
294.2301303761
 10
-65.3490492005
 20
294.4096730309
 10
-65.9005867657
 20
294.2901142347
 10
-66.4166374626
 20
293.8896557304
 10
-66.8186372507
 20
293.2692636952
 10
-67.0453853063
 20
292.5233871925
 10
-67.0623612935
 20
291.7655791585
 10
-66.866980772
 20
291.1112089969
 10
-66.4889886553
 20
290.6598986327
 10
-65.9859308164
 20
290.480355978
 10
-65.4343932512
 20
290.5999147742
 10
-64.9183425543
 20
291.0003732785
 10
-64.5163427662
 20
291.6207653137
 10
-64.2895947106
 20
292.3666418164
 10
-64.2726187234
 20
293.1244498504
 10
-64.4679992448
 20
293.778820012
  0
LWPOLYLINE
  5
15E
330
1F
100
AcDbEntity
  8
0
  6
CONTINUOUS
 62
     7
100
AcDbPolyline
 90
       10
 70
   128
 43
0.0
 10
-65.719728975
 20
294.5244364886
 10
-65.9024137812
 20
294.5528943233
 10
-66.4539513463
 20
294.433335527
 10
-66.9700020433
 20
294.0328770228
 10
-67.3720018314
 20
293.4124849875
 10
-67.598749887
 20
292.6666084849
 10
-67.6157258742
 20
291.9088004509
 10
-67.4203453527
 20
291.2544302892
 10
-67.042353236
 20
290.8031199251
 10
-66.7219802033
 20
290.652035105
  0
LWPOLYLINE
  5
15F
330
1F
100
AcDbEntity
  8
0
  6
CONTINUOUS
 62
     7
100
AcDbPolyline
 90
       17
 70
   128
 43
0.0
 10
-65.6172235624
 20
249.9585087569
 10
-65.0801957378
 20
250.2707393672
 10
-64.6325781421
 20
250.8273761181
 10
-64.3425164966
 20
251.5436761101
 10
-64.2541700573
 20
252.3105891627
 10
-64.3809887688
 20
253.0113597158
 10
-64.7036656318
 20
253.5393018052
 10
-65.1730760192
 20
253.8140410335
 10
-65.7177564545
 20
253.7937508437
 10
-66.2547842791
 20
253.4815202334
 10
-66.7024018748
 20
252.9248834825
 10
-66.9924635203
 20
252.2085834905
 10
-67.0808099596
 20
251.4416704379
 10
-66.9539912481
 20
250.7408998848
 10
-66.631314385
 20
250.2129577954
 10
-66.1619039977
 20
249.9382185671
 10
-65.6172235624
 20
249.9585087569
  0
LWPOLYLINE
  5
160
330
1F
100
AcDbEntity
  8
0
  6
CONTINUOUS
 62
     7
100
AcDbPolyline
 90
       10
 70
   128
 43
0.0
 10
-65.719728975
 20
253.9555517844
 10
-65.7264405999
 20
253.9572623258
 10
-66.2711210352
 20
253.9369721361
 10
-66.8081488598
 20
253.6247415258
 10
-67.2557664555
 20
253.0681047749
 10
-67.545828101
 20
252.3518047829
 10
-67.6341745403
 20
251.5848917302
 10
-67.5073558288
 20
250.8841211771
 10
-67.1846789657
 20
250.3561790878
 10
-66.7219802033
 20
250.0831504009
  0
LWPOLYLINE
  5
161
330
1F
100
AcDbEntity
  8
0
  6
CONTINUOUS
 62
     7
100
AcDbPolyline
 90
       17
 70
   128
 43
0.0
 10
-64.4679992448
 20
144.0603169372
 10
-64.8459913616
 20
144.5116273013
 10
-65.3490492005
 20
144.6911699561
 10
-65.9005867657
 20
144.5716111599
 10
-66.4166374626
 20
144.1711526556
 10
-66.8186372507
 20
143.5507606204
 10
-67.0453853063
 20
142.8048841177
 10
-67.0623612935
 20
142.0470760837
 10
-66.866980772
 20
141.3927059221
 10
-66.4889886553
 20
140.9413955579
 10
-65.9859308164
 20
140.7618529032
 10
-65.4343932512
 20
140.8814116994
 10
-64.9183425543
 20
141.2818702037
 10
-64.5163427662
 20
141.9022622389
 10
-64.2895947106
 20
142.6481387416
 10
-64.2726187234
 20
143.4059467756
 10
-64.4679992448
 20
144.0603169372
  0
LWPOLYLINE
  5
162
330
1F
100
AcDbEntity
  8
0
  6
CONTINUOUS
 62
     7
100
AcDbPolyline
 90
       10
 70
   128
 43
0.0
 10
-65.719728975
 20
144.8059334138
 10
-65.9024137812
 20
144.8343912484
 10
-66.4539513463
 20
144.7148324522
 10
-66.9700020433
 20
144.314373948
 10
-67.3720018314
 20
143.6939819127
 10
-67.598749887
 20
142.9481054101
 10
-67.6157258742
 20
142.1902973761
 10
-67.4203453527
 20
141.5359272144
 10
-67.042353236
 20
141.0846168503
 10
-66.7219802033
 20
140.9335320302
  0
LWPOLYLINE
  5
163
330
1F
100
AcDbEntity
  8
0
  6
CONTINUOUS
 62
     7
100
AcDbPolyline
 90
       14
 70
   128
 43
0.0
 10
6.7299531608
 20
101.6705662705
 10
6.7746997597
 20
103.7551501514
 10
7.0686154801
 20
105.8658898499
 10
7.6036830674
 20
107.9452098895
 10
8.3653072725
 20
109.9363918396
 10
9.3327129727
 20
111.7851214475
 10
10.4795118622
 20
113.4409701887
 10
11.7744222568
 20
114.8587708259
 10
13.1821223765
 20
115.9998494538
 10
14.6642138317
 20
116.833080422
 10
16.1802690309
 20
117.3357353616
 10
17.6889339404
 20
117.4941031563
 10
19.1490561144
 20
117.3038639455
 10
19.1666545861
 20
117.2993372462
  0
LWPOLYLINE
  5
164
330
1F
100
AcDbEntity
  8
0
  6
CONTINUOUS
 62
     7
100
AcDbPolyline
 90
        8
 70
   128
 43
0.0
 10
12.6520216019
 20
92.1287282532
 10
11.297868962
 20
92.6578585405
 10
10.0519067071
 20
93.5203765315
 10
8.9657199112
 20
94.6882282844
 10
8.0689369187
 20
96.1295578477
 10
7.3860196319
 20
97.8050495084
 10
6.935596254
 20
99.6690002215
 10
6.7299531608
 20
101.6705662705
  0
LWPOLYLINE
  5
165
330
1F
100
AcDbEntity
  8
0
  6
CONTINUOUS
 62
     7
100
AcDbPolyline
 90
        8
 70
   128
 43
0.0
 10
7.1539171552
 20
101.6858963018
 10
7.3636029071
 20
99.679305099
 10
7.8252365535
 20
97.8159743614
 10
8.525537735
 20
96.1495087217
 10
9.4443600616
 20
94.7278493622
 10
10.5552706878
 20
93.5918948343
 10
11.8263107376
 20
92.7743244815
 10
13.1545614239
 20
92.3128150715
  0
LWPOLYLINE
  5
166
330
1F
100
AcDbEntity
  8
0
  6
CONTINUOUS
 62
     7
100
AcDbPolyline
 90
       18
 70
   128
 43
0.0
 10
14.443134938
 20
92.1736284638
 10
14.6989623666
 20
92.1785803825
 10
16.2179329888
 20
92.4175451093
 10
17.7341285501
 20
93.0086779146
 10
19.2039308648
 20
93.9349729841
 10
20.5850563963
 20
95.1697824949
 10
21.8377726777
 20
96.6775832257
 10
22.9260413424
 20
98.4149984948
 10
23.8185548823
 20
100.332046028
 10
24.489637308
 20
102.3735758584
 10
24.9199827997
 20
104.4808568895
 10
25.0972111013
 20
106.593266483
 10
25.0162236772
 20
108.6500344607
 10
24.6793503881
 20
110.5919913529
 10
24.0962824653
 20
112.3632705953
 10
23.2837937112
 20
113.9129157092
 10
22.265257948
 20
115.1963462261
 10
21.7007789301
 20
115.71558449
  0
LWPOLYLINE
  5
167
330
1F
100
AcDbEntity
  8
0
  6
CONTINUOUS
 62
     7
100
AcDbPolyline
 90
       13
 70
   128
 43
0.0
 10
18.5000630223
 20
117.103879112
 10
18.2908168183
 20
117.1245453353
 10
16.7868897609
 20
117.064887018
 10
15.2638197921
 20
116.648337628
 10
13.765422862
 20
115.8868805327
 10
12.3348051221
 20
114.8024214663
 10
11.0131228401
 20
113.4261583418
 10
9.8383984088
 20
111.7976837435
 10
8.8444265113
 20
109.9638459206
 10
8.0598019095
 20
107.9774010484
 10
7.5070968244
 20
105.8954955292
 10
7.2022115751
 20
103.7780219942
 10
7.1539171552
 20
101.6858963018
  0
LWPOLYLINE
  5
168
330
1F
100
AcDbEntity
  8
0
  6
CONTINUOUS
 62
     7
100
AcDbPolyline
 90
       17
 70
   128
 43
0.0
 10
15.4217775778
 20
94.2705543968
 10
15.5273900161
 20
93.731811151
 10
15.7835463123
 20
93.330331087
 10
16.1512489922
 20
93.1272359052
 10
16.5745186562
 20
93.1534450058
 10
16.9889163347
 20
93.404968291
 10
17.3313537379
 20
93.8435136205
 10
17.5496978752
 20
94.4023164435
 10
17.6107078311
 20
94.9963040956
 10
17.5050953928
 20
95.5350473414
 10
17.2489390966
 20
95.9365274054
 10
16.8812364167
 20
96.1396225872
 10
16.4579667527
 20
96.1134134866
 10
16.0435690742
 20
95.8618902014
 10
15.701131671
 20
95.4233448719
 10
15.4827875337
 20
94.8645420489
 10
15.4217775778
 20
94.2705543968
  0
LWPOLYLINE
  5
169
330
1F
100
AcDbEntity
  8
0
  6
CONTINUOUS
 62
     7
100
AcDbPolyline
 90
       17
 70
   128
 43
0.0
 10
14.6322324256
 20
114.3219537826
 10
14.7378448639
 20
113.7832105369
 10
14.9940011601
 20
113.3817304729
 10
15.36170384
 20
113.178635291
 10
15.784973504
 20
113.2048443917
 10
16.1993711826
 20
113.4563676769
 10
16.5418085857
 20
113.8949130064
 10
16.7601527231
 20
114.4537158294
 10
16.8211626789
 20
115.0477034815
 10
16.7155502406
 20
115.5864467273
 10
16.4593939445
 20
115.9879267913
 10
16.0916912645
 20
116.1910219731
 10
15.6684216006
 20
116.1648128725
 10
15.254023922
 20
115.9132895873
 10
14.9115865188
 20
115.4747442577
 10
14.6932423815
 20
114.9159414348
 10
14.6322324256
 20
114.3219537826
  0
LWPOLYLINE
  5
16A
330
1F
100
AcDbEntity
  8
0
  6
CONTINUOUS
 62
     7
100
AcDbPolyline
 90
       17
 70
   128
 43
0.0
 10
22.4411236016
 20
106.7544385537
 10
22.5467360399
 20
106.2156953079
 10
22.8028923361
 20
105.8142152439
 10
23.170595016
 20
105.6111200621
 10
23.59386468
 20
105.6373291627
 10
24.0082623585
 20
105.8888524479
 10
24.3506997617
 20
106.3273977774
 10
24.569043899
 20
106.8862006004
 10
24.6300538549
 20
107.4801882525
 10
24.5244414166
 20
108.0189314983
 10
24.2682851204
 20
108.4204115623
 10
23.9005824405
 20
108.6235067441
 10
23.4773127765
 20
108.5972976435
 10
23.062915098
 20
108.3457743583
 10
22.7204776948
 20
107.9072290288
 10
22.5021335575
 20
107.3484262058
 10
22.4411236016
 20
106.7544385537
  0
LWPOLYLINE
  5
16B
330
1F
100
AcDbEntity
  8
0
  6
CONTINUOUS
 62
     7
100
AcDbPolyline
 90
       17
 70
   128
 43
0.0
 10
7.6128864018
 20
101.8380696258
 10
7.7184988401
 20
101.29932638
 10
7.9746551363
 20
100.897846316
 10
8.3423578162
 20
100.6947511342
 10
8.7656274802
 20
100.7209602348
 10
9.1800251588
 20
100.97248352
 10
9.5224625619
 20
101.4110288495
 10
9.7408066993
 20
101.9698316725
 10
9.8018166551
 20
102.5638193246
 10
9.6962042168
 20
103.1025625704
 10
9.4400479207
 20
103.5040426344
 10
9.0723452407
 20
103.7071378162
 10
8.6490755768
 20
103.6809287156
 10
8.2346778982
 20
103.4294054304
 10
7.892240495
 20
102.9908601009
 10
7.6738963577
 20
102.4320572779
 10
7.6128864018
 20
101.8380696258
  0
ARC
  5
16C
330
1F
100
AcDbEntity
  8
0
  6
CONTINUOUS
 62
     7
100
AcDbCircle
 10
5.8780321574
 20
102.9332262131
 30
0.0
 40
2.157286289863269
100
AcDbArc
 50
324.1610349225
 51
6.8173276794
  0
ARC
  5
16D
330
1F
100
AcDbEntity
  8
0
  6
CONTINUOUS
 62
     7
100
AcDbCircle
 10
12.8973781812
 20
115.41711037
 30
0.0
 40
2.15728628986309
100
AcDbArc
 50
324.1610349225
 51
6.8173276794
  0
ARC
  5
16E
330
1F
100
AcDbEntity
  8
0
  6
CONTINUOUS
 62
     7
100
AcDbCircle
 10
13.6869233334
 20
95.3657109841
 30
0.0
 40
2.157286289863174
100
AcDbArc
 50
324.1610349225
 51
6.8173276794
  0
ARC
  5
16F
330
1F
100
AcDbEntity
  8
0
  6
CONTINUOUS
 62
     7
100
AcDbCircle
 10
20.7062693572
 20
107.849595141
 30
0.0
 40
2.157286289863105
100
AcDbArc
 50
324.1610349225
 51
6.8173276794
  0
LWPOLYLINE
  5
170
330
1F
100
AcDbEntity
  8
0
  6
CONTINUOUS
 62
     7
100
AcDbPolyline
 90
       14
 70
   128
 43
0.0
 10
6.7299531608
 20
251.3890693453
 10
6.7746997597
 20
253.4736532262
 10
7.0686154801
 20
255.5843929247
 10
7.6036830674
 20
257.6637129643
 10
8.3653072725
 20
259.6548949144
 10
9.3327129727
 20
261.5036245223
 10
10.4795118622
 20
263.1594732635
 10
11.7744222568
 20
264.5772739007
 10
13.1821223765
 20
265.7183525286
 10
14.6642138317
 20
266.5515834968
 10
16.1802690309
 20
267.0542384364
 10
17.6889339404
 20
267.2126062311
 10
19.1490561144
 20
267.0223670203
 10
19.1666545861
 20
267.017840321
  0
LWPOLYLINE
  5
171
330
1F
100
AcDbEntity
  8
0
  6
CONTINUOUS
 62
     7
100
AcDbPolyline
 90
        8
 70
   128
 43
0.0
 10
12.6520216019
 20
241.847231328
 10
11.297868962
 20
242.3763616154
 10
10.0519067071
 20
243.2388796063
 10
8.9657199112
 20
244.4067313592
 10
8.0689369187
 20
245.8480609226
 10
7.3860196319
 20
247.5235525832
 10
6.935596254
 20
249.3875032963
 10
6.7299531608
 20
251.3890693453
  0
LWPOLYLINE
  5
172
330
1F
100
AcDbEntity
  8
0
  6
CONTINUOUS
 62
     7
100
AcDbPolyline
 90
        8
 70
   128
 43
0.0
 10
7.1539171552
 20
251.4043993766
 10
7.3636029071
 20
249.3978081738
 10
7.8252365535
 20
247.5344774362
 10
8.525537735
 20
245.8680117965
 10
9.4443600616
 20
244.446352437
 10
10.5552706878
 20
243.3103979091
 10
11.8263107376
 20
242.4928275563
 10
13.1545614239
 20
242.0313181463
  0
LWPOLYLINE
  5
173
330
1F
100
AcDbEntity
  8
0
  6
CONTINUOUS
 62
     7
100
AcDbPolyline
 90
       18
 70
   128
 43
0.0
 10
14.443134938
 20
241.8921315386
 10
14.6989623666
 20
241.8970834573
 10
16.2179329888
 20
242.1360481841
 10
17.7341285501
 20
242.7271809894
 10
19.2039308648
 20
243.6534760589
 10
20.5850563963
 20
244.8882855697
 10
21.8377726777
 20
246.3960863005
 10
22.9260413424
 20
248.1335015696
 10
23.8185548823
 20
250.0505491028
 10
24.489637308
 20
252.0920789332
 10
24.9199827997
 20
254.1993599643
 10
25.0972111013
 20
256.3117695578
 10
25.0162236772
 20
258.3685375355
 10
24.6793503881
 20
260.3104944277
 10
24.0962824653
 20
262.0817736701
 10
23.2837937112
 20
263.631418784
 10
22.265257948
 20
264.9148493009
 10
21.7007789301
 20
265.4340875648
  0
LWPOLYLINE
  5
174
330
1F
100
AcDbEntity
  8
0
  6
CONTINUOUS
 62
     7
100
AcDbPolyline
 90
       13
 70
   128
 43
0.0
 10
18.5000630223
 20
266.8223821868
 10
18.2908168183
 20
266.8430484101
 10
16.7868897609
 20
266.7833900928
 10
15.2638197921
 20
266.3668407028
 10
13.765422862
 20
265.6053836075
 10
12.3348051221
 20
264.5209245411
 10
11.0131228401
 20
263.1446614166
 10
9.8383984088
 20
261.5161868183
 10
8.8444265113
 20
259.6823489954
 10
8.0598019095
 20
257.6959041232
 10
7.5070968244
 20
255.613998604
 10
7.2022115751
 20
253.496525069
 10
7.1539171552
 20
251.4043993766
  0
LWPOLYLINE
  5
175
330
1F
100
AcDbEntity
  8
0
  6
CONTINUOUS
 62
     7
100
AcDbPolyline
 90
       17
 70
   128
 43
0.0
 10
15.4217775778
 20
243.9890574716
 10
15.5273900161
 20
243.4503142258
 10
15.7835463123
 20
243.0488341618
 10
16.1512489922
 20
242.84573898
 10
16.5745186562
 20
242.8719480806
 10
16.9889163347
 20
243.1234713658
 10
17.3313537379
 20
243.5620166953
 10
17.5496978752
 20
244.1208195183
 10
17.6107078311
 20
244.7148071704
 10
17.5050953928
 20
245.2535504162
 10
17.2489390966
 20
245.6550304802
 10
16.8812364167
 20
245.858125662
 10
16.4579667527
 20
245.8319165614
 10
16.0435690742
 20
245.5803932762
 10
15.701131671
 20
245.1418479467
 10
15.4827875337
 20
244.5830451237
 10
15.4217775778
 20
243.9890574716
  0
LWPOLYLINE
  5
176
330
1F
100
AcDbEntity
  8
0
  6
CONTINUOUS
 62
     7
100
AcDbPolyline
 90
       17
 70
   128
 43
0.0
 10
14.6322324256
 20
264.0404568574
 10
14.7378448639
 20
263.5017136117
 10
14.9940011601
 20
263.1002335477
 10
15.36170384
 20
262.8971383659
 10
15.784973504
 20
262.9233474665
 10
16.1993711826
 20
263.1748707517
 10
16.5418085857
 20
263.6134160812
 10
16.7601527231
 20
264.1722189042
 10
16.8211626789
 20
264.7662065563
 10
16.7155502406
 20
265.3049498021
 10
16.4593939445
 20
265.7064298661
 10
16.0916912645
 20
265.9095250479
 10
15.6684216006
 20
265.8833159473
 10
15.254023922
 20
265.6317926621
 10
14.9115865188
 20
265.1932473326
 10
14.6932423815
 20
264.6344445096
 10
14.6322324256
 20
264.0404568574
  0
LWPOLYLINE
  5
177
330
1F
100
AcDbEntity
  8
0
  6
CONTINUOUS
 62
     7
100
AcDbPolyline
 90
       17
 70
   128
 43
0.0
 10
22.4411236016
 20
256.4729416285
 10
22.5467360399
 20
255.9341983827
 10
22.8028923361
 20
255.5327183187
 10
23.170595016
 20
255.3296231369
 10
23.59386468
 20
255.3558322375
 10
24.0082623585
 20
255.6073555227
 10
24.3506997617
 20
256.0459008522
 10
24.569043899
 20
256.6047036752
 10
24.6300538549
 20
257.1986913273
 10
24.5244414166
 20
257.7374345731
 10
24.2682851204
 20
258.1389146371
 10
23.9005824405
 20
258.3420098189
 10
23.4773127765
 20
258.3158007183
 10
23.062915098
 20
258.0642774331
 10
22.7204776948
 20
257.6257321036
 10
22.5021335575
 20
257.0669292806
 10
22.4411236016
 20
256.4729416285
  0
LWPOLYLINE
  5
178
330
1F
100
AcDbEntity
  8
0
  6
CONTINUOUS
 62
     7
100
AcDbPolyline
 90
       17
 70
   128
 43
0.0
 10
7.6128864018
 20
251.5565727006
 10
7.7184988401
 20
251.0178294548
 10
7.9746551363
 20
250.6163493908
 10
8.3423578162
 20
250.413254209
 10
8.7656274802
 20
250.4394633096
 10
9.1800251588
 20
250.6909865948
 10
9.5224625619
 20
251.1295319243
 10
9.7408066993
 20
251.6883347473
 10
9.8018166551
 20
252.2823223994
 10
9.6962042168
 20
252.8210656452
 10
9.4400479207
 20
253.2225457092
 10
9.0723452407
 20
253.425640891
 10
8.6490755768
 20
253.3994317904
 10
8.2346778982
 20
253.1479085052
 10
7.892240495
 20
252.7093631757
 10
7.6738963577
 20
252.1505603527
 10
7.6128864018
 20
251.5565727006
  0
ARC
  5
179
330
1F
100
AcDbEntity
  8
0
  6
CONTINUOUS
 62
     7
100
AcDbCircle
 10
5.8780321574
 20
252.6517292879
 30
0.0
 40
2.157286289862825
100
AcDbArc
 50
324.1610349224
 51
6.8173276795
  0
ARC
  5
17A
330
1F
100
AcDbEntity
  8
0
  6
CONTINUOUS
 62
     7
100
AcDbCircle
 10
12.8973781812
 20
265.1356134448
 30
0.0
 40
2.157286289862721
100
AcDbArc
 50
324.1610349224
 51
6.8173276794
  0
ARC
  5
17B
330
1F
100
AcDbEntity
  8
0
  6
CONTINUOUS
 62
     7
100
AcDbCircle
 10
13.6869233334
 20
245.0842140589
 30
0.0
 40
2.157286289863423
100
AcDbArc
 50
324.1610349225
 51
6.8173276793
  0
ARC
  5
17C
330
1F
100
AcDbEntity
  8
0
  6
CONTINUOUS
 62
     7
100
AcDbCircle
 10
20.7062693572
 20
257.5680982158
 30
0.0
 40
2.157286289862684
100
AcDbArc
 50
324.1610349224
 51
6.8173276795
  0
LWPOLYLINE
  5
17D
330
1F
100
AcDbEntity
  8
0
  6
CONTINUOUS
 62
     7
100
AcDbPolyline
 90
       21
 70
   128
 43
0.0
 10
-25.6138730149
 20
144.7324151898
 10
-25.0570574722
 20
144.985816291
 10
-24.8300426623
 20
145.2713488791
 10
-24.9550503765
 20
145.5610630347
 10
-25.4198439888
 20
145.826599518
 10
-26.178926262
 20
146.0419657676
 10
-27.1579929344
 20
146.1860802347
 10
-28.2612061385
 20
146.244835991
 10
-29.3805756793
 20
146.2124816138
 10
-30.4065298672
 20
146.0921841749
 10
-31.2386411579
 20
145.8957192258
 10
-31.7954567006
 20
145.6423181246
 10
-32.0224715105
 20
145.3567855365
 10
-31.8974637963
 20
145.0670713808
 10
-31.432670184
 20
144.8015348976
 10
-30.6735879108
 20
144.586168648
 10
-29.6945212384
 20
144.4420541809
 10
-28.5913080343
 20
144.3832984246
 10
-27.4719384935
 20
144.4156528018
 10
-26.4459843056
 20
144.5359502407
 10
-25.6138730149
 20
144.7324151898
  0
LWPOLYLINE
  5
17E
330
1F
100
AcDbEntity
  8
0
  6
CONTINUOUS
 62
     7
100
AcDbPolyline
 90
        4
 70
   128
 43
0.0
 10
-31.9406041607
 20
144.5866353594
 10
-32.1867310222
 20
144.7567106473
 10
-32.3221560459
 20
145.0705676493
 10
-32.183645958
 20
145.2947558409
  0
LWPOLYLINE
  5
17F
330
1F
100
AcDbEntity
  8
0
  6
CONTINUOUS
 62
     7
100
AcDbPolyline
 90
        5
 70
   128
 43
0.0
 10
-24.6688682148
 20
145.2947558409
 10
-24.6657831506
 20
145.2918682724
 10
-24.5303581269
 20
144.9780112704
 10
-24.7762908376
 20
144.6686843
 10
-24.9119100122
 20
144.5866353594
  0
LINE
  5
180
330
1F
100
AcDbEntity
  8
0
  6
CONTINUOUS
 62
     7
100
AcDbLine
 10
-27.0731481691
 20
145.0342197502
 30
0.0
 11
-26.8133147842
 21
145.4774345456
 31
0.0
  0
LINE
  5
181
330
1F
100
AcDbEntity
  8
0
  6
CONTINUOUS
 62
     7
100
AcDbLine
 10
-26.8133147842
 20
145.4774345456
 30
0.0
 11
-28.1664237015
 21
145.7572820032
 31
0.0
  0
LINE
  5
182
330
1F
100
AcDbEntity
  8
0
  6
CONTINUOUS
 62
     7
100
AcDbLine
 10
-28.1664237015
 20
145.7572820032
 30
0.0
 11
-29.7793660037
 21
145.5939146654
 31
0.0
  0
LINE
  5
183
330
1F
100
AcDbEntity
  8
0
  6
CONTINUOUS
 62
     7
100
AcDbLine
 10
-29.7793660037
 20
145.5939146654
 30
0.0
 11
-30.0391993885
 21
145.15069987
 31
0.0
  0
LINE
  5
184
330
1F
100
AcDbEntity
  8
0
  6
CONTINUOUS
 62
     7
100
AcDbLine
 10
-30.0391993885
 20
145.15069987
 30
0.0
 11
-28.6860904713
 21
144.8708524124
 31
0.0
  0
LINE
  5
185
330
1F
100
AcDbEntity
  8
0
  6
CONTINUOUS
 62
     7
100
AcDbLine
 10
-28.6860904713
 20
144.8708524124
 30
0.0
 11
-27.0731481691
 21
145.0342197502
 31
0.0
  0
LINE
  5
186
330
1F
100
AcDbEntity
  8
0
  6
CONTINUOUS
 62
     7
100
AcDbLine
 10
-29.7793660037
 20
145.0969616149
 30
0.0
 11
-29.7793660037
 21
145.5939146654
 31
0.0
  0
LINE
  5
187
330
1F
100
AcDbEntity
  8
0
  6
CONTINUOUS
 62
     7
100
AcDbLine
 10
-28.1664237015
 20
144.9234870147
 30
0.0
 11
-28.1664237015
 21
145.7572820032
 31
0.0
  0
LWPOLYLINE
  5
188
330
1F
100
AcDbEntity
  8
0
  6
CONTINUOUS
 62
     7
100
AcDbPolyline
 90
       21
 70
   128
 43
0.0
 10
-25.6138730149
 20
294.4509182646
 10
-25.0570574722
 20
294.7043193658
 10
-24.8300426623
 20
294.9898519539
 10
-24.9550503765
 20
295.2795661095
 10
-25.4198439888
 20
295.5451025928
 10
-26.178926262
 20
295.7604688424
 10
-27.1579929344
 20
295.9045833095
 10
-28.2612061385
 20
295.9633390658
 10
-29.3805756793
 20
295.9309846886
 10
-30.4065298672
 20
295.8106872497
 10
-31.2386411579
 20
295.6142223006
 10
-31.7954567006
 20
295.3608211994
 10
-32.0224715105
 20
295.0752886113
 10
-31.8974637963
 20
294.7855744557
 10
-31.432670184
 20
294.5200379724
 10
-30.6735879108
 20
294.3046717228
 10
-29.6945212384
 20
294.1605572557
 10
-28.5913080343
 20
294.1018014994
 10
-27.4719384935
 20
294.1341558766
 10
-26.4459843056
 20
294.2544533155
 10
-25.6138730149
 20
294.4509182646
  0
LWPOLYLINE
  5
189
330
1F
100
AcDbEntity
  8
0
  6
CONTINUOUS
 62
     7
100
AcDbPolyline
 90
        4
 70
   128
 43
0.0
 10
-31.940604162
 20
294.305138435
 10
-32.1867310222
 20
294.4752137221
 10
-32.3221560459
 20
294.7890707241
 10
-32.183645958
 20
295.0132589157
  0
LWPOLYLINE
  5
18A
330
1F
100
AcDbEntity
  8
0
  6
CONTINUOUS
 62
     7
100
AcDbPolyline
 90
        5
 70
   128
 43
0.0
 10
-24.6688682148
 20
295.0132589157
 10
-24.6657831506
 20
295.0103713472
 10
-24.5303581269
 20
294.6965143452
 10
-24.7762908376
 20
294.3871873748
 10
-24.9119100111
 20
294.3051384348
  0
LINE
  5
18B
330
1F
100
AcDbEntity
  8
0
  6
CONTINUOUS
 62
     7
100
AcDbLine
 10
-27.0731481691
 20
294.752722825
 30
0.0
 11
-26.8133147842
 21
295.1959376204
 31
0.0
  0
LINE
  5
18C
330
1F
100
AcDbEntity
  8
0
  6
CONTINUOUS
 62
     7
100
AcDbLine
 10
-26.8133147842
 20
295.1959376204
 30
0.0
 11
-28.1664237015
 21
295.475785078
 31
0.0
  0
LINE
  5
18D
330
1F
100
AcDbEntity
  8
0
  6
CONTINUOUS
 62
     7
100
AcDbLine
 10
-28.1664237015
 20
295.475785078
 30
0.0
 11
-29.7793660037
 21
295.3124177402
 31
0.0
  0
LINE
  5
18E
330
1F
100
AcDbEntity
  8
0
  6
CONTINUOUS
 62
     7
100
AcDbLine
 10
-29.7793660037
 20
295.3124177402
 30
0.0
 11
-30.0391993885
 21
294.8692029448
 31
0.0
  0
LINE
  5
18F
330
1F
100
AcDbEntity
  8
0
  6
CONTINUOUS
 62
     7
100
AcDbLine
 10
-30.0391993885
 20
294.8692029448
 30
0.0
 11
-28.6860904713
 21
294.5893554872
 31
0.0
  0
LINE
  5
190
330
1F
100
AcDbEntity
  8
0
  6
CONTINUOUS
 62
     7
100
AcDbLine
 10
-28.6860904713
 20
294.5893554872
 30
0.0
 11
-27.0731481691
 21
294.752722825
 31
0.0
  0
LINE
  5
191
330
1F
100
AcDbEntity
  8
0
  6
CONTINUOUS
 62
     7
100
AcDbLine
 10
-29.7793660037
 20
294.8154646897
 30
0.0
 11
-29.7793660037
 21
295.3124177402
 31
0.0
  0
LINE
  5
192
330
1F
100
AcDbEntity
  8
0
  6
CONTINUOUS
 62
     7
100
AcDbLine
 10
-28.1664237015
 20
294.6419900895
 30
0.0
 11
-28.1664237015
 21
295.475785078
 31
0.0
  0
ARC
  5
193
330
1F
100
AcDbEntity
  8
0
  6
CONTINUOUS
 62
     7
100
AcDbCircle
 10
-130.4051157562
 20
257.7072802195
 30
0.0
 40
157.1364426386365
100
AcDbArc
 50
350.2677647981
 51
9.7322352019
  0
LINE
  5
194
330
1F
100
AcDbEntity
  8
0
  6
CONTINUOUS
 62
     7
100
AcDbLine
 10
24.4699007872
 20
231.1443199965
 30
0.0
 11
6.2763205193
 21
226.4354749246
 31
0.0
  0
SPLINE
  5
195
330
1F
100
AcDbEntity
  8
0
  6
CONTINUOUS
 62
     7
100
AcDbSpline
210
0.0
220
0.0
230
1.0
 70
     8
 71
     3
 72
    11
 73
     7
 74
     0
 42
0.00000001
 43
0.00000001
 12
1.0
 22
0.0
 32
0.0
 13
1.0
 23
0.0
 33
0.0
 40
0.0
 40
0.0
 40
0.0
 40
0.0
 40
0.2605110087044478
 40
0.5211900214035012
 40
0.7773445537027349
 40
1.0
 40
1.0
 40
1.0
 40
1.0
 10
5.714604406326817
 20
226.9569050757373
 30
0.0
 10
5.724400518233974
 20
226.8644963799873
 30
0.0
 10
5.743999059577592
 20
226.6796193939618
 30
0.0
 10
5.876313635323066
 20
226.4944569790053
 30
0.0
 10
6.059412502606221
 20
226.4033748990817
 30
0.0
 10
6.207470723508905
 20
226.4252859042346
 30
0.0
 10
6.276320519308272
 20
226.4354749246168
 30
0.0
  0
SPLINE
  5
196
330
1F
100
AcDbEntity
  8
0
  6
CONTINUOUS
 62
     7
100
AcDbSpline
210
0.0
220
0.0
230
1.0
 70
     8
 71
     3
 72
    15
 73
    11
 74
     0
 42
0.00000001
 43
0.00000001
 12
1.0
 22
0.0
 32
0.0
 13
1.0
 23
0.0
 33
0.0
 40
0.0
 40
0.0
 40
0.0
 40
0.0
 40
0.1852222807941463
 40
0.3105471999159966
 40
0.4057929787057444
 40
0.5014275235451123
 40
0.59335572854632
 40
0.6856347418077235
 40
0.8102852743447054
 40
1.0
 40
1.0
 40
1.0
 40
1.0
 10
5.714604406326831
 20
278.6206442249598
 30
0.0
 10
5.670254902935677
 20
275.2565886049256
 30
0.0
 10
5.595897681780975
 20
269.6163489497173
 30
0.0
 10
5.543524054605433
 20
262.2724755971192
 30
0.0
 10
5.519418533919601
 20
256.6093721706908
 30
0.0
 10
5.512572891362089
 20
251.6086889367783
 30
0.0
 10
5.519496972274281
 20
246.742691290986
 30
0.0
 10
5.542655447893951
 20
241.4871685105228
 30
0.0
 10
5.594219973843136
 20
234.7401444561024
 30
0.0
 10
5.669296716448946
 20
229.8861924330428
 30
0.0
 10
5.714604406326824
 20
226.9569050757373
 30
0.0
  0
SPLINE
  5
197
330
1F
100
AcDbEntity
  8
0
  6
CONTINUOUS
 62
     7
100
AcDbSpline
210
0.0
220
0.0
230
1.0
 70
     8
 71
     3
 72
    11
 73
     7
 74
     0
 42
0.00000001
 43
0.00000001
 12
1.0
 22
0.0
 32
0.0
 13
1.0
 23
0.0
 33
0.0
 40
0.0
 40
0.0
 40
0.0
 40
0.0
 40
0.2468766919627891
 40
0.4936492139905773
 40
0.743379987446779
 40
1.0
 40
1.0
 40
1.0
 40
1.0
 10
6.276320519308209
 20
279.5613953705157
 30
0.0
 10
6.200058342660367
 20
279.5304765362509
 30
0.0
 10
6.047566168287354
 20
279.468651913963
 30
0.0
 10
5.868138904009196
 20
279.2477656540081
 30
0.0
 10
5.742889371839796
 20
278.9591455630796
 30
0.0
 10
5.724117861125748
 20
278.7344968360968
 30
0.0
 10
5.714604406326873
 20
278.6206442249598
 30
0.0
  0
LINE
  5
198
330
1F
100
AcDbEntity
  8
0
  6
CONTINUOUS
 62
     7
100
AcDbLine
 10
24.4699007872
 20
284.2702404424
 30
0.0
 11
6.2763205193
 21
279.5613953705
 31
0.0
  0
SPLINE
  5
199
330
1F
100
AcDbEntity
  8
0
  6
CONTINUOUS
 62
     7
100
AcDbSpline
210
0.0
220
0.0
230
1.0
 70
    11
 71
     3
 72
    39
 73
    35
 74
     0
 42
0.00000001
 43
0.00000001
 12
1.0
 22
0.0
 32
0.0
 13
1.0
 23
0.0
 33
0.0
 40
0.0
 40
0.0
 40
0.0
 40
0.0
 40
0.031333203380881
 40
0.0625923851835788
 40
0.0939164072672024
 40
0.1251792922600173
 40
0.1564201574448255
 40
0.1876651721805484
 40
0.2188187141844528
 40
0.2500282116824917
 40
0.2811621350318945
 40
0.3123688858085227
 40
0.3435814095269611
 40
0.3747797797711928
 40
0.4060669342901863
 40
0.437302437631267
 40
0.4686844722167288
 40
0.5001723383509719
 40
0.5313992505347134
 40
0.5627365981752788
 40
0.5940140356051685
 40
0.6252377761193335
 40
0.6565256266407485
 40
0.6876682467050226
 40
0.718915218866666
 40
0.7500835620422446
 40
0.781247142340079
 40
0.8125081448178406
 40
0.843654999749834
 40
0.8749454452320717
 40
0.9061689458645585
 40
0.937441875473607
 40
0.9687367773410067
 40
0.9999999999999999
 40
0.9999999999999999
 40
0.9999999999999999
 40
0.9999999999999999
 10
25.53914673504562
 20
256.8151060803742
 30
0.0
 10
25.50106006204648
 20
255.9604233141567
 30
0.0
 10
25.42497669202701
 20
254.2530768847938
 30
0.0
 10
24.79896145917239
 20
251.6850093803931
 30
0.0
 10
23.84518997564873
 20
249.2340618010839
 30
0.0
 10
22.5580739053571
 20
246.9893000131358
 30
0.0
 10
21.02139443856688
 20
245.0246955405038
 30
0.0
 10
19.29327666008306
 20
243.4273999598157
 30
0.0
 10
17.4562213750608
 20
242.2355065383858
 30
0.0
 10
15.58609198071146
 20
241.5195986372349
 30
0.0
 10
13.75515027457075
 20
241.2777810995609
 30
0.0
 10
12.03840763532549
 20
241.5503128257575
 30
0.0
 10
10.48537355116238
 20
242.2965454592908
 30
0.0
 10
9.157999998247748
 20
243.5203381016883
 30
0.0
 10
8.080415807461993
 20
245.1505485419158
 30
0.0
 10
7.294836738889504
 20
247.1515536624163
 30
0.0
 10
6.80844133518476
 20
249.4382296277279
 30
0.0
 10
6.651416816856923
 20
251.9301974099246
 30
0.0
 10
6.808682505262002
 20
254.5237522455545
 30
0.0
 10
7.297022332416455
 20
257.1151520371017
 30
0.0
 10
8.080695807787635
 20
259.6126622262156
 30
0.0
 10
9.16073555697524
 20
261.9081151719512
 30
0.0
 10
10.4882274508082
 20
263.9246894852149
 30
0.0
 10
12.0421526438235
 20
265.5667517343393
 30
0.0
 10
13.7597920552792
 20
266.7870809521533
 30
0.0
 10
15.59125653169744
 20
267.5144294005444
 30
0.0
 10
17.46335309424994
 20
267.742873045729
 30
0.0
 10
19.2994940090002
 20
267.4393717163675
 30
0.0
 10
21.0284253405112
 20
266.6443474385001
 30
0.0
 10
22.56224815510599
 20
265.3657603821832
 30
0.0
 10
23.84871272932924
 20
263.6808044218025
 30
0.0
 10
24.8003160269012
 20
261.6327962778784
 30
0.0
 10
25.42550167366998
 20
259.3277109850425
 30
0.0
 10
25.50127783884589
 20
257.6523582510716
 30
0.0
 10
25.53914673504562
 20
256.8151060803742
 30
0.0
  0
SPLINE
  5
19A
330
1F
100
AcDbEntity
  8
0
  6
CONTINUOUS
 62
     7
100
AcDbSpline
210
0.0
220
0.0
230
1.0
 70
     8
 71
     3
 72
    19
 73
    15
 74
     0
 42
0.00000001
 43
0.00000001
 12
1.0
 22
0.0
 32
0.0
 13
1.0
 23
0.0
 33
0.0
 40
0.0
 40
0.0
 40
0.0
 40
0.0
 40
0.1168048440156298
 40
0.2339615395360375
 40
0.3520877544933766
 40
0.4118960972813751
 40
0.4715581438279324
 40
0.5111917750827005
 40
0.5930944105707275
 40
0.6350276541476074
 40
0.7258116369888059
 40
0.8168352190639672
 40
0.9083338928239031
 40
1.0
 40
1.0
 40
1.0
 40
1.0
 10
-62.26331634778079
 20
244.5508856133711
 30
0.0
 10
-62.10186030671068
 20
246.2966772847676
 30
0.0
 10
-61.77846187016037
 20
249.7935194798949
 30
0.0
 10
-60.90561697675513
 20
255.1748300230983
 30
0.0
 10
-60.02043264279484
 20
259.7974386839419
 30
0.0
 10
-59.33096187095263
 20
263.6731271009431
 30
0.0
 10
-59.01294232066803
 20
266.4137506713258
 30
0.0
 10
-58.94883199831062
 20
269.6954117512308
 30
0.0
 10
-59.27513048283392
 20
272.7620912198095
 30
0.0
 10
-59.87397007434987
 20
276.7537269698072
 30
0.0
 10
-60.55660431871761
 20
280.9128954063297
 30
0.0
 10
-61.29482606274095
 20
285.9920052499942
 30
0.0
 10
-61.90052866108237
 20
291.095207958226
 30
0.0
 10
-62.14231344596161
 20
294.5071128715836
 30
0.0
 10
-62.26331634778061
 20
296.2146247625935
 30
0.0
  0
SPLINE
  5
19B
330
1F
100
AcDbEntity
  8
0
  6
CONTINUOUS
 62
     7
100
AcDbSpline
210
0.0
220
0.0
230
1.0
 70
     8
 71
     3
 72
    11
 73
     7
 74
     0
 42
0.00000001
 43
0.00000001
 12
1.0
 22
0.0
 32
0.0
 13
1.0
 23
0.0
 33
0.0
 40
0.0
 40
0.0
 40
0.0
 40
0.0
 40
0.1813155498479422
 40
0.4281000693468192
 40
0.8057846900255942
 40
0.9999999999999999
 40
0.9999999999999999
 40
0.9999999999999999
 40
0.9999999999999999
 10
-62.26331634778061
 20
296.2146247625935
 30
0.0
 10
-62.2716864135492
 20
296.3203508659485
 30
0.0
 10
-62.29144878770285
 20
296.5699783921918
 30
0.0
 10
-62.34685732583005
 20
296.9357054818406
 30
0.0
 10
-62.3964751079988
 20
297.2044221551823
 30
0.0
 10
-62.42060112133228
 20
297.3083082077539
 30
0.0
 10
-62.42879423503427
 20
297.3435875648946
 30
0.0
  0
SPLINE
  5
19C
330
1F
100
AcDbEntity
  8
0
  6
CONTINUOUS
 62
     7
100
AcDbSpline
210
0.0
220
0.0
230
1.0
 70
     8
 71
     3
 72
    10
 73
     6
 74
     0
 42
0.00000001
 43
0.00000001
 12
1.0
 22
0.0
 32
0.0
 13
1.0
 23
0.0
 33
0.0
 40
0.0
 40
0.0
 40
0.0
 40
0.0
 40
0.4059159575799197
 40
0.8152575289299835
 40
1.0
 40
1.0
 40
1.0
 40
1.0
 10
-58.41512921468832
 20
296.3047746169672
 30
0.0
 10
-58.19963602909091
 20
296.2377853102668
 30
0.0
 10
-57.76683106365225
 20
296.1032413594184
 30
0.0
 10
-57.16939503288778
 20
295.958075828999
 30
0.0
 10
-56.79162139891399
 20
295.8788207318278
 30
0.0
 10
-56.6741450325044
 20
295.8541747533957
 30
0.0
  0
SPLINE
  5
19D
330
1F
100
AcDbEntity
  8
0
  6
CONTINUOUS
 62
     7
100
AcDbSpline
210
0.0
220
0.0
230
1.0
 70
     8
 71
     3
 72
    20
 73
    16
 74
     0
 42
0.00000001
 43
0.00000001
 12
1.0
 22
0.0
 32
0.0
 13
1.0
 23
0.0
 33
0.0
 40
0.0
 40
0.0
 40
0.0
 40
0.0
 40
0.0576410431358267
 40
0.1168869784074633
 40
0.1777439819929622
 40
0.2402177417641819
 40
0.3417684493435488
 40
0.4801378104380687
 40
0.554639356268787
 40
0.6195342416576144
 40
0.6748191615342969
 40
0.7204918221145069
 40
0.8440097615394294
 40
0.9607677181641152
 40
1.0
 40
1.0
 40
1.0
 40
1.0
 10
25.05022198905256
 20
256.8616337729835
 30
0.0
 10
25.04134221312015
 20
257.2572310606034
 30
0.0
 10
25.02333542279839
 20
258.0594402001419
 30
0.0
 10
24.8757352970763
 20
259.2433673250995
 30
0.0
 10
24.63311108985713
 20
260.4166540819721
 30
0.0
 10
24.21191164344545
 20
261.7903752958889
 30
0.0
 10
23.43819047571282
 20
263.4872716438642
 30
0.0
 10
22.35450623884771
 20
264.9624185787786
 30
0.0
 10
21.22615839726932
 20
265.9814492149899
 30
0.0
 10
20.36944595300904
 20
266.5574451557476
 30
0.0
 10
19.59884373619635
 20
266.9407585912821
 30
0.0
 10
18.52005797319018
 20
267.3344875658752
 30
0.0
 10
17.0848288674627
 20
267.5508542960058
 30
0.0
 10
15.65226060582819
 20
267.401436526203
 30
0.0
 10
14.87204930578982
 20
267.1311694246598
 30
0.0
 10
14.67582247828622
 20
267.0631959719404
 30
0.0
  0
SPLINE
  5
19E
330
1F
100
AcDbEntity
  8
0
  6
CONTINUOUS
 62
     7
100
AcDbSpline
210
0.0
220
0.0
230
1.0
 70
     8
 71
     3
 72
     9
 73
     5
 74
     0
 42
0.00000001
 43
0.00000001
 12
1.0
 22
0.0
 32
0.0
 13
1.0
 23
0.0
 33
0.0
 40
0.0
 40
0.0
 40
0.0
 40
0.0
 40
0.995417094138325
 40
1.0
 40
1.0
 40
1.0
 40
1.0
 10
14.09561131282148
 20
266.8315681612605
 30
0.0
 10
13.90296346987165
 20
266.7556578139421
 30
0.0
 10
13.70942867517677
 20
266.6793979749607
 30
0.0
 10
13.52438822734834
 20
266.5651287643482
 30
0.0
 10
13.52354020439533
 20
266.5646050793132
 30
0.0
  0
SPLINE
  5
19F
330
1F
100
AcDbEntity
  8
0
  6
CONTINUOUS
 62
     7
100
AcDbSpline
210
0.0
220
0.0
230
1.0
 70
     8
 71
     3
 72
    15
 73
    11
 74
     0
 42
0.00000001
 43
0.00000001
 12
1.0
 22
0.0
 32
0.0
 13
1.0
 23
0.0
 33
0.0
 40
0.0
 40
0.0
 40
0.0
 40
0.0
 40
0.1219172593858401
 40
0.2403538061379445
 40
0.3416539690508232
 40
0.4258138554826598
 40
0.6512211639095797
 40
0.8647236014223774
 40
0.9702877693984381
 40
1.0
 40
1.0
 40
1.0
 40
1.0
 10
9.054936995663038
 20
243.807978893831
 30
0.0
 10
9.282141116200474
 20
243.5638510063125
 30
0.0
 10
9.730062726450702
 20
243.0825650321603
 30
0.0
 10
10.45765078249152
 20
242.5654391108705
 30
0.0
 10
11.14532473400314
 20
242.2010059524369
 30
0.0
 10
12.12510096880034
 20
241.8357366889684
 30
0.0
 10
13.47106225703154
 20
241.6309699060409
 30
0.0
 10
14.95789489325889
 20
241.8431725072353
 30
0.0
 10
15.9259960808397
 20
242.1282159403811
 30
0.0
 10
16.30128586344896
 20
242.2990736213021
 30
0.0
 10
16.38371485091863
 20
242.3366009569567
 30
0.0
  0
LINE
  5
1A0
330
1F
100
AcDbEntity
  8
0
  6
CONTINUOUS
 62
     7
100
AcDbLine
 10
25.0140067211
 20
256.3914112797
 30
0.0
 11
25.0502219891
 21
256.861633773
 31
0.0
  0
LINE
  5
1A1
330
1F
100
AcDbEntity
  8
0
  6
CONTINUOUS
 62
     7
100
AcDbLine
 10
24.4699007872
 20
284.2702404424
 30
0.0
 11
-38.4523733687
 21
300.5557233551
 31
0.0
  0
LWPOLYLINE
  5
1A2
330
1F
100
AcDbEntity
  8
0
  6
CONTINUOUS
 62
     7
100
AcDbPolyline
 90
        3
 70
   128
 43
0.0
 10
-58.4151292147
 20
296.304774617
 10
-59.4985869999
 20
296.7333236802
 10
-59.7238074333
 20
296.8496861131
  0
LWPOLYLINE
  5
1A3
330
1F
100
AcDbEntity
  8
0
  6
CONTINUOUS
 62
     7
100
AcDbPolyline
 90
       13
 70
   128
 43
0.0
 10
-39.2164751047
 20
297.7518022438
 10
-39.4268087539
 20
297.4229779448
 10
-40.0407261038
 20
296.9361080898
 10
-40.9875467726
 20
296.4864000297
 10
-42.2354867641
 20
296.0889500966
 10
-43.7426537526
 20
295.7571003601
 10
-45.458453374
 20
295.5019907445
 10
-47.3252876371
 20
295.3321850712
 10
-49.2804884413
 20
295.2533835778
 10
-51.2584212936
 20
295.2682315661
 10
-53.1926886042
 20
295.3762306013
 10
-55.0183586005
 20
295.573755244
 10
-56.6741450325
 20
295.8541747534
  0
LINE
  5
1A4
330
1F
100
AcDbEntity
  8
0
  6
CONTINUOUS
 62
     7
100
AcDbLine
 10
-62.4630271044
 20
297.5586483327
 30
0.0
 11
-62.428794235
 21
297.3435875649
 31
0.0
  0
LWPOLYLINE
  5
1A5
330
1F
100
AcDbEntity
  8
0
  6
CONTINUOUS
 62
     7
100
AcDbPolyline
 90
       23
 70
   128
 43
0.0
 10
-25.244276571
 20
295.8561274411
 10
-24.4767016333
 20
295.5907447256
 10
-24.0290961895
 20
295.2801420363
 10
-23.9377225706
 20
294.9494825559
 10
-24.2099833239
 20
294.6255543489
 10
-24.8238215022
 20
294.3346001523
 10
-25.7295075871
 20
294.1001913447
 10
-26.8536682782
 20
293.9413183335
 10
-28.105230762
 20
293.8708520653
 10
-29.3828008894
 20
293.8945012981
 10
-30.5828775266
 20
294.0103501117
 10
-31.6082376017
 20
294.2090131241
 10
-32.3758125394
 20
294.4743958396
 10
-32.8234179833
 20
294.7849985289
 10
-32.9147916021
 20
295.1156580093
 10
-32.6425308489
 20
295.4395862163
 10
-32.0286926705
 20
295.7305404129
 10
-31.1230065857
 20
295.9649492205
 10
-29.9988458946
 20
296.1238222317
 10
-28.7472834108
 20
296.1942884999
 10
-27.4697132834
 20
296.1706392671
 10
-26.2696366461
 20
296.0547904535
 10
-25.244276571
 20
295.8561274411
  0
SPLINE
  5
1A6
330
1F
100
AcDbEntity
  8
0
  6
CONTINUOUS
 62
     7
100
AcDbSpline
210
0.0
220
0.0
230
1.0
 70
     8
 71
     3
 72
    11
 73
     7
 74
     0
 42
0.00000001
 43
0.00000001
 12
1.0
 22
0.0
 32
0.0
 13
1.0
 23
0.0
 33
0.0
 40
0.0
 40
0.0
 40
0.0
 40
0.0
 40
0.4310338128466075
 40
0.7083057658422568
 40
0.890386518708436
 40
0.9999999999999999
 40
0.9999999999999999
 40
0.9999999999999999
 40
0.9999999999999999
 10
-62.4287942350344
 20
244.2176671189957
 30
0.0
 10
-62.40874357841474
 20
244.1733650693209
 30
0.0
 10
-62.37579489719912
 20
244.1005647546168
 30
0.0
 10
-62.31644491501063
 20
244.21649231986
 30
0.0
 10
-62.28012174932699
 20
244.3727030005941
 30
0.0
 10
-62.26790658738268
 20
244.5022166849149
 30
0.0
 10
-62.2633163477808
 20
244.5508856133711
 30
0.0
  0
LWPOLYLINE
  5
1A7
330
1F
100
AcDbEntity
  8
0
  6
CONTINUOUS
 62
     7
100
AcDbPolyline
 90
        3
 70
   128
 43
0.0
 10
-32.3231360545
 20
294.7831669015
 10
-32.4234599055
 20
294.5108971567
 10
-32.4209608482
 20
294.496349821
  0
LWPOLYLINE
  5
1A8
330
1F
100
AcDbEntity
  8
0
  6
CONTINUOUS
 62
     7
100
AcDbPolyline
 90
        3
 70
   128
 43
0.0
 10
-24.4315533245
 20
294.496349821
 10
-24.4959911935
 20
294.742077228
 10
-24.5293781182
 20
294.7831669015
  0
LWPOLYLINE
  5
1A9
330
1F
100
AcDbEntity
  8
0
  6
CONTINUOUS
 62
     7
100
AcDbPolyline
 90
        3
 70
   128
 43
0.0
 10
-62.465967584
 20
244.5169380079
 10
-62.4652386772
 20
244.4750099704
 10
-62.428794235
 20
244.217667119
  0
LWPOLYLINE
  5
1AA
330
1F
100
AcDbEntity
  8
0
  6
CONTINUOUS
 62
     7
100
AcDbPolyline
 90
        3
 70
   128
 43
0.0
 10
-39.7112813434
 20
297.159659085
 10
-39.5583490493
 20
297.3778977743
 10
-39.4775162844
 20
297.5862943428
  0
ARC
  5
1AB
330
1F
100
AcDbEntity
  8
0
  6
CONTINUOUS
 62
     7
100
AcDbCircle
 10
-130.4051157562
 20
107.9887771447
 30
0.0
 40
157.1364426386354
100
AcDbArc
 50
350.2677647981
 51
9.7322352019
  0
LINE
  5
1AC
330
1F
100
AcDbEntity
  8
0
  6
CONTINUOUS
 62
     7
100
AcDbLine
 10
24.4699007872
 20
81.4258169217
 30
0.0
 11
6.2763205193
 21
76.7169718498
 31
0.0
  0
SPLINE
  5
1AD
330
1F
100
AcDbEntity
  8
0
  6
CONTINUOUS
 62
     7
100
AcDbSpline
210
0.0
220
0.0
230
1.0
 70
     8
 71
     3
 72
    11
 73
     7
 74
     0
 42
0.00000001
 43
0.00000001
 12
1.0
 22
0.0
 32
0.0
 13
1.0
 23
0.0
 33
0.0
 40
0.0
 40
0.0
 40
0.0
 40
0.0
 40
0.2605110087044478
 40
0.5211900214035012
 40
0.7773445537027349
 40
1.0
 40
1.0
 40
1.0
 40
1.0
 10
5.714604406326804
 20
77.2384020009317
 30
0.0
 10
5.724400518233967
 20
77.14599330518178
 30
0.0
 10
5.743999059577579
 20
76.96111631915615
 30
0.0
 10
5.876313635323053
 20
76.77595390419974
 30
0.0
 10
6.059412502606206
 20
76.68487182427613
 30
0.0
 10
6.207470723508892
 20
76.706782829429
 30
0.0
 10
6.276320519308258
 20
76.71697184981123
 30
0.0
  0
SPLINE
  5
1AE
330
1F
100
AcDbEntity
  8
0
  6
CONTINUOUS
 62
     7
100
AcDbSpline
210
0.0
220
0.0
230
1.0
 70
     8
 71
     3
 72
    15
 73
    11
 74
     0
 42
0.00000001
 43
0.00000001
 12
1.0
 22
0.0
 32
0.0
 13
1.0
 23
0.0
 33
0.0
 40
0.0
 40
0.0
 40
0.0
 40
0.0
 40
0.1852222807941463
 40
0.3105471999159965
 40
0.4057929787057444
 40
0.5014275235451122
 40
0.5933557285463199
 40
0.6856347418077233
 40
0.8102852743447054
 40
1.0
 40
1.0
 40
1.0
 40
1.0
 10
5.714604406326817
 20
128.9021411501542
 30
0.0
 10
5.670254902935657
 20
125.5380855301201
 30
0.0
 10
5.595897681780946
 20
119.8978458749119
 30
0.0
 10
5.543524054605439
 20
112.5539725223136
 30
0.0
 10
5.51941853391958
 20
106.8908690958852
 30
0.0
 10
5.512572891362089
 20
101.8901858619728
 30
0.0
 10
5.519496972274281
 20
97.0241882161804
 30
0.0
 10
5.542655447893938
 20
91.76866543571724
 30
0.0
 10
5.594219973843143
 20
85.02164138129677
 30
0.0
 10
5.669296716448939
 20
80.16768935823718
 30
0.0
 10
5.714604406326811
 20
77.2384020009317
 30
0.0
  0
SPLINE
  5
1AF
330
1F
100
AcDbEntity
  8
0
  6
CONTINUOUS
 62
     7
100
AcDbSpline
210
0.0
220
0.0
230
1.0
 70
     8
 71
     3
 72
    11
 73
     7
 74
     0
 42
0.00000001
 43
0.00000001
 12
1.0
 22
0.0
 32
0.0
 13
1.0
 23
0.0
 33
0.0
 40
0.0
 40
0.0
 40
0.0
 40
0.0
 40
0.2468766919627891
 40
0.4936492139905773
 40
0.743379987446779
 40
1.0
 40
1.0
 40
1.0
 40
1.0
 10
6.276320519308196
 20
129.8428922957101
 30
0.0
 10
6.200058342660353
 20
129.8119734614453
 30
0.0
 10
6.047566168287339
 20
129.7501488391573
 30
0.0
 10
5.868138904009182
 20
129.5292625792025
 30
0.0
 10
5.742889371839782
 20
129.2406424882741
 30
0.0
 10
5.724117861125741
 20
129.0159937612912
 30
0.0
 10
5.714604406326859
 20
128.9021411501542
 30
0.0
  0
LINE
  5
1B0
330
1F
100
AcDbEntity
  8
0
  6
CONTINUOUS
 62
     7
100
AcDbLine
 10
24.4699007872
 20
134.5517373676
 30
0.0
 11
6.2763205193
 21
129.8428922957
 31
0.0
  0
SPLINE
  5
1B1
330
1F
100
AcDbEntity
  8
0
  6
CONTINUOUS
 62
     7
100
AcDbSpline
210
0.0
220
0.0
230
1.0
 70
    11
 71
     3
 72
    39
 73
    35
 74
     0
 42
0.00000001
 43
0.00000001
 12
1.0
 22
0.0
 32
0.0
 13
1.0
 23
0.0
 33
0.0
 40
0.0
 40
0.0
 40
0.0
 40
0.0
 40
0.0313332033808809
 40
0.0625923851835789
 40
0.0939164072672023
 40
0.1251792922600173
 40
0.1564201574448254
 40
0.1876651721805483
 40
0.2188187141844527
 40
0.2500282116824916
 40
0.2811621350318944
 40
0.3123688858085226
 40
0.3435814095269611
 40
0.3747797797711926
 40
0.4060669342901862
 40
0.4373024376312666
 40
0.4686844722167284
 40
0.5001723383509717
 40
0.5313992505347133
 40
0.5627365981752785
 40
0.5940140356051682
 40
0.6252377761193332
 40
0.6565256266407481
 40
0.6876682467050222
 40
0.7189152188666655
 40
0.7500835620422444
 40
0.7812471423400787
 40
0.8125081448178404
 40
0.8436549997498338
 40
0.8749454452320714
 40
0.9061689458645584
 40
0.9374418754736071
 40
0.9687367773410067
 40
1.0
 40
1.0
 40
1.0
 40
1.0
 10
25.5391467350456
 20
107.0966030055685
 30
0.0
 10
25.50106006204647
 20
106.2419202393511
 30
0.0
 10
25.424976692027
 20
104.5345738099882
 30
0.0
 10
24.79896145917239
 20
101.9665063055875
 30
0.0
 10
23.84518997564872
 20
99.51555872627831
 30
0.0
 10
22.55807390535709
 20
97.27079693833029
 30
0.0
 10
21.02139443856687
 20
95.30619246569822
 30
0.0
 10
19.29327666008305
 20
93.70889688501016
 30
0.0
 10
17.45622137506079
 20
92.51700346358024
 30
0.0
 10
15.58609198071145
 20
91.80109556242923
 30
0.0
 10
13.75515027457072
 20
91.55927802475532
 30
0.0
 10
12.03840763532549
 20
91.83180975095192
 30
0.0
 10
10.48537355116236
 20
92.57804238448523
 30
0.0
 10
9.157999998247735
 20
93.80183502688273
 30
0.0
 10
8.080415807461987
 20
95.43204546711017
 30
0.0
 10
7.294836738889476
 20
97.43305058761068
 30
0.0
 10
6.808441335184753
 20
99.71972655292234
 30
0.0
 10
6.651416816856909
 20
102.211694335119
 30
0.0
 10
6.808682505261982
 20
104.805249170749
 30
0.0
 10
7.297022332416455
 20
107.3966489622961
 30
0.0
 10
8.08069580778762
 20
109.8941591514099
 30
0.0
 10
9.160735556975226
 20
112.1896120971456
 30
0.0
 10
10.48822745080819
 20
114.2061864104093
 30
0.0
 10
12.04215264382347
 20
115.8482486595338
 30
0.0
 10
13.7597920552792
 20
117.0685778773477
 30
0.0
 10
15.5912565316974
 20
117.7959263257388
 30
0.0
 10
17.46335309424994
 20
118.0243699709234
 30
0.0
 10
19.29949400900019
 20
117.7208686415619
 30
0.0
 10
21.02842534051119
 20
116.9258443636946
 30
0.0
 10
22.56224815510599
 20
115.6472573073776
 30
0.0
 10
23.84871272932924
 20
113.9623013469968
 30
0.0
 10
24.80031602690118
 20
111.9142932030727
 30
0.0
 10
25.42550167366998
 20
109.6092079102369
 30
0.0
 10
25.50127783884589
 20
107.933855176266
 30
0.0
 10
25.5391467350456
 20
107.0966030055685
 30
0.0
  0
SPLINE
  5
1B2
330
1F
100
AcDbEntity
  8
0
  6
CONTINUOUS
 62
     7
100
AcDbSpline
210
0.0
220
0.0
230
1.0
 70
     8
 71
     3
 72
    19
 73
    15
 74
     0
 42
0.00000001
 43
0.00000001
 12
1.0
 22
0.0
 32
0.0
 13
1.0
 23
0.0
 33
0.0
 40
0.0
 40
0.0
 40
0.0
 40
0.0
 40
0.1168048440156299
 40
0.2339615395360376
 40
0.3520877544933766
 40
0.4118960972813751
 40
0.4715581438279324
 40
0.5111917750827006
 40
0.5930944105707275
 40
0.6350276541476074
 40
0.7258116369888058
 40
0.8168352190639673
 40
0.908333892823903
 40
0.9999999999999999
 40
0.9999999999999999
 40
0.9999999999999999
 40
0.9999999999999999
 10
-62.26331634778079
 20
94.83238253856545
 30
0.0
 10
-62.10186030671068
 20
96.57817420996199
 30
0.0
 10
-61.77846187016042
 20
100.0750164050893
 30
0.0
 10
-60.90561697675509
 20
105.4563269482927
 30
0.0
 10
-60.02043264279492
 20
110.0789356091363
 30
0.0
 10
-59.33096187095259
 20
113.9546240261375
 30
0.0
 10
-59.01294232066806
 20
116.6952475965203
 30
0.0
 10
-58.94883199831062
 20
119.9769086764252
 30
0.0
 10
-59.27513048283398
 20
123.043588145004
 30
0.0
 10
-59.87397007434988
 20
127.0352238950016
 30
0.0
 10
-60.55660431871758
 20
131.194392331524
 30
0.0
 10
-61.29482606274099
 20
136.2735021751886
 30
0.0
 10
-61.90052866108234
 20
141.3767048834204
 30
0.0
 10
-62.14231344596165
 20
144.788609796778
 30
0.0
 10
-62.26331634778061
 20
146.4961216877879
 30
0.0
  0
SPLINE
  5
1B3
330
1F
100
AcDbEntity
  8
0
  6
CONTINUOUS
 62
     7
100
AcDbSpline
210
0.0
220
0.0
230
1.0
 70
     8
 71
     3
 72
    11
 73
     7
 74
     0
 42
0.00000001
 43
0.00000001
 12
1.0
 22
0.0
 32
0.0
 13
1.0
 23
0.0
 33
0.0
 40
0.0
 40
0.0
 40
0.0
 40
0.0
 40
0.1813155498479425
 40
0.4281000693468298
 40
0.8057846900255938
 40
0.9999999999999999
 40
0.9999999999999999
 40
0.9999999999999999
 40
0.9999999999999999
 10
-62.26331634778061
 20
146.4961216877879
 30
0.0
 10
-62.27168641354919
 20
146.6018477911428
 30
0.0
 10
-62.29144878770281
 20
146.8514753173862
 30
0.0
 10
-62.34685732583014
 20
147.217202407035
 30
0.0
 10
-62.39647510799885
 20
147.4859190803768
 30
0.0
 10
-62.42060112133228
 20
147.5898051329483
 30
0.0
 10
-62.42879423503427
 20
147.625084490089
 30
0.0
  0
SPLINE
  5
1B4
330
1F
100
AcDbEntity
  8
0
  6
CONTINUOUS
 62
     7
100
AcDbSpline
210
0.0
220
0.0
230
1.0
 70
     8
 71
     3
 72
    10
 73
     6
 74
     0
 42
0.00000001
 43
0.00000001
 12
1.0
 22
0.0
 32
0.0
 13
1.0
 23
0.0
 33
0.0
 40
0.0
 40
0.0
 40
0.0
 40
0.0
 40
0.4059159575799197
 40
0.8152575289299835
 40
1.0
 40
1.0
 40
1.0
 40
1.0
 10
-58.41512921468832
 20
146.5862715421616
 30
0.0
 10
-58.19963602909091
 20
146.5192822354613
 30
0.0
 10
-57.76683106365225
 20
146.3847382846128
 30
0.0
 10
-57.16939503288778
 20
146.2395727541933
 30
0.0
 10
-56.79162139891399
 20
146.1603176570221
 30
0.0
 10
-56.6741450325044
 20
146.1356716785901
 30
0.0
  0
SPLINE
  5
1B5
330
1F
100
AcDbEntity
  8
0
  6
CONTINUOUS
 62
     7
100
AcDbSpline
210
0.0
220
0.0
230
1.0
 70
     8
 71
     3
 72
    20
 73
    16
 74
     0
 42
0.00000001
 43
0.00000001
 12
1.0
 22
0.0
 32
0.0
 13
1.0
 23
0.0
 33
0.0
 40
0.0
 40
0.0
 40
0.0
 40
0.0
 40
0.0576410431358263
 40
0.1168869784074614
 40
0.17774398199296
 40
0.2402177417641787
 40
0.3417684493435454
 40
0.4801378104380635
 40
0.5546393562687808
 40
0.619534241657608
 40
0.67481916153429
 40
0.7204918221144995
 40
0.8440097615394206
 40
0.9607677181641052
 40
1.0
 40
1.0
 40
1.0
 40
1.0
 10
25.05022198905255
 20
107.1431306981779
 30
0.0
 10
25.04134221312014
 20
107.5387279857979
 30
0.0
 10
25.02333542279839
 20
108.3409371253363
 30
0.0
 10
24.87573529707629
 20
109.5248642502939
 30
0.0
 10
24.63311108985711
 20
110.6981510071666
 30
0.0
 10
24.21191164344544
 20
112.0718722210832
 30
0.0
 10
23.43819047571281
 20
113.7687685690585
 30
0.0
 10
22.3545062388477
 20
115.2439155039731
 30
0.0
 10
21.2261583972693
 20
116.2629461401843
 30
0.0
 10
20.36944595300904
 20
116.838942080942
 30
0.0
 10
19.59884373619633
 20
117.2222555164765
 30
0.0
 10
18.52005797319017
 20
117.6159844910696
 30
0.0
 10
17.08482886746269
 20
117.8323512212003
 30
0.0
 10
15.65226060582814
 20
117.6829334513973
 30
0.0
 10
14.87204930578971
 20
117.4126663498542
 30
0.0
 10
14.67582247828605
 20
117.3446928971347
 30
0.0
  0
SPLINE
  5
1B6
330
1F
100
AcDbEntity
  8
0
  6
CONTINUOUS
 62
     7
100
AcDbSpline
210
0.0
220
0.0
230
1.0
 70
     8
 71
     3
 72
     9
 73
     5
 74
     0
 42
0.00000001
 43
0.00000001
 12
1.0
 22
0.0
 32
0.0
 13
1.0
 23
0.0
 33
0.0
 40
0.0
 40
0.0
 40
0.0
 40
0.0
 40
0.9954170941383321
 40
1.0
 40
1.0
 40
1.0
 40
1.0
 10
14.09561131282167
 20
117.113065086455
 30
0.0
 10
13.90296346987235
 20
117.0371547391338
 30
0.0
 10
13.709428675178
 20
116.9608949001495
 30
0.0
 10
13.52438822734832
 20
116.8466256895427
 30
0.0
 10
13.52354020439532
 20
116.8461020045076
 30
0.0
  0
SPLINE
  5
1B7
330
1F
100
AcDbEntity
  8
0
  6
CONTINUOUS
 62
     7
100
AcDbSpline
210
0.0
220
0.0
230
1.0
 70
     8
 71
     3
 72
    15
 73
    11
 74
     0
 42
0.00000001
 43
0.00000001
 12
1.0
 22
0.0
 32
0.0
 13
1.0
 23
0.0
 33
0.0
 40
0.0
 40
0.0
 40
0.0
 40
0.0
 40
0.1219172593858407
 40
0.2403538061379449
 40
0.3416539690508233
 40
0.4258138554826592
 40
0.6512211639095781
 40
0.8647236014223748
 40
0.970287769398435
 40
1.0
 40
1.0
 40
1.0
 40
1.0
 10
9.054936995663017
 20
94.0894758190255
 30
0.0
 10
9.282141116200467
 20
93.84534793150696
 30
0.0
 10
9.730062726450702
 20
93.36406195735466
 30
0.0
 10
10.45765078249151
 20
92.8469360360649
 30
0.0
 10
11.14532473400312
 20
92.48250287763136
 30
0.0
 10
12.12510096880034
 20
92.11723361416274
 30
0.0
 10
13.47106225703153
 20
91.91246683123532
 30
0.0
 10
14.95789489325885
 20
92.12466943242978
 30
0.0
 10
15.92599608083971
 20
92.4097128655755
 30
0.0
 10
16.30128586344896
 20
92.58057054649656
 30
0.0
 10
16.38371485091864
 20
92.61809788215119
 30
0.0
  0
LINE
  5
1B8
330
1F
100
AcDbEntity
  8
0
  6
CONTINUOUS
 62
     7
100
AcDbLine
 10
25.0140067211
 20
106.6729082049
 30
0.0
 11
25.0502219891
 21
107.1431306982
 31
0.0
  0
LINE
  5
1B9
330
1F
100
AcDbEntity
  8
0
  6
CONTINUOUS
 62
     7
100
AcDbLine
 10
24.4699007872
 20
134.5517373676
 30
0.0
 11
-38.4523733687
 21
150.8372202803
 31
0.0
  0
LWPOLYLINE
  5
1BA
330
1F
100
AcDbEntity
  8
0
  6
CONTINUOUS
 62
     7
100
AcDbPolyline
 90
        3
 70
   128
 43
0.0
 10
-58.4151292147
 20
146.5862715422
 10
-59.4985869999
 20
147.0148206054
 10
-59.7238074333
 20
147.1311830383
  0
LWPOLYLINE
  5
1BB
330
1F
100
AcDbEntity
  8
0
  6
CONTINUOUS
 62
     7
100
AcDbPolyline
 90
       13
 70
   128
 43
0.0
 10
-39.2164751047
 20
148.033299169
 10
-39.4268087539
 20
147.70447487
 10
-40.0407261038
 20
147.217605015
 10
-40.9875467726
 20
146.7678969549
 10
-42.2354867641
 20
146.3704470218
 10
-43.7426537526
 20
146.0385972853
 10
-45.458453374
 20
145.7834876697
 10
-47.3252876371
 20
145.6136819964
 10
-49.2804884413
 20
145.534880503
 10
-51.2584212936
 20
145.5497284913
 10
-53.1926886042
 20
145.6577275265
 10
-55.0183586005
 20
145.8552521692
 10
-56.6741450325
 20
146.1356716786
  0
LINE
  5
1BC
330
1F
100
AcDbEntity
  8
0
  6
CONTINUOUS
 62
     7
100
AcDbLine
 10
-62.4630271044
 20
147.8401452579
 30
0.0
 11
-62.428794235
 21
147.6250844901
 31
0.0
  0
LWPOLYLINE
  5
1BD
330
1F
100
AcDbEntity
  8
0
  6
CONTINUOUS
 62
     7
100
AcDbPolyline
 90
       23
 70
   128
 43
0.0
 10
-25.244276571
 20
146.1376243663
 10
-24.4767016333
 20
145.8722416508
 10
-24.0290961895
 20
145.5616389615
 10
-23.9377225706
 20
145.2309794811
 10
-24.2099833239
 20
144.9070512741
 10
-24.8238215022
 20
144.6160970775
 10
-25.7295075871
 20
144.3816882699
 10
-26.8536682782
 20
144.2228152587
 10
-28.105230762
 20
144.1523489905
 10
-29.3828008894
 20
144.1759982233
 10
-30.5828775266
 20
144.2918470369
 10
-31.6082376017
 20
144.4905100493
 10
-32.3758125394
 20
144.7558927648
 10
-32.8234179833
 20
145.0664954541
 10
-32.9147916021
 20
145.3971549345
 10
-32.6425308489
 20
145.7210831415
 10
-32.0286926705
 20
146.0120373381
 10
-31.1230065857
 20
146.2464461457
 10
-29.9988458946
 20
146.4053191569
 10
-28.7472834108
 20
146.4757854251
 10
-27.4697132834
 20
146.4521361923
 10
-26.2696366461
 20
146.3362873787
 10
-25.244276571
 20
146.1376243663
  0
SPLINE
  5
1BE
330
1F
100
AcDbEntity
  8
0
  6
CONTINUOUS
 62
     7
100
AcDbSpline
210
0.0
220
0.0
230
1.0
 70
     8
 71
     3
 72
    11
 73
     7
 74
     0
 42
0.00000001
 43
0.00000001
 12
1.0
 22
0.0
 32
0.0
 13
1.0
 23
0.0
 33
0.0
 40
0.0
 40
0.0
 40
0.0
 40
0.0
 40
0.4310338128465983
 40
0.7083057658422489
 40
0.8903865187084292
 40
1.0
 40
1.0
 40
1.0
 40
1.0
 10
-62.42879423503442
 20
94.49916404419012
 30
0.0
 10
-62.40874357841476
 20
94.45486199451528
 30
0.0
 10
-62.37579489719911
 20
94.38206167981124
 30
0.0
 10
-62.31644491501063
 20
94.49798924505441
 30
0.0
 10
-62.28012174932702
 20
94.6541999257885
 30
0.0
 10
-62.26790658738268
 20
94.7837136101093
 30
0.0
 10
-62.26331634778083
 20
94.83238253856547
 30
0.0
  0
LWPOLYLINE
  5
1BF
330
1F
100
AcDbEntity
  8
0
  6
CONTINUOUS
 62
     7
100
AcDbPolyline
 90
        3
 70
   128
 43
0.0
 10
-32.3231360533
 20
145.0646638281
 10
-32.4234599055
 20
144.7923940819
 10
-32.4209608483
 20
144.7778467463
  0
LWPOLYLINE
  5
1C0
330
1F
100
AcDbEntity
  8
0
  6
CONTINUOUS
 62
     7
100
AcDbPolyline
 90
        3
 70
   128
 43
0.0
 10
-24.4315533245
 20
144.7778467462
 10
-24.4959911935
 20
145.0235741532
 10
-24.5293781192
 20
145.0646638278
  0
LWPOLYLINE
  5
1C1
330
1F
100
AcDbEntity
  8
0
  6
CONTINUOUS
 62
     7
100
AcDbPolyline
 90
        3
 70
   128
 43
0.0
 10
-62.465967584
 20
94.7984349331
 10
-62.4652386772
 20
94.7565068956
 10
-62.428794235
 20
94.4991640442
  0
LWPOLYLINE
  5
1C2
330
1F
100
AcDbEntity
  8
0
  6
CONTINUOUS
 62
     7
100
AcDbPolyline
 90
        3
 70
   128
 43
0.0
 10
-39.7112813443
 20
147.4411560092
 10
-39.5583490493
 20
147.6593946995
 10
-39.4775162844
 20
147.867791268
  0
ARC
  5
1C3
330
1F
100
AcDbEntity
  8
0
  6
CONTINUOUS
 62
     8
100
AcDbCircle
 10
62.3766183884
 20
165.7408870738
 30
0.0
 40
22.23809648948942
100
AcDbArc
 50
140.4474784831
 51
170.5966582908
  0
LWPOLYLINE
  5
1C4
330
1F
100
AcDbEntity
  8
0
  6
CONTINUOUS
 62
     8
100
AcDbPolyline
 90
       42
 70
   128
 43
0.0
 10
47.8773147965
 20
140.6283828541
 10
47.9611651559
 20
140.5275266948
 10
49.8083455819
 20
138.5239396721
 10
51.7726821743
 20
136.7932820128
 10
53.8276106505
 20
135.3589578927
 10
55.9453416281
 20
134.2403640851
 10
58.0972364285
 20
133.4526276521
 10
60.2541943661
 20
133.0064013778
 10
62.387046285
 20
132.907719707
 10
64.466949022
 20
133.1579171399
 10
66.4657754604
 20
133.7536101857
 10
68.3564949017
 20
134.6867431176
 10
70.113538609
 20
135.9446969135
 10
71.7131455802
 20
137.5104599065
 10
73.1336838752
 20
139.362857838
 10
74.3559431505
 20
141.4768402037
 10
75.3633944461
 20
143.8238190188
 10
76.1424137116
 20
146.3720554208
 10
76.6824660477
 20
149.087088884
 10
76.976248173
 20
151.9322032383
 10
77.0197871884
 20
154.8689231928
 10
76.8124943032
 20
157.8575346481
 10
76.3571727983
 20
160.8576217611
 10
75.6599801157
 20
163.8286135003
 10
74.7303445906
 20
166.730332299
 10
73.5808379486
 20
169.5235373884
 10
72.2270052951
 20
172.1704554612
 10
70.6871548943
 20
174.6352914914
 10
68.9821105812
 20
176.8847128
 10
67.1349301553
 20
178.8882998226
 10
65.1705935629
 20
180.618957482
 10
63.1156650867
 20
182.053281602
 10
60.9979341091
 20
183.1718754097
 10
58.8460393087
 20
183.9596118427
 10
56.689081371
 20
184.405838117
 10
54.5562294521
 20
184.5045197878
 10
52.4763267152
 20
184.2543223548
 10
50.4775002768
 20
183.6586293091
 10
48.5867808354
 20
182.7254963772
 10
46.8297371282
 20
181.4675425812
 10
45.230130157
 20
179.9017795883
 10
45.230130157
 20
179.9017795883
  0
LWPOLYLINE
  5
1C5
330
1F
100
AcDbEntity
  8
0
  6
CONTINUOUS
 62
     8
100
AcDbPolyline
 90
       23
 70
   128
 43
0.0
 10
94.2090035213
 20
152.4621240318
 10
94.5923306373
 20
152.5791600088
 10
96.0267753073
 20
153.2475802793
 10
97.3282275307
 20
154.2373513162
 10
98.4661823704
 20
155.5252737251
 10
99.4139671294
 20
157.0811596965
 10
100.1493665363
 20
158.8685405819
 10
100.6551434523
 20
160.8455216882
 10
100.9194428951
 20
162.9657642539
 10
100.9360699099
 20
165.1795715903
 10
100.7046347735
 20
167.4350539299
 10
100.2305621293
 20
169.6793446781
 10
99.5249638383
 20
171.859839562
 10
98.6043785264
 20
173.9254296297
 10
97.4903839331
 20
175.8276992007
 10
96.2090911475
 20
177.5220606885
 10
94.7905325864
 20
178.968799696
 10
93.2679580603
 20
180.1340058869
 10
91.6770554255
 20
180.9903678158
 10
90.0551140915
 20
181.5178130849
 10
88.4401509883
 20
181.703978824
 10
86.8700194825
 20
181.5445014661
 10
86.6929553323
 20
181.5038335185
  0
LWPOLYLINE
  5
1C6
330
1F
100
AcDbEntity
  8
0
  6
CONTINUOUS
 62
     8
100
AcDbPolyline
 90
       23
 70
   128
 43
0.0
 10
96.8491170933
 20
184.127710609
 10
97.3362940377
 20
184.2158685567
 10
98.924234569
 20
184.2688244863
 10
100.5454096072
 20
183.9766196456
 10
102.1618201835
 20
183.3461030684
 10
103.7355790038
 20
182.392053529
 10
105.2297984954
 20
181.1368331399
 10
106.6094554197
 20
179.6098632031
 10
107.8422117878
 20
177.8469345998
 10
108.8991728354
 20
175.8893688822
 10
109.7555642911
 20
173.7830497317
 10
110.3913130653
 20
171.5773474838
 10
110.7915177454
 20
169.3239619297
 10
110.946797873
 20
167.0757105171
 10
110.8535138135
 20
164.8852903535
 10
110.5138520661
 20
162.8040430309
 10
109.9357740143
 20
160.8807512227
 10
109.1328293178
 20
159.1604952587
 10
108.1238383196
 20
157.6835964807
 10
106.9324509136
 20
156.4846721444
 10
105.5865922108
 20
155.5918240199
 10
104.1178079985
 20
155.0259797106
 10
104.1005823333
 20
155.0214979975
  0
ARC
  5
1C7
330
1F
100
AcDbEntity
  8
0
  6
CONTINUOUS
 62
     8
100
AcDbCircle
 10
114.4902625832
 20
173.1986318219
 30
0.0
 40
36.28556515868151
100
AcDbArc
 50
351.0299610613
 51
38.5242531669
  0
ARC
  5
1C8
330
1F
100
AcDbEntity
  8
0
  6
CONTINUOUS
 62
     8
100
AcDbCircle
 10
116.7362830904
 20
166.7804333784
 30
0.0
 40
8.723295908692517
100
AcDbArc
 50
244.8735089454
 51
271.005378471
  0
LWPOLYLINE
  5
1C9
330
1F
100
AcDbEntity
  8
0
  6
CONTINUOUS
 62
     8
100
AcDbPolyline
 90
       27
 70
   128
 43
0.0
 10
106.267018203
 20
185.0213098726
 10
107.1865859642
 20
186.0977363074
 10
108.4963646124
 20
187.1775522923
 10
109.9493411997
 20
187.9305593409
 10
111.5114591865
 20
188.3391076062
 10
113.1461038511
 20
188.3936210631
 10
114.8149605081
 20
188.0928219624
 10
116.4789125719
 20
187.4437607801
 10
118.0989584163
 20
186.46165096
 10
119.63712554
 20
185.1695123242
 10
121.0573606092
 20
183.5976315069
 10
122.3263745175
 20
181.7828520623
 10
123.4144226547
 20
179.7677108825
 10
124.2960020945
 20
177.5994411687
 10
124.950449362
 20
175.3288653252
 10
125.362424768
 20
173.0092037255
 10
125.5222719582
 20
170.6948272713
 10
125.4262442498
 20
168.4399829852
 10
125.0765924511
 20
166.2975225061
 10
124.4815121037
 20
164.3176632918
 10
123.6549513866
 20
162.5468115642
 10
122.6162841826
 20
161.0264745868
 10
121.3898559705
 20
159.79228777
 10
120.0044131882
 20
158.8731794065
 10
118.4924294402
 20
158.2906926175
 10
116.8893443442
 20
158.0584803996
 10
116.8893443442
 20
158.0584803996
  0
LWPOLYLINE
  5
1CA
330
1F
100
AcDbEntity
  8
0
  6
CONTINUOUS
 62
     8
100
AcDbPolyline
 90
       21
 70
   128
 43
0.0
 10
109.8095129751
 20
185.9381749868
 10
111.1955642748
 20
186.1371612698
 10
112.7592548882
 20
186.0074375189
 10
114.3347526844
 20
185.5193265406
 10
115.8790821905
 20
184.6861427299
 10
117.3501181235
 20
183.5306131692
 10
118.7077344577
 20
182.0842576928
 10
119.9148989587
 20
180.3865291076
 10
120.9386833256
 20
178.4837370238
 10
121.7511613897
 20
176.4277846493
 10
122.3301708675
 20
174.2747530053
 10
122.6599178897
 20
172.0833711826
 10
122.7314078172
 20
169.9134143648
 10
122.542690591
 20
167.8240733171
 10
122.0989139252
 20
165.872339817
 10
121.4121828904
 20
164.1114520665
 10
120.5012297191
 20
162.5894424931
 10
119.390902839
 20
161.3478275504
 10
118.111489073
 20
160.4204752574
 10
116.6978874936
 20
159.8326813672
 10
116.5747087664
 20
159.7994656479
  0
LINE
  5
1CB
330
1F
100
AcDbEntity
  8
0
  6
CONTINUOUS
 62
     8
100
AcDbLine
 10
25.5855164715
 20
129.7363958913
 30
0.0
 11
25.2080906559
 21
129.6387109021
 31
0.0
  0
LINE
  5
1CC
330
1F
100
AcDbEntity
  8
0
  6
CONTINUOUS
 62
     8
100
AcDbLine
 10
25.2593022197
 20
86.3112935723
 30
0.0
 11
25.5855164715
 21
86.3957240334
 31
0.0
  0
LINE
  5
1CD
330
1F
100
AcDbEntity
  8
0
  6
CONTINUOUS
 62
     8
100
AcDbLine
 10
25.5855164715
 20
279.4548989661
 30
0.0
 11
25.2080906559
 21
279.3572139769
 31
0.0
  0
LINE
  5
1CE
330
1F
100
AcDbEntity
  8
0
  6
CONTINUOUS
 62
     8
100
AcDbLine
 10
25.2593022197
 20
236.0297966471
 30
0.0
 11
25.5855164715
 21
236.1142271082
 31
0.0
  0
ARC
  5
1CF
330
1F
100
AcDbEntity
  8
0
  6
CONTINUOUS
 62
     8
100
AcDbCircle
 10
-49.3023302086
 20
139.2743637293
 30
0.0
 40
26.84574348118752
100
AcDbArc
 50
91.7001652447
 51
131.4388317907
  0
LINE
  5
1D0
330
1F
100
AcDbEntity
  8
0
  6
CONTINUOUS
 62
     8
100
AcDbLine
 10
-58.9376547429
 20
157.2949701499
 30
0.0
 11
-58.9376547429
 21
146.9277117497
 31
0.0
  0
LINE
  5
1D1
330
1F
100
AcDbEntity
  8
0
  6
CONTINUOUS
 62
     8
100
AcDbLine
 10
-67.0693827266
 20
159.3996162217
 30
0.0
 11
-67.0693827266
 21
149.0194210559
 31
0.0
  0
LINE
  5
1D2
330
1F
100
AcDbEntity
  8
0
  6
CONTINUOUS
 62
     8
100
AcDbLine
 10
-50.0988199781
 20
167.8347079367
 30
0.0
 11
-50.0988199781
 21
166.1082890312
 31
0.0
  0
ARC
  5
1D3
330
1F
100
AcDbEntity
  8
0
  6
CONTINUOUS
 62
     8
100
AcDbCircle
 10
-50.2338450982
 20
140.0668884058
 30
0.0
 40
27.76814781881311
100
AcDbArc
 50
89.721393013
 51
133.053703374
  0
LINE
  5
1D4
330
1F
100
AcDbEntity
  8
0
  6
CONTINUOUS
 62
     8
100
AcDbLine
 10
-69.1907030701
 20
141.8731351354
 30
0.0
 11
-69.1907030701
 21
160.3574667396
 31
0.0
  0
LINE
  5
1D5
330
1F
100
AcDbEntity
  8
0
  6
CONTINUOUS
 62
     8
100
AcDbLine
 10
-62.465967584
 20
95.8655728147
 30
0.0
 11
-66.9279613703
 21
94.7107238436
 31
0.0
  0
LINE
  5
1D6
330
1F
100
AcDbEntity
  8
0
  6
CONTINUOUS
 62
     8
100
AcDbLine
 10
-58.9376547429
 20
92.6426803123
 30
0.0
 11
-58.9376547429
 21
82.275421912
 31
0.0
  0
LINE
  5
1D7
330
1F
100
AcDbEntity
  8
0
  6
CONTINUOUS
 62
     8
100
AcDbLine
 10
-65.1895834364
 20
148.5458299642
 30
0.0
 11
-68.5201314517
 21
147.6838207072
 31
0.0
  0
LINE
  5
1D8
330
1F
100
AcDbEntity
  8
0
  6
CONTINUOUS
 62
     8
100
AcDbLine
 10
-67.0693827266
 20
94.7602631496
 30
0.0
 11
-67.0693827266
 21
84.3800679838
 31
0.0
  0
LINE
  5
1D9
330
1F
100
AcDbEntity
  8
0
  6
CONTINUOUS
 62
     8
100
AcDbLine
 10
-69.1907030701
 20
83.4222174659
 30
0.0
 11
-69.1907030701
 21
101.9065490701
 31
0.0
  0
ARC
  5
1DA
330
1F
100
AcDbEntity
  8
0
  6
CONTINUOUS
 62
     8
100
AcDbCircle
 10
-62.5129508489
 20
103.1695292283
 30
0.0
 40
20.84583163532334
100
AcDbArc
 50
251.3165164239
 51
277.3344120882
  0
LINE
  5
1DB
330
1F
100
AcDbEntity
  8
0
  6
CONTINUOUS
 62
     8
100
AcDbLine
 10
-68.5201314517
 20
96.2965667487
 30
0.0
 11
-62.465967584
 21
97.8634996598
 31
0.0
  0
LINE
  5
1DC
330
1F
100
AcDbEntity
  8
0
  6
CONTINUOUS
 62
     8
100
AcDbLine
 10
-58.9376547429
 20
307.0134732247
 30
0.0
 11
-58.9376547429
 21
296.6462148245
 31
0.0
  0
ARC
  5
1DD
330
1F
100
AcDbEntity
  8
0
  6
CONTINUOUS
 62
     8
100
AcDbCircle
 10
-49.3023302086
 20
288.9928668041
 30
0.0
 40
26.84574348118804
100
AcDbArc
 50
91.7001652447
 51
131.4388317907
  0
LINE
  5
1DE
330
1F
100
AcDbEntity
  8
0
  6
CONTINUOUS
 62
     8
100
AcDbLine
 10
-67.0693827266
 20
309.1181192965
 30
0.0
 11
-67.0693827266
 21
298.7379241307
 31
0.0
  0
LINE
  5
1DF
330
1F
100
AcDbEntity
  8
0
  6
CONTINUOUS
 62
     8
100
AcDbLine
 10
-50.0988199781
 20
317.5532110116
 30
0.0
 11
-50.0988199781
 21
315.826792106
 31
0.0
  0
ARC
  5
1E0
330
1F
100
AcDbEntity
  8
0
  6
CONTINUOUS
 62
     8
100
AcDbCircle
 10
-50.2338450982
 20
289.7853914806
 30
0.0
 40
27.76814781881325
100
AcDbArc
 50
89.721393013
 51
133.053703374
  0
LINE
  5
1E1
330
1F
100
AcDbEntity
  8
0
  6
CONTINUOUS
 62
     8
100
AcDbLine
 10
-69.1907030701
 20
291.5916382102
 30
0.0
 11
-69.1907030701
 21
310.0759698144
 31
0.0
  0
LINE
  5
1E2
330
1F
100
AcDbEntity
  8
0
  6
CONTINUOUS
 62
     8
100
AcDbLine
 10
-58.9376547429
 20
242.3611833871
 30
0.0
 11
-58.9376547429
 21
231.9939249869
 31
0.0
  0
LINE
  5
1E3
330
1F
100
AcDbEntity
  8
0
  6
CONTINUOUS
 62
     8
100
AcDbLine
 10
-62.465967584
 20
245.5840758895
 30
0.0
 11
-66.9279613703
 21
244.4292269184
 31
0.0
  0
LINE
  5
1E4
330
1F
100
AcDbEntity
  8
0
  6
CONTINUOUS
 62
     8
100
AcDbLine
 10
-65.1895834364
 20
298.264333039
 30
0.0
 11
-68.5201314517
 21
297.402323782
 31
0.0
  0
LINE
  5
1E5
330
1F
100
AcDbEntity
  8
0
  6
CONTINUOUS
 62
     8
100
AcDbLine
 10
-67.0693827266
 20
244.4787662244
 30
0.0
 11
-67.0693827266
 21
234.0985710586
 31
0.0
  0
LINE
  5
1E6
330
1F
100
AcDbEntity
  8
0
  6
CONTINUOUS
 62
     8
100
AcDbLine
 10
-69.1907030701
 20
233.1407205407
 30
0.0
 11
-69.1907030701
 21
251.6250521449
 31
0.0
  0
ARC
  5
1E7
330
1F
100
AcDbEntity
  8
0
  6
CONTINUOUS
 62
     8
100
AcDbCircle
 10
-62.5129508489
 20
252.8880323031
 30
0.0
 40
20.84583163532319
100
AcDbArc
 50
251.3165164239
 51
277.3344120882
  0
LINE
  5
1E8
330
1F
100
AcDbEntity
  8
0
  6
CONTINUOUS
 62
     8
100
AcDbLine
 10
-68.5201314517
 20
246.0150698235
 30
0.0
 11
-62.465967584
 21
247.5820027346
 31
0.0
  0
LINE
  5
1E9
330
1F
100
AcDbEntity
  8
0
  6
CONTINUOUS
 62
     8
100
AcDbLine
 10
29.5564989709
 20
271.8912235825
 30
0.0
 11
28.8493921897
 21
271.7082108806
 31
0.0
  0
LINE
  5
1EA
330
1F
100
AcDbEntity
  8
0
  6
CONTINUOUS
 62
     8
100
AcDbLine
 10
28.8493921897
 20
249.491916876
 30
0.0
 11
29.5564989709
 21
249.6749295779
 31
0.0
  0
LINE
  5
1EB
330
1F
100
AcDbEntity
  8
0
  6
CONTINUOUS
 62
     8
100
AcDbLine
 10
29.5564989709
 20
122.1727205077
 30
0.0
 11
28.8493921897
 21
121.9897078058
 31
0.0
  0
LINE
  5
1EC
330
1F
100
AcDbEntity
  8
0
  6
CONTINUOUS
 62
     8
100
AcDbLine
 10
28.8493921897
 20
99.7734138012
 30
0.0
 11
29.5564989709
 21
99.956426503
 31
0.0
  0
LINE
  5
1ED
330
1F
100
AcDbEntity
  8
0
  6
CONTINUOUS
 62
     8
100
AcDbLine
 10
26.9997300339
 20
279.8209243699
 30
0.0
 11
25.5855164715
 21
279.4548989661
 31
0.0
  0
LINE
  5
1EE
330
1F
100
AcDbEntity
  8
0
  6
CONTINUOUS
 62
     8
100
AcDbLine
 10
25.5855164715
 20
236.1142271082
 30
0.0
 11
26.9997300339
 21
236.480252512
 31
0.0
  0
LINE
  5
1EF
330
1F
100
AcDbEntity
  8
0
  6
CONTINUOUS
 62
     8
100
AcDbLine
 10
23.2712390534
 20
284.5804769278
 30
0.0
 11
23.5265339932
 21
284.6465521203
 31
0.0
  0
LINE
  5
1F0
330
1F
100
AcDbEntity
  8
0
  6
CONTINUOUS
 62
     8
100
AcDbLine
 10
26.9997300339
 20
130.1024212951
 30
0.0
 11
25.5855164715
 21
129.7363958913
 31
0.0
  0
LINE
  5
1F1
330
1F
100
AcDbEntity
  8
0
  6
CONTINUOUS
 62
     8
100
AcDbLine
 10
25.5855164715
 20
86.3957240334
 30
0.0
 11
26.9997300339
 21
86.7617494372
 31
0.0
  0
LINE
  5
1F2
330
1F
100
AcDbEntity
  8
0
  6
CONTINUOUS
 62
     8
100
AcDbLine
 10
23.2712390534
 20
134.861973853
 30
0.0
 11
23.5265339932
 21
134.9280490455
 31
0.0
  0
LINE
  5
1F3
330
1F
100
AcDbEntity
  8
0
  6
CONTINUOUS
 62
     8
100
AcDbLine
 10
27.4222972862
 20
89.9430217757
 30
0.0
 11
28.4790665135
 21
90.216533778
 31
0.0
  0
LINE
  5
1F4
330
1F
100
AcDbEntity
  8
0
  6
CONTINUOUS
 62
     8
100
AcDbLine
 10
27.4222972862
 20
239.6615248505
 30
0.0
 11
28.4790665135
 21
239.9350368528
 31
0.0
  0
LWPOLYLINE
  5
1F5
330
1F
100
AcDbEntity
  8
0
  6
CONTINUOUS
 62
     8
100
AcDbPolyline
 90
        3
 70
   128
 43
0.0
 10
13.1545614239
 20
92.3128150715
 10
13.2209147028
 20
92.2986583144
 10
14.443134938
 20
92.1736284638
  0
ARC
  5
1F6
330
1F
100
AcDbEntity
  8
0
  6
CONTINUOUS
 62
     8
100
AcDbCircle
 10
17.7579704801
 20
111.0092076995
 30
0.0
 40
6.139684109803729
100
AcDbArc
 50
50.0451128052
 51
83.0577887289
  0
LWPOLYLINE
  5
1F7
330
1F
100
AcDbEntity
  8
0
  6
CONTINUOUS
 62
     8
100
AcDbPolyline
 90
        3
 70
   128
 43
0.0
 10
13.1545614239
 20
242.0313181463
 10
13.2209147028
 20
242.0171613892
 10
14.443134938
 20
241.8921315386
  0
ARC
  5
1F8
330
1F
100
AcDbEntity
  8
0
  6
CONTINUOUS
 62
     8
100
AcDbCircle
 10
17.7579704801
 20
260.7277107743
 30
0.0
 40
6.139684109804548
100
AcDbArc
 50
50.0451128052
 51
83.0577887289
  0
LINE
  5
1F9
330
1F
100
AcDbEntity
  8
0
  6
CONTINUOUS
 62
     8
100
AcDbLine
 10
-62.2633163478
 20
244.5508856134
 30
0.0
 11
5.7146044063
 21
226.9569050757
 31
0.0
  0
LINE
  5
1FA
330
1F
100
AcDbEntity
  8
0
  6
CONTINUOUS
 62
     8
100
AcDbLine
 10
5.7146044063
 20
278.620644225
 30
0.0
 11
-62.2633163478
 21
296.2146247626
 31
0.0
  0
LINE
  5
1FB
330
1F
100
AcDbEntity
  8
0
  6
CONTINUOUS
 62
     8
100
AcDbLine
 10
-56.6741450325
 20
295.8541747534
 30
0.0
 11
6.2763205193
 21
279.5613953705
 31
0.0
  0
LINE
  5
1FC
330
1F
100
AcDbEntity
  8
0
  6
CONTINUOUS
 62
     8
100
AcDbLine
 10
-62.428794235
 20
297.3435875649
 30
0.0
 11
-58.4151292147
 21
296.304774617
 31
0.0
  0
LINE
  5
1FD
330
1F
100
AcDbEntity
  8
0
  6
CONTINUOUS
 62
     8
100
AcDbLine
 10
-62.2633163478
 20
94.8323825386
 30
0.0
 11
5.7146044063
 21
77.2384020009
 31
0.0
  0
LINE
  5
1FE
330
1F
100
AcDbEntity
  8
0
  6
CONTINUOUS
 62
     8
100
AcDbLine
 10
5.7146044063
 20
128.9021411502
 30
0.0
 11
-62.2633163478
 21
146.4961216878
 31
0.0
  0
LINE
  5
1FF
330
1F
100
AcDbEntity
  8
0
  6
CONTINUOUS
 62
     8
100
AcDbLine
 10
-56.6741450325
 20
146.1356716786
 30
0.0
 11
6.2763205193
 21
129.8428922957
 31
0.0
  0
LINE
  5
200
330
1F
100
AcDbEntity
  8
0
  6
CONTINUOUS
 62
     8
100
AcDbLine
 10
-62.428794235
 20
147.6250844901
 30
0.0
 11
-58.4151292147
 21
146.5862715422
 31
0.0
  0
LINE
  5
201
330
1F
100
AcDbEntity
  8
0
  6
CONTINUOUS
 62
     7
100
AcDbLine
 10
507.5196647313
 20
36.8492945606
 30
0.0
 11
507.5196647313
 21
31.8492945606
 31
0.0
  0
LINE
  5
202
330
1F
100
AcDbEntity
  8
0
  6
CONTINUOUS
 62
     7
100
AcDbLine
 10
519.5196647313
 20
31.8492945606
 30
0.0
 11
519.5196647313
 21
36.8492945606
 31
0.0
  0
LINE
  5
203
330
1F
100
AcDbEntity
  8
0
  6
CONTINUOUS
 62
     7
100
AcDbLine
 10
507.5196647313
 20
31.8492945606
 30
0.0
 11
507.5196647313
 21
26.8492945606
 31
0.0
  0
LINE
  5
204
330
1F
100
AcDbEntity
  8
0
  6
CONTINUOUS
 62
     7
100
AcDbLine
 10
519.5196647313
 20
26.8492945606
 30
0.0
 11
519.5196647313
 21
31.8492945606
 31
0.0
  0
LINE
  5
205
330
1F
100
AcDbEntity
  8
0
  6
CONTINUOUS
 62
     7
100
AcDbLine
 10
517.5196647313
 20
25.8492945606
 30
0.0
 11
517.5196647313
 21
26.8492945606
 31
0.0
  0
LINE
  5
206
330
1F
100
AcDbEntity
  8
0
  6
CONTINUOUS
 62
     7
100
AcDbLine
 10
517.5196647313
 20
36.8492945606
 30
0.0
 11
517.5196647313
 21
37.8492945606
 31
0.0
  0
LINE
  5
207
330
1F
100
AcDbEntity
  8
0
  6
CONTINUOUS
 62
     7
100
AcDbLine
 10
509.5196647313
 20
37.8492945606
 30
0.0
 11
509.5196647313
 21
36.8492945606
 31
0.0
  0
LINE
  5
208
330
1F
100
AcDbEntity
  8
0
  6
CONTINUOUS
 62
     7
100
AcDbLine
 10
509.5196647313
 20
26.8492945606
 30
0.0
 11
509.5196647313
 21
25.8492945606
 31
0.0
  0
ARC
  5
209
330
1F
100
AcDbEntity
  8
0
  6
CONTINUOUS
 62
     7
100
AcDbCircle
 10
528.5196647313
 20
-10.3794619947
 30
0.0
 40
14.99999999999965
100
AcDbArc
 50
318.5903778907
 51
88.3145869598
  0
ARC
  5
20A
330
1F
100
AcDbEntity
  8
0
  6
CONTINUOUS
 62
     7
100
AcDbCircle
 10
498.5196647313
 20
-10.3794619947
 30
0.0
 40
14.99999999999961
100
AcDbArc
 50
91.6854130402
 51
221.4096221093
  0
ARC
  5
20B
330
1F
100
AcDbEntity
  8
0
  6
CONTINUOUS
 62
     7
100
AcDbCircle
 10
513.5196647313
 20
2.8492945606
 30
0.0
 40
35.00000000000002
100
AcDbArc
 50
221.4096221093
 51
318.5903778907
  0
ARC
  5
20C
330
1F
100
AcDbEntity
  8
0
  6
CONTINUOUS
 62
     7
100
AcDbCircle
 10
529.0196647313
 20
6.6131834732
 30
0.0
 40
2.0
100
AcDbArc
 50
180.0
 51
268.3145869598
  0
ARC
  5
20D
330
1F
100
AcDbEntity
  8
0
  6
CONTINUOUS
 62
     7
100
AcDbCircle
 10
498.0196647313
 20
6.6131834732
 30
0.0
 40
2.000000000000057
100
AcDbArc
 50
271.6854130402
 51
360.0
  0
LINE
  5
20E
330
1F
100
AcDbEntity
  8
0
  6
CONTINUOUS
 62
     7
100
AcDbLine
 10
528.5196647313
 20
24.7857862337
 30
0.0
 11
528.5196647313
 21
25.8492945606
 31
0.0
  0
LINE
  5
20F
330
1F
100
AcDbEntity
  8
0
  6
CONTINUOUS
 62
     7
100
AcDbLine
 10
498.5196647313
 20
25.8492945606
 30
0.0
 11
498.5196647313
 21
24.7857862337
 31
0.0
  0
ARC
  5
210
330
1F
100
AcDbEntity
  8
0
  6
CONTINUOUS
 62
     7
100
AcDbCircle
 10
526.5196647313
 20
24.7857862337
 30
0.0
 40
2.0
100
AcDbArc
 50
284.4775121859
 51
360.0
  0
ARC
  5
211
330
1F
100
AcDbEntity
  8
0
  6
CONTINUOUS
 62
     7
100
AcDbCircle
 10
500.5196647313
 20
24.7857862337
 30
0.0
 40
1.999999999999995
100
AcDbArc
 50
180.0
 51
255.5224878141
  0
LINE
  5
212
330
1F
100
AcDbEntity
  8
0
  6
CONTINUOUS
 62
     7
100
AcDbLine
 10
527.0196647313
 20
6.6131834732
 30
0.0
 11
527.0196647313
 21
22.8492945606
 31
0.0
  0
LINE
  5
213
330
1F
100
AcDbEntity
  8
0
  6
CONTINUOUS
 62
     7
100
AcDbLine
 10
500.0196647313
 20
22.8492945606
 30
0.0
 11
500.0196647313
 21
6.6131834732
 31
0.0
  0
ARC
  5
214
330
1F
100
AcDbEntity
  8
0
  6
CONTINUOUS
 62
     7
100
AcDbCircle
 10
498.5196647313
 20
74.0780511159
 30
0.0
 40
14.99999999999963
100
AcDbArc
 50
138.5903778907
 51
268.3145869598
  0
ARC
  5
215
330
1F
100
AcDbEntity
  8
0
  6
CONTINUOUS
 62
     7
100
AcDbCircle
 10
528.5196647313
 20
74.0780511159
 30
0.0
 40
14.99999999999963
100
AcDbArc
 50
271.6854130402
 51
41.4096221093
  0
ARC
  5
216
330
1F
100
AcDbEntity
  8
0
  6
CONTINUOUS
 62
     7
100
AcDbCircle
 10
513.5196647313
 20
60.8492945606
 30
0.0
 40
35.00000000000001
100
AcDbArc
 50
41.4096221093
 51
138.5903778907
  0
ARC
  5
217
330
1F
100
AcDbEntity
  8
0
  6
CONTINUOUS
 62
     7
100
AcDbCircle
 10
498.0196647313
 20
57.0854056479
 30
0.0
 40
2.000000000000003
100
AcDbArc
 50
360.0
 51
88.3145869598
  0
ARC
  5
218
330
1F
100
AcDbEntity
  8
0
  6
CONTINUOUS
 62
     7
100
AcDbCircle
 10
529.0196647313
 20
57.0854056479
 30
0.0
 40
2.000000000000006
100
AcDbArc
 50
91.6854130402
 51
180.0
  0
LINE
  5
219
330
1F
100
AcDbEntity
  8
0
  6
CONTINUOUS
 62
     7
100
AcDbLine
 10
498.5196647313
 20
38.9128028875
 30
0.0
 11
498.5196647313
 21
37.8492945606
 31
0.0
  0
LINE
  5
21A
330
1F
100
AcDbEntity
  8
0
  6
CONTINUOUS
 62
     7
100
AcDbLine
 10
528.5196647313
 20
37.8492945606
 30
0.0
 11
528.5196647313
 21
38.9128028875
 31
0.0
  0
ARC
  5
21B
330
1F
100
AcDbEntity
  8
0
  6
CONTINUOUS
 62
     7
100
AcDbCircle
 10
500.5196647313
 20
38.9128028875
 30
0.0
 40
1.999999999999994
100
AcDbArc
 50
104.4775121859
 51
180.0
  0
ARC
  5
21C
330
1F
100
AcDbEntity
  8
0
  6
CONTINUOUS
 62
     7
100
AcDbCircle
 10
526.5196647313
 20
38.9128028875
 30
0.0
 40
2.0
100
AcDbArc
 50
360.0
 51
75.5224878141
  0
LINE
  5
21D
330
1F
100
AcDbEntity
  8
0
  6
CONTINUOUS
 62
     7
100
AcDbLine
 10
500.0196647313
 20
57.0854056479
 30
0.0
 11
500.0196647313
 21
40.8492945606
 31
0.0
  0
LINE
  5
21E
330
1F
100
AcDbEntity
  8
0
  6
CONTINUOUS
 62
     7
100
AcDbLine
 10
527.0196647313
 20
40.8492945606
 30
0.0
 11
527.0196647313
 21
57.0854056479
 31
0.0
  0
LINE
  5
21F
330
1F
100
AcDbEntity
  8
0
  6
CONTINUOUS
 62
     7
100
AcDbLine
 10
420.9771591725
 20
26.8492945606
 30
0.0
 11
420.9771591725
 21
27.8492945606
 31
0.0
  0
LINE
  5
220
330
1F
100
AcDbEntity
  8
0
  6
CONTINUOUS
 62
     7
100
AcDbLine
 10
385.9771591725
 20
36.8492945606
 30
0.0
 11
385.9771591725
 21
29.8492945606
 31
0.0
  0
LINE
  5
221
330
1F
100
AcDbEntity
  8
0
  6
CONTINUOUS
 62
     7
100
AcDbLine
 10
404.9771591725
 20
29.8492945606
 30
0.0
 11
404.9771591725
 21
36.8492945606
 31
0.0
  0
LINE
  5
222
330
1F
100
AcDbEntity
  8
0
  6
CONTINUOUS
 62
     7
100
AcDbLine
 10
340.9771591725
 20
36.8492945606
 30
0.0
 11
340.9771591725
 21
29.8492945606
 31
0.0
  0
LINE
  5
223
330
1F
100
AcDbEntity
  8
0
  6
CONTINUOUS
 62
     7
100
AcDbLine
 10
359.9771591725
 20
29.8492945606
 30
0.0
 11
359.9771591725
 21
36.8492945606
 31
0.0
  0
LINE
  5
224
330
1F
100
AcDbEntity
  8
0
  6
CONTINUOUS
 62
     7
100
AcDbLine
 10
420.9771591725
 20
27.8492945606
 30
0.0
 11
420.9771591725
 21
29.8492945606
 31
0.0
  0
LINE
  5
225
330
1F
100
AcDbEntity
  8
0
  6
CONTINUOUS
 62
     7
100
AcDbLine
 10
421.4771591725
 20
37.8492945606
 30
0.0
 11
421.4771591725
 21
48.3492945606
 31
0.0
  0
LINE
  5
226
330
1F
100
AcDbEntity
  8
0
  6
CONTINUOUS
 62
     7
100
AcDbLine
 10
421.4771591725
 20
48.3492945606
 30
0.0
 11
332.4771591725
 21
48.3492945606
 31
0.0
  0
LINE
  5
227
330
1F
100
AcDbEntity
  8
0
  6
CONTINUOUS
 62
     7
100
AcDbLine
 10
392.4771591725
 20
37.8492945606
 30
0.0
 11
392.4771591725
 21
37.3492945606
 31
0.0
  0
LINE
  5
228
330
1F
100
AcDbEntity
  8
0
  6
CONTINUOUS
 62
     7
100
AcDbLine
 10
398.4771591725
 20
37.3492945606
 30
0.0
 11
398.4771591725
 21
37.8492945606
 31
0.0
  0
LINE
  5
229
330
1F
100
AcDbEntity
  8
0
  6
CONTINUOUS
 62
     7
100
AcDbLine
 10
347.4771591725
 20
37.8492945606
 30
0.0
 11
347.4771591725
 21
37.3492945606
 31
0.0
  0
LINE
  5
22A
330
1F
100
AcDbEntity
  8
0
  6
CONTINUOUS
 62
     7
100
AcDbLine
 10
353.4771591725
 20
37.3492945606
 30
0.0
 11
353.4771591725
 21
37.8492945606
 31
0.0
  0
ARC
  5
22B
330
1F
100
AcDbEntity
  8
0
  6
CONTINUOUS
 62
     7
100
AcDbCircle
 10
421.1771591725
 20
24.5492945606
 30
0.0
 40
0.3000000000000114
100
AcDbArc
 50
0.0
 51
32.0797788679
  0
ARC
  5
22C
330
1F
100
AcDbEntity
  8
0
  6
CONTINUOUS
 62
     7
100
AcDbCircle
 10
421.1771591725
 20
-0.8507054394
 30
0.0
 40
0.3000000000000114
100
AcDbArc
 50
327.9990199795
 51
360.0
  0
LINE
  5
22D
330
1F
100
AcDbEntity
  8
0
  6
CONTINUOUS
 62
     7
100
AcDbLine
 10
421.4771591725
 20
25.1679005438
 30
0.0
 11
421.4771591725
 21
26.8492945606
 31
0.0
  0
LINE
  5
22E
330
1F
100
AcDbEntity
  8
0
  6
CONTINUOUS
 62
     7
100
AcDbLine
 10
421.4771591725
 20
-3.1507054394
 30
0.0
 11
421.4771591725
 21
-1.467875151
 31
0.0
  0
LINE
  5
22F
330
1F
100
AcDbEntity
  8
0
  6
CONTINUOUS
 62
     7
100
AcDbLine
 10
330.227980637
 20
-3.1507054394
 30
0.0
 11
421.4771591725
 21
-3.1507054394
 31
0.0
  0
LINE
  5
230
330
1F
100
AcDbEntity
  8
0
  6
CONTINUOUS
 62
     7
100
AcDbLine
 10
402.8771591725
 20
36.8492945606
 30
0.0
 11
402.3771591725
 21
37.3492945606
 31
0.0
  0
LINE
  5
231
330
1F
100
AcDbEntity
  8
0
  6
CONTINUOUS
 62
     7
100
AcDbLine
 10
388.5771591725
 20
37.3492945606
 30
0.0
 11
388.0771591725
 21
36.8492945606
 31
0.0
  0
LINE
  5
232
330
1F
100
AcDbEntity
  8
0
  6
CONTINUOUS
 62
     7
100
AcDbLine
 10
357.8771591725
 20
36.8492945606
 30
0.0
 11
357.3771591725
 21
37.3492945606
 31
0.0
  0
LINE
  5
233
330
1F
100
AcDbEntity
  8
0
  6
CONTINUOUS
 62
     7
100
AcDbLine
 10
343.5771591725
 20
37.3492945606
 30
0.0
 11
343.0771591725
 21
36.8492945606
 31
0.0
  0
LINE
  5
234
330
1F
100
AcDbEntity
  8
0
  6
CONTINUOUS
 62
     7
100
AcDbLine
 10
519.248919487
 20
36.8492945606
 30
0.0
 11
519.5196647313
 21
36.8492945606
 31
0.0
  0
LINE
  5
235
330
1F
100
AcDbEntity
  8
0
  6
CONTINUOUS
 62
     7
100
AcDbLine
 10
507.5196647313
 20
36.8492945606
 30
0.0
 11
519.248919487
 21
36.8492945606
 31
0.0
  0
LINE
  5
236
330
1F
100
AcDbEntity
  8
0
  6
CONTINUOUS
 62
     7
100
AcDbLine
 10
519.248919487
 20
31.8492945606
 30
0.0
 11
519.5196647313
 21
31.8492945606
 31
0.0
  0
LINE
  5
237
330
1F
100
AcDbEntity
  8
0
  6
CONTINUOUS
 62
     7
100
AcDbLine
 10
507.5196647313
 20
31.8492945606
 30
0.0
 11
519.248919487
 21
31.8492945606
 31
0.0
  0
LINE
  5
238
330
1F
100
AcDbEntity
  8
0
  6
CONTINUOUS
 62
     7
100
AcDbLine
 10
512.2647566096
 20
31.8492945606
 30
0.0
 11
519.5196647313
 21
31.8492945606
 31
0.0
  0
LINE
  5
239
330
1F
100
AcDbEntity
  8
0
  6
CONTINUOUS
 62
     7
100
AcDbLine
 10
507.5196647313
 20
31.8492945606
 30
0.0
 11
512.2647566096
 21
31.8492945606
 31
0.0
  0
LINE
  5
23A
330
1F
100
AcDbEntity
  8
0
  6
CONTINUOUS
 62
     7
100
AcDbLine
 10
512.2647566096
 20
26.8492945606
 30
0.0
 11
519.5196647313
 21
26.8492945606
 31
0.0
  0
LINE
  5
23B
330
1F
100
AcDbEntity
  8
0
  6
CONTINUOUS
 62
     7
100
AcDbLine
 10
507.5196647313
 20
26.8492945606
 30
0.0
 11
512.2647566096
 21
26.8492945606
 31
0.0
  0
LINE
  5
23C
330
1F
100
AcDbEntity
  8
0
  6
CONTINUOUS
 62
     7
100
AcDbLine
 10
502.8189105644
 20
25.8492945606
 30
0.0
 11
498.5196647313
 21
25.8492945606
 31
0.0
  0
LINE
  5
23D
330
1F
100
AcDbEntity
  8
0
  6
CONTINUOUS
 62
     7
100
AcDbLine
 10
528.5196647313
 20
25.8492945606
 30
0.0
 11
502.8189105644
 21
25.8492945606
 31
0.0
  0
LINE
  5
23E
330
1F
100
AcDbEntity
  8
0
  6
CONTINUOUS
 62
     7
100
AcDbLine
 10
503.8889859811
 20
22.8492945606
 30
0.0
 11
500.0196647313
 21
22.8492945606
 31
0.0
  0
LINE
  5
23F
330
1F
100
AcDbEntity
  8
0
  6
CONTINUOUS
 62
     7
100
AcDbLine
 10
527.0196647313
 20
22.8492945606
 30
0.0
 11
503.8889859811
 21
22.8492945606
 31
0.0
  0
LINE
  5
240
330
1F
100
AcDbEntity
  8
0
  6
CONTINUOUS
 62
     7
100
AcDbLine
 10
498.5196647313
 20
37.8492945606
 30
0.0
 11
528.5196647313
 21
37.8492945606
 31
0.0
  0
LINE
  5
241
330
1F
100
AcDbEntity
  8
0
  6
CONTINUOUS
 62
     7
100
AcDbLine
 10
500.0196647313
 20
40.8492945606
 30
0.0
 11
527.0196647313
 21
40.8492945606
 31
0.0
  0
LINE
  5
242
330
1F
100
AcDbEntity
  8
0
  6
CONTINUOUS
 62
     7
100
AcDbLine
 10
321.9771591725
 20
27.8492945606
 30
0.0
 11
413.9495009204
 21
27.8492945606
 31
0.0
  0
LINE
  5
243
330
1F
100
AcDbEntity
  8
0
  6
CONTINUOUS
 62
     7
100
AcDbLine
 10
413.9495009204
 20
27.8492945606
 30
0.0
 11
418.861341866
 21
27.8492945606
 31
0.0
  0
LINE
  5
244
330
1F
100
AcDbEntity
  8
0
  6
CONTINUOUS
 62
     7
100
AcDbLine
 10
316.9771591725
 20
26.8492945606
 30
0.0
 11
316.9771591725
 21
27.8492945606
 31
0.0
  0
LINE
  5
245
330
1F
100
AcDbEntity
  8
0
  6
CONTINUOUS
 62
     7
100
AcDbLine
 10
316.9771591725
 20
27.8492945606
 30
0.0
 11
321.9771591725
 21
27.8492945606
 31
0.0
  0
LINE
  5
246
330
1F
100
AcDbEntity
  8
0
  6
CONTINUOUS
 62
     7
100
AcDbLine
 10
418.861341866
 20
27.8492945606
 30
0.0
 11
420.9771591725
 21
27.8492945606
 31
0.0
  0
LINE
  5
247
330
1F
100
AcDbEntity
  8
0
  6
CONTINUOUS
 62
     7
100
AcDbLine
 10
314.0771591725
 20
-3.9003378122
 30
0.0
 11
309.0771591725
 21
-3.9003378122
 31
0.0
  0
LINE
  5
248
330
1F
100
AcDbEntity
  8
0
  6
CONTINUOUS
 62
     7
100
AcDbLine
 10
309.0771591725
 20
38.0996621878
 30
0.0
 11
314.0771591725
 21
38.0996621878
 31
0.0
  0
LINE
  5
249
330
1F
100
AcDbEntity
  8
0
  6
CONTINUOUS
 62
     7
100
AcDbLine
 10
309.0771591725
 20
-3.9003378122
 30
0.0
 11
309.0771591725
 21
38.0996621878
 31
0.0
  0
LINE
  5
24A
330
1F
100
AcDbEntity
  8
0
  6
CONTINUOUS
 62
     7
100
AcDbLine
 10
314.0771591725
 20
38.0996621878
 30
0.0
 11
314.0771591725
 21
-3.9003378122
 31
0.0
  0
SPLINE
  5
24B
330
1F
100
AcDbEntity
  8
0
  6
CONTINUOUS
 62
     7
100
AcDbSpline
210
0.0
220
0.0
230
1.0
 70
     8
 71
     3
 72
    13
 73
     9
 74
     0
 42
0.00000001
 43
0.00000001
 12
1.0
 22
0.0
 32
0.0
 13
1.0
 23
0.0
 33
0.0
 40
0.0
 40
0.0
 40
0.0
 40
0.0
 40
0.1711350938178822
 40
0.3418242642637646
 40
0.5235231871316783
 40
0.7346287254306689
 40
0.9968674587443728
 40
1.0
 40
1.0
 40
1.0
 40
1.0
 10
315.5771591725092
 20
0.0996621877775508
 30
0.0
 10
315.4290311946187
 20
0.086705950516526
 30
0.0
 10
315.1331612130169
 20
0.0608272358088857
 30
0.0
 10
314.7349711363039
 20
-0.1359010752820453
 30
0.0
 10
314.3997487943165
 20
-0.4336833736132348
 30
0.0
 10
314.1446906016583
 20
-0.8609661331066207
 30
0.0
 10
314.07744883639
 20
-1.206666673462482
 30
0.0
 10
314.0771625519176
 20
-1.398078317956693
 30
0.0
 10
314.0771591725092
 20
-1.400337812222451
 30
0.0
  0
SPLINE
  5
24C
330
1F
100
AcDbEntity
  8
0
  6
CONTINUOUS
 62
     7
100
AcDbSpline
210
0.0
220
0.0
230
1.0
 70
     8
 71
     3
 72
    13
 73
     9
 74
     0
 42
0.00000001
 43
0.00000001
 12
1.0
 22
0.0
 32
0.0
 13
1.0
 23
0.0
 33
0.0
 40
0.0
 40
0.0
 40
0.0
 40
0.0
 40
0.1564749921329289
 40
0.3123896137400474
 40
0.5189878509272541
 40
0.7817908134946076
 40
0.9970900847928307
 40
1.0
 40
1.0
 40
1.0
 40
1.0
 10
315.5771591725093
 20
24.09966218777758
 30
0.0
 10
315.4359300454872
 20
24.11151009270231
 30
0.0
 10
315.1539775632544
 20
24.13516347266173
 30
0.0
 10
314.744555540424
 20
24.3263814062675
 30
0.0
 10
314.3683000222553
 20
24.65699036514049
 30
0.0
 10
314.1296989096758
 20
25.10732238995428
 30
0.0
 10
314.0773694078824
 20
25.44464705490503
 30
0.0
 10
314.0771619391952
 20
25.59762219716167
 30
0.0
 10
314.0771591725092
 20
25.59966218777755
 30
0.0
  0
SPLINE
  5
24D
330
1F
100
AcDbEntity
  8
0
  6
CONTINUOUS
 62
     7
100
AcDbSpline
210
0.0
220
0.0
230
1.0
 70
     8
 71
     3
 72
    26
 73
    22
 74
     0
 42
0.00000001
 43
0.00000001
 12
1.0
 22
0.0
 32
0.0
 13
1.0
 23
0.0
 33
0.0
 40
0.0
 40
0.0
 40
0.0
 40
0.0
 40
0.0501493195426592
 40
0.1018232215856835
 40
0.1519546533767034
 40
0.2034269040433117
 40
0.2557895104485625
 40
0.3095292473478846
 40
0.3644107683408817
 40
0.420931805184324
 40
0.4748349058906204
 40
0.5304545243685651
 40
0.5818912418671929
 40
0.634865885846496
 40
0.68562222311539
 40
0.737787993283583
 40
0.7897067413672696
 40
0.8430777401920904
 40
0.8958828124664882
 40
0.9502508634123071
 40
1.0
 40
1.0
 40
1.0
 40
1.0
 10
327.0771591725093
 20
0.0996621877775508
 30
0.0
 10
327.7123127527465
 20
0.1289358389855652
 30
0.0
 10
329.001929129025
 20
0.1883730856074295
 30
0.0
 10
330.8695793382896
 20
0.664316698966324
 30
0.0
 10
332.642733956114
 20
1.410572326032224
 30
0.0
 10
334.2714141288293
 20
2.43083085828746
 30
0.0
 10
335.7423007032407
 20
3.720410728454592
 30
0.0
 10
337.0082834915675
 20
5.263639198891543
 30
0.0
 10
338.0270030959691
 20
7.045647604207526
 30
0.0
 10
338.7289648464983
 20
8.989845616508621
 30
0.0
 10
339.0906263006516
 20
11.04739593355934
 30
0.0
 10
339.0941694827122
 20
13.08569197387484
 30
0.0
 10
338.7554240283496
 20
15.08895626283897
 30
0.0
 10
338.110751209688
 20
16.9535931232612
 30
0.0
 10
337.1667062101993
 20
18.69339817168814
 30
0.0
 10
335.9629109738322
 20
20.2450017695676
 30
0.0
 10
334.4991093981746
 20
21.59913976034493
 30
0.0
 10
332.8243811858518
 20
22.69902037261799
 30
0.0
 10
330.9600393206333
 20
23.51093313460607
 30
0.0
 10
329.0255709012037
 20
24.01034332794976
 30
0.0
 10
327.707133286556
 20
24.07078298901324
 30
0.0
 10
327.0771591725093
 20
24.09966218777755
 30
0.0
  0
LINE
  5
24E
330
1F
100
AcDbEntity
  8
0
  6
CONTINUOUS
 62
     7
100
AcDbLine
 10
327.0771591725
 20
0.0996621878
 30
0.0
 11
315.5771591725
 21
0.0996621878
 31
0.0
  0
LINE
  5
24F
330
1F
100
AcDbEntity
  8
0
  6
CONTINUOUS
 62
     7
100
AcDbLine
 10
327.0771591725
 20
24.0996621878
 30
0.0
 11
315.5771591725
 21
24.0996621878
 31
0.0
  0
LINE
  5
250
330
1F
100
AcDbEntity
  8
0
  6
CONTINUOUS
 62
     7
100
AcDbLine
 10
314.2771591725
 20
-3.9003378122
 30
0.0
 11
314.2771591725
 21
-0.6520063349
 31
0.0
  0
LINE
  5
251
330
1F
100
AcDbEntity
  8
0
  6
CONTINUOUS
 62
     7
100
AcDbLine
 10
314.2771591725
 20
-3.9003378122
 30
0.0
 11
314.0771591725
 21
-3.9003378122
 31
0.0
  0
CIRCLE
  5
252
330
1F
100
AcDbEntity
  8
0
  6
CONTINUOUS
 62
     7
100
AcDbCircle
 10
351.4771591725
 20
18.8492945606
 30
0.0
 40
3.995000000000009
  0
LINE
  5
253
330
1F
100
AcDbEntity
  8
0
  6
CONTINUOUS
 62
     7
100
AcDbLine
 10
389.4084073329
 20
36.8492945606
 30
0.0
 11
404.9771591725
 21
36.8492945606
 31
0.0
  0
LINE
  5
254
330
1F
100
AcDbEntity
  8
0
  6
CONTINUOUS
 62
     7
100
AcDbLine
 10
385.9771591725
 20
36.8492945606
 30
0.0
 11
389.4084073329
 21
36.8492945606
 31
0.0
  0
LINE
  5
255
330
1F
100
AcDbEntity
  8
0
  6
CONTINUOUS
 62
     7
100
AcDbLine
 10
348.5863481993
 20
36.8492945606
 30
0.0
 11
359.9771591725
 21
36.8492945606
 31
0.0
  0
LINE
  5
256
330
1F
100
AcDbEntity
  8
0
  6
CONTINUOUS
 62
     7
100
AcDbLine
 10
340.9771591725
 20
36.8492945606
 30
0.0
 11
348.5863481993
 21
36.8492945606
 31
0.0
  0
LINE
  5
257
330
1F
100
AcDbEntity
  8
0
  6
CONTINUOUS
 62
     7
100
AcDbLine
 10
316.9771591725
 20
27.8492945606
 30
0.0
 11
316.9771591725
 21
29.8492945606
 31
0.0
  0
LINE
  5
258
330
1F
100
AcDbEntity
  8
0
  6
CONTINUOUS
 62
     7
100
AcDbLine
 10
316.9771591725
 20
29.8492945606
 30
0.0
 11
321.9771591725
 21
29.8492945606
 31
0.0
  0
LINE
  5
259
330
1F
100
AcDbEntity
  8
0
  6
CONTINUOUS
 62
     7
100
AcDbLine
 10
413.9495009204
 20
29.8492945606
 30
0.0
 11
418.861341866
 21
29.8492945606
 31
0.0
  0
LINE
  5
25A
330
1F
100
AcDbEntity
  8
0
  6
CONTINUOUS
 62
     7
100
AcDbLine
 10
321.9771591725
 20
29.8492945606
 30
0.0
 11
413.9495009204
 21
29.8492945606
 31
0.0
  0
LINE
  5
25B
330
1F
100
AcDbEntity
  8
0
  6
CONTINUOUS
 62
     7
100
AcDbLine
 10
418.861341866
 20
29.8492945606
 30
0.0
 11
420.9771591725
 21
29.8492945606
 31
0.0
  0
LINE
  5
25C
330
1F
100
AcDbEntity
  8
0
  6
CONTINUOUS
 62
     7
100
AcDbLine
 10
418.2836230347
 20
43.3492945606
 30
0.0
 11
332.4771591725
 21
43.3492945606
 31
0.0
  0
LINE
  5
25D
330
1F
100
AcDbEntity
  8
0
  6
CONTINUOUS
 62
     7
100
AcDbLine
 10
332.4771591725
 20
43.3492945606
 30
0.0
 11
332.4771591725
 21
46.8196199828
 31
0.0
  0
SPLINE
  5
25E
330
1F
100
AcDbEntity
  8
0
  6
CONTINUOUS
 62
     7
100
AcDbSpline
210
0.0
220
0.0
230
1.0
 70
     8
 71
     3
 72
    11
 73
     7
 74
     0
 42
0.00000001
 43
0.00000001
 12
1.0
 22
0.0
 32
0.0
 13
1.0
 23
0.0
 33
0.0
 40
0.0
 40
0.0
 40
0.0
 40
0.0
 40
0.2468625956554725
 40
0.4949699021238318
 40
0.7468579603354177
 40
1.0
 40
1.0
 40
1.0
 40
1.0
 10
420.2698430151303
 20
46.81961998279903
 30
0.0
 10
420.1349422515239
 20
46.63741012489619
 30
0.0
 10
419.8644605384829
 20
46.27207168513505
 30
0.0
 10
419.3868928682883
 20
45.48406462216963
 30
0.0
 10
418.8634646138076
 20
44.53370960150084
 30
0.0
 10
418.4772232381014
 20
43.74475256336031
 30
0.0
 10
418.2836230347467
 20
43.34929456059471
 30
0.0
  0
LINE
  5
25F
330
1F
100
AcDbEntity
  8
0
  6
CONTINUOUS
 62
     7
100
AcDbLine
 10
418.2836230347
 20
37.8492945606
 30
0.0
 11
332.4771591725
 21
37.8492945606
 31
0.0
  0
LINE
  5
260
330
1F
100
AcDbEntity
  8
0
  6
CONTINUOUS
 62
     7
100
AcDbLine
 10
332.4771591725
 20
37.8492945606
 30
0.0
 11
332.4771591725
 21
43.3492945606
 31
0.0
  0
LINE
  5
261
330
1F
100
AcDbEntity
  8
0
  6
CONTINUOUS
 62
     7
100
AcDbLine
 10
418.2836230347
 20
37.8492945606
 30
0.0
 11
418.2836230347
 21
43.3492945606
 31
0.0
  0
SPLINE
  5
262
330
1F
100
AcDbEntity
  8
0
  6
CONTINUOUS
 62
     7
100
AcDbSpline
210
0.0
220
0.0
230
1.0
 70
     8
 71
     3
 72
    12
 73
     8
 74
     0
 42
0.00000001
 43
0.00000001
 12
1.0
 22
0.0
 32
0.0
 13
1.0
 23
0.0
 33
0.0
 40
0.0
 40
0.0
 40
0.0
 40
0.0
 40
0.1070439998753728
 40
0.2958863296376532
 40
0.4850837719769828
 40
0.742106881933964
 40
1.0
 40
1.0
 40
1.0
 40
1.0
 10
421.4665969744036
 20
48.33595245892287
 30
0.0
 10
421.4679981072939
 20
48.33772224006025
 30
0.0
 10
421.4718710573775
 20
48.3426141914598
 30
0.0
 10
421.382465784662
 20
48.22968059058915
 30
0.0
 10
421.182871622406
 20
47.97732792851053
 30
0.0
 10
420.8405509019844
 20
47.54423607602288
 30
0.0
 10
420.4602931399774
 20
47.06143059835127
 30
0.0
 10
420.2698430151303
 20
46.81961998279901
 30
0.0
  0
LINE
  5
263
330
1F
100
AcDbEntity
  8
0
  6
CONTINUOUS
 62
     7
100
AcDbLine
 10
418.2836230347
 20
37.8492945606
 30
0.0
 11
421.4771591725
 21
37.8492945606
 31
0.0
  0
LINE
  5
264
330
1F
100
AcDbEntity
  8
0
  6
CONTINUOUS
 62
     7
100
AcDbLine
 10
332.4771591725
 20
46.8196199828
 30
0.0
 11
332.4771591725
 21
48.3492945606
 31
0.0
  0
LINE
  5
265
330
1F
100
AcDbEntity
  8
0
  6
CONTINUOUS
 62
     7
100
AcDbLine
 10
421.4771591725
 20
24.5492945606
 30
0.0
 11
421.4771591725
 21
-0.8507054394
 31
0.0
  0
LINE
  5
266
330
1F
100
AcDbEntity
  8
0
  6
CONTINUOUS
 62
     7
100
AcDbLine
 10
353.1985091363
 20
19.041529579
 30
0.0
 11
352.1713537449
 21
20.4361448672
 31
0.0
  0
LINE
  5
267
330
1F
100
AcDbEntity
  8
0
  6
CONTINUOUS
 62
     7
100
AcDbLine
 10
352.1713537449
 20
20.4361448672
 30
0.0
 11
350.4500037812
 21
20.2439098488
 31
0.0
  0
LINE
  5
268
330
1F
100
AcDbEntity
  8
0
  6
CONTINUOUS
 62
     7
100
AcDbLine
 10
350.4500037812
 20
20.2439098488
 30
0.0
 11
349.7558092088
 21
18.6570595421
 31
0.0
  0
LINE
  5
269
330
1F
100
AcDbEntity
  8
0
  6
CONTINUOUS
 62
     7
100
AcDbLine
 10
349.7558092088
 20
18.6570595421
 30
0.0
 11
350.7829646001
 21
17.262444254
 31
0.0
  0
LINE
  5
26A
330
1F
100
AcDbEntity
  8
0
  6
CONTINUOUS
 62
     7
100
AcDbLine
 10
350.7829646001
 20
17.262444254
 30
0.0
 11
352.5043145639
 21
17.4546792724
 31
0.0
  0
LINE
  5
26B
330
1F
100
AcDbEntity
  8
0
  6
CONTINUOUS
 62
     7
100
AcDbLine
 10
352.5043145639
 20
17.4546792724
 30
0.0
 11
353.1985091363
 21
19.041529579
 31
0.0
  0
CIRCLE
  5
26C
330
1F
100
AcDbEntity
  8
0
  6
CONTINUOUS
 62
     7
100
AcDbCircle
 10
351.4771591725
 20
18.8492945606
 30
0.0
 40
3.599999999963963
  0
CIRCLE
  5
26D
330
1F
100
AcDbEntity
  8
0
  6
CONTINUOUS
 62
     7
100
AcDbCircle
 10
351.4771591725
 20
18.8492945606
 30
0.0
 40
3.899999999999935
  0
ARC
  5
26E
330
1F
100
AcDbEntity
  8
0
  6
CONTINUOUS
 62
     7
100
AcDbCircle
 10
351.4771591725
 20
18.8492945606
 30
0.0
 40
1.499999999999011
100
AcDbArc
 50
216.3722114304
 51
276.3722114304
  0
ARC
  5
26F
330
1F
100
AcDbEntity
  8
0
  6
CONTINUOUS
 62
     7
100
AcDbCircle
 10
351.4771591725
 20
18.8492945606
 30
0.0
 40
1.49999999999985
100
AcDbArc
 50
96.3722114304
 51
156.3722114304
  0
ARC
  5
270
330
1F
100
AcDbEntity
  8
0
  6
CONTINUOUS
 62
     7
100
AcDbCircle
 10
351.4771591725
 20
18.8492945606
 30
0.0
 40
1.49999999999985
100
AcDbArc
 50
156.3722114304
 51
216.3722114304
  0
ARC
  5
271
330
1F
100
AcDbEntity
  8
0
  6
CONTINUOUS
 62
     7
100
AcDbCircle
 10
351.4771591725
 20
18.8492945606
 30
0.0
 40
1.499999999999077
100
AcDbArc
 50
336.3722114304
 51
36.3722114304
  0
ARC
  5
272
330
1F
100
AcDbEntity
  8
0
  6
CONTINUOUS
 62
     7
100
AcDbCircle
 10
351.4771591725
 20
18.8492945606
 30
0.0
 40
1.499999999999069
100
AcDbArc
 50
276.3722114304
 51
336.3722114304
  0
ARC
  5
273
330
1F
100
AcDbEntity
  8
0
  6
CONTINUOUS
 62
     7
100
AcDbCircle
 10
351.4771591725
 20
18.8492945606
 30
0.0
 40
1.499999999999077
100
AcDbArc
 50
36.3722114304
 51
96.3722114304
  0
CIRCLE
  5
274
330
1F
100
AcDbEntity
  8
0
  6
CONTINUOUS
 62
     7
100
AcDbCircle
 10
351.4771591725
 20
18.8492945606
 30
0.0
 40
4.500000000000014
  0
CIRCLE
  5
275
330
1F
100
AcDbEntity
  8
0
  6
CONTINUOUS
 62
     7
100
AcDbCircle
 10
351.4771591725
 20
18.8492945606
 30
0.0
 40
4.0
  0
LINE
  5
276
330
1F
100
AcDbEntity
  8
0
  6
CONTINUOUS
 62
     7
100
AcDbLine
 10
421.4771591725
 20
26.8492945606
 30
0.0
 11
418.2836230347
 21
26.8492945606
 31
0.0
  0
SPLINE
  5
277
330
1F
100
AcDbEntity
  8
0
  6
CONTINUOUS
 62
     7
100
AcDbSpline
210
0.0
220
0.0
230
1.0
 70
     8
 71
     3
 72
    12
 73
     8
 74
     0
 42
0.00000001
 43
0.00000001
 12
1.0
 22
0.0
 32
0.0
 13
1.0
 23
0.0
 33
0.0
 40
0.0
 40
0.0
 40
0.0
 40
0.0
 40
0.1232101115139063
 40
0.3705325430980504
 40
0.6211456661557525
 40
0.8116093205336476
 40
1.0
 40
1.0
 40
1.0
 40
1.0
 10
418.4592328928937
 20
0.1496901943105824
 30
0.0
 10
418.6931085634436
 20
-0.1066230023842665
 30
0.0
 10
419.3964481344643
 20
-0.8774394510830605
 30
0.0
 10
420.3271711348385
 20
-1.895234592928612
 30
0.0
 10
421.03348784331
 20
-2.666611062082026
 30
0.0
 10
421.4137232996785
 20
-3.081506956489434
 30
0.0
 10
421.4549836561258
 20
-3.126515287492353
 30
0.0
 10
421.4755009523311
 20
-3.148896317090852
 30
0.0
  0
SPLINE
  5
278
330
1F
100
AcDbEntity
  8
0
  6
CONTINUOUS
 62
     7
100
AcDbSpline
210
0.0
220
0.0
230
1.0
 70
     8
 71
     3
 72
    11
 73
     7
 74
     0
 42
0.00000001
 43
0.00000001
 12
1.0
 22
0.0
 32
0.0
 13
1.0
 23
0.0
 33
0.0
 40
0.0
 40
0.0
 40
0.0
 40
0.0
 40
0.2468766919627872
 40
0.493649213990578
 40
0.7433799874467779
 40
1.0
 40
1.0
 40
1.0
 40
1.0
 10
418.2836230347456
 20
1.119686597640422
 30
0.0
 10
418.2861284260111
 20
1.009330201863456
 30
0.0
 10
418.291138151389
 20
0.7886639753314426
 30
0.0
 10
418.3300499172507
 20
0.4960037388680727
 30
0.0
 10
418.3868390354521
 20
0.2620850335918953
 30
0.0
 10
418.4348837138157
 20
0.1874934301901512
 30
0.0
 10
418.4592328928938
 20
0.1496901943105963
 30
0.0
  0
LINE
  5
279
330
1F
100
AcDbEntity
  8
0
  6
CONTINUOUS
 62
     7
100
AcDbLine
 10
418.2836230347
 20
26.8492945606
 30
0.0
 11
418.2836230347
 21
1.1196865976
 31
0.0
  0
LWPOLYLINE
  5
27A
330
1F
100
AcDbEntity
  8
0
  6
CONTINUOUS
 62
     7
100
AcDbPolyline
 90
       19
 70
   128
 43
0.0
 10
421.4769989682
 20
-1.467875151
 10
421.477158269
 20
-1.4693033463
 10
421.4485851977
 20
-1.2148169608
 10
421.3674892205
 20
-0.4504381843
 10
421.2462883355
 20
0.7794715301
 10
421.1037204101
 20
2.4363654374
 10
420.9603574136
 20
4.4559226834
 10
420.8395161437
 20
6.754399013
 10
420.7580248007
 20
9.2573714303
 10
420.7298680354
 20
11.8563864109
 10
420.7583185221
 20
14.4547351948
 10
420.8401105811
 20
16.9579883049
 10
420.9611386371
 20
19.255439154
 10
421.1045872394
 20
21.2731470575
 10
421.2470920954
 20
22.9275961576
 10
421.3680861431
 20
24.1547986425
 10
421.4488356758
 20
24.9151056277
 10
421.4771591725
 20
25.1679005438
 10
421.4771591725
 20
25.1679005438
  0
LINE
  5
27B
330
1F
100
AcDbEntity
  8
0
  6
CONTINUOUS
 62
     7
100
AcDbLine
 10
316.4771591725
 20
24.0996621878
 30
0.0
 11
316.4771591725
 21
26.8492945606
 31
0.0
  0
LINE
  5
27C
330
1F
100
AcDbEntity
  8
0
  6
CONTINUOUS
 62
     7
100
AcDbLine
 10
418.2836230347
 20
26.8492945606
 30
0.0
 11
316.4771591725
 21
26.8492945606
 31
0.0
  0
SPLINE
  5
27D
330
1F
100
AcDbEntity
  8
0
  6
CONTINUOUS
 62
     7
100
AcDbSpline
210
0.0
220
0.0
230
1.0
 70
     8
 71
     3
 72
    15
 73
    11
 74
     0
 42
0.00000001
 43
0.00000001
 12
1.0
 22
0.0
 32
0.0
 13
1.0
 23
0.0
 33
0.0
 40
0.0
 40
0.0
 40
0.0
 40
0.0
 40
0.022332494873639
 40
0.1042748933196739
 40
0.1863241373956656
 40
0.2701766796698387
 40
0.4517144551832645
 40
0.6337313494860076
 40
0.8166982691667927
 40
1.0
 40
1.0
 40
1.0
 40
1.0
 10
330.227980636982
 20
-3.146100123169481
 30
0.0
 10
330.2365819392308
 20
-3.147443345430164
 30
0.0
 10
330.2767431428708
 20
-3.153715119306281
 30
0.0
 10
330.0378752108957
 20
-3.116957326673338
 30
0.0
 10
329.5768629310539
 20
-3.035048602544312
 30
0.0
 10
328.7019440857924
 20
-2.851516233682495
 30
0.0
 10
327.3790057003358
 20
-2.490944826198875
 30
0.0
 10
325.6787411521054
 20
-1.835672863208133
 30
0.0
 10
323.968322835934
 20
-0.9815853732831405
 30
0.0
 10
322.8723984920978
 20
-0.2276313947461098
 30
0.0
 10
322.3239354205094
 20
0.1496901943128445
 30
0.0
  0
LINE
  5
27E
330
1F
100
AcDbEntity
  8
0
  6
CONTINUOUS
 62
     7
100
AcDbLine
 10
388.5771591725
 20
37.3492945606
 30
0.0
 11
402.3771591725
 21
37.3492945606
 31
0.0
  0
LINE
  5
27F
330
1F
100
AcDbEntity
  8
0
  6
CONTINUOUS
 62
     7
100
AcDbLine
 10
343.5771591725
 20
37.3492945606
 30
0.0
 11
357.3771591725
 21
37.3492945606
 31
0.0
  0
LINE
  5
280
330
1F
100
AcDbEntity
  8
0
  6
CONTINUOUS
 62
     8
100
AcDbLine
 10
494.7933449393
 20
-20.3010294112
 30
0.0
 11
487.2696647313
 21
-20.3010294112
 31
0.0
  0
LINE
  5
281
330
1F
100
AcDbEntity
  8
0
  6
CONTINUOUS
 62
     8
100
AcDbLine
 10
539.7696647313
 20
-20.3010294112
 30
0.0
 11
494.7933449393
 21
-20.3010294112
 31
0.0
  0
LINE
  5
282
330
1F
100
AcDbEntity
  8
0
  6
CONTINUOUS
 62
     8
100
AcDbLine
 10
502.5041825007
 20
4.6140487123
 30
0.0
 11
498.0784882607
 21
4.6140487123
 31
0.0
  0
LINE
  5
283
330
1F
100
AcDbEntity
  8
0
  6
CONTINUOUS
 62
     8
100
AcDbLine
 10
528.9608412019
 20
4.6140487123
 30
0.0
 11
502.5041825007
 21
4.6140487123
 31
0.0
  0
LINE
  5
284
330
1F
100
AcDbEntity
  8
0
  6
CONTINUOUS
 62
     8
100
AcDbLine
 10
503.8889859811
 20
6.6131834732
 30
0.0
 11
500.0196647313
 21
6.6131834732
 31
0.0
  0
LINE
  5
285
330
1F
100
AcDbEntity
  8
0
  6
CONTINUOUS
 62
     8
100
AcDbLine
 10
527.0196647313
 20
6.6131834732
 30
0.0
 11
503.8889859811
 21
6.6131834732
 31
0.0
  0
LINE
  5
286
330
1F
100
AcDbEntity
  8
0
  6
CONTINUOUS
 62
     8
100
AcDbLine
 10
502.8189105644
 20
24.7857862337
 30
0.0
 11
498.5196647313
 21
24.7857862337
 31
0.0
  0
LINE
  5
287
330
1F
100
AcDbEntity
  8
0
  6
CONTINUOUS
 62
     8
100
AcDbLine
 10
528.5196647313
 20
24.7857862337
 30
0.0
 11
502.8189105644
 21
24.7857862337
 31
0.0
  0
LINE
  5
288
330
1F
100
AcDbEntity
  8
0
  6
CONTINUOUS
 62
     8
100
AcDbLine
 10
487.2696647313
 20
83.9996185324
 30
0.0
 11
539.7696647313
 21
83.9996185324
 31
0.0
  0
LINE
  5
289
330
1F
100
AcDbEntity
  8
0
  6
CONTINUOUS
 62
     8
100
AcDbLine
 10
498.0784882607
 20
59.0845404089
 30
0.0
 11
528.9608412019
 21
59.0845404089
 31
0.0
  0
LINE
  5
28A
330
1F
100
AcDbEntity
  8
0
  6
CONTINUOUS
 62
     8
100
AcDbLine
 10
500.0196647313
 20
57.0854056479
 30
0.0
 11
527.0196647313
 21
57.0854056479
 31
0.0
  0
LINE
  5
28B
330
1F
100
AcDbEntity
  8
0
  6
CONTINUOUS
 62
     8
100
AcDbLine
 10
498.5196647313
 20
38.9128028875
 30
0.0
 11
528.5196647313
 21
38.9128028875
 31
0.0
  0
LINE
  5
28C
330
1F
100
AcDbEntity
  8
0
  6
CONTINUOUS
 62
     8
100
AcDbLine
 10
413.9495009204
 20
26.8492945606
 30
0.0
 11
413.9495009204
 21
27.8492945606
 31
0.0
  0
LINE
  5
28D
330
1F
100
AcDbEntity
  8
0
  6
CONTINUOUS
 62
     8
100
AcDbLine
 10
321.9771591725
 20
27.8492945606
 30
0.0
 11
321.9771591725
 21
26.8492945606
 31
0.0
  0
LINE
  5
28E
330
1F
100
AcDbEntity
  8
0
  6
CONTINUOUS
 62
     8
100
AcDbLine
 10
418.861341866
 20
27.8492945606
 30
0.0
 11
418.861341866
 21
26.8492945606
 31
0.0
  0
LINE
  5
28F
330
1F
100
AcDbEntity
  8
0
  6
CONTINUOUS
 62
     8
100
AcDbLine
 10
315.5771591725
 20
24.0996621878
 30
0.0
 11
315.5771591725
 21
0.0996621878
 31
0.0
  0
LINE
  5
290
330
1F
100
AcDbEntity
  8
0
  6
CONTINUOUS
 62
     8
100
AcDbLine
 10
321.9771591725
 20
29.8492945606
 30
0.0
 11
321.9771591725
 21
27.8492945606
 31
0.0
  0
LINE
  5
291
330
1F
100
AcDbEntity
  8
0
  6
CONTINUOUS
 62
     8
100
AcDbLine
 10
413.9495009204
 20
27.8492945606
 30
0.0
 11
413.9495009204
 21
29.8492945606
 31
0.0
  0
LINE
  5
292
330
1F
100
AcDbEntity
  8
0
  6
CONTINUOUS
 62
     8
100
AcDbLine
 10
418.861341866
 20
29.8492945606
 30
0.0
 11
418.861341866
 21
27.8492945606
 31
0.0
  0
LINE
  5
293
330
1F
100
AcDbEntity
  8
0
  6
CONTINUOUS
 62
     8
100
AcDbLine
 10
420.2698430151
 20
46.8196199828
 30
0.0
 11
332.4771591725
 21
46.8196199828
 31
0.0
  0
LINE
  5
294
330
1F
100
AcDbEntity
  8
0
  6
CONTINUOUS
 62
     8
100
AcDbLine
 10
421.1771591725
 20
1.4789067066
 30
0.0
 11
421.1771591725
 21
22.156838353
 31
0.0
  0
LINE
  5
295
330
1F
100
AcDbEntity
  8
0
  6
CONTINUOUS
 62
     8
100
AcDbLine
 10
331.8273947214
 20
1.1196865976
 30
0.0
 11
418.2836230347
 21
1.1196865976
 31
0.0
  0
LINE
  5
296
330
1F
100
AcDbEntity
  8
0
  6
CONTINUOUS
 62
     8
100
AcDbLine
 10
418.4592328929
 20
0.1496901943
 30
0.0
 11
327.7063762568
 21
0.1496901943
 31
0.0
  0
CIRCLE
  5
297
330
1F
100
AcDbEntity
  8
0
  6
CONTINUOUS
 62
     7
100
AcDbCircle
 10
513.5196647313
 20
316.5502243385
 30
0.0
 40
30.00000000000015
  0
LINE
  5
298
330
1F
100
AcDbEntity
  8
0
  6
CONTINUOUS
 62
     7
100
AcDbLine
 10
309.0771591725
 20
182.0660092914
 30
0.0
 11
314.0771591725
 21
182.0660092914
 31
0.0
  0
LINE
  5
299
330
1F
100
AcDbEntity
  8
0
  6
CONTINUOUS
 62
     7
100
AcDbLine
 10
314.0771591725
 20
292.0660092914
 30
0.0
 11
309.0771591725
 21
292.0660092914
 31
0.0
  0
ARC
  5
29A
330
1F
100
AcDbEntity
  8
0
  6
CONTINUOUS
 62
     7
100
AcDbCircle
 10
315.5771591725
 20
193.5660092914
 30
0.0
 40
1.500000000000057
100
AcDbArc
 50
90.0
 51
180.0
  0
ARC
  5
29B
330
1F
100
AcDbEntity
  8
0
  6
CONTINUOUS
 62
     7
100
AcDbCircle
 10
315.5771591725
 20
280.5660092914
 30
0.0
 40
1.500000000000057
100
AcDbArc
 50
180.0
 51
270.0
  0
LINE
  5
29C
330
1F
100
AcDbEntity
  8
0
  6
CONTINUOUS
 62
     7
100
AcDbLine
 10
339.0771591725
 20
195.2683285285
 30
0.0
 11
339.0771591725
 21
208.9660092914
 31
0.0
  0
LINE
  5
29D
330
1F
100
AcDbEntity
  8
0
  6
CONTINUOUS
 62
     7
100
AcDbLine
 10
315.5771591725
 20
195.0660092914
 30
0.0
 11
338.3488033854
 21
195.0660092914
 31
0.0
  0
LINE
  5
29E
330
1F
100
AcDbEntity
  8
0
  6
CONTINUOUS
 62
     7
100
AcDbLine
 10
339.0771591725
 20
265.1660092914
 30
0.0
 11
339.0771591725
 21
278.861785033
 31
0.0
  0
LINE
  5
29F
330
1F
100
AcDbEntity
  8
0
  6
CONTINUOUS
 62
     7
100
AcDbLine
 10
338.346541415
 20
279.0660092914
 30
0.0
 11
315.5771591725
 21
279.0660092914
 31
0.0
  0
LINE
  5
2A0
330
1F
100
AcDbEntity
  8
0
  6
CONTINUOUS
 62
     7
100
AcDbLine
 10
309.0771591725
 20
337.0660092914
 30
0.0
 11
314.0771591725
 21
337.0660092914
 31
0.0
  0
LINE
  5
2A1
330
1F
100
AcDbEntity
  8
0
  6
CONTINUOUS
 62
     7
100
AcDbLine
 10
314.0771591725
 20
447.0660092914
 30
0.0
 11
309.0771591725
 21
447.0660092914
 31
0.0
  0
ARC
  5
2A2
330
1F
100
AcDbEntity
  8
0
  6
CONTINUOUS
 62
     7
100
AcDbCircle
 10
315.5771591725
 20
348.5660092914
 30
0.0
 40
1.500000000000057
100
AcDbArc
 50
90.0
 51
180.0
  0
ARC
  5
2A3
330
1F
100
AcDbEntity
  8
0
  6
CONTINUOUS
 62
     7
100
AcDbCircle
 10
315.5771591725
 20
435.5660092914
 30
0.0
 40
1.500000000000057
100
AcDbArc
 50
180.0
 51
270.0
  0
LINE
  5
2A4
330
1F
100
AcDbEntity
  8
0
  6
CONTINUOUS
 62
     7
100
AcDbLine
 10
339.0771591725
 20
350.2683285285
 30
0.0
 11
339.0771591725
 21
363.9660092914
 31
0.0
  0
LINE
  5
2A5
330
1F
100
AcDbEntity
  8
0
  6
CONTINUOUS
 62
     7
100
AcDbLine
 10
315.5771591725
 20
350.0660092914
 30
0.0
 11
338.3488033854
 21
350.0660092914
 31
0.0
  0
LINE
  5
2A6
330
1F
100
AcDbEntity
  8
0
  6
CONTINUOUS
 62
     7
100
AcDbLine
 10
339.0771591725
 20
420.1660092914
 30
0.0
 11
339.0771591725
 21
433.861785033
 31
0.0
  0
LINE
  5
2A7
330
1F
100
AcDbEntity
  8
0
  6
CONTINUOUS
 62
     7
100
AcDbLine
 10
338.346541415
 20
434.0660092914
 30
0.0
 11
315.5771591725
 21
434.0660092914
 31
0.0
  0
LINE
  5
2A8
330
1F
100
AcDbEntity
  8
0
  6
CONTINUOUS
 62
     7
100
AcDbLine
 10
319.3907943338
 20
364.5660092914
 30
0.0
 11
320.6271591725
 21
364.1160092914
 31
0.0
  0
LINE
  5
2A9
330
1F
100
AcDbEntity
  8
0
  6
CONTINUOUS
 62
     7
100
AcDbLine
 10
335.4271591725
 20
364.1160092914
 30
0.0
 11
336.6635240113
 21
364.5660092914
 31
0.0
  0
LINE
  5
2AA
330
1F
100
AcDbEntity
  8
0
  6
CONTINUOUS
 62
     7
100
AcDbLine
 10
336.6635240113
 20
419.5660092914
 30
0.0
 11
335.4271591725
 21
420.0160092914
 31
0.0
  0
LINE
  5
2AB
330
1F
100
AcDbEntity
  8
0
  6
CONTINUOUS
 62
     7
100
AcDbLine
 10
320.6271591725
 20
420.0160092914
 30
0.0
 11
319.3907943338
 21
419.5660092914
 31
0.0
  0
LINE
  5
2AC
330
1F
100
AcDbEntity
  8
0
  6
CONTINUOUS
 62
     7
100
AcDbLine
 10
319.3907943338
 20
209.5660092914
 30
0.0
 11
320.6271591725
 21
209.1160092914
 31
0.0
  0
LINE
  5
2AD
330
1F
100
AcDbEntity
  8
0
  6
CONTINUOUS
 62
     7
100
AcDbLine
 10
335.4271591725
 20
209.1160092914
 30
0.0
 11
336.6635240113
 21
209.5660092914
 31
0.0
  0
LINE
  5
2AE
330
1F
100
AcDbEntity
  8
0
  6
CONTINUOUS
 62
     7
100
AcDbLine
 10
336.6635240113
 20
264.5660092914
 30
0.0
 11
335.4271591725
 21
265.0160092914
 31
0.0
  0
LINE
  5
2AF
330
1F
100
AcDbEntity
  8
0
  6
CONTINUOUS
 62
     7
100
AcDbLine
 10
320.6271591725
 20
265.0160092914
 30
0.0
 11
319.3907943338
 21
264.5660092914
 31
0.0
  0
ARC
  5
2B0
330
1F
100
AcDbEntity
  8
0
  6
CONTINUOUS
 62
     7
100
AcDbCircle
 10
310.4771591725
 20
216.0660092914
 30
0.0
 40
5.000000000000007
100
AcDbArc
 50
336.4218215218
 51
23.5781784782
  0
LINE
  5
2B1
330
1F
100
AcDbEntity
  8
0
  6
CONTINUOUS
 62
     7
100
AcDbLine
 10
315.0597348675
 20
218.0660092914
 30
0.0
 11
314.2771591725
 21
218.0660092914
 31
0.0
  0
LINE
  5
2B2
330
1F
100
AcDbEntity
  8
0
  6
CONTINUOUS
 62
     7
100
AcDbLine
 10
314.2771591725
 20
214.0660092914
 30
0.0
 11
315.0597348675
 21
214.0660092914
 31
0.0
  0
LINE
  5
2B3
330
1F
100
AcDbEntity
  8
0
  6
CONTINUOUS
 62
     7
100
AcDbLine
 10
315.0597348675
 20
415.0660092914
 30
0.0
 11
314.2771591725
 21
415.0660092914
 31
0.0
  0
LINE
  5
2B4
330
1F
100
AcDbEntity
  8
0
  6
CONTINUOUS
 62
     7
100
AcDbLine
 10
314.2771591725
 20
411.0660092914
 30
0.0
 11
315.0597348675
 21
411.0660092914
 31
0.0
  0
ARC
  5
2B5
330
1F
100
AcDbEntity
  8
0
  6
CONTINUOUS
 62
     7
100
AcDbCircle
 10
310.4771591725
 20
413.0660092914
 30
0.0
 40
4.999999999999943
100
AcDbArc
 50
336.4218215218
 51
23.5781784782
  0
ARC
  5
2B6
330
1F
100
AcDbEntity
  8
0
  6
CONTINUOUS
 62
     7
100
AcDbCircle
 10
310.4771591725
 20
371.0660092914
 30
0.0
 40
4.999999999999943
100
AcDbArc
 50
336.4218215218
 51
23.5781784782
  0
LINE
  5
2B7
330
1F
100
AcDbEntity
  8
0
  6
CONTINUOUS
 62
     7
100
AcDbLine
 10
315.0597348675
 20
373.0660092914
 30
0.0
 11
314.2771591725
 21
373.0660092914
 31
0.0
  0
LINE
  5
2B8
330
1F
100
AcDbEntity
  8
0
  6
CONTINUOUS
 62
     7
100
AcDbLine
 10
314.2771591725
 20
369.0660092914
 30
0.0
 11
315.0597348675
 21
369.0660092914
 31
0.0
  0
ARC
  5
2B9
330
1F
100
AcDbEntity
  8
0
  6
CONTINUOUS
 62
     7
100
AcDbCircle
 10
310.4771591725
 20
258.0660092914
 30
0.0
 40
4.999999999999996
100
AcDbArc
 50
336.4218215218
 51
23.5781784782
  0
LINE
  5
2BA
330
1F
100
AcDbEntity
  8
0
  6
CONTINUOUS
 62
     7
100
AcDbLine
 10
315.0597348675
 20
260.0660092914
 30
0.0
 11
314.2771591725
 21
260.0660092914
 31
0.0
  0
LINE
  5
2BB
330
1F
100
AcDbEntity
  8
0
  6
CONTINUOUS
 62
     7
100
AcDbLine
 10
314.2771591725
 20
256.0660092914
 30
0.0
 11
315.0597348675
 21
256.0660092914
 31
0.0
  0
LINE
  5
2BC
330
1F
100
AcDbEntity
  8
0
  6
CONTINUOUS
 62
     7
100
AcDbLine
 10
420.7241307106
 20
224.0660092914
 30
0.0
 11
421.1771591725
 21
224.0660092914
 31
0.0
  0
LINE
  5
2BD
330
1F
100
AcDbEntity
  8
0
  6
CONTINUOUS
 62
     7
100
AcDbLine
 10
421.1771591725
 20
250.0660092914
 30
0.0
 11
420.7246684776
 21
250.0660092914
 31
0.0
  0
ARC
  5
2BE
330
1F
100
AcDbEntity
  8
0
  6
CONTINUOUS
 62
     7
100
AcDbCircle
 10
421.1771591725
 20
249.7660092914
 30
0.0
 40
0.3000000000000398
100
AcDbArc
 50
0.0
 51
90.0
  0
ARC
  5
2BF
330
1F
100
AcDbEntity
  8
0
  6
CONTINUOUS
 62
     7
100
AcDbCircle
 10
421.1771591725
 20
224.3660092914
 30
0.0
 40
0.3000000000000114
100
AcDbArc
 50
270.0
 51
0.0
  0
LINE
  5
2C0
330
1F
100
AcDbEntity
  8
0
  6
CONTINUOUS
 62
     7
100
AcDbLine
 10
420.7241307106
 20
379.0660092914
 30
0.0
 11
421.1771591725
 21
379.0660092914
 31
0.0
  0
LINE
  5
2C1
330
1F
100
AcDbEntity
  8
0
  6
CONTINUOUS
 62
     7
100
AcDbLine
 10
421.1771591725
 20
405.0660092914
 30
0.0
 11
420.7246684776
 21
405.0660092914
 31
0.0
  0
ARC
  5
2C2
330
1F
100
AcDbEntity
  8
0
  6
CONTINUOUS
 62
     7
100
AcDbCircle
 10
421.1771591725
 20
404.7660092914
 30
0.0
 40
0.3000000000000114
100
AcDbArc
 50
0.0
 51
90.0
  0
ARC
  5
2C3
330
1F
100
AcDbEntity
  8
0
  6
CONTINUOUS
 62
     7
100
AcDbCircle
 10
421.1771591725
 20
379.3660092914
 30
0.0
 40
0.3000000000000682
100
AcDbArc
 50
270.0
 51
0.0
  0
LINE
  5
2C4
330
1F
100
AcDbEntity
  8
0
  6
CONTINUOUS
 62
     7
100
AcDbLine
 10
309.0771591725
 20
186.2329491829
 30
0.0
 11
314.0771591725
 21
186.2329491829
 31
0.0
  0
LINE
  5
2C5
330
1F
100
AcDbEntity
  8
0
  6
CONTINUOUS
 62
     7
100
AcDbLine
 10
314.0771591725
 20
186.2329491829
 30
0.0
 11
314.0771591725
 21
182.0660092914
 31
0.0
  0
LINE
  5
2C6
330
1F
100
AcDbEntity
  8
0
  6
CONTINUOUS
 62
     7
100
AcDbLine
 10
309.0771591725
 20
182.0660092914
 30
0.0
 11
309.0771591725
 21
186.2329491829
 31
0.0
  0
LINE
  5
2C7
330
1F
100
AcDbEntity
  8
0
  6
CONTINUOUS
 62
     7
100
AcDbLine
 10
314.2771591725
 20
256.0660092914
 30
0.0
 11
314.0771591725
 21
256.0660092914
 31
0.0
  0
LINE
  5
2C8
330
1F
100
AcDbEntity
  8
0
  6
CONTINUOUS
 62
     7
100
AcDbLine
 10
314.2771591725
 20
256.0660092914
 30
0.0
 11
314.2771591725
 21
255.4265648386
 31
0.0
  0
ARC
  5
2C9
330
1F
100
AcDbEntity
  8
0
  6
CONTINUOUS
 62
     7
100
AcDbCircle
 10
412.5771591725
 20
237.0660092914
 30
0.0
 40
100.0000000000001
100
AcDbArc
 50
169.4201559039
 51
190.5798440961
  0
LINE
  5
2CA
330
1F
100
AcDbEntity
  8
0
  6
CONTINUOUS
 62
     7
100
AcDbLine
 10
314.2771591725
 20
218.7054537443
 30
0.0
 11
314.2771591725
 21
218.0660092914
 31
0.0
  0
LINE
  5
2CB
330
1F
100
AcDbEntity
  8
0
  6
CONTINUOUS
 62
     7
100
AcDbLine
 10
314.2771591725
 20
218.0660092914
 30
0.0
 11
314.0771591725
 21
218.0660092914
 31
0.0
  0
LINE
  5
2CC
330
1F
100
AcDbEntity
  8
0
  6
CONTINUOUS
 62
     7
100
AcDbLine
 10
314.0771591725
 20
287.8990694
 30
0.0
 11
309.0771591725
 21
287.8990694
 31
0.0
  0
LINE
  5
2CD
330
1F
100
AcDbEntity
  8
0
  6
CONTINUOUS
 62
     7
100
AcDbLine
 10
314.0771591725
 20
256.0660092914
 30
0.0
 11
314.0771591725
 21
287.8990694
 31
0.0
  0
LINE
  5
2CE
330
1F
100
AcDbEntity
  8
0
  6
CONTINUOUS
 62
     7
100
AcDbLine
 10
314.0771591725
 20
186.2329491829
 30
0.0
 11
314.0771591725
 21
218.0660092914
 31
0.0
  0
LINE
  5
2CF
330
1F
100
AcDbEntity
  8
0
  6
CONTINUOUS
 62
     7
100
AcDbLine
 10
309.0771591725
 20
287.8990694
 30
0.0
 11
309.0771591725
 21
186.2329491829
 31
0.0
  0
SPLINE
  5
2D0
330
1F
100
AcDbEntity
  8
0
  6
CONTINUOUS
 62
     7
100
AcDbSpline
210
0.0
220
0.0
230
1.0
 70
     8
 71
     3
 72
     9
 73
     5
 74
     0
 42
0.00000001
 43
0.00000001
 12
1.0
 22
0.0
 32
0.0
 13
1.0
 23
0.0
 33
0.0
 40
0.0
 40
0.0
 40
0.0
 40
0.0
 40
0.8822701344529256
 40
1.0
 40
1.0
 40
1.0
 40
1.0
 10
314.0771591725092
 20
216.3777820085471
 30
0.0
 10
314.1100254822254
 20
216.0737980631609
 30
0.0
 10
314.1472774625799
 20
215.7292505900963
 30
0.0
 10
314.2634788041856
 20
215.3603381910852
 30
0.0
 10
314.2771591725092
 20
215.3169061839509
 30
0.0
  0
LINE
  5
2D1
330
1F
100
AcDbEntity
  8
0
  6
CONTINUOUS
 62
     7
100
AcDbLine
 10
314.2771591725
 20
215.316906184
 30
0.0
 11
314.2771591725
 21
218.0660092914
 31
0.0
  0
LINE
  5
2D2
330
1F
100
AcDbEntity
  8
0
  6
CONTINUOUS
 62
     7
100
AcDbLine
 10
314.2771591725
 20
258.8151123989
 30
0.0
 11
314.0771591725
 21
257.7542365743
 31
0.0
  0
LINE
  5
2D3
330
1F
100
AcDbEntity
  8
0
  6
CONTINUOUS
 62
     7
100
AcDbLine
 10
314.2771591725
 20
256.0660092914
 30
0.0
 11
314.2771591725
 21
258.8151123989
 31
0.0
  0
LINE
  5
2D4
330
1F
100
AcDbEntity
  8
0
  6
CONTINUOUS
 62
     7
100
AcDbLine
 10
314.0771591725
 20
292.0660092914
 30
0.0
 11
314.0771591725
 21
287.8990694
 31
0.0
  0
LINE
  5
2D5
330
1F
100
AcDbEntity
  8
0
  6
CONTINUOUS
 62
     7
100
AcDbLine
 10
309.0771591725
 20
287.8990694
 30
0.0
 11
309.0771591725
 21
292.0660092914
 31
0.0
  0
SPLINE
  5
2D6
330
1F
100
AcDbEntity
  8
0
  6
CONTINUOUS
 62
     7
100
AcDbSpline
210
0.0
220
0.0
230
1.0
 70
     8
 71
     3
 72
    13
 73
     9
 74
     0
 42
0.00000001
 43
0.00000001
 12
1.0
 22
0.0
 32
0.0
 13
1.0
 23
0.0
 33
0.0
 40
0.0
 40
0.0
 40
0.0
 40
0.0
 40
0.0031325412556273
 40
0.265371274569332
 40
0.4764768128683224
 40
0.6581757357362412
 40
0.8288649061821264
 40
1.0
 40
1.0
 40
1.0
 40
1.0
 10
314.0771591725092
 20
197.2413937879628
 30
0.0
 10
314.0771625519176
 20
197.2428689804242
 30
0.0
 10
314.0774488363875
 20
197.3678389877692
 30
0.0
 10
314.1446906016593
 20
197.5946514088211
 30
0.0
 10
314.3997487943162
 20
197.8773421875728
 30
0.0
 10
314.734971136304
 20
198.0755225509179
 30
0.0
 10
315.1331612130169
 20
198.2070177236329
 30
0.0
 10
315.4290311946186
 20
198.2243541115729
 30
0.0
 10
315.5771591725092
 20
198.2330336135473
 30
0.0
  0
SPLINE
  5
2D7
330
1F
100
AcDbEntity
  8
0
  6
CONTINUOUS
 62
     7
100
AcDbSpline
210
0.0
220
0.0
230
1.0
 70
     8
 71
     3
 72
    13
 73
     9
 74
     0
 42
0.00000001
 43
0.00000001
 12
1.0
 22
0.0
 32
0.0
 13
1.0
 23
0.0
 33
0.0
 40
0.0
 40
0.0
 40
0.0
 40
0.0
 40
0.1814225734651828
 40
0.3617657299836292
 40
0.6211307170059789
 40
0.8377930666782061
 40
0.9660096973155448
 40
0.9999999999999999
 40
0.9999999999999999
 40
0.9999999999999999
 40
0.9999999999999999
 10
315.5771591725093
 20
208.9794024167107
 30
0.0
 10
315.4403481369126
 20
209.0095475922612
 30
0.0
 10
315.1675400556628
 20
209.069658587438
 30
0.0
 10
314.782060688236
 20
209.3138602986833
 30
0.0
 10
314.4867971887479
 20
209.6520434863318
 30
0.0
 10
314.3248602621044
 20
210.033030817882
 30
0.0
 10
314.2795987722009
 20
210.315616198524
 30
0.0
 10
314.2775818223571
 20
210.4399543537991
 30
0.0
 10
314.2771591725092
 20
210.4660092914426
 30
0.0
  0
LINE
  5
2D8
330
1F
100
AcDbEntity
  8
0
  6
CONTINUOUS
 62
     7
100
AcDbLine
 10
314.2771591725
 20
215.316906184
 30
0.0
 11
314.2771591725
 21
210.4660092914
 31
0.0
  0
SPLINE
  5
2D9
330
1F
100
AcDbEntity
  8
0
  6
CONTINUOUS
 62
     7
100
AcDbSpline
210
0.0
220
0.0
230
1.0
 70
     8
 71
     3
 72
    13
 73
     9
 74
     0
 42
0.00000001
 43
0.00000001
 12
1.0
 22
0.0
 32
0.0
 13
1.0
 23
0.0
 33
0.0
 40
0.0
 40
0.0
 40
0.0
 40
0.0
 40
0.1299960892234924
 40
0.3207447405544694
 40
0.5996000914527168
 40
0.8010995389728541
 40
0.9685817181078592
 40
1.0
 40
1.0
 40
1.0
 40
1.0
 10
314.2771591725092
 20
263.6660092914425
 30
0.0
 10
314.2833621916872
 20
263.7657672192082
 30
0.0
 10
314.298667158081
 20
264.0119040903293
 30
0.0
 10
314.4452136373415
 20
264.4050517402372
 30
0.0
 10
314.7190124831246
 20
264.7689991218319
 30
0.0
 10
315.1091333175601
 20
265.029939745045
 30
0.0
 10
315.4026779416939
 20
265.1264453811688
 30
0.0
 10
315.5533578073874
 20
265.1490461523309
 30
0.0
 10
315.5771591725093
 20
265.1526161661744
 30
0.0
  0
SPLINE
  5
2DA
330
1F
100
AcDbEntity
  8
0
  6
CONTINUOUS
 62
     7
100
AcDbSpline
210
0.0
220
0.0
230
1.0
 70
     8
 71
     3
 72
    13
 73
     9
 74
     0
 42
0.00000001
 43
0.00000001
 12
1.0
 22
0.0
 32
0.0
 13
1.0
 23
0.0
 33
0.0
 40
0.0
 40
0.0
 40
0.0
 40
0.0
 40
0.1711350938178822
 40
0.3418242642637646
 40
0.5235231871316783
 40
0.7346287254306689
 40
0.9968674587443728
 40
1.0
 40
1.0
 40
1.0
 40
1.0
 10
315.5771591725092
 20
275.8989849693377
 30
0.0
 10
315.4290311946187
 20
275.9076644713122
 30
0.0
 10
315.1331612130169
 20
275.9250008592522
 30
0.0
 10
314.7349711363039
 20
276.0564960319672
 30
0.0
 10
314.3997487943165
 20
276.2546763953123
 30
0.0
 10
314.1446906016583
 20
276.5373671740642
 30
0.0
 10
314.07744883639
 20
276.7641795951155
 30
0.0
 10
314.0771625519176
 20
276.8891496024609
 30
0.0
 10
314.0771591725092
 20
276.8906247949223
 30
0.0
  0
LINE
  5
2DB
330
1F
100
AcDbEntity
  8
0
  6
CONTINUOUS
 62
     7
100
AcDbLine
 10
314.2771591725
 20
263.6660092914
 30
0.0
 11
314.2771591725
 21
258.8151123989
 31
0.0
  0
SPLINE
  5
2DC
330
1F
100
AcDbEntity
  8
0
  6
CONTINUOUS
 62
     7
100
AcDbSpline
210
0.0
220
0.0
230
1.0
 70
     8
 71
     3
 72
    19
 73
    15
 74
     0
 42
0.00000001
 43
0.00000001
 12
1.0
 22
0.0
 32
0.0
 13
1.0
 23
0.0
 33
0.0
 40
0.0
 40
0.0
 40
0.0
 40
0.0
 40
0.058298632323369
 40
0.1420648880514401
 40
0.2283054735418846
 40
0.3114744038537792
 40
0.3969069032490625
 40
0.4829447168502899
 40
0.5712790182523232
 40
0.6608917100990069
 40
0.7531465334720762
 40
0.8416423739198617
 40
0.9330738821619179
 40
1.0
 40
1.0
 40
1.0
 40
1.0
 10
338.3488033854272
 20
195.0762364793957
 30
0.0
 10
338.5007666999361
 20
195.0757764191596
 30
0.0
 10
338.8710781532802
 20
195.0746553224315
 30
0.0
 10
339.0980328266031
 20
195.1762186044442
 30
0.0
 10
339.0746260651408
 20
195.3702926494603
 30
0.0
 10
338.7222063925173
 20
195.6565657926088
 30
0.0
 10
338.0735472746804
 20
196.0138661135227
 30
0.0
 10
337.1220389348158
 20
196.4303417664655
 30
0.0
 10
335.8837923702627
 20
196.8774893078366
 30
0.0
 10
334.3637863024745
 20
197.3245068497222
 30
0.0
 10
332.6198756751954
 20
197.7225004209346
 30
0.0
 10
330.6864444752458
 20
198.0302374568389
 30
0.0
 10
328.8194112890335
 20
198.205511837185
 30
0.0
 10
327.5947383303577
 20
198.2248575879899
 30
0.0
 10
327.0771591725093
 20
198.2330336135473
 30
0.0
  0
LINE
  5
2DD
330
1F
100
AcDbEntity
  8
0
  6
CONTINUOUS
 62
     7
100
AcDbLine
 10
339.0771591725
 20
208.9660092914
 30
0.0
 11
327.0771591725
 21
208.9660092914
 31
0.0
  0
LINE
  5
2DE
330
1F
100
AcDbEntity
  8
0
  6
CONTINUOUS
 62
     7
100
AcDbLine
 10
327.0771591725
 20
198.2330336135
 30
0.0
 11
315.5771591725
 21
198.2330336135
 31
0.0
  0
LINE
  5
2DF
330
1F
100
AcDbEntity
  8
0
  6
CONTINUOUS
 62
     7
100
AcDbLine
 10
327.0771591725
 20
208.9660092914
 30
0.0
 11
315.7771591725
 21
208.9660092914
 31
0.0
  0
ARC
  5
2E0
330
1F
100
AcDbEntity
  8
0
  6
CONTINUOUS
 62
     7
100
AcDbCircle
 10
315.7771591725
 20
210.4660092914
 30
0.0
 40
1.500000000000028
100
AcDbArc
 50
262.3377443392
 51
270.0
  0
LINE
  5
2E1
330
1F
100
AcDbEntity
  8
0
  6
CONTINUOUS
 62
     7
100
AcDbLine
 10
315.7771591725
 20
265.1660092914
 30
0.0
 11
327.0771591725
 21
265.1660092914
 31
0.0
  0
LINE
  5
2E2
330
1F
100
AcDbEntity
  8
0
  6
CONTINUOUS
 62
     7
100
AcDbLine
 10
327.0771591725
 20
275.8989849693
 30
0.0
 11
315.5771591725
 21
275.8989849693
 31
0.0
  0
ARC
  5
2E3
330
1F
100
AcDbEntity
  8
0
  6
CONTINUOUS
 62
     7
100
AcDbCircle
 10
315.7771591725
 20
263.6660092914
 30
0.0
 40
1.500000000000024
100
AcDbArc
 50
90.0
 51
97.6622556608
  0
SPLINE
  5
2E4
330
1F
100
AcDbEntity
  8
0
  6
CONTINUOUS
 62
     7
100
AcDbSpline
210
0.0
220
0.0
230
1.0
 70
     8
 71
     3
 72
    19
 73
    15
 74
     0
 42
0.00000001
 43
0.00000001
 12
1.0
 22
0.0
 32
0.0
 13
1.0
 23
0.0
 33
0.0
 40
0.0
 40
0.0
 40
0.0
 40
0.0
 40
0.082082598824118
 40
0.1666605793382167
 40
0.2487139001351338
 40
0.332961824943918
 40
0.4186670519369041
 40
0.5066263164902035
 40
0.5964544120976343
 40
0.6889660081602089
 40
0.7771926607050611
 40
0.8682288476744996
 40
0.9524186130745641
 40
1.0
 40
1.0
 40
1.0
 40
1.0
 10
327.0771591725093
 20
275.8989849693377
 30
0.0
 10
327.7123127721634
 20
275.9111124219193
 30
0.0
 10
329.0019291878662
 20
275.9357360120844
 30
0.0
 10
330.8695790975938
 20
276.128712311081
 30
0.0
 10
332.6427348376565
 20
276.4172170770275
 30
0.0
 10
334.2714107114667
 20
276.7857796088587
 30
0.0
 10
335.7423138371537
 20
277.2093205466296
 30
0.0
 10
337.0082326160826
 20
277.6562559774109
 30
0.0
 10
338.0271997403611
 20
278.0937845440517
 30
0.0
 10
338.7282219819251
 20
278.4764159123138
 30
0.0
 10
339.0932887236431
 20
278.7790899641786
 30
0.0
 10
339.0841928748041
 20
278.9715438977288
 30
0.0
 10
338.8339032757416
 20
279.062048762805
 30
0.0
 10
338.4758362293524
 20
279.0571384348083
 30
0.0
 10
338.3465414149804
 20
279.0553653591979
 30
0.0
  0
LINE
  5
2E5
330
1F
100
AcDbEntity
  8
0
  6
CONTINUOUS
 62
     7
100
AcDbLine
 10
327.0771591725
 20
265.1660092914
 30
0.0
 11
339.0771591725
 21
265.1660092914
 31
0.0
  0
LINE
  5
2E6
330
1F
100
AcDbEntity
  8
0
  6
CONTINUOUS
 62
     7
100
AcDbLine
 10
309.0771591725
 20
341.2329491829
 30
0.0
 11
314.0771591725
 21
341.2329491829
 31
0.0
  0
LINE
  5
2E7
330
1F
100
AcDbEntity
  8
0
  6
CONTINUOUS
 62
     7
100
AcDbLine
 10
314.0771591725
 20
341.2329491829
 30
0.0
 11
314.0771591725
 21
337.0660092914
 31
0.0
  0
LINE
  5
2E8
330
1F
100
AcDbEntity
  8
0
  6
CONTINUOUS
 62
     7
100
AcDbLine
 10
309.0771591725
 20
337.0660092914
 30
0.0
 11
309.0771591725
 21
341.2329491829
 31
0.0
  0
LINE
  5
2E9
330
1F
100
AcDbEntity
  8
0
  6
CONTINUOUS
 62
     7
100
AcDbLine
 10
314.2771591725
 20
411.0660092914
 30
0.0
 11
314.0771591725
 21
411.0660092914
 31
0.0
  0
LINE
  5
2EA
330
1F
100
AcDbEntity
  8
0
  6
CONTINUOUS
 62
     7
100
AcDbLine
 10
314.2771591725
 20
411.0660092914
 30
0.0
 11
314.2771591725
 21
410.4265648386
 31
0.0
  0
ARC
  5
2EB
330
1F
100
AcDbEntity
  8
0
  6
CONTINUOUS
 62
     7
100
AcDbCircle
 10
412.5771591725
 20
392.0660092914
 30
0.0
 40
100.0000000000001
100
AcDbArc
 50
169.4201559039
 51
190.5798440961
  0
LINE
  5
2EC
330
1F
100
AcDbEntity
  8
0
  6
CONTINUOUS
 62
     7
100
AcDbLine
 10
314.2771591725
 20
373.7054537443
 30
0.0
 11
314.2771591725
 21
373.0660092914
 31
0.0
  0
LINE
  5
2ED
330
1F
100
AcDbEntity
  8
0
  6
CONTINUOUS
 62
     7
100
AcDbLine
 10
314.2771591725
 20
373.0660092914
 30
0.0
 11
314.0771591725
 21
373.0660092914
 31
0.0
  0
LINE
  5
2EE
330
1F
100
AcDbEntity
  8
0
  6
CONTINUOUS
 62
     7
100
AcDbLine
 10
314.0771591725
 20
442.8990694
 30
0.0
 11
309.0771591725
 21
442.8990694
 31
0.0
  0
LINE
  5
2EF
330
1F
100
AcDbEntity
  8
0
  6
CONTINUOUS
 62
     7
100
AcDbLine
 10
314.0771591725
 20
411.0660092914
 30
0.0
 11
314.0771591725
 21
442.8990694
 31
0.0
  0
LINE
  5
2F0
330
1F
100
AcDbEntity
  8
0
  6
CONTINUOUS
 62
     7
100
AcDbLine
 10
314.0771591725
 20
341.2329491829
 30
0.0
 11
314.0771591725
 21
373.0660092914
 31
0.0
  0
LINE
  5
2F1
330
1F
100
AcDbEntity
  8
0
  6
CONTINUOUS
 62
     7
100
AcDbLine
 10
309.0771591725
 20
442.8990694
 30
0.0
 11
309.0771591725
 21
341.2329491829
 31
0.0
  0
SPLINE
  5
2F2
330
1F
100
AcDbEntity
  8
0
  6
CONTINUOUS
 62
     7
100
AcDbSpline
210
0.0
220
0.0
230
1.0
 70
     8
 71
     3
 72
     9
 73
     5
 74
     0
 42
0.00000001
 43
0.00000001
 12
1.0
 22
0.0
 32
0.0
 13
1.0
 23
0.0
 33
0.0
 40
0.0
 40
0.0
 40
0.0
 40
0.0
 40
0.8822701344529256
 40
1.0
 40
1.0
 40
1.0
 40
1.0
 10
314.0771591725092
 20
371.3777820085471
 30
0.0
 10
314.1100254822254
 20
371.073798063161
 30
0.0
 10
314.1472774625799
 20
370.7292505900963
 30
0.0
 10
314.2634788041856
 20
370.3603381910852
 30
0.0
 10
314.2771591725092
 20
370.3169061839509
 30
0.0
  0
LINE
  5
2F3
330
1F
100
AcDbEntity
  8
0
  6
CONTINUOUS
 62
     7
100
AcDbLine
 10
314.2771591725
 20
370.316906184
 30
0.0
 11
314.2771591725
 21
373.0660092914
 31
0.0
  0
LINE
  5
2F4
330
1F
100
AcDbEntity
  8
0
  6
CONTINUOUS
 62
     7
100
AcDbLine
 10
314.2771591725
 20
413.8151123989
 30
0.0
 11
314.0771591725
 21
412.7542365743
 31
0.0
  0
LINE
  5
2F5
330
1F
100
AcDbEntity
  8
0
  6
CONTINUOUS
 62
     7
100
AcDbLine
 10
314.2771591725
 20
411.0660092914
 30
0.0
 11
314.2771591725
 21
413.8151123989
 31
0.0
  0
LINE
  5
2F6
330
1F
100
AcDbEntity
  8
0
  6
CONTINUOUS
 62
     7
100
AcDbLine
 10
314.0771591725
 20
447.0660092914
 30
0.0
 11
314.0771591725
 21
442.8990694
 31
0.0
  0
LINE
  5
2F7
330
1F
100
AcDbEntity
  8
0
  6
CONTINUOUS
 62
     7
100
AcDbLine
 10
309.0771591725
 20
442.8990694
 30
0.0
 11
309.0771591725
 21
447.0660092914
 31
0.0
  0
SPLINE
  5
2F8
330
1F
100
AcDbEntity
  8
0
  6
CONTINUOUS
 62
     7
100
AcDbSpline
210
0.0
220
0.0
230
1.0
 70
     8
 71
     3
 72
    13
 73
     9
 74
     0
 42
0.00000001
 43
0.00000001
 12
1.0
 22
0.0
 32
0.0
 13
1.0
 23
0.0
 33
0.0
 40
0.0
 40
0.0
 40
0.0
 40
0.0
 40
0.0031325412556273
 40
0.265371274569332
 40
0.4764768128683224
 40
0.6581757357362412
 40
0.8288649061821264
 40
1.0
 40
1.0
 40
1.0
 40
1.0
 10
314.0771591725092
 20
352.2413937879628
 30
0.0
 10
314.0771625519176
 20
352.2428689804242
 30
0.0
 10
314.0774488363875
 20
352.3678389877691
 30
0.0
 10
314.1446906016593
 20
352.5946514088211
 30
0.0
 10
314.3997487943162
 20
352.8773421875728
 30
0.0
 10
314.734971136304
 20
353.0755225509179
 30
0.0
 10
315.1331612130169
 20
353.207017723633
 30
0.0
 10
315.4290311946186
 20
353.224354111573
 30
0.0
 10
315.5771591725092
 20
353.2330336135474
 30
0.0
  0
SPLINE
  5
2F9
330
1F
100
AcDbEntity
  8
0
  6
CONTINUOUS
 62
     7
100
AcDbSpline
210
0.0
220
0.0
230
1.0
 70
     8
 71
     3
 72
    13
 73
     9
 74
     0
 42
0.00000001
 43
0.00000001
 12
1.0
 22
0.0
 32
0.0
 13
1.0
 23
0.0
 33
0.0
 40
0.0
 40
0.0
 40
0.0
 40
0.0
 40
0.1814225734651828
 40
0.3617657299836292
 40
0.6211307170059789
 40
0.8377930666782061
 40
0.9660096973155448
 40
0.9999999999999999
 40
0.9999999999999999
 40
0.9999999999999999
 40
0.9999999999999999
 10
315.5771591725093
 20
363.9794024167107
 30
0.0
 10
315.4403481369126
 20
364.0095475922614
 30
0.0
 10
315.1675400556628
 20
364.0696585874381
 30
0.0
 10
314.782060688236
 20
364.3138602986833
 30
0.0
 10
314.4867971887479
 20
364.6520434863318
 30
0.0
 10
314.3248602621044
 20
365.033030817882
 30
0.0
 10
314.2795987722009
 20
365.315616198524
 30
0.0
 10
314.2775818223571
 20
365.4399543537992
 30
0.0
 10
314.2771591725092
 20
365.4660092914426
 30
0.0
  0
LINE
  5
2FA
330
1F
100
AcDbEntity
  8
0
  6
CONTINUOUS
 62
     7
100
AcDbLine
 10
314.2771591725
 20
370.316906184
 30
0.0
 11
314.2771591725
 21
365.4660092914
 31
0.0
  0
SPLINE
  5
2FB
330
1F
100
AcDbEntity
  8
0
  6
CONTINUOUS
 62
     7
100
AcDbSpline
210
0.0
220
0.0
230
1.0
 70
     8
 71
     3
 72
    13
 73
     9
 74
     0
 42
0.00000001
 43
0.00000001
 12
1.0
 22
0.0
 32
0.0
 13
1.0
 23
0.0
 33
0.0
 40
0.0
 40
0.0
 40
0.0
 40
0.0
 40
0.1299960892234924
 40
0.3207447405544694
 40
0.5996000914527168
 40
0.8010995389728541
 40
0.9685817181078592
 40
1.0
 40
1.0
 40
1.0
 40
1.0
 10
314.2771591725092
 20
418.6660092914426
 30
0.0
 10
314.2833621916872
 20
418.7657672192083
 30
0.0
 10
314.298667158081
 20
419.0119040903293
 30
0.0
 10
314.4452136373415
 20
419.4050517402372
 30
0.0
 10
314.7190124831246
 20
419.7689991218319
 30
0.0
 10
315.1091333175601
 20
420.0299397450451
 30
0.0
 10
315.4026779416939
 20
420.1264453811687
 30
0.0
 10
315.5533578073874
 20
420.1490461523309
 30
0.0
 10
315.5771591725093
 20
420.1526161661744
 30
0.0
  0
SPLINE
  5
2FC
330
1F
100
AcDbEntity
  8
0
  6
CONTINUOUS
 62
     7
100
AcDbSpline
210
0.0
220
0.0
230
1.0
 70
     8
 71
     3
 72
    13
 73
     9
 74
     0
 42
0.00000001
 43
0.00000001
 12
1.0
 22
0.0
 32
0.0
 13
1.0
 23
0.0
 33
0.0
 40
0.0
 40
0.0
 40
0.0
 40
0.0
 40
0.1711350938178822
 40
0.3418242642637646
 40
0.5235231871316783
 40
0.7346287254306689
 40
0.9968674587443728
 40
1.0
 40
1.0
 40
1.0
 40
1.0
 10
315.5771591725092
 20
430.8989849693378
 30
0.0
 10
315.4290311946187
 20
430.9076644713122
 30
0.0
 10
315.1331612130169
 20
430.9250008592522
 30
0.0
 10
314.7349711363039
 20
431.0564960319673
 30
0.0
 10
314.3997487943165
 20
431.2546763953121
 30
0.0
 10
314.1446906016583
 20
431.5373671740651
 30
0.0
 10
314.07744883639
 20
431.7641795951131
 30
0.0
 10
314.0771625519176
 20
431.8891496024609
 30
0.0
 10
314.0771591725092
 20
431.8906247949224
 30
0.0
  0
LINE
  5
2FD
330
1F
100
AcDbEntity
  8
0
  6
CONTINUOUS
 62
     7
100
AcDbLine
 10
314.2771591725
 20
418.6660092914
 30
0.0
 11
314.2771591725
 21
413.8151123989
 31
0.0
  0
SPLINE
  5
2FE
330
1F
100
AcDbEntity
  8
0
  6
CONTINUOUS
 62
     7
100
AcDbSpline
210
0.0
220
0.0
230
1.0
 70
     8
 71
     3
 72
    19
 73
    15
 74
     0
 42
0.00000001
 43
0.00000001
 12
1.0
 22
0.0
 32
0.0
 13
1.0
 23
0.0
 33
0.0
 40
0.0
 40
0.0
 40
0.0
 40
0.0
 40
0.058298632323369
 40
0.1420648880514401
 40
0.2283054735418846
 40
0.3114744038537792
 40
0.3969069032490625
 40
0.4829447168502899
 40
0.5712790182523232
 40
0.6608917100990069
 40
0.7531465334720762
 40
0.8416423739198617
 40
0.9330738821619179
 40
1.0
 40
1.0
 40
1.0
 40
1.0
 10
338.3488033854272
 20
350.0762364793958
 30
0.0
 10
338.5007666999361
 20
350.0757764191596
 30
0.0
 10
338.8710781532802
 20
350.0746553224315
 30
0.0
 10
339.0980328266031
 20
350.1762186044444
 30
0.0
 10
339.0746260651408
 20
350.3702926494603
 30
0.0
 10
338.7222063925173
 20
350.6565657926089
 30
0.0
 10
338.0735472746804
 20
351.0138661135226
 30
0.0
 10
337.1220389348158
 20
351.4303417664655
 30
0.0
 10
335.8837923702627
 20
351.8774893078366
 30
0.0
 10
334.3637863024745
 20
352.3245068497223
 30
0.0
 10
332.6198756751954
 20
352.7225004209348
 30
0.0
 10
330.6864444752458
 20
353.0302374568389
 30
0.0
 10
328.8194112890335
 20
353.2055118371851
 30
0.0
 10
327.5947383303577
 20
353.22485758799
 30
0.0
 10
327.0771591725093
 20
353.2330336135474
 30
0.0
  0
LINE
  5
2FF
330
1F
100
AcDbEntity
  8
0
  6
CONTINUOUS
 62
     7
100
AcDbLine
 10
339.0771591725
 20
363.9660092914
 30
0.0
 11
327.0771591725
 21
363.9660092914
 31
0.0
  0
LINE
  5
300
330
1F
100
AcDbEntity
  8
0
  6
CONTINUOUS
 62
     7
100
AcDbLine
 10
327.0771591725
 20
353.2330336135
 30
0.0
 11
315.5771591725
 21
353.2330336135
 31
0.0
  0
LINE
  5
301
330
1F
100
AcDbEntity
  8
0
  6
CONTINUOUS
 62
     7
100
AcDbLine
 10
327.0771591725
 20
363.9660092914
 30
0.0
 11
315.7771591725
 21
363.9660092914
 31
0.0
  0
ARC
  5
302
330
1F
100
AcDbEntity
  8
0
  6
CONTINUOUS
 62
     7
100
AcDbCircle
 10
315.7771591725
 20
365.4660092914
 30
0.0
 40
1.5
100
AcDbArc
 50
262.3377443392
 51
270.0
  0
LINE
  5
303
330
1F
100
AcDbEntity
  8
0
  6
CONTINUOUS
 62
     7
100
AcDbLine
 10
327.0771591725
 20
430.8989849693
 30
0.0
 11
315.5771591725
 21
430.8989849693
 31
0.0
  0
LINE
  5
304
330
1F
100
AcDbEntity
  8
0
  6
CONTINUOUS
 62
     7
100
AcDbLine
 10
315.7771591725
 20
420.1660092914
 30
0.0
 11
327.0771591725
 21
420.1660092914
 31
0.0
  0
ARC
  5
305
330
1F
100
AcDbEntity
  8
0
  6
CONTINUOUS
 62
     7
100
AcDbCircle
 10
315.7771591725
 20
418.6660092914
 30
0.0
 40
1.5
100
AcDbArc
 50
90.0
 51
97.6622556608
  0
SPLINE
  5
306
330
1F
100
AcDbEntity
  8
0
  6
CONTINUOUS
 62
     7
100
AcDbSpline
210
0.0
220
0.0
230
1.0
 70
     8
 71
     3
 72
    19
 73
    15
 74
     0
 42
0.00000001
 43
0.00000001
 12
1.0
 22
0.0
 32
0.0
 13
1.0
 23
0.0
 33
0.0
 40
0.0
 40
0.0
 40
0.0
 40
0.0
 40
0.082082598824118
 40
0.1666605793382167
 40
0.2487139001351338
 40
0.332961824943918
 40
0.4186670519369041
 40
0.5066263164902035
 40
0.5964544120976343
 40
0.6889660081602089
 40
0.7771926607050611
 40
0.8682288476744996
 40
0.9524186130745641
 40
1.0
 40
1.0
 40
1.0
 40
1.0
 10
327.0771591725093
 20
430.8989849693378
 30
0.0
 10
327.7123127721634
 20
430.9111124219193
 30
0.0
 10
329.0019291878662
 20
430.9357360120845
 30
0.0
 10
330.8695790975938
 20
431.1287123110811
 30
0.0
 10
332.6427348376565
 20
431.4172170770276
 30
0.0
 10
334.2714107114667
 20
431.7857796088587
 30
0.0
 10
335.7423138371537
 20
432.2093205466296
 30
0.0
 10
337.0082326160826
 20
432.656255977411
 30
0.0
 10
338.0271997403611
 20
433.0937845440518
 30
0.0
 10
338.7282219819251
 20
433.4764159123137
 30
0.0
 10
339.0932887236431
 20
433.7790899641787
 30
0.0
 10
339.0841928748041
 20
433.9715438977287
 30
0.0
 10
338.8339032757416
 20
434.0620487628051
 30
0.0
 10
338.4758362293524
 20
434.0571384348084
 30
0.0
 10
338.3465414149804
 20
434.055365359198
 30
0.0
  0
LINE
  5
307
330
1F
100
AcDbEntity
  8
0
  6
CONTINUOUS
 62
     7
100
AcDbLine
 10
327.0771591725
 20
420.1660092914
 30
0.0
 11
339.0771591725
 21
420.1660092914
 31
0.0
  0
LINE
  5
308
330
1F
100
AcDbEntity
  8
0
  6
CONTINUOUS
 62
     7
100
AcDbLine
 10
331.9771591725
 20
209.1160092914
 30
0.0
 11
331.9771591725
 21
208.9660092914
 31
0.0
  0
LINE
  5
309
330
1F
100
AcDbEntity
  8
0
  6
CONTINUOUS
 62
     7
100
AcDbLine
 10
323.9771591725
 20
209.1160092914
 30
0.0
 11
323.9771591725
 21
208.9660092914
 31
0.0
  0
LINE
  5
30A
330
1F
100
AcDbEntity
  8
0
  6
CONTINUOUS
 62
     7
100
AcDbLine
 10
323.9771591725
 20
265.0160092914
 30
0.0
 11
323.9771591725
 21
265.1660092914
 31
0.0
  0
LINE
  5
30B
330
1F
100
AcDbEntity
  8
0
  6
CONTINUOUS
 62
     7
100
AcDbLine
 10
331.9771591725
 20
265.0160092914
 30
0.0
 11
331.9771591725
 21
265.1660092914
 31
0.0
  0
LINE
  5
30C
330
1F
100
AcDbEntity
  8
0
  6
CONTINUOUS
 62
     7
100
AcDbLine
 10
331.9771591725
 20
364.1160092914
 30
0.0
 11
331.9771591725
 21
363.9660092914
 31
0.0
  0
LINE
  5
30D
330
1F
100
AcDbEntity
  8
0
  6
CONTINUOUS
 62
     7
100
AcDbLine
 10
323.9771591725
 20
364.1160092914
 30
0.0
 11
323.9771591725
 21
363.9660092914
 31
0.0
  0
LINE
  5
30E
330
1F
100
AcDbEntity
  8
0
  6
CONTINUOUS
 62
     7
100
AcDbLine
 10
323.9771591725
 20
420.0160092914
 30
0.0
 11
323.9771591725
 21
420.1660092914
 31
0.0
  0
LINE
  5
30F
330
1F
100
AcDbEntity
  8
0
  6
CONTINUOUS
 62
     7
100
AcDbLine
 10
331.9771591725
 20
420.0160092914
 30
0.0
 11
331.9771591725
 21
420.1660092914
 31
0.0
  0
LINE
  5
310
330
1F
100
AcDbEntity
  8
0
  6
CONTINUOUS
 62
     7
100
AcDbLine
 10
323.3582108178
 20
364.1160092914
 30
0.0
 11
335.4271591725
 21
364.1160092914
 31
0.0
  0
LINE
  5
311
330
1F
100
AcDbEntity
  8
0
  6
CONTINUOUS
 62
     7
100
AcDbLine
 10
320.6271591725
 20
364.1160092914
 30
0.0
 11
323.3582108178
 21
364.1160092914
 31
0.0
  0
LINE
  5
312
330
1F
100
AcDbEntity
  8
0
  6
CONTINUOUS
 62
     7
100
AcDbLine
 10
335.4271591725
 20
420.0160092914
 30
0.0
 11
320.6271591725
 21
420.0160092914
 31
0.0
  0
LINE
  5
313
330
1F
100
AcDbEntity
  8
0
  6
CONTINUOUS
 62
     7
100
AcDbLine
 10
323.3582108178
 20
209.1160092914
 30
0.0
 11
335.4271591725
 21
209.1160092914
 31
0.0
  0
LINE
  5
314
330
1F
100
AcDbEntity
  8
0
  6
CONTINUOUS
 62
     7
100
AcDbLine
 10
320.6271591725
 20
209.1160092914
 30
0.0
 11
323.3582108178
 21
209.1160092914
 31
0.0
  0
LINE
  5
315
330
1F
100
AcDbEntity
  8
0
  6
CONTINUOUS
 62
     7
100
AcDbLine
 10
335.4271591725
 20
265.0160092914
 30
0.0
 11
320.6271591725
 21
265.0160092914
 31
0.0
  0
LINE
  5
316
330
1F
100
AcDbEntity
  8
0
  6
CONTINUOUS
 62
     7
100
AcDbLine
 10
315.0597348675
 20
218.0660092914
 30
0.0
 11
315.0597348675
 21
214.0660092914
 31
0.0
  0
LINE
  5
317
330
1F
100
AcDbEntity
  8
0
  6
CONTINUOUS
 62
     7
100
AcDbLine
 10
315.0597348675
 20
415.0660092914
 30
0.0
 11
315.0597348675
 21
411.0660092914
 31
0.0
  0
LINE
  5
318
330
1F
100
AcDbEntity
  8
0
  6
CONTINUOUS
 62
     7
100
AcDbLine
 10
315.0597348675
 20
373.0660092914
 30
0.0
 11
315.0597348675
 21
369.0660092914
 31
0.0
  0
LINE
  5
319
330
1F
100
AcDbEntity
  8
0
  6
CONTINUOUS
 62
     7
100
AcDbLine
 10
315.0597348675
 20
260.0660092914
 30
0.0
 11
315.0597348675
 21
256.0660092914
 31
0.0
  0
LINE
  5
31A
330
1F
100
AcDbEntity
  8
0
  6
CONTINUOUS
 62
     7
100
AcDbLine
 10
421.4771591725
 20
236.3907409404
 30
0.0
 11
421.4771591725
 21
224.3660092914
 31
0.0
  0
LINE
  5
31B
330
1F
100
AcDbEntity
  8
0
  6
CONTINUOUS
 62
     7
100
AcDbLine
 10
421.4771591725
 20
249.7660092914
 30
0.0
 11
421.4771591725
 21
236.3907409404
 31
0.0
  0
LINE
  5
31C
330
1F
100
AcDbEntity
  8
0
  6
CONTINUOUS
 62
     7
100
AcDbLine
 10
421.4771591725
 20
391.3907409404
 30
0.0
 11
421.4771591725
 21
379.3660092914
 31
0.0
  0
LINE
  5
31D
330
1F
100
AcDbEntity
  8
0
  6
CONTINUOUS
 62
     7
100
AcDbLine
 10
421.4771591725
 20
404.7660092914
 30
0.0
 11
421.4771591725
 21
391.3907409404
 31
0.0
  0
SPLINE
  5
31E
330
1F
100
AcDbEntity
  8
0
  6
CONTINUOUS
 62
     7
100
AcDbSpline
210
0.0
220
0.0
230
1.0
 70
     8
 71
     3
 72
    20
 73
    16
 74
     0
 42
0.00000001
 43
0.00000001
 12
1.0
 22
0.0
 32
0.0
 13
1.0
 23
0.0
 33
0.0
 40
0.0
 40
0.0
 40
0.0
 40
0.0
 40
0.1167923680358436
 40
0.2339365499950425
 40
0.3520501478363499
 40
0.4118521024674022
 40
0.4715077764829829
 40
0.5111371744511392
 40
0.5521108104025577
 40
0.5931378723462327
 40
0.6350666370138376
 40
0.7258409231755504
 40
0.81685478297952
 40
0.9083436837234999
 40
1.0
 40
1.0
 40
1.0
 40
1.0
 10
322.3239354205092
 20
365.3228900253876
 30
0.0
 10
323.0257037180317
 20
367.3529313388331
 30
0.0
 10
324.4313542513602
 20
371.4191290639199
 30
0.0
 10
326.6438405155398
 20
377.5947789846325
 30
0.0
 10
328.444285679407
 20
382.825553965691
 30
0.0
 10
329.6763092432748
 20
387.1200231864154
 30
0.0
 10
330.215102502536
 20
390.0764317130156
 30
0.0
 10
330.2972935370605
 20
392.723984919341
 30
0.0
 10
330.052104596023
 20
395.0067035145978
 30
0.0
 10
329.5730492261019
 20
397.2910840945514
 30
0.0
 10
328.7043660844702
 20
400.44055103774
 30
0.0
 10
327.3781637468618
 20
404.4250964350666
 30
0.0
 10
325.6789672194129
 20
409.237853030486
 30
0.0
 10
323.9682660756577
 20
414.0349782961343
 30
0.0
 10
322.8723795604791
 20
417.2167756289783
 30
0.0
 10
322.3239354205094
 20
418.8091285574975
 30
0.0
  0
SPLINE
  5
31F
330
1F
100
AcDbEntity
  8
0
  6
CONTINUOUS
 62
     7
100
AcDbSpline
210
0.0
220
0.0
230
1.0
 70
     8
 71
     3
 72
    17
 73
    13
 74
     0
 42
0.00000001
 43
0.00000001
 12
1.0
 22
0.0
 32
0.0
 13
1.0
 23
0.0
 33
0.0
 40
0.0
 40
0.0
 40
0.0
 40
0.0
 40
0.092637112010454
 40
0.1852717369825131
 40
0.3105757554645834
 40
0.4058056499615106
 40
0.501424245672914
 40
0.593337119658456
 40
0.685600743399332
 40
0.8102304877650772
 40
0.9051138802663252
 40
1.0
 40
1.0
 40
1.0
 40
1.0
 10
418.4592328928937
 20
418.8091285574975
 30
0.0
 10
418.8055567079696
 20
417.2072618339805
 30
0.0
 10
419.4981950403291
 20
414.0035713924325
 30
0.0
 10
420.3895118045089
 20
408.5174295800109
 30
0.0
 10
421.0373977530649
 20
402.9074415766079
 30
0.0
 10
421.4050443524687
 20
397.1899267437776
 30
0.0
 10
421.513515871719
 20
392.0556075655139
 30
0.0
 10
421.4038992867484
 20
386.9755749074149
 30
0.0
 10
421.0507214518743
 20
381.3903010427924
 30
0.0
 10
420.4160187072137
 20
375.8027578451317
 30
0.0
 10
419.5220930528857
 20
370.2458191600788
 30
0.0
 10
418.8135230072459
 20
366.9638821255061
 30
0.0
 10
418.4592328928937
 20
365.3228900253876
 30
0.0
  0
SPLINE
  5
320
330
1F
100
AcDbEntity
  8
0
  6
CONTINUOUS
 62
     7
100
AcDbSpline
210
0.0
220
0.0
230
1.0
 70
     8
 71
     3
 72
    11
 73
     7
 74
     0
 42
0.00000001
 43
0.00000001
 12
1.0
 22
0.0
 32
0.0
 13
1.0
 23
0.0
 33
0.0
 40
0.0
 40
0.0
 40
0.0
 40
0.0
 40
0.4310338128466115
 40
0.7083057658422558
 40
0.8903865187084318
 40
1.0
 40
1.0
 40
1.0
 40
1.0
 10
321.1199179447523
 20
364.5660092914425
 30
0.0
 10
321.3179482114518
 20
364.5898129482343
 30
0.0
 10
321.6433657901521
 20
364.628928829289
 30
0.0
 10
322.0243250266128
 20
364.877402792139
 30
0.0
 10
322.2330417233596
 20
365.1084817847544
 30
0.0
 10
322.2991086499576
 20
365.2643264025898
 30
0.0
 10
322.3239354205091
 20
365.3228900253876
 30
0.0
  0
LINE
  5
321
330
1F
100
AcDbEntity
  8
0
  6
CONTINUOUS
 62
     7
100
AcDbLine
 10
316.4771591725
 20
364.5660092914
 30
0.0
 11
321.1199179448
 21
364.5660092914
 31
0.0
  0
LINE
  5
322
330
1F
100
AcDbEntity
  8
0
  6
CONTINUOUS
 62
     7
100
AcDbLine
 10
316.4771591725
 20
364.5660092914
 30
0.0
 11
316.4771591725
 21
419.5660092914
 31
0.0
  0
LINE
  5
323
330
1F
100
AcDbEntity
  8
0
  6
CONTINUOUS
 62
     7
100
AcDbLine
 10
316.4771591725
 20
419.5660092914
 30
0.0
 11
321.1199179448
 21
419.5660092914
 31
0.0
  0
SPLINE
  5
324
330
1F
100
AcDbEntity
  8
0
  6
CONTINUOUS
 62
     7
100
AcDbSpline
210
0.0
220
0.0
230
1.0
 70
     8
 71
     3
 72
    11
 73
     7
 74
     0
 42
0.00000001
 43
0.00000001
 12
1.0
 22
0.0
 32
0.0
 13
1.0
 23
0.0
 33
0.0
 40
0.0
 40
0.0
 40
0.0
 40
0.0
 40
0.1813155498479379
 40
0.4281000693468189
 40
0.8057846900255848
 40
1.0
 40
1.0
 40
1.0
 40
1.0
 10
322.3239354205094
 20
418.8091285574976
 30
0.0
 10
322.2784804879979
 20
418.9036024531886
 30
0.0
 10
322.1711578685279
 20
419.1266626448307
 30
0.0
 10
321.8370577531451
 20
419.3935348392829
 30
0.0
 10
321.4677961257324
 20
419.5450988207839
 30
0.0
 10
321.2081073778422
 20
419.5607083480267
 30
0.0
 10
321.1199179447526
 20
419.5660092914426
 30
0.0
  0
LINE
  5
325
330
1F
100
AcDbEntity
  8
0
  6
CONTINUOUS
 62
     7
100
AcDbLine
 10
418.2836230347
 20
364.5660092914
 30
0.0
 11
329.2582208937
 21
364.5660092914
 31
0.0
  0
SPLINE
  5
326
330
1F
100
AcDbEntity
  8
0
  6
CONTINUOUS
 62
     7
100
AcDbSpline
210
0.0
220
0.0
230
1.0
 70
     8
 71
     3
 72
    10
 73
     6
 74
     0
 42
0.00000001
 43
0.00000001
 12
1.0
 22
0.0
 32
0.0
 13
1.0
 23
0.0
 33
0.0
 40
0.0
 40
0.0
 40
0.0
 40
0.0
 40
0.4059159575797906
 40
0.8152575289297258
 40
1.0
 40
1.0
 40
1.0
 40
1.0
 10
329.2582208936702
 20
364.5660092914425
 30
0.0
 10
328.9255063499368
 20
364.5670249719233
 30
0.0
 10
328.2572694114819
 20
364.5690649044354
 30
0.0
 10
327.4332776410944
 20
364.5671925380384
 30
0.0
 10
326.947240537429
 20
364.5662899648611
 30
0.0
 10
326.7960974513477
 20
364.5660092914425
 30
0.0
  0
LINE
  5
327
330
1F
100
AcDbEntity
  8
0
  6
CONTINUOUS
 62
     7
100
AcDbLine
 10
326.7960974513
 20
364.5660092914
 30
0.0
 11
321.1199179448
 21
364.5660092914
 31
0.0
  0
SPLINE
  5
328
330
1F
100
AcDbEntity
  8
0
  6
CONTINUOUS
 62
     7
100
AcDbSpline
210
0.0
220
0.0
230
1.0
 70
     8
 71
     3
 72
    11
 73
     7
 74
     0
 42
0.00000001
 43
0.00000001
 12
1.0
 22
0.0
 32
0.0
 13
1.0
 23
0.0
 33
0.0
 40
0.0
 40
0.0
 40
0.0
 40
0.0
 40
0.2605110087044478
 40
0.5211900214035012
 40
0.7773445537027349
 40
1.0
 40
1.0
 40
1.0
 40
1.0
 10
418.4592328928937
 20
365.3228900253876
 30
0.0
 10
418.4345230906387
 20
365.2152331757651
 30
0.0
 10
418.3850875507351
 20
364.9998500484339
 30
0.0
 10
418.3270012277946
 20
364.7506911478615
 30
0.0
 10
418.2900655002523
 20
364.5933385185351
 30
0.0
 10
418.2856679680834
 20
364.5746839902079
 30
0.0
 10
418.2836230347456
 20
364.5660092914425
 30
0.0
  0
LINE
  5
329
330
1F
100
AcDbEntity
  8
0
  6
CONTINUOUS
 62
     7
100
AcDbLine
 10
329.2582208937
 20
419.5660092914
 30
0.0
 11
418.2836230347
 21
419.5660092914
 31
0.0
  0
LINE
  5
32A
330
1F
100
AcDbEntity
  8
0
  6
CONTINUOUS
 62
     7
100
AcDbLine
 10
321.1199179448
 20
419.5660092914
 30
0.0
 11
326.7960974513
 21
419.5660092914
 31
0.0
  0
SPLINE
  5
32B
330
1F
100
AcDbEntity
  8
0
  6
CONTINUOUS
 62
     7
100
AcDbSpline
210
0.0
220
0.0
230
1.0
 70
     8
 71
     3
 72
    10
 73
     6
 74
     0
 42
0.00000001
 43
0.00000001
 12
1.0
 22
0.0
 32
0.0
 13
1.0
 23
0.0
 33
0.0
 40
0.0
 40
0.0
 40
0.0
 40
0.0
 40
0.4059159575799198
 40
0.8152575289299837
 40
1.0
 40
1.0
 40
1.0
 40
1.0
 10
326.7960974513484
 20
419.5660092914426
 30
0.0
 10
327.1288119950818
 20
419.5649936109617
 30
0.0
 10
327.7970489335366
 20
419.5629536784497
 30
0.0
 10
328.6210407039238
 20
419.5648260448467
 30
0.0
 10
329.107077807589
 20
419.5657286180241
 30
0.0
 10
329.2582208936699
 20
419.5660092914426
 30
0.0
  0
SPLINE
  5
32C
330
1F
100
AcDbEntity
  8
0
  6
CONTINUOUS
 62
     7
100
AcDbSpline
210
0.0
220
0.0
230
1.0
 70
     8
 71
     3
 72
    11
 73
     7
 74
     0
 42
0.00000001
 43
0.00000001
 12
1.0
 22
0.0
 32
0.0
 13
1.0
 23
0.0
 33
0.0
 40
0.0
 40
0.0
 40
0.0
 40
0.0
 40
0.2468766919627874
 40
0.4936492139905785
 40
0.7433799874467787
 40
1.0
 40
1.0
 40
1.0
 40
1.0
 10
418.2836230347456
 20
419.5660092914426
 30
0.0
 10
418.2861284260111
 20
419.555383533855
 30
0.0
 10
418.2911381513891
 20
419.5341365022317
 30
0.0
 10
418.3300499172507
 20
419.3682807319675
 30
0.0
 10
418.3868390354521
 20
419.1245592574135
 30
0.0
 10
418.4348837138158
 20
418.9152215171817
 30
0.0
 10
418.4592328928938
 20
418.8091285574975
 30
0.0
  0
SPLINE
  5
32D
330
1F
100
AcDbEntity
  8
0
  6
CONTINUOUS
 62
     7
100
AcDbSpline
210
0.0
220
0.0
230
1.0
 70
     8
 71
     3
 72
    20
 73
    16
 74
     0
 42
0.00000001
 43
0.00000001
 12
1.0
 22
0.0
 32
0.0
 13
1.0
 23
0.0
 33
0.0
 40
0.0
 40
0.0
 40
0.0
 40
0.0
 40
0.1167923680358436
 40
0.2339365499950425
 40
0.3520501478363498
 40
0.411852102467402
 40
0.4715077764829828
 40
0.5111371744511392
 40
0.5521108104025576
 40
0.5931378723462328
 40
0.6350666370138377
 40
0.7258409231755504
 40
0.8168547829795201
 40
0.9083436837235
 40
1.0
 40
1.0
 40
1.0
 40
1.0
 10
322.3239354205091
 20
210.3228900253875
 30
0.0
 10
323.0257037180316
 20
212.352931338833
 30
0.0
 10
324.4313542513602
 20
216.4191290639198
 30
0.0
 10
326.6438405155398
 20
222.5947789846324
 30
0.0
 10
328.4442856794068
 20
227.825553965691
 30
0.0
 10
329.6763092432748
 20
232.1200231864153
 30
0.0
 10
330.215102502536
 20
235.0764317130156
 30
0.0
 10
330.2972935370605
 20
237.7239849193409
 30
0.0
 10
330.052104596023
 20
240.0067035145978
 30
0.0
 10
329.5730492261019
 20
242.2910840945513
 30
0.0
 10
328.7043660844702
 20
245.4405510377399
 30
0.0
 10
327.3781637468618
 20
249.4250964350666
 30
0.0
 10
325.6789672194129
 20
254.237853030486
 30
0.0
 10
323.9682660756578
 20
259.0349782961342
 30
0.0
 10
322.8723795604791
 20
262.2167756289782
 30
0.0
 10
322.3239354205094
 20
263.8091285574975
 30
0.0
  0
SPLINE
  5
32E
330
1F
100
AcDbEntity
  8
0
  6
CONTINUOUS
 62
     7
100
AcDbSpline
210
0.0
220
0.0
230
1.0
 70
     8
 71
     3
 72
    17
 73
    13
 74
     0
 42
0.00000001
 43
0.00000001
 12
1.0
 22
0.0
 32
0.0
 13
1.0
 23
0.0
 33
0.0
 40
0.0
 40
0.0
 40
0.0
 40
0.0
 40
0.0926371120104538
 40
0.1852717369825131
 40
0.3105757554645833
 40
0.4058056499615106
 40
0.501424245672914
 40
0.593337119658456
 40
0.685600743399332
 40
0.8102304877650773
 40
0.9051138802663252
 40
1.0
 40
1.0
 40
1.0
 40
1.0
 10
418.4592328928937
 20
263.8091285574975
 30
0.0
 10
418.8055567079695
 20
262.2072618339805
 30
0.0
 10
419.498195040329
 20
259.0035713924325
 30
0.0
 10
420.3895118045089
 20
253.5174295800108
 30
0.0
 10
421.0373977530649
 20
247.907441576608
 30
0.0
 10
421.4050443524687
 20
242.1899267437775
 30
0.0
 10
421.5135158717189
 20
237.055607565514
 30
0.0
 10
421.4038992867484
 20
231.9755749074148
 30
0.0
 10
421.0507214518743
 20
226.3903010427923
 30
0.0
 10
420.4160187072137
 20
220.8027578451317
 30
0.0
 10
419.5220930528857
 20
215.2458191600788
 30
0.0
 10
418.8135230072459
 20
211.963882125506
 30
0.0
 10
418.4592328928937
 20
210.3228900253875
 30
0.0
  0
SPLINE
  5
32F
330
1F
100
AcDbEntity
  8
0
  6
CONTINUOUS
 62
     7
100
AcDbSpline
210
0.0
220
0.0
230
1.0
 70
     8
 71
     3
 72
    11
 73
     7
 74
     0
 42
0.00000001
 43
0.00000001
 12
1.0
 22
0.0
 32
0.0
 13
1.0
 23
0.0
 33
0.0
 40
0.0
 40
0.0
 40
0.0
 40
0.0
 40
0.4310338128466021
 40
0.7083057658422479
 40
0.8903865187084249
 40
1.0
 40
1.0
 40
1.0
 40
1.0
 10
321.1199179447523
 20
209.5660092914424
 30
0.0
 10
321.3179482114518
 20
209.5898129482343
 30
0.0
 10
321.6433657901521
 20
209.6289288292889
 30
0.0
 10
322.0243250266127
 20
209.8774027921389
 30
0.0
 10
322.2330417233596
 20
210.1084817847544
 30
0.0
 10
322.2991086499576
 20
210.2643264025898
 30
0.0
 10
322.3239354205091
 20
210.3228900253875
 30
0.0
  0
LINE
  5
330
330
1F
100
AcDbEntity
  8
0
  6
CONTINUOUS
 62
     7
100
AcDbLine
 10
316.4771591725
 20
209.5660092914
 30
0.0
 11
321.1199179448
 21
209.5660092914
 31
0.0
  0
LINE
  5
331
330
1F
100
AcDbEntity
  8
0
  6
CONTINUOUS
 62
     7
100
AcDbLine
 10
316.4771591725
 20
209.5660092914
 30
0.0
 11
316.4771591725
 21
264.5660092914
 31
0.0
  0
LINE
  5
332
330
1F
100
AcDbEntity
  8
0
  6
CONTINUOUS
 62
     7
100
AcDbLine
 10
316.4771591725
 20
264.5660092914
 30
0.0
 11
321.1199179448
 21
264.5660092914
 31
0.0
  0
SPLINE
  5
333
330
1F
100
AcDbEntity
  8
0
  6
CONTINUOUS
 62
     7
100
AcDbSpline
210
0.0
220
0.0
230
1.0
 70
     8
 71
     3
 72
    11
 73
     7
 74
     0
 42
0.00000001
 43
0.00000001
 12
1.0
 22
0.0
 32
0.0
 13
1.0
 23
0.0
 33
0.0
 40
0.0
 40
0.0
 40
0.0
 40
0.0
 40
0.1813155498479382
 40
0.4281000693468295
 40
0.8057846900255962
 40
1.0
 40
1.0
 40
1.0
 40
1.0
 10
322.3239354205094
 20
263.8091285574975
 30
0.0
 10
322.2784804879979
 20
263.9036024531885
 30
0.0
 10
322.1711578685279
 20
264.1266626448306
 30
0.0
 10
321.837057753145
 20
264.3935348392829
 30
0.0
 10
321.4677961257324
 20
264.5450988207839
 30
0.0
 10
321.2081073778422
 20
264.5607083480267
 30
0.0
 10
321.1199179447526
 20
264.5660092914426
 30
0.0
  0
LINE
  5
334
330
1F
100
AcDbEntity
  8
0
  6
CONTINUOUS
 62
     7
100
AcDbLine
 10
418.2836230347
 20
209.5660092914
 30
0.0
 11
329.2582208937
 21
209.5660092914
 31
0.0
  0
SPLINE
  5
335
330
1F
100
AcDbEntity
  8
0
  6
CONTINUOUS
 62
     7
100
AcDbSpline
210
0.0
220
0.0
230
1.0
 70
     8
 71
     3
 72
    10
 73
     6
 74
     0
 42
0.00000001
 43
0.00000001
 12
1.0
 22
0.0
 32
0.0
 13
1.0
 23
0.0
 33
0.0
 40
0.0
 40
0.0
 40
0.0
 40
0.0
 40
0.4059159575797906
 40
0.8152575289297258
 40
1.0
 40
1.0
 40
1.0
 40
1.0
 10
329.2582208936702
 20
209.5660092914424
 30
0.0
 10
328.9255063499368
 20
209.5670249719233
 30
0.0
 10
328.2572694114819
 20
209.5690649044354
 30
0.0
 10
327.4332776410944
 20
209.5671925380383
 30
0.0
 10
326.947240537429
 20
209.566289964861
 30
0.0
 10
326.7960974513477
 20
209.5660092914424
 30
0.0
  0
LINE
  5
336
330
1F
100
AcDbEntity
  8
0
  6
CONTINUOUS
 62
     7
100
AcDbLine
 10
326.7960974513
 20
209.5660092914
 30
0.0
 11
321.1199179448
 21
209.5660092914
 31
0.0
  0
SPLINE
  5
337
330
1F
100
AcDbEntity
  8
0
  6
CONTINUOUS
 62
     7
100
AcDbSpline
210
0.0
220
0.0
230
1.0
 70
     8
 71
     3
 72
    11
 73
     7
 74
     0
 42
0.00000001
 43
0.00000001
 12
1.0
 22
0.0
 32
0.0
 13
1.0
 23
0.0
 33
0.0
 40
0.0
 40
0.0
 40
0.0
 40
0.0
 40
0.2605110087044478
 40
0.5211900214035012
 40
0.7773445537027349
 40
1.0
 40
1.0
 40
1.0
 40
1.0
 10
418.4592328928937
 20
210.3228900253875
 30
0.0
 10
418.4345230906387
 20
210.2152331757651
 30
0.0
 10
418.3850875507351
 20
209.9998500484338
 30
0.0
 10
418.3270012277945
 20
209.7506911478615
 30
0.0
 10
418.2900655002523
 20
209.593338518535
 30
0.0
 10
418.2856679680834
 20
209.5746839902078
 30
0.0
 10
418.2836230347456
 20
209.5660092914424
 30
0.0
  0
LINE
  5
338
330
1F
100
AcDbEntity
  8
0
  6
CONTINUOUS
 62
     7
100
AcDbLine
 10
329.2582208937
 20
264.5660092914
 30
0.0
 11
418.2836230347
 21
264.5660092914
 31
0.0
  0
LINE
  5
339
330
1F
100
AcDbEntity
  8
0
  6
CONTINUOUS
 62
     7
100
AcDbLine
 10
321.1199179448
 20
264.5660092914
 30
0.0
 11
326.7960974513
 21
264.5660092914
 31
0.0
  0
SPLINE
  5
33A
330
1F
100
AcDbEntity
  8
0
  6
CONTINUOUS
 62
     7
100
AcDbSpline
210
0.0
220
0.0
230
1.0
 70
     8
 71
     3
 72
    10
 73
     6
 74
     0
 42
0.00000001
 43
0.00000001
 12
1.0
 22
0.0
 32
0.0
 13
1.0
 23
0.0
 33
0.0
 40
0.0
 40
0.0
 40
0.0
 40
0.0
 40
0.4059159575799198
 40
0.8152575289299837
 40
1.0
 40
1.0
 40
1.0
 40
1.0
 10
326.7960974513484
 20
264.5660092914426
 30
0.0
 10
327.1288119950818
 20
264.5649936109617
 30
0.0
 10
327.7970489335366
 20
264.5629536784497
 30
0.0
 10
328.6210407039238
 20
264.5648260448467
 30
0.0
 10
329.107077807589
 20
264.565728618024
 30
0.0
 10
329.2582208936699
 20
264.5660092914426
 30
0.0
  0
SPLINE
  5
33B
330
1F
100
AcDbEntity
  8
0
  6
CONTINUOUS
 62
     7
100
AcDbSpline
210
0.0
220
0.0
230
1.0
 70
     8
 71
     3
 72
    11
 73
     7
 74
     0
 42
0.00000001
 43
0.00000001
 12
1.0
 22
0.0
 32
0.0
 13
1.0
 23
0.0
 33
0.0
 40
0.0
 40
0.0
 40
0.0
 40
0.0
 40
0.2468766919627874
 40
0.4936492139905785
 40
0.7433799874467787
 40
1.0
 40
1.0
 40
1.0
 40
1.0
 10
418.2836230347456
 20
264.5660092914426
 30
0.0
 10
418.2861284260111
 20
264.555383533855
 30
0.0
 10
418.2911381513891
 20
264.5341365022317
 30
0.0
 10
418.3300499172507
 20
264.3682807319673
 30
0.0
 10
418.3868390354521
 20
264.1245592574137
 30
0.0
 10
418.4348837138157
 20
263.9152215171817
 30
0.0
 10
418.4592328928938
 20
263.8091285574975
 30
0.0
  0
CIRCLE
  5
33C
330
1F
100
AcDbEntity
  8
0
  6
CONTINUOUS
 62
     8
100
AcDbCircle
 10
513.5196647313
 20
316.5502243385
 30
0.0
 40
26.25000000000025
  0
LINE
  5
33D
330
1F
100
AcDbEntity
  8
0
  6
CONTINUOUS
 62
     8
100
AcDbLine
 10
315.5771591725
 20
198.2330336135
 30
0.0
 11
315.5771591725
 21
195.0660092914
 31
0.0
  0
LINE
  5
33E
330
1F
100
AcDbEntity
  8
0
  6
CONTINUOUS
 62
     8
100
AcDbLine
 10
315.5771591725
 20
208.9794024167
 30
0.0
 11
315.5771591725
 21
198.2330336135
 31
0.0
  0
LINE
  5
33F
330
1F
100
AcDbEntity
  8
0
  6
CONTINUOUS
 62
     8
100
AcDbLine
 10
315.5771591725
 20
275.8989849693
 30
0.0
 11
315.5771591725
 21
265.1526161662
 31
0.0
  0
LINE
  5
340
330
1F
100
AcDbEntity
  8
0
  6
CONTINUOUS
 62
     8
100
AcDbLine
 10
315.5771591725
 20
279.0660092914
 30
0.0
 11
315.5771591725
 21
275.8989849693
 31
0.0
  0
LINE
  5
341
330
1F
100
AcDbEntity
  8
0
  6
CONTINUOUS
 62
     8
100
AcDbLine
 10
327.0771591725
 20
208.9660092914
 30
0.0
 11
327.0771591725
 21
198.2330336135
 31
0.0
  0
LINE
  5
342
330
1F
100
AcDbEntity
  8
0
  6
CONTINUOUS
 62
     8
100
AcDbLine
 10
327.0771591725
 20
275.8989849693
 30
0.0
 11
327.0771591725
 21
265.1660092914
 31
0.0
  0
LINE
  5
343
330
1F
100
AcDbEntity
  8
0
  6
CONTINUOUS
 62
     8
100
AcDbLine
 10
315.5771591725
 20
353.2330336135
 30
0.0
 11
315.5771591725
 21
350.0660092914
 31
0.0
  0
LINE
  5
344
330
1F
100
AcDbEntity
  8
0
  6
CONTINUOUS
 62
     8
100
AcDbLine
 10
315.5771591725
 20
363.9794024167
 30
0.0
 11
315.5771591725
 21
353.2330336135
 31
0.0
  0
LINE
  5
345
330
1F
100
AcDbEntity
  8
0
  6
CONTINUOUS
 62
     8
100
AcDbLine
 10
315.5771591725
 20
430.8989849693
 30
0.0
 11
315.5771591725
 21
420.1526161662
 31
0.0
  0
LINE
  5
346
330
1F
100
AcDbEntity
  8
0
  6
CONTINUOUS
 62
     8
100
AcDbLine
 10
315.5771591725
 20
434.0660092914
 30
0.0
 11
315.5771591725
 21
430.8989849693
 31
0.0
  0
LINE
  5
347
330
1F
100
AcDbEntity
  8
0
  6
CONTINUOUS
 62
     8
100
AcDbLine
 10
327.0771591725
 20
363.9660092914
 30
0.0
 11
327.0771591725
 21
353.2330336135
 31
0.0
  0
LINE
  5
348
330
1F
100
AcDbEntity
  8
0
  6
CONTINUOUS
 62
     8
100
AcDbLine
 10
327.0771591725
 20
430.8989849693
 30
0.0
 11
327.0771591725
 21
420.1660092914
 31
0.0
  0
LINE
  5
349
330
1F
100
AcDbEntity
  8
0
  6
CONTINUOUS
 62
     8
100
AcDbLine
 10
421.1771591725
 20
245.2313935879
 30
0.0
 11
421.1771591725
 21
250.0660092914
 31
0.0
  0
LINE
  5
34A
330
1F
100
AcDbEntity
  8
0
  6
CONTINUOUS
 62
     8
100
AcDbLine
 10
421.1771591725
 20
224.0660092914
 30
0.0
 11
421.1771591725
 21
228.8864854101
 31
0.0
  0
LINE
  5
34B
330
1F
100
AcDbEntity
  8
0
  6
CONTINUOUS
 62
     8
100
AcDbLine
 10
421.1771591725
 20
400.2313935879
 30
0.0
 11
421.1771591725
 21
405.0660092914
 31
0.0
  0
LINE
  5
34C
330
1F
100
AcDbEntity
  8
0
  6
CONTINUOUS
 62
     8
100
AcDbLine
 10
421.1771591725
 20
379.0660092914
 30
0.0
 11
421.1771591725
 21
383.8864854101
 31
0.0
  0
LINE
  5
34D
330
1F
100
AcDbEntity
  8
0
  6
CONTINUOUS
 62
     8
100
AcDbLine
 10
322.3239354205
 20
365.3228900254
 30
0.0
 11
418.4592328929
 21
365.3228900254
 31
0.0
  0
LINE
  5
34E
330
1F
100
AcDbEntity
  8
0
  6
CONTINUOUS
 62
     8
100
AcDbLine
 10
418.4592328929
 20
418.8091285575
 30
0.0
 11
322.3239354205
 21
418.8091285575
 31
0.0
  0
LINE
  5
34F
330
1F
100
AcDbEntity
  8
0
  6
CONTINUOUS
 62
     8
100
AcDbLine
 10
322.3239354205
 20
210.3228900254
 30
0.0
 11
418.4592328929
 21
210.3228900254
 31
0.0
  0
LINE
  5
350
330
1F
100
AcDbEntity
  8
0
  6
CONTINUOUS
 62
     8
100
AcDbLine
 10
418.4592328929
 20
263.8091285575
 30
0.0
 11
322.3239354205
 21
263.8091285575
 31
0.0
  0
ENDSEC
  0
SECTION
  2
OBJECTS
  0
DICTIONARY
  5
C
330
0
100
AcDbDictionary
  3
ACAD_GROUP
350
D
  3
ACAD_MLINESTYLE
350
17
  0
DICTIONARY
  5
D
102
{ACAD_REACTORS
330
C
102
}
330
C
100
AcDbDictionary
  0
DICTIONARY
  5
17
102
{ACAD_REACTORS
330
C
102
}
330
C
100
AcDbDictionary
  3
STANDARD
350
18
  0
MLINESTYLE
  5
18
102
{ACAD_REACTORS
330
17
102
}
330
17
100
AcDbMlineStyle
  2
Standard
 70
     0
  3

 62
   256
 51
90.0
 52
90.0
 71
     2
 49
0.5
 62
   256
  6
BYLAYER
 49
-0.5
 62
   256
  6
BYLAYER
  0
ENDSEC
  0
EOF
